  0
SECTION
  2
HEADER
  9
$ACADVER
  1
AC1014
  9
$ACADMAINTVER
 70
     9
  9
$DWGCODEPAGE
  3
ANSI_1252
  9
$INSBASE
 10
0.0
 20
0.0
 30
0.0
  9
$EXTMIN
 10
-0.0131924999999744
 20
0.180900000000006
 30
0.0
  9
$EXTMAX
 10
312.0131924999999
 20
175.8191
 30
0.0
  9
$LIMMIN
 10
0.0
 20
0.0
  9
$LIMMAX
 10
12.0
 20
9.0
  9
$ORTHOMODE
 70
     0
  9
$REGENMODE
 70
     1
  9
$FILLMODE
 70
     1
  9
$QTEXTMODE
 70
     0
  9
$MIRRTEXT
 70
     1
  9
$DRAGMODE
 70
     2
  9
$LTSCALE
 40
1.0
  9
$OSMODE
 70
    37
  9
$ATTMODE
 70
     1
  9
$TEXTSIZE
 40
0.2
  9
$TRACEWID
 40
0.05
  9
$TEXTSTYLE
  7
STANDARD
  9
$CLAYER
  8
0
  9
$CELTYPE
  6
CONTINUOUS
  9
$CECOLOR
 62
   256
  9
$CELTSCALE
 40
1.0
  9
$DELOBJ
 70
     1
  9
$DISPSILH
 70
     0
  9
$DIMSCALE
 40
1.0
  9
$DIMASZ
 40
0.18
  9
$DIMEXO
 40
0.0625
  9
$DIMDLI
 40
0.38
  9
$DIMRND
 40
0.0
  9
$DIMDLE
 40
0.0
  9
$DIMEXE
 40
0.18
  9
$DIMTP
 40
0.0
  9
$DIMTM
 40
0.0
  9
$DIMTXT
 40
0.18
  9
$DIMCEN
 40
0.09
  9
$DIMTSZ
 40
0.0
  9
$DIMTOL
 70
     0
  9
$DIMLIM
 70
     0
  9
$DIMTIH
 70
     1
  9
$DIMTOH
 70
     1
  9
$DIMSE1
 70
     0
  9
$DIMSE2
 70
     0
  9
$DIMTAD
 70
     0
  9
$DIMZIN
 70
     0
  9
$DIMBLK
  1

  9
$DIMASO
 70
     1
  9
$DIMSHO
 70
     1
  9
$DIMPOST
  1

  9
$DIMAPOST
  1

  9
$DIMALT
 70
     0
  9
$DIMALTD
 70
     2
  9
$DIMALTF
 40
25.4
  9
$DIMLFAC
 40
1.0
  9
$DIMTOFL
 70
     0
  9
$DIMTVP
 40
0.0
  9
$DIMTIX
 70
     0
  9
$DIMSOXD
 70
     0
  9
$DIMSAH
 70
     0
  9
$DIMBLK1
  1

  9
$DIMBLK2
  1

  9
$DIMSTYLE
  2
STANDARD
  9
$DIMCLRD
 70
     0
  9
$DIMCLRE
 70
     0
  9
$DIMCLRT
 70
     0
  9
$DIMTFAC
 40
1.0
  9
$DIMGAP
 40
0.09
  9
$DIMJUST
 70
     0
  9
$DIMSD1
 70
     0
  9
$DIMSD2
 70
     0
  9
$DIMTOLJ
 70
     1
  9
$DIMTZIN
 70
     0
  9
$DIMALTZ
 70
     0
  9
$DIMALTTZ
 70
     0
  9
$DIMFIT
 70
     3
  9
$DIMUPT
 70
     0
  9
$DIMUNIT
 70
     2
  9
$DIMDEC
 70
     4
  9
$DIMTDEC
 70
     4
  9
$DIMALTU
 70
     2
  9
$DIMALTTD
 70
     2
  9
$DIMTXSTY
  7
STANDARD
  9
$DIMAUNIT
 70
     0
  9
$LUNITS
 70
     2
  9
$LUPREC
 70
     4
  9
$SKETCHINC
 40
0.1
  9
$FILLETRAD
 40
0.0
  9
$AUNITS
 70
     0
  9
$AUPREC
 70
     0
  9
$MENU
  1
.
  9
$ELEVATION
 40
0.0
  9
$PELEVATION
 40
0.0
  9
$THICKNESS
 40
0.0
  9
$LIMCHECK
 70
     0
  9
$BLIPMODE
 70
     0
  9
$CHAMFERA
 40
0.0
  9
$CHAMFERB
 40
0.0
  9
$CHAMFERC
 40
0.0
  9
$CHAMFERD
 40
0.0
  9
$SKPOLY
 70
     0
  9
$TDCREATE
 40
2455235.508092257
  9
$TDUPDATE
 40
2455235.510792639
  9
$TDINDWG
 40
0.0027003819
  9
$TDUSRTIMER
 40
0.0027003819
  9
$USRTIMER
 70
     1
  9
$ANGBASE
 50
0.0
  9
$ANGDIR
 70
     0
  9
$PDMODE
 70
     0
  9
$PDSIZE
 40
0.0
  9
$PLINEWID
 40
0.0
  9
$COORDS
 70
     1
  9
$SPLFRAME
 70
     0
  9
$SPLINETYPE
 70
     6
  9
$SPLINESEGS
 70
     8
  9
$ATTDIA
 70
     0
  9
$ATTREQ
 70
     1
  9
$HANDLING
 70
 22529
  9
$HANDSEED
  5
169
  9
$SURFTAB1
 70
     6
  9
$SURFTAB2
 70
     6
  9
$SURFTYPE
 70
     6
  9
$SURFU
 70
     6
  9
$SURFV
 70
     6
  9
$UCSNAME
  2

  9
$UCSORG
 10
0.0
 20
0.0
 30
0.0
  9
$UCSXDIR
 10
1.0
 20
0.0
 30
0.0
  9
$UCSYDIR
 10
0.0
 20
1.0
 30
0.0
  9
$PUCSNAME
  2

  9
$PUCSORG
 10
0.0
 20
0.0
 30
0.0
  9
$PUCSXDIR
 10
1.0
 20
0.0
 30
0.0
  9
$PUCSYDIR
 10
0.0
 20
1.0
 30
0.0
  9
$USERI1
 70
     0
  9
$USERI2
 70
     0
  9
$USERI3
 70
     0
  9
$USERI4
 70
     0
  9
$USERI5
 70
     0
  9
$USERR1
 40
0.0
  9
$USERR2
 40
0.0
  9
$USERR3
 40
0.0
  9
$USERR4
 40
0.0
  9
$USERR5
 40
0.0
  9
$WORLDVIEW
 70
     1
  9
$SHADEDGE
 70
     3
  9
$SHADEDIF
 70
    70
  9
$TILEMODE
 70
     1
  9
$MAXACTVP
 70
    64
  9
$PINSBASE
 10
0.0
 20
0.0
 30
0.0
  9
$PLIMCHECK
 70
     0
  9
$PEXTMIN
 10
1.000000000000000E+20
 20
1.000000000000000E+20
 30
1.000000000000000E+20
  9
$PEXTMAX
 10
-1.000000000000000E+20
 20
-1.000000000000000E+20
 30
-1.000000000000000E+20
  9
$PLIMMIN
 10
0.0
 20
0.0
  9
$PLIMMAX
 10
12.0
 20
9.0
  9
$UNITMODE
 70
     0
  9
$VISRETAIN
 70
     1
  9
$PLINEGEN
 70
     0
  9
$PSLTSCALE
 70
     1
  9
$TREEDEPTH
 70
  3020
  9
$PICKSTYLE
 70
     1
  9
$CMLSTYLE
  2
STANDARD
  9
$CMLJUST
 70
     0
  9
$CMLSCALE
 40
1.0
  9
$PROXYGRAPHICS
 70
     1
  9
$MEASUREMENT
 70
     0
  0
ENDSEC
  0
SECTION
  2
CLASSES
  0
CLASS
  1
ACDBDICTIONARYWDFLT
  2
AcDbDictionaryWithDefault
  3
AutoCAD 2000
 90
        0
280
     0
281
     0
  0
CLASS
  1
ACDBPLACEHOLDER
  2
AcDbPlaceHolder
  3
AutoCAD 2000
 90
        0
280
     0
281
     0
  0
CLASS
  1
LAYOUT
  2
AcDbLayout
  3
AutoCAD 2000
 90
        0
280
     0
281
     0
  0
CLASS
  1
DICTIONARYVAR
  2
AcDbDictionaryVar
  3
AutoCAD 2000
 90
        0
280
     0
281
     0
  0
CLASS
  1
LONG_TRANSACTION
  2
AcDbLongTransaction
  3
AutoCAD 2000
 90
        0
280
     0
281
     0
  0
CLASS
  1
LWPOLYLINE
  2
AcDbPolyline
  3
AutoCAD 2000
 90
        0
280
     0
281
     1
  0
CLASS
  1
HATCH
  2
AcDbHatch
  3
AutoCAD 2000
 90
        0
280
     0
281
     1
  0
CLASS
  1
XRECORD
  2
AcDbXrecord
  3
AutoCAD 2000
 90
        0
280
     0
281
     0
  0
ENDSEC
  0
SECTION
  2
TABLES
  0
TABLE
  2
VPORT
  5
8
330
0
100
AcDbSymbolTable
 70
     3
  0
VPORT
  5
144
330
8
100
AcDbSymbolTableRecord
100
AcDbViewportTableRecord
  2
*ACTIVE
 70
     0
 10
0.0
 20
0.0
 11
1.0
 21
1.0
 12
156.0
 22
88.0
 13
0.0
 23
0.0
 14
1.0
 24
1.0
 15
0.0
 25
0.0
 16
0.0
 26
0.0
 36
1.0
 17
0.0
 27
0.0
 37
0.0
 40
176.7911859956235
 41
2.041621029572836
 42
50.0
 43
0.0
 44
0.0
 50
0.0
 51
0.0
 71
     0
 72
   100
 73
     1
 74
     3
 75
     0
 76
     0
 77
     0
 78
     0
  0
ENDTAB
  0
TABLE
  2
LTYPE
  5
5
330
0
100
AcDbSymbolTable
 70
     1
  0
LTYPE
  5
13
330
5
100
AcDbSymbolTableRecord
100
AcDbLinetypeTableRecord
  2
BYBLOCK
 70
     0
  3

 72
    65
 73
     0
 40
0.0
  0
LTYPE
  5
14
330
5
100
AcDbSymbolTableRecord
100
AcDbLinetypeTableRecord
  2
BYLAYER
 70
     0
  3

 72
    65
 73
     0
 40
0.0
  0
LTYPE
  5
15
330
5
100
AcDbSymbolTableRecord
100
AcDbLinetypeTableRecord
  2
CONTINUOUS
 70
     0
  3
Solid line
 72
    65
 73
     0
 40
0.0
  0
ENDTAB
  0
TABLE
  2
LAYER
  5
2
330
0
100
AcDbSymbolTable
 70
     1
  0
LAYER
  5
10
330
2
100
AcDbSymbolTableRecord
100
AcDbLayerTableRecord
  2
0
 70
     0
 62
     7
  6
CONTINUOUS
  0
ENDTAB
  0
TABLE
  2
STYLE
  5
3
330
0
100
AcDbSymbolTable
 70
     1
  0
STYLE
  5
11
330
3
100
AcDbSymbolTableRecord
100
AcDbTextStyleTableRecord
  2
STANDARD
 70
     0
 40
0.0
 41
1.0
 50
0.0
 71
     0
 42
0.2
  3
txt
  4

  0
ENDTAB
  0
TABLE
  2
VIEW
  5
6
330
0
100
AcDbSymbolTable
 70
     0
  0
ENDTAB
  0
TABLE
  2
UCS
  5
7
330
0
100
AcDbSymbolTable
 70
     0
  0
ENDTAB
  0
TABLE
  2
APPID
  5
9
330
0
100
AcDbSymbolTable
 70
     1
  0
APPID
  5
12
330
9
100
AcDbSymbolTableRecord
100
AcDbRegAppTableRecord
  2
ACAD
 70
     0
  0
ENDTAB
  0
TABLE
  2
DIMSTYLE
  5
A
330
0
100
AcDbSymbolTable
 70
     1
  0
DIMSTYLE
105
13C
330
A
100
AcDbSymbolTableRecord
100
AcDbDimStyleTableRecord
  2
STANDARD
 70
     0
  3

  4

  5

  6

  7

 40
1.0
 41
0.18
 42
0.0625
 43
0.38
 44
0.18
 45
0.0
 46
0.0
 47
0.0
 48
0.0
140
0.18
141
0.09
142
0.0
143
25.4
144
1.0
145
0.0
146
1.0
147
0.09
 71
     0
 72
     0
 73
     1
 74
     1
 75
     0
 76
     0
 77
     0
 78
     0
170
     0
171
     2
172
     0
173
     0
174
     0
175
     0
176
     0
177
     0
178
     0
270
     2
271
     4
272
     4
273
     2
274
     2
340
11
275
     0
280
     0
281
     0
282
     0
283
     1
284
     0
285
     0
286
     0
287
     3
288
     0
  0
ENDTAB
  0
TABLE
  2
BLOCK_RECORD
  5
1
330
0
100
AcDbSymbolTable
 70
     0
  0
BLOCK_RECORD
  5
1E
102
{ACAD_XDICTIONARY
360
167
102
}
330
1
100
AcDbSymbolTableRecord
100
AcDbBlockTableRecord
  2
*MODEL_SPACE
  0
BLOCK_RECORD
  5
1A
102
{ACAD_XDICTIONARY
360
165
102
}
330
1
100
AcDbSymbolTableRecord
100
AcDbBlockTableRecord
  2
*PAPER_SPACE
  0
ENDTAB
  0
ENDSEC
  0
SECTION
  2
BLOCKS
  0
BLOCK
  5
1F
330
1E
100
AcDbEntity
  8
0
100
AcDbBlockBegin
  2
*MODEL_SPACE
 70
     0
 10
0.0
 20
0.0
 30
0.0
  3
*MODEL_SPACE
  1

  0
ENDBLK
  5
20
330
1E
100
AcDbEntity
  8
0
100
AcDbBlockEnd
  0
BLOCK
  5
1B
330
1A
100
AcDbEntity
 67
     1
  8
0
100
AcDbBlockBegin
  2
*PAPER_SPACE
 70
     0
 10
0.0
 20
0.0
 30
0.0
  3
*PAPER_SPACE
  1

  0
ENDBLK
  5
1C
330
1A
100
AcDbEntity
 67
     1
  8
0
100
AcDbBlockEnd
  0
ENDSEC
  0
SECTION
  2
ENTITIES
  0
LINE
  5
22
330
1E
100
AcDbEntity
  8
0
100
AcDbLine
 10
0.225499500000026
 20
144.3190999999999
 30
0.0
 11
43.082151546491
 21
144.3190999999999
 31
0.0
  0
LINE
  5
23
330
1E
100
AcDbEntity
  8
0
100
AcDbLine
 10
0.225499500000022
 20
144.3190999999999
 30
0.0
 11
43.082151546491
 21
144.3190999999999
 31
0.0
  0
LINE
  5
24
330
1E
100
AcDbEntity
  8
0
100
AcDbLine
 10
33.0854925
 20
136.1470999999999
 30
0.0
 11
37.29429249999999
 21
130.6131
 31
0.0
  0
LINE
  5
25
330
1E
100
AcDbEntity
  8
0
100
AcDbLine
 10
30.43549249999999
 20
142.5380999999999
 30
0.0
 11
33.0854925
 21
136.1470999999999
 31
0.0
  0
LINE
  5
26
330
1E
100
AcDbEntity
  8
0
100
AcDbLine
 10
-0.0131924999999744
 20
144.9790999999999
 30
0.0
 11
0.0455995000000256
 21
144.4990999999999
 31
0.0
  0
LINE
  5
27
330
1E
100
AcDbEntity
  8
0
100
AcDbLine
 10
-0.0131924999999744
 20
153.6591
 30
0.0
 11
0.0455995000000256
 21
154.1391
 31
0.0
  0
LINE
  5
29
330
1E
100
AcDbEntity
  8
0
100
AcDbLine
 10
-0.0131924999999744
 20
153.6591
 30
0.0
 11
0.0455995000000256
 21
154.1391
 31
0.0
  0
LINE
  5
30
330
1E
100
AcDbEntity
  8
0
100
AcDbLine
 10
0.0455995000000256
 20
154.1391
 30
0.0
 11
0.225499500000026
 21
154.3191
 31
0.0
  0
LINE
  5
33
330
1E
100
AcDbEntity
  8
0
100
AcDbLine
 10
-0.0131924999999744
 20
144.9790999999999
 30
0.0
 11
0.0455995000000256
 21
144.4990999999999
 31
0.0
  0
LINE
  5
37
330
1E
100
AcDbEntity
  8
0
100
AcDbLine
 10
0.225499500000026
 20
154.3191
 30
0.0
 11
43.082151546491
 21
154.3191
 31
0.0
  0
LINE
  5
38
330
1E
100
AcDbEntity
  8
0
100
AcDbLine
 10
0.225499500000022
 20
154.3191
 30
0.0
 11
43.082151546491
 21
154.3191
 31
0.0
  0
LINE
  5
3B
330
1E
100
AcDbEntity
  8
0
100
AcDbLine
 10
0.0455995000000256
 20
144.4990999999999
 30
0.0
 11
0.225499500000026
 21
144.3190999999999
 31
0.0
  0
LINE
  5
3C
330
1E
100
AcDbEntity
  8
0
100
AcDbLine
 10
30.18984004461
 20
144.3190999999999
 30
0.0
 11
30.43549249999999
 21
142.5380999999999
 31
0.0
  0
LINE
  5
3D
330
1E
100
AcDbEntity
  8
0
100
AcDbLine
 10
43.007529100533
 20
144.4990999999999
 30
0.0
 11
43.8942925
 21
142.3600999999999
 31
0.0
  0
LINE
  5
3E
330
1E
100
AcDbEntity
  8
0
100
AcDbLine
 10
43.8942925
 20
142.3600999999999
 30
0.0
 11
46.1177925
 21
139.4370999999999
 31
0.0
  0
LINE
  5
3F
330
1E
100
AcDbEntity
  8
0
100
AcDbLine
 10
43.082151546491
 20
144.3190999999999
 30
0.0
 11
43.8942925
 21
142.3600999999999
 31
0.0
  0
LINE
  5
40
330
1E
100
AcDbEntity
  8
0
100
AcDbLine
 10
46.1177925
 20
139.4370999999999
 30
0.0
 11
49.0413925
 21
137.2130999999999
 31
0.0
  0
LINE
  5
41
330
1E
100
AcDbEntity
  8
0
100
AcDbLine
 10
49.0413925
 20
137.2130999999999
 30
0.0
 11
52.4177925
 21
135.8130999999999
 31
0.0
  0
LINE
  5
42
330
1E
100
AcDbEntity
  8
0
100
AcDbLine
 10
43.007529100533
 20
154.1391
 30
0.0
 11
43.8942925
 21
156.2781
 31
0.0
  0
LINE
  5
43
330
1E
100
AcDbEntity
  8
0
100
AcDbLine
 10
43.082151546491
 20
154.3191
 30
0.0
 11
43.8942925
 21
156.2781
 31
0.0
  0
LINE
  5
44
330
1E
100
AcDbEntity
  8
0
100
AcDbLine
 10
37.29429249999999
 20
130.6131
 30
0.0
 11
42.82809249999999
 21
126.4040999999999
 31
0.0
  0
LINE
  5
45
330
1E
100
AcDbEntity
  8
0
100
AcDbLine
 10
42.82809249999999
 20
126.4040999999999
 30
0.0
 11
49.2192925
 21
123.7541
 31
0.0
  0
LINE
  5
46
330
1E
100
AcDbEntity
  8
0
100
AcDbLine
 10
52.4177925
 20
135.8130999999999
 30
0.0
 11
56.0001925
 21
135.3191
 31
0.0
  0
LINE
  5
47
330
1E
100
AcDbEntity
  8
0
100
AcDbLine
 10
59.58259250000001
 20
135.8130999999999
 30
0.0
 11
62.95899250000001
 21
137.2130999999999
 31
0.0
  0
LINE
  5
48
330
1E
100
AcDbEntity
  8
0
100
AcDbLine
 10
56.0001925
 20
135.3191
 30
0.0
 11
59.58259250000001
 21
135.8130999999999
 31
0.0
  0
LINE
  5
49
330
1E
100
AcDbEntity
  8
0
100
AcDbLine
 10
49.2192925
 20
123.7541
 30
0.0
 11
56.0001925
 21
122.8191
 31
0.0
  0
LINE
  5
4A
330
1E
100
AcDbEntity
  8
0
100
AcDbLine
 10
56.0001925
 20
122.8191
 30
0.0
 11
62.7810925
 21
123.7541
 31
0.0
  0
LINE
  5
4B
330
1E
100
AcDbEntity
  8
0
100
AcDbLine
 10
144.0001924999999
 20
16.71167999999999
 30
0.0
 11
144.0001924999999
 21
18.91013
 31
0.0
  0
LINE
  5
4C
330
1E
100
AcDbEntity
  8
0
100
AcDbLine
 10
144.0001924999999
 20
16.71167999999999
 30
0.0
 11
144.0001924999999
 21
15.11392
 31
0.0
  0
LINE
  5
4D
330
1E
100
AcDbEntity
  8
0
100
AcDbLine
 10
144.0001924999999
 20
18.91013
 30
0.0
 11
144.0001924999999
 21
21.6717
 31
0.0
  0
LINE
  5
4E
330
1E
100
AcDbEntity
  8
0
100
AcDbLine
 10
144.0001924999999
 20
18.91013
 30
0.0
 11
144.0001924999999
 21
16.71167999999999
 31
0.0
  0
LINE
  5
4F
330
1E
100
AcDbEntity
  8
0
100
AcDbLine
 10
144.0001924999999
 20
21.6717
 30
0.0
 11
144.0001924999999
 21
18.91013
 31
0.0
  0
LINE
  5
50
330
1E
100
AcDbEntity
  8
0
100
AcDbLine
 10
144.0001924999999
 20
21.6717
 30
0.0
 11
144.0001924999999
 21
24.949
 31
0.0
  0
LINE
  5
51
330
1E
100
AcDbEntity
  8
0
100
AcDbLine
 10
144.0001924999999
 20
24.949
 30
0.0
 11
144.0001924999999
 21
28.68619999999999
 31
0.0
  0
LINE
  5
52
330
1E
100
AcDbEntity
  8
0
100
AcDbLine
 10
144.0001924999999
 20
24.949
 30
0.0
 11
144.0001924999999
 21
21.6717
 31
0.0
  0
LINE
  5
53
330
1E
100
AcDbEntity
  8
0
100
AcDbLine
 10
144.0001924999999
 20
28.68619999999999
 30
0.0
 11
144.0001924999999
 21
24.949
 31
0.0
  0
LINE
  5
54
330
1E
100
AcDbEntity
  8
0
100
AcDbLine
 10
144.0001924999999
 20
28.68619999999999
 30
0.0
 11
144.0001924999999
 21
32.81909999999999
 31
0.0
  0
LINE
  5
55
330
1E
100
AcDbEntity
  8
0
100
AcDbLine
 10
144.0001924999999
 20
32.81909999999999
 30
0.0
 11
144.0001924999999
 21
37.2771
 31
0.0
  0
LINE
  5
56
330
1E
100
AcDbEntity
  8
0
100
AcDbLine
 10
144.0001924999999
 20
32.81909999999999
 30
0.0
 11
144.0001924999999
 21
28.68619999999999
 31
0.0
  0
LINE
  5
57
330
1E
100
AcDbEntity
  8
0
100
AcDbLine
 10
144.0001924999999
 20
51.8191
 30
0.0
 11
144.0001924999999
 21
46.85909999999999
 31
0.0
  0
LINE
  5
58
330
1E
100
AcDbEntity
  8
0
100
AcDbLine
 10
144.0001924999999
 20
51.8191
 30
0.0
 11
144.0001924999999
 21
111.3191
 31
0.0
  0
LINE
  5
59
330
1E
100
AcDbEntity
  8
0
100
AcDbLine
 10
144.0001924999999
 20
46.85909999999999
 30
0.0
 11
144.0001924999999
 21
41.98399999999999
 31
0.0
  0
LINE
  5
5A
330
1E
100
AcDbEntity
  8
0
100
AcDbLine
 10
144.0001924999999
 20
46.85909999999999
 30
0.0
 11
144.0001924999999
 21
51.8191
 31
0.0
  0
LINE
  5
5B
330
1E
100
AcDbEntity
  8
0
100
AcDbLine
 10
144.0001924999999
 20
37.2771
 30
0.0
 11
144.0001924999999
 21
41.98399999999999
 31
0.0
  0
LINE
  5
5C
330
1E
100
AcDbEntity
  8
0
100
AcDbLine
 10
144.0001924999999
 20
37.2771
 30
0.0
 11
144.0001924999999
 21
32.81909999999999
 31
0.0
  0
LINE
  5
5D
330
1E
100
AcDbEntity
  8
0
100
AcDbLine
 10
144.0001924999999
 20
41.98399999999999
 30
0.0
 11
144.0001924999999
 21
37.2771
 31
0.0
  0
LINE
  5
5E
330
1E
100
AcDbEntity
  8
0
100
AcDbLine
 10
144.0001924999999
 20
41.98399999999999
 30
0.0
 11
144.0001924999999
 21
46.85909999999999
 31
0.0
  0
LINE
  5
5F
330
1E
100
AcDbEntity
  8
0
100
AcDbLine
 10
144.0001924999999
 20
15.11392
 30
0.0
 11
144.0001924999999
 21
14.14419
 31
0.0
  0
LINE
  5
60
330
1E
100
AcDbEntity
  8
0
100
AcDbLine
 10
144.0001924999999
 20
15.11392
 30
0.0
 11
144.0001924999999
 21
16.71167999999999
 31
0.0
  0
LINE
  5
61
330
1E
100
AcDbEntity
  8
0
100
AcDbLine
 10
144.0001924999999
 20
111.3191
 30
0.0
 11
144.0001924999999
 21
116.2791
 31
0.0
  0
LINE
  5
62
330
1E
100
AcDbEntity
  8
0
100
AcDbLine
 10
144.0001924999999
 20
111.3191
 30
0.0
 11
144.0001924999999
 21
51.8191
 31
0.0
  0
LINE
  5
63
330
1E
100
AcDbEntity
  8
0
100
AcDbLine
 10
144.0001924999999
 20
125.8610999999999
 30
0.0
 11
144.0001924999999
 21
130.3190999999999
 31
0.0
  0
LINE
  5
64
330
1E
100
AcDbEntity
  8
0
100
AcDbLine
 10
144.0001924999999
 20
125.8610999999999
 30
0.0
 11
144.0001924999999
 21
121.1540999999999
 31
0.0
  0
LINE
  5
65
330
1E
100
AcDbEntity
  8
0
100
AcDbLine
 10
144.0001924999999
 20
121.1540999999999
 30
0.0
 11
144.0001924999999
 21
116.2791
 31
0.0
  0
LINE
  5
66
330
1E
100
AcDbEntity
  8
0
100
AcDbLine
 10
144.0001924999999
 20
121.1540999999999
 30
0.0
 11
144.0001924999999
 21
125.8610999999999
 31
0.0
  0
LINE
  5
67
330
1E
100
AcDbEntity
  8
0
100
AcDbLine
 10
144.0001924999999
 20
116.2791
 30
0.0
 11
144.0001924999999
 21
111.3191
 31
0.0
  0
LINE
  5
68
330
1E
100
AcDbEntity
  8
0
100
AcDbLine
 10
144.0001924999999
 20
116.2791
 30
0.0
 11
144.0001924999999
 21
121.1540999999999
 31
0.0
  0
LINE
  5
69
330
1E
100
AcDbEntity
  8
0
100
AcDbLine
 10
144.0001924999999
 20
14.14419
 30
0.0
 11
144.0001924999999
 21
12.03492599999999
 31
0.0
  0
LINE
  5
6A
330
1E
100
AcDbEntity
  8
0
100
AcDbLine
 10
144.0001924999999
 20
14.14419
 30
0.0
 11
144.0001924999999
 21
15.11392
 31
0.0
  0
LINE
  5
6B
330
1E
100
AcDbEntity
  8
0
100
AcDbLine
 10
144.0001924999999
 20
12.03492599999999
 30
0.0
 11
144.0001924999999
 21
14.14419
 31
0.0
  0
LINE
  5
6C
330
1E
100
AcDbEntity
  8
0
100
AcDbLine
 10
144.0001924999999
 20
12.03492599999999
 30
0.0
 11
144.4321925
 21
9.000289999999999
 31
0.0
  0
LINE
  5
6D
330
1E
100
AcDbEntity
  8
0
100
AcDbLine
 10
142.8281925
 20
126.4040999999999
 30
0.0
 11
144.0001924999999
 21
125.918135362228
 31
0.0
  0
LINE
  5
6E
330
1E
100
AcDbEntity
  8
0
100
AcDbLine
 10
74.70609250000001
 20
130.6131
 30
0.0
 11
78.91489250000001
 21
136.1470999999999
 31
0.0
  0
LINE
  5
6F
330
1E
100
AcDbEntity
  8
0
100
AcDbLine
 10
65.8825925
 20
139.4370999999999
 30
0.0
 11
68.1060925
 21
142.3600999999999
 31
0.0
  0
LINE
  5
70
330
1E
100
AcDbEntity
  8
0
100
AcDbLine
 10
68.1060925
 20
142.3600999999999
 30
0.0
 11
69.50609250000001
 21
145.7371
 31
0.0
  0
LINE
  5
71
330
1E
100
AcDbEntity
  8
0
100
AcDbLine
 10
69.50609250000001
 20
145.7371
 30
0.0
 11
70.00019250000001
 21
149.3190999999999
 31
0.0
  0
LINE
  5
72
330
1E
100
AcDbEntity
  8
0
100
AcDbLine
 10
62.95899250000001
 20
137.2130999999999
 30
0.0
 11
65.8825925
 21
139.4370999999999
 31
0.0
  0
LINE
  5
73
330
1E
100
AcDbEntity
  8
0
100
AcDbLine
 10
69.50609250000001
 20
152.9011
 30
0.0
 11
70.00019250000001
 21
149.3190999999999
 31
0.0
  0
LINE
  5
74
330
1E
100
AcDbEntity
  8
0
100
AcDbLine
 10
78.91489250000001
 20
136.1470999999999
 30
0.0
 11
81.56489249999999
 21
142.5380999999999
 31
0.0
  0
LINE
  5
75
330
1E
100
AcDbEntity
  8
0
100
AcDbLine
 10
133.0851925
 20
136.1470999999999
 30
0.0
 11
137.2941925
 21
130.6131
 31
0.0
  0
LINE
  5
76
330
1E
100
AcDbEntity
  8
0
100
AcDbLine
 10
130.4351924999999
 20
142.5380999999999
 30
0.0
 11
133.0851925
 21
136.1470999999999
 31
0.0
  0
LINE
  5
77
330
1E
100
AcDbEntity
  8
0
100
AcDbLine
 10
144.0001924999999
 20
130.3190999999999
 30
0.0
 11
144.0001924999999
 21
134.4521
 31
0.0
  0
LINE
  5
78
330
1E
100
AcDbEntity
  8
0
100
AcDbLine
 10
144.0001924999999
 20
130.3190999999999
 30
0.0
 11
144.0001924999999
 21
125.8610999999999
 31
0.0
  0
LINE
  5
79
330
1E
100
AcDbEntity
  8
0
100
AcDbLine
 10
144.0001924999999
 20
134.4521
 30
0.0
 11
144.0001924999999
 21
130.3190999999999
 31
0.0
  0
LINE
  5
7A
330
1E
100
AcDbEntity
  8
0
100
AcDbLine
 10
144.0001924999999
 20
134.4521
 30
0.0
 11
144.0001924999999
 21
138.1890999999999
 31
0.0
  0
LINE
  5
7B
330
1E
100
AcDbEntity
  8
0
100
AcDbLine
 10
144.0001924999999
 20
138.1890999999999
 30
0.0
 11
144.0001924999999
 21
141.4661
 31
0.0
  0
LINE
  5
7C
330
1E
100
AcDbEntity
  8
0
100
AcDbLine
 10
144.0001924999999
 20
138.1890999999999
 30
0.0
 11
144.0001924999999
 21
134.4521
 31
0.0
  0
LINE
  5
7D
330
1E
100
AcDbEntity
  8
0
100
AcDbLine
 10
144.0001924999999
 20
146.4261
 30
0.0
 11
144.0001924999999
 21
144.2281
 31
0.0
  0
LINE
  5
7E
330
1E
100
AcDbEntity
  8
0
100
AcDbLine
 10
144.0001924999999
 20
146.4261
 30
0.0
 11
144.0001924999999
 21
148.0241
 31
0.0
  0
LINE
  5
7F
330
1E
100
AcDbEntity
  8
0
100
AcDbLine
 10
144.0001924999999
 20
148.0241
 30
0.0
 11
144.0001924999999
 21
148.9940999999999
 31
0.0
  0
LINE
  5
80
330
1E
100
AcDbEntity
  8
0
100
AcDbLine
 10
144.0001924999999
 20
148.0241
 30
0.0
 11
144.0001924999999
 21
146.4261
 31
0.0
  0
LINE
  5
81
330
1E
100
AcDbEntity
  8
0
100
AcDbLine
 10
144.0001924999999
 20
148.9940999999999
 30
0.0
 11
144.0001924999999
 21
149.3190999999999
 31
0.0
  0
LINE
  5
82
330
1E
100
AcDbEntity
  8
0
100
AcDbLine
 10
144.0001924999999
 20
148.9940999999999
 30
0.0
 11
144.0001924999999
 21
148.0241
 31
0.0
  0
LINE
  5
83
330
1E
100
AcDbEntity
  8
0
100
AcDbLine
 10
144.0001924999999
 20
144.2281
 30
0.0
 11
144.0001924999999
 21
141.4661
 31
0.0
  0
LINE
  5
84
330
1E
100
AcDbEntity
  8
0
100
AcDbLine
 10
144.0001924999999
 20
144.2281
 30
0.0
 11
144.0001924999999
 21
146.4261
 31
0.0
  0
LINE
  5
85
330
1E
100
AcDbEntity
  8
0
100
AcDbLine
 10
144.0001924999999
 20
141.4661
 30
0.0
 11
144.0001924999999
 21
138.1890999999999
 31
0.0
  0
LINE
  5
86
330
1E
100
AcDbEntity
  8
0
100
AcDbLine
 10
144.0001924999999
 20
141.4661
 30
0.0
 11
144.0001924999999
 21
144.2281
 31
0.0
  0
LINE
  5
87
330
1E
100
AcDbEntity
  8
0
100
AcDbLine
 10
137.2941925
 20
130.6131
 30
0.0
 11
142.8281925
 21
126.4040999999999
 31
0.0
  0
LINE
  5
88
330
1E
100
AcDbEntity
  8
0
100
AcDbLine
 10
129.5001925
 20
149.3190999999999
 30
0.0
 11
130.4351924999999
 21
156.1001
 31
0.0
  0
LINE
  5
89
330
1E
100
AcDbEntity
  8
0
100
AcDbLine
 10
129.5001925
 20
149.3190999999999
 30
0.0
 11
130.4351924999999
 21
142.5380999999999
 31
0.0
  0
LINE
  5
8A
330
1E
100
AcDbEntity
  8
0
100
AcDbLine
 10
81.56489249999999
 20
142.5380999999999
 30
0.0
 11
82.50019250000001
 21
149.3190999999999
 31
0.0
  0
LINE
  5
8B
330
1E
100
AcDbEntity
  8
0
100
AcDbLine
 10
69.17229250000001
 20
126.4040999999999
 30
0.0
 11
74.70609250000001
 21
130.6131
 31
0.0
  0
LINE
  5
8C
330
1E
100
AcDbEntity
  8
0
100
AcDbLine
 10
62.7810925
 20
123.7541
 30
0.0
 11
69.17229250000001
 21
126.4040999999999
 31
0.0
  0
LINE
  5
8D
330
1E
100
AcDbEntity
  8
0
100
AcDbLine
 10
65.8825925
 20
159.2011
 30
0.0
 11
68.1060925
 21
156.2781
 31
0.0
  0
LINE
  5
8E
330
1E
100
AcDbEntity
  8
0
100
AcDbLine
 10
68.1060925
 20
156.2781
 30
0.0
 11
69.50609250000001
 21
152.9011
 31
0.0
  0
LINE
  5
8F
330
1E
100
AcDbEntity
  8
0
100
AcDbLine
 10
62.95899250000001
 20
161.4250999999999
 30
0.0
 11
65.8825925
 21
159.2011
 31
0.0
  0
LINE
  5
90
330
1E
100
AcDbEntity
  8
0
100
AcDbLine
 10
46.1177925
 20
159.2011
 30
0.0
 11
49.0413925
 21
161.4250999999999
 31
0.0
  0
LINE
  5
91
330
1E
100
AcDbEntity
  8
0
100
AcDbLine
 10
49.0413925
 20
161.4250999999999
 30
0.0
 11
52.4177925
 21
162.8250999999999
 31
0.0
  0
LINE
  5
92
330
1E
100
AcDbEntity
  8
0
100
AcDbLine
 10
43.8942925
 20
156.2781
 30
0.0
 11
46.1177925
 21
159.2011
 31
0.0
  0
LINE
  5
93
330
1E
100
AcDbEntity
  8
0
100
AcDbLine
 10
78.91489250000001
 20
162.4910999999999
 30
0.0
 11
81.56489249999999
 21
156.1001
 31
0.0
  0
LINE
  5
94
330
1E
100
AcDbEntity
  8
0
100
AcDbLine
 10
133.0851925
 20
162.4910999999999
 30
0.0
 11
137.2941925
 21
168.0251
 31
0.0
  0
LINE
  5
95
330
1E
100
AcDbEntity
  8
0
100
AcDbLine
 10
130.4351924999999
 20
156.1001
 30
0.0
 11
133.0851925
 21
162.4910999999999
 31
0.0
  0
LINE
  5
96
330
1E
100
AcDbEntity
  8
0
100
AcDbLine
 10
81.56489249999999
 20
156.1001
 30
0.0
 11
82.50019250000001
 21
149.3190999999999
 31
0.0
  0
LINE
  5
97
330
1E
100
AcDbEntity
  8
0
100
AcDbLine
 10
42.82809249999999
 20
172.2341
 30
0.0
 11
49.2192925
 21
174.8840999999999
 31
0.0
  0
LINE
  5
98
330
1E
100
AcDbEntity
  8
0
100
AcDbLine
 10
37.29429249999999
 20
168.0251
 30
0.0
 11
42.82809249999999
 21
172.2341
 31
0.0
  0
LINE
  5
99
330
1E
100
AcDbEntity
  8
0
100
AcDbLine
 10
59.58259250000001
 20
162.8250999999999
 30
0.0
 11
62.95899250000001
 21
161.4250999999999
 31
0.0
  0
LINE
  5
9A
330
1E
100
AcDbEntity
  8
0
100
AcDbLine
 10
56.0001925
 20
163.3191
 30
0.0
 11
59.58259250000001
 21
162.8250999999999
 31
0.0
  0
LINE
  5
9B
330
1E
100
AcDbEntity
  8
0
100
AcDbLine
 10
52.4177925
 20
162.8250999999999
 30
0.0
 11
56.0001925
 21
163.3191
 31
0.0
  0
LINE
  5
9C
330
1E
100
AcDbEntity
  8
0
100
AcDbLine
 10
142.8281925
 20
172.2341
 30
0.0
 11
149.2191925
 21
174.8840999999999
 31
0.0
  0
LINE
  5
9D
330
1E
100
AcDbEntity
  8
0
100
AcDbLine
 10
137.2941925
 20
168.0251
 30
0.0
 11
142.8281925
 21
172.2341
 31
0.0
  0
LINE
  5
9E
330
1E
100
AcDbEntity
  8
0
100
AcDbLine
 10
74.70609250000001
 20
168.0251
 30
0.0
 11
78.91489250000001
 21
162.4910999999999
 31
0.0
  0
LINE
  5
9F
330
1E
100
AcDbEntity
  8
0
100
AcDbLine
 10
69.17229250000001
 20
172.2341
 30
0.0
 11
74.70609250000001
 21
168.0251
 31
0.0
  0
LINE
  5
A0
330
1E
100
AcDbEntity
  8
0
100
AcDbLine
 10
62.7810925
 20
174.8840999999999
 30
0.0
 11
69.17229250000001
 21
172.2341
 31
0.0
  0
LINE
  5
A1
330
1E
100
AcDbEntity
  8
0
100
AcDbLine
 10
56.0001925
 20
175.8191
 30
0.0
 11
62.7810925
 21
174.8840999999999
 31
0.0
  0
LINE
  5
A2
330
1E
100
AcDbEntity
  8
0
100
AcDbLine
 10
49.2192925
 20
174.8840999999999
 30
0.0
 11
56.0001925
 21
175.8191
 31
0.0
  0
LINE
  5
A3
330
1E
100
AcDbEntity
  8
0
100
AcDbLine
 10
33.0854925
 20
162.4910999999999
 30
0.0
 11
37.29429249999999
 21
168.0251
 31
0.0
  0
LINE
  5
A4
330
1E
100
AcDbEntity
  8
0
100
AcDbLine
 10
30.43549249999999
 20
156.1001
 30
0.0
 11
33.0854925
 21
162.4910999999999
 31
0.0
  0
LINE
  5
A5
330
1E
100
AcDbEntity
  8
0
100
AcDbLine
 10
30.18984004461
 20
154.3191
 30
0.0
 11
30.43549249999999
 21
156.1001
 31
0.0
  0
LINE
  5
A6
330
1E
100
AcDbEntity
  8
0
100
AcDbLine
 10
159.0721924999999
 20
0.6076000000000022
 30
0.0
 11
161.9521924999999
 21
1.7456
 31
0.0
  0
LINE
  5
A7
330
1E
100
AcDbEntity
  8
0
100
AcDbLine
 10
156.0001924999999
 20
0.180900000000006
 30
0.0
 11
159.0721924999999
 21
0.6076000000000022
 31
0.0
  0
LINE
  5
A8
330
1E
100
AcDbEntity
  8
0
100
AcDbLine
 10
144.4321925
 20
9.000289999999999
 30
0.0
 11
145.5841925
 21
6.15531
 31
0.0
  0
LINE
  5
A9
330
1E
100
AcDbEntity
  8
0
100
AcDbLine
 10
145.5841925
 20
6.15531
 30
0.0
 11
147.5041925
 21
3.64225
 31
0.0
  0
LINE
  5
AA
330
1E
100
AcDbEntity
  8
0
100
AcDbLine
 10
147.5041925
 20
3.64225
 30
0.0
 11
150.0481925
 21
1.7456
 31
0.0
  0
LINE
  5
AB
330
1E
100
AcDbEntity
  8
0
100
AcDbLine
 10
168.0001925
 20
16.71167999999999
 30
0.0
 11
168.0001925
 21
18.91013
 31
0.0
  0
LINE
  5
AC
330
1E
100
AcDbEntity
  8
0
100
AcDbLine
 10
168.0001925
 20
16.71167999999999
 30
0.0
 11
168.0001925
 21
15.11392
 31
0.0
  0
LINE
  5
AD
330
1E
100
AcDbEntity
  8
0
100
AcDbLine
 10
168.0001925
 20
21.6717
 30
0.0
 11
168.0001925
 21
18.91013
 31
0.0
  0
LINE
  5
AE
330
1E
100
AcDbEntity
  8
0
100
AcDbLine
 10
168.0001925
 20
21.6717
 30
0.0
 11
168.0001925
 21
24.949
 31
0.0
  0
LINE
  5
AF
330
1E
100
AcDbEntity
  8
0
100
AcDbLine
 10
168.0001925
 20
18.91013
 30
0.0
 11
168.0001925
 21
21.6717
 31
0.0
  0
LINE
  5
B0
330
1E
100
AcDbEntity
  8
0
100
AcDbLine
 10
168.0001925
 20
18.91013
 30
0.0
 11
168.0001925
 21
16.71167999999999
 31
0.0
  0
LINE
  5
B1
330
1E
100
AcDbEntity
  8
0
100
AcDbLine
 10
168.0001925
 20
24.949
 30
0.0
 11
168.0001925
 21
28.68619999999999
 31
0.0
  0
LINE
  5
B2
330
1E
100
AcDbEntity
  8
0
100
AcDbLine
 10
168.0001925
 20
24.949
 30
0.0
 11
168.0001925
 21
21.6717
 31
0.0
  0
LINE
  5
B3
330
1E
100
AcDbEntity
  8
0
100
AcDbLine
 10
168.0001925
 20
15.11392
 30
0.0
 11
168.0001925
 21
14.14419
 31
0.0
  0
LINE
  5
B4
330
1E
100
AcDbEntity
  8
0
100
AcDbLine
 10
168.0001925
 20
15.11392
 30
0.0
 11
168.0001925
 21
16.71167999999999
 31
0.0
  0
LINE
  5
B5
330
1E
100
AcDbEntity
  8
0
100
AcDbLine
 10
168.0001925
 20
28.68619999999999
 30
0.0
 11
168.0001925
 21
32.81909999999999
 31
0.0
  0
LINE
  5
B6
330
1E
100
AcDbEntity
  8
0
100
AcDbLine
 10
168.0001925
 20
28.68619999999999
 30
0.0
 11
168.0001925
 21
24.949
 31
0.0
  0
LINE
  5
B7
330
1E
100
AcDbEntity
  8
0
100
AcDbLine
 10
168.0001925
 20
32.81909999999999
 30
0.0
 11
168.0001925
 21
37.2771
 31
0.0
  0
LINE
  5
B8
330
1E
100
AcDbEntity
  8
0
100
AcDbLine
 10
168.0001925
 20
32.81909999999999
 30
0.0
 11
168.0001925
 21
28.68619999999999
 31
0.0
  0
LINE
  5
B9
330
1E
100
AcDbEntity
  8
0
100
AcDbLine
 10
168.0001925
 20
46.85909999999999
 30
0.0
 11
168.0001925
 21
41.98399999999999
 31
0.0
  0
LINE
  5
BA
330
1E
100
AcDbEntity
  8
0
100
AcDbLine
 10
168.0001925
 20
46.85909999999999
 30
0.0
 11
168.0001925
 21
51.8191
 31
0.0
  0
LINE
  5
BB
330
1E
100
AcDbEntity
  8
0
100
AcDbLine
 10
168.0001925
 20
41.98399999999999
 30
0.0
 11
168.0001925
 21
37.2771
 31
0.0
  0
LINE
  5
BC
330
1E
100
AcDbEntity
  8
0
100
AcDbLine
 10
168.0001925
 20
41.98399999999999
 30
0.0
 11
168.0001925
 21
46.85909999999999
 31
0.0
  0
LINE
  5
BD
330
1E
100
AcDbEntity
  8
0
100
AcDbLine
 10
168.0001925
 20
37.2771
 30
0.0
 11
168.0001925
 21
41.98399999999999
 31
0.0
  0
LINE
  5
BE
330
1E
100
AcDbEntity
  8
0
100
AcDbLine
 10
168.0001925
 20
37.2771
 30
0.0
 11
168.0001925
 21
32.81909999999999
 31
0.0
  0
LINE
  5
BF
330
1E
100
AcDbEntity
  8
0
100
AcDbLine
 10
168.0001925
 20
12.03492599999999
 30
0.0
 11
168.0001925
 21
14.14419
 31
0.0
  0
LINE
  5
C0
330
1E
100
AcDbEntity
  8
0
100
AcDbLine
 10
167.5681925
 20
9.000289999999999
 30
0.0
 11
168.0001925
 21
12.03492599999999
 31
0.0
  0
LINE
  5
C1
330
1E
100
AcDbEntity
  8
0
100
AcDbLine
 10
166.4161924999999
 20
6.15531
 30
0.0
 11
167.5681925
 21
9.000289999999999
 31
0.0
  0
LINE
  5
C2
330
1E
100
AcDbEntity
  8
0
100
AcDbLine
 10
164.4961925
 20
3.64225
 30
0.0
 11
166.4161924999999
 21
6.15531
 31
0.0
  0
LINE
  5
C3
330
1E
100
AcDbEntity
  8
0
100
AcDbLine
 10
161.9521924999999
 20
1.7456
 30
0.0
 11
164.4961925
 21
3.64225
 31
0.0
  0
LINE
  5
C4
330
1E
100
AcDbEntity
  8
0
100
AcDbLine
 10
168.0001925
 20
14.14419
 30
0.0
 11
168.0001925
 21
12.03492599999999
 31
0.0
  0
LINE
  5
C5
330
1E
100
AcDbEntity
  8
0
100
AcDbLine
 10
168.0001925
 20
14.14419
 30
0.0
 11
168.0001925
 21
15.11392
 31
0.0
  0
LINE
  5
C6
330
1E
100
AcDbEntity
  8
0
100
AcDbLine
 10
168.0001925
 20
116.2791
 30
0.0
 11
168.0001925
 21
121.1540999999999
 31
0.0
  0
LINE
  5
C7
330
1E
100
AcDbEntity
  8
0
100
AcDbLine
 10
168.0001925
 20
116.2791
 30
0.0
 11
168.0001925
 21
111.3191
 31
0.0
  0
LINE
  5
C8
330
1E
100
AcDbEntity
  8
0
100
AcDbLine
 10
168.0001925
 20
138.1890999999999
 30
0.0
 11
168.0001925
 21
134.4521
 31
0.0
  0
LINE
  5
C9
330
1E
100
AcDbEntity
  8
0
100
AcDbLine
 10
168.0001925
 20
138.1890999999999
 30
0.0
 11
168.0001925
 21
141.4661
 31
0.0
  0
LINE
  5
CA
330
1E
100
AcDbEntity
  8
0
100
AcDbLine
 10
168.0001925
 20
134.4521
 30
0.0
 11
168.0001925
 21
138.1890999999999
 31
0.0
  0
LINE
  5
CB
330
1E
100
AcDbEntity
  8
0
100
AcDbLine
 10
168.0001925
 20
134.4521
 30
0.0
 11
168.0001925
 21
130.3190999999999
 31
0.0
  0
LINE
  5
CC
330
1E
100
AcDbEntity
  8
0
100
AcDbLine
 10
168.0001925
 20
130.3190999999999
 30
0.0
 11
168.0001925
 21
125.8610999999999
 31
0.0
  0
LINE
  5
CD
330
1E
100
AcDbEntity
  8
0
100
AcDbLine
 10
168.0001925
 20
130.3190999999999
 30
0.0
 11
168.0001925
 21
134.4521
 31
0.0
  0
LINE
  5
CE
330
1E
100
AcDbEntity
  8
0
100
AcDbLine
 10
168.0001925
 20
125.8610999999999
 30
0.0
 11
168.0001925
 21
121.1540999999999
 31
0.0
  0
LINE
  5
CF
330
1E
100
AcDbEntity
  8
0
100
AcDbLine
 10
168.0001925
 20
125.8610999999999
 30
0.0
 11
168.0001925
 21
130.3190999999999
 31
0.0
  0
LINE
  5
D0
330
1E
100
AcDbEntity
  8
0
100
AcDbLine
 10
168.0001925
 20
121.1540999999999
 30
0.0
 11
168.0001925
 21
125.8610999999999
 31
0.0
  0
LINE
  5
D1
330
1E
100
AcDbEntity
  8
0
100
AcDbLine
 10
168.0001925
 20
121.1540999999999
 30
0.0
 11
168.0001925
 21
116.2791
 31
0.0
  0
LINE
  5
D2
330
1E
100
AcDbEntity
  8
0
100
AcDbLine
 10
168.0001925
 20
111.3191
 30
0.0
 11
168.0001925
 21
51.8191
 31
0.0
  0
LINE
  5
D3
330
1E
100
AcDbEntity
  8
0
100
AcDbLine
 10
168.0001925
 20
111.3191
 30
0.0
 11
168.0001925
 21
116.2791
 31
0.0
  0
LINE
  5
D4
330
1E
100
AcDbEntity
  8
0
100
AcDbLine
 10
168.0001925
 20
51.8191
 30
0.0
 11
168.0001925
 21
111.3191
 31
0.0
  0
LINE
  5
D5
330
1E
100
AcDbEntity
  8
0
100
AcDbLine
 10
168.0001925
 20
51.8191
 30
0.0
 11
168.0001925
 21
46.85909999999999
 31
0.0
  0
LINE
  5
D6
330
1E
100
AcDbEntity
  8
0
100
AcDbLine
 10
168.0001925
 20
146.4261
 30
0.0
 11
168.0001925
 21
144.2281
 31
0.0
  0
LINE
  5
D7
330
1E
100
AcDbEntity
  8
0
100
AcDbLine
 10
168.0001925
 20
146.4261
 30
0.0
 11
168.0001925
 21
148.0241
 31
0.0
  0
LINE
  5
D8
330
1E
100
AcDbEntity
  8
0
100
AcDbLine
 10
168.0001925
 20
144.2281
 30
0.0
 11
168.0001925
 21
141.4661
 31
0.0
  0
LINE
  5
D9
330
1E
100
AcDbEntity
  8
0
100
AcDbLine
 10
168.0001925
 20
144.2281
 30
0.0
 11
168.0001925
 21
146.4261
 31
0.0
  0
LINE
  5
DA
330
1E
100
AcDbEntity
  8
0
100
AcDbLine
 10
168.0001925
 20
141.4661
 30
0.0
 11
168.0001925
 21
144.2281
 31
0.0
  0
LINE
  5
DB
330
1E
100
AcDbEntity
  8
0
100
AcDbLine
 10
168.0001925
 20
141.4661
 30
0.0
 11
168.0001925
 21
138.1890999999999
 31
0.0
  0
LINE
  5
DC
330
1E
100
AcDbEntity
  8
0
100
AcDbLine
 10
168.0001925
 20
148.0241
 30
0.0
 11
168.0001925
 21
148.9940999999999
 31
0.0
  0
LINE
  5
DD
330
1E
100
AcDbEntity
  8
0
100
AcDbLine
 10
168.0001925
 20
148.0241
 30
0.0
 11
168.0001925
 21
146.4261
 31
0.0
  0
LINE
  5
DE
330
1E
100
AcDbEntity
  8
0
100
AcDbLine
 10
167.9776577493869
 20
149.1558825020439
 30
0.0
 11
168.0001925
 21
149.3190999999999
 31
0.0
  0
LINE
  5
DF
330
1E
100
AcDbEntity
  8
0
100
AcDbLine
 10
168.0001925
 20
149.3190999999999
 30
0.0
 11
168.0001925
 21
148.9940999999999
 31
0.0
  0
LINE
  5
E0
330
1E
100
AcDbEntity
  8
0
100
AcDbLine
 10
167.5761924999999
 20
152.3900999999999
 30
0.0
 11
168.0001925
 21
149.3190999999999
 31
0.0
  0
LINE
  5
E1
330
1E
100
AcDbEntity
  8
0
100
AcDbLine
 10
168.0001925
 20
148.9940999999999
 30
0.0
 11
168.0001925
 21
149.3190999999999
 31
0.0
  0
LINE
  5
E2
330
1E
100
AcDbEntity
  8
0
100
AcDbLine
 10
168.0001925
 20
148.9940999999999
 30
0.0
 11
168.0001925
 21
148.0241
 31
0.0
  0
LINE
  5
E3
330
1E
100
AcDbEntity
  8
0
100
AcDbLine
 10
150.0481925
 20
1.7456
 30
0.0
 11
152.9281925
 21
0.6076000000000022
 31
0.0
  0
LINE
  5
E4
330
1E
100
AcDbEntity
  8
0
100
AcDbLine
 10
152.9281925
 20
0.6076000000000022
 30
0.0
 11
156.0001924999999
 21
0.180900000000006
 31
0.0
  0
LINE
  5
E5
330
1E
100
AcDbEntity
  8
0
100
AcDbLine
 10
242.8281924999999
 20
126.4040999999999
 30
0.0
 11
249.2191924999999
 21
123.7541
 31
0.0
  0
LINE
  5
E6
330
1E
100
AcDbEntity
  8
0
100
AcDbLine
 10
256.0001924999999
 20
122.8191
 30
0.0
 11
262.7811924999999
 21
123.7541
 31
0.0
  0
LINE
  5
E7
330
1E
100
AcDbEntity
  8
0
100
AcDbLine
 10
269.1721924999999
 20
126.4040999999999
 30
0.0
 11
274.7061925
 21
130.6131
 31
0.0
  0
LINE
  5
E8
330
1E
100
AcDbEntity
  8
0
100
AcDbLine
 10
262.7811924999999
 20
123.7541
 30
0.0
 11
269.1721924999999
 21
126.4040999999999
 31
0.0
  0
LINE
  5
E9
330
1E
100
AcDbEntity
  8
0
100
AcDbLine
 10
249.2191924999999
 20
123.7541
 30
0.0
 11
256.0001924999999
 21
122.8191
 31
0.0
  0
LINE
  5
EA
330
1E
100
AcDbEntity
  8
0
100
AcDbLine
 10
174.7061925
 20
130.6131
 30
0.0
 11
178.9151925
 21
136.1470999999999
 31
0.0
  0
LINE
  5
EB
330
1E
100
AcDbEntity
  8
0
100
AcDbLine
 10
178.9151925
 20
136.1470999999999
 30
0.0
 11
181.5651925
 21
142.5380999999999
 31
0.0
  0
LINE
  5
EC
330
1E
100
AcDbEntity
  8
0
100
AcDbLine
 10
233.0851924999999
 20
136.1470999999999
 30
0.0
 11
237.2941924999999
 21
130.6131
 31
0.0
  0
LINE
  5
ED
330
1E
100
AcDbEntity
  8
0
100
AcDbLine
 10
230.4351924999999
 20
142.5380999999999
 30
0.0
 11
233.0851924999999
 21
136.1470999999999
 31
0.0
  0
LINE
  5
EE
330
1E
100
AcDbEntity
  8
0
100
AcDbLine
 10
259.5821924999999
 20
135.8130999999999
 30
0.0
 11
262.9591924999999
 21
137.2130999999999
 31
0.0
  0
LINE
  5
EF
330
1E
100
AcDbEntity
  8
0
100
AcDbLine
 10
256.0001924999999
 20
135.3191
 30
0.0
 11
259.5821924999999
 21
135.8130999999999
 31
0.0
  0
LINE
  5
F0
330
1E
100
AcDbEntity
  8
0
100
AcDbLine
 10
252.4181924999999
 20
135.8130999999999
 30
0.0
 11
256.0001924999999
 21
135.3191
 31
0.0
  0
LINE
  5
F1
330
1E
100
AcDbEntity
  8
0
100
AcDbLine
 10
274.7061925
 20
130.6131
 30
0.0
 11
278.9151925
 21
136.1470999999999
 31
0.0
  0
LINE
  5
F2
330
1E
100
AcDbEntity
  8
0
100
AcDbLine
 10
243.8941924999999
 20
142.3600999999999
 30
0.0
 11
246.1181924999999
 21
139.4370999999999
 31
0.0
  0
LINE
  5
F3
330
1E
100
AcDbEntity
  8
0
100
AcDbLine
 10
246.1181924999999
 20
139.4370999999999
 30
0.0
 11
249.0411925
 21
137.2130999999999
 31
0.0
  0
LINE
  5
F4
330
1E
100
AcDbEntity
  8
0
100
AcDbLine
 10
265.8821924999999
 20
139.4370999999999
 30
0.0
 11
268.1061924999999
 21
142.3600999999999
 31
0.0
  0
LINE
  5
F5
330
1E
100
AcDbEntity
  8
0
100
AcDbLine
 10
268.1061924999999
 20
142.3600999999999
 30
0.0
 11
268.9929558994669
 21
144.4990999999999
 31
0.0
  0
LINE
  5
F6
330
1E
100
AcDbEntity
  8
0
100
AcDbLine
 10
262.9591924999999
 20
137.2130999999999
 30
0.0
 11
265.8821924999999
 21
139.4370999999999
 31
0.0
  0
LINE
  5
F7
330
1E
100
AcDbEntity
  8
0
100
AcDbLine
 10
249.0411925
 20
137.2130999999999
 30
0.0
 11
252.4181924999999
 21
135.8130999999999
 31
0.0
  0
LINE
  5
F8
330
1E
100
AcDbEntity
  8
0
100
AcDbLine
 10
242.4941924999999
 20
145.7371
 30
0.0
 11
243.8941924999999
 21
142.3600999999999
 31
0.0
  0
LINE
  5
F9
330
1E
100
AcDbEntity
  8
0
100
AcDbLine
 10
242.0001924999999
 20
149.3190999999999
 30
0.0
 11
242.4941924999999
 21
152.9011
 31
0.0
  0
LINE
  5
FA
330
1E
100
AcDbEntity
  8
0
100
AcDbLine
 10
242.0001924999999
 20
149.3190999999999
 30
0.0
 11
242.4941924999999
 21
145.7371
 31
0.0
  0
LINE
  5
FB
330
1E
100
AcDbEntity
  8
0
100
AcDbLine
 10
268.9183334535089
 20
144.3190999999999
 30
0.0
 11
311.7751925
 21
144.3190999999999
 31
0.0
  0
LINE
  5
FF
330
1E
100
AcDbEntity
  8
0
100
AcDbLine
 10
312.0131924999999
 20
144.9790999999999
 30
0.0
 11
312.0131924999999
 21
153.6591
 31
0.0
  0
LINE
  5
102
330
1E
100
AcDbEntity
  8
0
100
AcDbLine
 10
311.9551925
 20
144.4990999999999
 30
0.0
 11
312.0131924999999
 21
144.9790999999999
 31
0.0
  0
LINE
  5
103
330
1E
100
AcDbEntity
  8
0
100
AcDbLine
 10
311.7751925
 20
144.3190999999999
 30
0.0
 11
311.9551925
 21
144.4990999999999
 31
0.0
  0
LINE
  5
104
330
1E
100
AcDbEntity
  8
0
100
AcDbLine
 10
281.5651924999999
 20
142.5380999999999
 30
0.0
 11
281.810766161702
 21
144.3190999999999
 31
0.0
  0
LINE
  5
105
330
1E
100
AcDbEntity
  8
0
100
AcDbLine
 10
278.9151925
 20
136.1470999999999
 30
0.0
 11
281.5651924999999
 21
142.5380999999999
 31
0.0
  0
LINE
  5
106
330
1E
100
AcDbEntity
  8
0
100
AcDbLine
 10
237.2941924999999
 20
130.6131
 30
0.0
 11
242.8281924999999
 21
126.4040999999999
 31
0.0
  0
LINE
  5
109
330
1E
100
AcDbEntity
  8
0
100
AcDbLine
 10
229.5001924999999
 20
149.3190999999999
 30
0.0
 11
230.4351924999999
 21
156.1001
 31
0.0
  0
LINE
  5
10A
330
1E
100
AcDbEntity
  8
0
100
AcDbLine
 10
229.5001924999999
 20
149.3190999999999
 30
0.0
 11
230.4351924999999
 21
142.5380999999999
 31
0.0
  0
LINE
  5
10B
330
1E
100
AcDbEntity
  8
0
100
AcDbLine
 10
181.5651925
 20
142.5380999999999
 30
0.0
 11
182.5001925
 21
149.3190999999999
 31
0.0
  0
LINE
  5
10C
330
1E
100
AcDbEntity
  8
0
100
AcDbLine
 10
169.1721924999999
 20
126.4040999999999
 30
0.0
 11
174.7061925
 21
130.6131
 31
0.0
  0
LINE
  5
10D
330
1E
100
AcDbEntity
  8
0
100
AcDbLine
 10
168.0001925
 20
125.918135362228
 30
0.0
 11
169.1721924999999
 21
126.4040999999999
 31
0.0
  0
LINE
  5
10E
330
1E
100
AcDbEntity
  8
0
100
AcDbLine
 10
147.5291925
 20
157.7900999999999
 30
0.0
 11
150.0351924999999
 21
159.6950999999999
 31
0.0
  0
LINE
  5
10F
330
1E
100
AcDbEntity
  8
0
100
AcDbLine
 10
166.3761925
 20
155.2840999999999
 30
0.0
 11
167.5761924999999
 21
152.3900999999999
 31
0.0
  0
LINE
  5
110
330
1E
100
AcDbEntity
  8
0
100
AcDbLine
 10
242.4941924999999
 20
152.9011
 30
0.0
 11
243.8941924999999
 21
156.2781
 31
0.0
  0
LINE
  5
111
330
1E
100
AcDbEntity
  8
0
100
AcDbLine
 10
268.9183334535089
 20
154.3191
 30
0.0
 11
311.7751925
 21
154.3191
 31
0.0
  0
LINE
  5
112
330
1E
100
AcDbEntity
  8
0
100
AcDbLine
 10
230.4351924999999
 20
156.1001
 30
0.0
 11
233.0851924999999
 21
162.4910999999999
 31
0.0
  0
LINE
  5
114
330
1E
100
AcDbEntity
  8
0
100
AcDbLine
 10
312.0131924999999
 20
153.6591
 30
0.0
 11
312.0131924999999
 21
144.9790999999999
 31
0.0
  0
LINE
  5
115
330
1E
100
AcDbEntity
  8
0
100
AcDbLine
 10
311.9551925
 20
154.1391
 30
0.0
 11
312.0131924999999
 21
153.6591
 31
0.0
  0
LINE
  5
116
330
1E
100
AcDbEntity
  8
0
100
AcDbLine
 10
311.7751925
 20
154.3191
 30
0.0
 11
311.9551925
 21
154.1391
 31
0.0
  0
LINE
  5
117
330
1E
100
AcDbEntity
  8
0
100
AcDbLine
 10
281.5651924999999
 20
156.1001
 30
0.0
 11
281.810766161702
 21
154.3191
 31
0.0
  0
LINE
  5
118
330
1E
100
AcDbEntity
  8
0
100
AcDbLine
 10
164.4711925
 20
157.7900999999999
 30
0.0
 11
166.3761925
 21
155.2840999999999
 31
0.0
  0
LINE
  5
119
330
1E
100
AcDbEntity
  8
0
100
AcDbLine
 10
243.8941924999999
 20
156.2781
 30
0.0
 11
246.1181924999999
 21
159.2011
 31
0.0
  0
LINE
  5
11A
330
1E
100
AcDbEntity
  8
0
100
AcDbLine
 10
246.1181924999999
 20
159.2011
 30
0.0
 11
249.0411925
 21
161.4250999999999
 31
0.0
  0
LINE
  5
11B
330
1E
100
AcDbEntity
  8
0
100
AcDbLine
 10
161.9651925
 20
159.6950999999999
 30
0.0
 11
164.4711925
 21
157.7900999999999
 31
0.0
  0
LINE
  5
11C
330
1E
100
AcDbEntity
  8
0
100
AcDbLine
 10
159.0711924999999
 20
160.8951
 30
0.0
 11
161.9651925
 21
159.6950999999999
 31
0.0
  0
LINE
  5
11D
330
1E
100
AcDbEntity
  8
0
100
AcDbLine
 10
265.8821924999999
 20
159.2011
 30
0.0
 11
268.1061924999999
 21
156.2781
 31
0.0
  0
LINE
  5
11E
330
1E
100
AcDbEntity
  8
0
100
AcDbLine
 10
268.1061924999999
 20
156.2781
 30
0.0
 11
268.9929558994669
 21
154.1391
 31
0.0
  0
LINE
  5
11F
330
1E
100
AcDbEntity
  8
0
100
AcDbLine
 10
181.5651925
 20
156.1001
 30
0.0
 11
182.5001925
 21
149.3190999999999
 31
0.0
  0
LINE
  5
120
330
1E
100
AcDbEntity
  8
0
100
AcDbLine
 10
150.0351924999999
 20
159.6950999999999
 30
0.0
 11
152.9291925
 21
160.8951
 31
0.0
  0
LINE
  5
121
330
1E
100
AcDbEntity
  8
0
100
AcDbLine
 10
156.0001924999999
 20
161.3191
 30
0.0
 11
159.0711924999999
 21
160.8951
 31
0.0
  0
LINE
  5
122
330
1E
100
AcDbEntity
  8
0
100
AcDbLine
 10
174.7061925
 20
168.0251
 30
0.0
 11
178.9151925
 21
162.4910999999999
 31
0.0
  0
LINE
  5
123
330
1E
100
AcDbEntity
  8
0
100
AcDbLine
 10
249.0411925
 20
161.4250999999999
 30
0.0
 11
252.4181924999999
 21
162.8250999999999
 31
0.0
  0
LINE
  5
124
330
1E
100
AcDbEntity
  8
0
100
AcDbLine
 10
262.9591924999999
 20
161.4250999999999
 30
0.0
 11
265.8821924999999
 21
159.2011
 31
0.0
  0
LINE
  5
125
330
1E
100
AcDbEntity
  8
0
100
AcDbLine
 10
233.0851924999999
 20
162.4910999999999
 30
0.0
 11
237.2941924999999
 21
168.0251
 31
0.0
  0
LINE
  5
126
330
1E
100
AcDbEntity
  8
0
100
AcDbLine
 10
237.2941924999999
 20
168.0251
 30
0.0
 11
242.8281924999999
 21
172.2341
 31
0.0
  0
LINE
  5
127
330
1E
100
AcDbEntity
  8
0
100
AcDbLine
 10
252.4181924999999
 20
162.8250999999999
 30
0.0
 11
256.0001924999999
 21
163.3191
 31
0.0
  0
LINE
  5
128
330
1E
100
AcDbEntity
  8
0
100
AcDbLine
 10
259.5821924999999
 20
162.8250999999999
 30
0.0
 11
262.9591924999999
 21
161.4250999999999
 31
0.0
  0
LINE
  5
129
330
1E
100
AcDbEntity
  8
0
100
AcDbLine
 10
256.0001924999999
 20
163.3191
 30
0.0
 11
259.5821924999999
 21
162.8250999999999
 31
0.0
  0
LINE
  5
12A
330
1E
100
AcDbEntity
  8
0
100
AcDbLine
 10
242.8281924999999
 20
172.2341
 30
0.0
 11
249.2191924999999
 21
174.8840999999999
 31
0.0
  0
LINE
  5
12B
330
1E
100
AcDbEntity
  8
0
100
AcDbLine
 10
269.1721924999999
 20
172.2341
 30
0.0
 11
274.7061925
 21
168.0251
 31
0.0
  0
LINE
  5
12C
330
1E
100
AcDbEntity
  8
0
100
AcDbLine
 10
274.7061925
 20
168.0251
 30
0.0
 11
278.9151925
 21
162.4910999999999
 31
0.0
  0
LINE
  5
12D
330
1E
100
AcDbEntity
  8
0
100
AcDbLine
 10
278.9151925
 20
162.4910999999999
 30
0.0
 11
281.5651924999999
 21
156.1001
 31
0.0
  0
LINE
  5
12E
330
1E
100
AcDbEntity
  8
0
100
AcDbLine
 10
178.9151925
 20
162.4910999999999
 30
0.0
 11
181.5651925
 21
156.1001
 31
0.0
  0
LINE
  5
12F
330
1E
100
AcDbEntity
  8
0
100
AcDbLine
 10
249.2191924999999
 20
174.8840999999999
 30
0.0
 11
256.0001924999999
 21
175.8191
 31
0.0
  0
LINE
  5
130
330
1E
100
AcDbEntity
  8
0
100
AcDbLine
 10
262.7811924999999
 20
174.8840999999999
 30
0.0
 11
269.1721924999999
 21
172.2341
 31
0.0
  0
LINE
  5
131
330
1E
100
AcDbEntity
  8
0
100
AcDbLine
 10
256.0001924999999
 20
175.8191
 30
0.0
 11
262.7811924999999
 21
174.8840999999999
 31
0.0
  0
LINE
  5
132
330
1E
100
AcDbEntity
  8
0
100
AcDbLine
 10
162.7811925
 20
174.8840999999999
 30
0.0
 11
169.1721924999999
 21
172.2341
 31
0.0
  0
LINE
  5
133
330
1E
100
AcDbEntity
  8
0
100
AcDbLine
 10
156.0001924999999
 20
175.8191
 30
0.0
 11
162.7811925
 21
174.8840999999999
 31
0.0
  0
LINE
  5
134
330
1E
100
AcDbEntity
  8
0
100
AcDbLine
 10
169.1721924999999
 20
172.2341
 30
0.0
 11
174.7061925
 21
168.0251
 31
0.0
  0
LINE
  5
135
330
1E
100
AcDbEntity
  8
0
100
AcDbLine
 10
149.2191925
 20
174.8840999999999
 30
0.0
 11
156.0001924999999
 21
175.8191
 31
0.0
  0
LINE
  5
136
330
1E
100
AcDbEntity
  8
0
100
AcDbLine
 10
152.9291925
 20
160.8951
 30
0.0
 11
156.0001924999999
 21
161.3191
 31
0.0
  0
LINE
  5
137
330
1E
100
AcDbEntity
  8
0
100
AcDbLine
 10
145.6241925
 20
155.2840999999999
 30
0.0
 11
147.5291925
 21
157.7900999999999
 31
0.0
  0
LINE
  5
138
330
1E
100
AcDbEntity
  8
0
100
AcDbLine
 10
144.4241925
 20
152.3900999999999
 30
0.0
 11
145.6241925
 21
155.2840999999999
 31
0.0
  0
LINE
  5
139
330
1E
100
AcDbEntity
  8
0
100
AcDbLine
 10
144.0001924999999
 20
149.3190999999999
 30
0.0
 11
144.4241925
 21
152.3900999999999
 31
0.0
  0
LINE
  5
13A
330
1E
100
AcDbEntity
  8
0
100
AcDbLine
 10
144.0001924999999
 20
149.3190999999999
 30
0.0
 11
144.0227272506129
 21
149.1558825020439
 31
0.0
  0
LINE
  5
13B
330
1E
100
AcDbEntity
  8
0
100
AcDbLine
 10
144.0001924999999
 20
149.3190999999999
 30
0.0
 11
144.0001924999999
 21
148.9940999999999
 31
0.0
  0
LINE
  5
140
330
1E
100
AcDbEntity
  8
0
100
AcDbLine
 10
-0.0131924999999744
 20
153.6591
 30
0.0
 11
-0.0131924999999744
 21
144.9790999999999
 31
0.0
  0
ENDSEC
  0
SECTION
  2
OBJECTS
  0
DICTIONARY
  5
C
330
0
100
AcDbDictionary
  3
ACAD_GROUP
350
D
  3
ACAD_LAYOUT
350
19
  3
ACAD_MLINESTYLE
350
16
  3
ACAD_PLOTSETTINGS
350
18
  3
ACAD_PLOTSTYLENAME
350
E
  3
ACDBHEADERROUNDTRIPXREC
350
145
  3
ACDBVARIABLEDICTIONARY
350
142
  0
DICTIONARY
  5
167
330
1E
100
AcDbDictionary
280
     1
  3
ACAD_LAYOUTSELFREF
360
168
  0
DICTIONARY
  5
165
330
1A
100
AcDbDictionary
280
     1
  3
ACAD_LAYOUTSELFREF
360
166
  0
DICTIONARY
  5
D
102
{ACAD_REACTORS
330
C
102
}
330
C
100
AcDbDictionary
  0
DICTIONARY
  5
19
102
{ACAD_REACTORS
330
C
102
}
330
C
100
AcDbDictionary
  0
DICTIONARY
  5
16
102
{ACAD_REACTORS
330
C
102
}
330
C
100
AcDbDictionary
  3
STANDARD
350
17
  0
DICTIONARY
  5
18
102
{ACAD_REACTORS
330
C
102
}
330
C
100
AcDbDictionary
  0
ACDBDICTIONARYWDFLT
  5
E
102
{ACAD_REACTORS
330
C
102
}
330
C
100
AcDbDictionary
281
     1
  3
Normal
350
F
100
AcDbDictionaryWithDefault
340
F
  0
DICTIONARY
  5
145
102
{ACAD_REACTORS
330
C
102
}
330
C
100
AcDbDictionary
  3
CEPSNTYPE
350
14F
  3
FINGERPRINTGUID
350
150
  3
HYPERLINKBASE
350
148
  3
INSUNITS
350
14E
  3
LAYOUTDICT
350
14A
  3
LWETCUNION
350
14D
  3
PLOTSETDICT
350
14B
  3
PLOTSTYLNAMDICT
350
14C
  3
PSVPSCALE
350
152
  3
PUCSBASE
350
155
  3
PUCSORGBACK
350
15B
  3
PUCSORGBOTTOM
350
157
  3
PUCSORGFRONT
350
15A
  3
PUCSORGLEFT
350
158
  3
PUCSORGRIGHT
350
159
  3
PUCSORGTOP
350
156
  3
PUCSORTHOREF
350
153
  3
PUCSORTHOVIEW
350
154
  3
STYLESHEET
350
149
  3
TSTACKALIGN
350
146
  3
TSTACKSIZE
350
147
  3
UCSBASE
350
15E
  3
UCSORGBACK
350
164
  3
UCSORGBOTTOM
350
160
  3
UCSORGFRONT
350
163
  3
UCSORGLEFT
350
161
  3
UCSORGRIGHT
350
162
  3
UCSORGTOP
350
15F
  3
UCSORTHOREF
350
15C
  3
UCSORTHOVIEW
350
15D
  3
VERSIONGUID
350
151
  0
DICTIONARY
  5
142
102
{ACAD_REACTORS
330
C
102
}
330
C
100
AcDbDictionary
  3
DIMASSOC
350
143
  0
XRECORD
  5
168
102
{ACAD_REACTORS
330
167
102
}
330
167
100
AcDbXrecord
340
1E
  0
XRECORD
  5
166
102
{ACAD_REACTORS
330
165
102
}
330
165
100
AcDbXrecord
340
1A
  0
MLINESTYLE
  5
17
102
{ACAD_REACTORS
330
16
102
}
330
16
100
AcDbMlineStyle
  2
STANDARD
 70
     0
  3

 62
   256
 51
90.0
 52
90.0
 71
     2
 49
0.5
 62
   256
  6
BYLAYER
 49
-0.5
 62
   256
  6
BYLAYER
  0
ACDBPLACEHOLDER
  5
F
102
{ACAD_REACTORS
330
E
102
}
330
E
100
AcDbPlaceHolder
280
     0
  0
XRECORD
  5
14F
102
{ACAD_REACTORS
330
145
102
}
330
145
100
AcDbXrecord
 90
        0
  0
XRECORD
  5
150
102
{ACAD_REACTORS
330
145
102
}
330
145
100
AcDbXrecord
  1
{33C701F2-C074-4830-B897-8032B42EB90F}
  0
XRECORD
  5
148
102
{ACAD_REACTORS
330
145
102
}
330
145
100
AcDbXrecord
  1

  0
XRECORD
  5
14E
102
{ACAD_REACTORS
330
145
102
}
330
145
100
AcDbXrecord
 90
        0
  0
XRECORD
  5
14A
102
{ACAD_REACTORS
330
145
102
}
330
145
100
AcDbXrecord
340
19
  0
XRECORD
  5
14D
102
{ACAD_REACTORS
330
145
102
}
330
145
100
AcDbXrecord
 90
    10781
  0
XRECORD
  5
14B
102
{ACAD_REACTORS
330
145
102
}
330
145
100
AcDbXrecord
340
18
  0
XRECORD
  5
14C
102
{ACAD_REACTORS
330
145
102
}
330
145
100
AcDbXrecord
340
E
  0
XRECORD
  5
152
102
{ACAD_REACTORS
330
145
102
}
330
145
100
AcDbXrecord
 40
0.0
  0
XRECORD
  5
155
102
{ACAD_REACTORS
330
145
102
}
330
145
100
AcDbXrecord
340
0
  0
XRECORD
  5
15B
102
{ACAD_REACTORS
330
145
102
}
330
145
100
AcDbXrecord
 10
0.0
 20
0.0
 30
0.0
  0
XRECORD
  5
157
102
{ACAD_REACTORS
330
145
102
}
330
145
100
AcDbXrecord
 10
0.0
 20
0.0
 30
0.0
  0
XRECORD
  5
15A
102
{ACAD_REACTORS
330
145
102
}
330
145
100
AcDbXrecord
 10
0.0
 20
0.0
 30
0.0
  0
XRECORD
  5
158
102
{ACAD_REACTORS
330
145
102
}
330
145
100
AcDbXrecord
 10
0.0
 20
0.0
 30
0.0
  0
XRECORD
  5
159
102
{ACAD_REACTORS
330
145
102
}
330
145
100
AcDbXrecord
 10
0.0
 20
0.0
 30
0.0
  0
XRECORD
  5
156
102
{ACAD_REACTORS
330
145
102
}
330
145
100
AcDbXrecord
 10
0.0
 20
0.0
 30
0.0
  0
XRECORD
  5
153
102
{ACAD_REACTORS
330
145
102
}
330
145
100
AcDbXrecord
340
0
  0
XRECORD
  5
154
102
{ACAD_REACTORS
330
145
102
}
330
145
100
AcDbXrecord
 70
     0
  0
XRECORD
  5
149
102
{ACAD_REACTORS
330
145
102
}
330
145
100
AcDbXrecord
  1

  0
XRECORD
  5
146
102
{ACAD_REACTORS
330
145
102
}
330
145
100
AcDbXrecord
 90
        1
  0
XRECORD
  5
147
102
{ACAD_REACTORS
330
145
102
}
330
145
100
AcDbXrecord
 90
       70
  0
XRECORD
  5
15E
102
{ACAD_REACTORS
330
145
102
}
330
145
100
AcDbXrecord
340
0
  0
XRECORD
  5
164
102
{ACAD_REACTORS
330
145
102
}
330
145
100
AcDbXrecord
 10
0.0
 20
0.0
 30
0.0
  0
XRECORD
  5
160
102
{ACAD_REACTORS
330
145
102
}
330
145
100
AcDbXrecord
 10
0.0
 20
0.0
 30
0.0
  0
XRECORD
  5
163
102
{ACAD_REACTORS
330
145
102
}
330
145
100
AcDbXrecord
 10
0.0
 20
0.0
 30
0.0
  0
XRECORD
  5
161
102
{ACAD_REACTORS
330
145
102
}
330
145
100
AcDbXrecord
 10
0.0
 20
0.0
 30
0.0
  0
XRECORD
  5
162
102
{ACAD_REACTORS
330
145
102
}
330
145
100
AcDbXrecord
 10
0.0
 20
0.0
 30
0.0
  0
XRECORD
  5
15F
102
{ACAD_REACTORS
330
145
102
}
330
145
100
AcDbXrecord
 10
0.0
 20
0.0
 30
0.0
  0
XRECORD
  5
15C
102
{ACAD_REACTORS
330
145
102
}
330
145
100
AcDbXrecord
340
0
  0
XRECORD
  5
15D
102
{ACAD_REACTORS
330
145
102
}
330
145
100
AcDbXrecord
 70
     1
  0
XRECORD
  5
151
102
{ACAD_REACTORS
330
145
102
}
330
145
100
AcDbXrecord
  1
{A767816A-36A9-46BE-8382-2181CC357474}
  0
DICTIONARYVAR
  5
143
102
{ACAD_REACTORS
330
142
102
}
330
142
100
DictionaryVariables
280
     0
  1
1
  0
ENDSEC
  0
EOF
