  0
SECTION
  2
HEADER
  9
$ACADVER
  1
AC1014
  9
$ACADMAINTVER
 70
     9
  9
$DWGCODEPAGE
  3
ANSI_1252
  9
$INSBASE
 10
0.0
 20
0.0
 30
0.0
  9
$EXTMIN
 10
-0.0999999999999851
 20
-0.0000000000000144
 30
0.0
  9
$EXTMAX
 10
149.0999999999999
 20
130.0
 30
0.0
  9
$LIMMIN
 10
0.0
 20
0.0
  9
$LIMMAX
 10
12.0
 20
9.0
  9
$ORTHOMODE
 70
     0
  9
$REGENMODE
 70
     1
  9
$FILLMODE
 70
     1
  9
$QTEXTMODE
 70
     0
  9
$MIRRTEXT
 70
     1
  9
$DRAGMODE
 70
     2
  9
$LTSCALE
 40
1.0
  9
$OSMODE
 70
    37
  9
$ATTMODE
 70
     1
  9
$TEXTSIZE
 40
0.2
  9
$TRACEWID
 40
0.05
  9
$TEXTSTYLE
  7
STANDARD
  9
$CLAYER
  8
0
  9
$CELTYPE
  6
CONTINUOUS
  9
$CECOLOR
 62
   256
  9
$CELTSCALE
 40
1.0
  9
$DELOBJ
 70
     1
  9
$DISPSILH
 70
     0
  9
$DIMSCALE
 40
1.0
  9
$DIMASZ
 40
0.18
  9
$DIMEXO
 40
0.0625
  9
$DIMDLI
 40
0.38
  9
$DIMRND
 40
0.0
  9
$DIMDLE
 40
0.0
  9
$DIMEXE
 40
0.18
  9
$DIMTP
 40
0.0
  9
$DIMTM
 40
0.0
  9
$DIMTXT
 40
0.18
  9
$DIMCEN
 40
0.09
  9
$DIMTSZ
 40
0.0
  9
$DIMTOL
 70
     0
  9
$DIMLIM
 70
     0
  9
$DIMTIH
 70
     1
  9
$DIMTOH
 70
     1
  9
$DIMSE1
 70
     0
  9
$DIMSE2
 70
     0
  9
$DIMTAD
 70
     0
  9
$DIMZIN
 70
     0
  9
$DIMBLK
  1

  9
$DIMASO
 70
     1
  9
$DIMSHO
 70
     1
  9
$DIMPOST
  1

  9
$DIMAPOST
  1

  9
$DIMALT
 70
     0
  9
$DIMALTD
 70
     2
  9
$DIMALTF
 40
25.4
  9
$DIMLFAC
 40
1.0
  9
$DIMTOFL
 70
     0
  9
$DIMTVP
 40
0.0
  9
$DIMTIX
 70
     0
  9
$DIMSOXD
 70
     0
  9
$DIMSAH
 70
     0
  9
$DIMBLK1
  1

  9
$DIMBLK2
  1

  9
$DIMSTYLE
  2
STANDARD
  9
$DIMCLRD
 70
     0
  9
$DIMCLRE
 70
     0
  9
$DIMCLRT
 70
     0
  9
$DIMTFAC
 40
1.0
  9
$DIMGAP
 40
0.09
  9
$DIMJUST
 70
     0
  9
$DIMSD1
 70
     0
  9
$DIMSD2
 70
     0
  9
$DIMTOLJ
 70
     1
  9
$DIMTZIN
 70
     0
  9
$DIMALTZ
 70
     0
  9
$DIMALTTZ
 70
     0
  9
$DIMFIT
 70
     3
  9
$DIMUPT
 70
     0
  9
$DIMUNIT
 70
     2
  9
$DIMDEC
 70
     4
  9
$DIMTDEC
 70
     4
  9
$DIMALTU
 70
     2
  9
$DIMALTTD
 70
     2
  9
$DIMTXSTY
  7
STANDARD
  9
$DIMAUNIT
 70
     0
  9
$LUNITS
 70
     2
  9
$LUPREC
 70
     4
  9
$SKETCHINC
 40
0.1
  9
$FILLETRAD
 40
0.0
  9
$AUNITS
 70
     0
  9
$AUPREC
 70
     0
  9
$MENU
  1
.
  9
$ELEVATION
 40
0.0
  9
$PELEVATION
 40
0.0
  9
$THICKNESS
 40
0.0
  9
$LIMCHECK
 70
     0
  9
$BLIPMODE
 70
     0
  9
$CHAMFERA
 40
0.0
  9
$CHAMFERB
 40
0.0
  9
$CHAMFERC
 40
0.0
  9
$CHAMFERD
 40
0.0
  9
$SKPOLY
 70
     0
  9
$TDCREATE
 40
2454696.794913367
  9
$TDUPDATE
 40
2454696.796911528
  9
$TDINDWG
 40
0.0019981597
  9
$TDUSRTIMER
 40
0.0019981597
  9
$USRTIMER
 70
     1
  9
$ANGBASE
 50
0.0
  9
$ANGDIR
 70
     0
  9
$PDMODE
 70
     0
  9
$PDSIZE
 40
0.0
  9
$PLINEWID
 40
0.0
  9
$COORDS
 70
     1
  9
$SPLFRAME
 70
     0
  9
$SPLINETYPE
 70
     6
  9
$SPLINESEGS
 70
     8
  9
$ATTDIA
 70
     0
  9
$ATTREQ
 70
     1
  9
$HANDLING
 70
 22529
  9
$HANDSEED
  5
1B7
  9
$SURFTAB1
 70
     6
  9
$SURFTAB2
 70
     6
  9
$SURFTYPE
 70
     6
  9
$SURFU
 70
     6
  9
$SURFV
 70
     6
  9
$UCSNAME
  2

  9
$UCSORG
 10
0.0
 20
0.0
 30
0.0
  9
$UCSXDIR
 10
1.0
 20
0.0
 30
0.0
  9
$UCSYDIR
 10
0.0
 20
1.0
 30
0.0
  9
$PUCSNAME
  2

  9
$PUCSORG
 10
0.0
 20
0.0
 30
0.0
  9
$PUCSXDIR
 10
1.0
 20
0.0
 30
0.0
  9
$PUCSYDIR
 10
0.0
 20
1.0
 30
0.0
  9
$USERI1
 70
     0
  9
$USERI2
 70
     0
  9
$USERI3
 70
     0
  9
$USERI4
 70
     0
  9
$USERI5
 70
     0
  9
$USERR1
 40
0.0
  9
$USERR2
 40
0.0
  9
$USERR3
 40
0.0
  9
$USERR4
 40
0.0
  9
$USERR5
 40
0.0
  9
$WORLDVIEW
 70
     1
  9
$SHADEDGE
 70
     3
  9
$SHADEDIF
 70
    70
  9
$TILEMODE
 70
     1
  9
$MAXACTVP
 70
    64
  9
$PINSBASE
 10
0.0
 20
0.0
 30
0.0
  9
$PLIMCHECK
 70
     0
  9
$PEXTMIN
 10
1.000000000000000E+20
 20
1.000000000000000E+20
 30
1.000000000000000E+20
  9
$PEXTMAX
 10
-1.000000000000000E+20
 20
-1.000000000000000E+20
 30
-1.000000000000000E+20
  9
$PLIMMIN
 10
0.0
 20
0.0
  9
$PLIMMAX
 10
12.0
 20
9.0
  9
$UNITMODE
 70
     0
  9
$VISRETAIN
 70
     1
  9
$PLINEGEN
 70
     0
  9
$PSLTSCALE
 70
     1
  9
$TREEDEPTH
 70
  3020
  9
$PICKSTYLE
 70
     1
  9
$CMLSTYLE
  2
STANDARD
  9
$CMLJUST
 70
     0
  9
$CMLSCALE
 40
1.0
  9
$PROXYGRAPHICS
 70
     1
  9
$MEASUREMENT
 70
     0
  0
ENDSEC
  0
SECTION
  2
CLASSES
  0
CLASS
  1
ACDBDICTIONARYWDFLT
  2
AcDbDictionaryWithDefault
  3
AutoCAD 2000
 90
        0
280
     0
281
     0
  0
CLASS
  1
ACDBPLACEHOLDER
  2
AcDbPlaceHolder
  3
AutoCAD 2000
 90
        0
280
     0
281
     0
  0
CLASS
  1
LAYOUT
  2
AcDbLayout
  3
AutoCAD 2000
 90
        0
280
     0
281
     0
  0
CLASS
  1
DICTIONARYVAR
  2
AcDbDictionaryVar
  3
AutoCAD 2000
 90
        0
280
     0
281
     0
  0
CLASS
  1
LONG_TRANSACTION
  2
AcDbLongTransaction
  3
AutoCAD 2000
 90
        0
280
     0
281
     0
  0
CLASS
  1
LWPOLYLINE
  2
AcDbPolyline
  3
AutoCAD 2000
 90
        0
280
     0
281
     1
  0
CLASS
  1
HATCH
  2
AcDbHatch
  3
AutoCAD 2000
 90
        0
280
     0
281
     1
  0
CLASS
  1
XRECORD
  2
AcDbXrecord
  3
AutoCAD 2000
 90
        0
280
     0
281
     0
  0
ENDSEC
  0
SECTION
  2
TABLES
  0
TABLE
  2
VPORT
  5
8
330
0
100
AcDbSymbolTable
 70
     3
  0
VPORT
  5
192
330
8
100
AcDbSymbolTableRecord
100
AcDbViewportTableRecord
  2
*ACTIVE
 70
     0
 10
0.0
 20
0.0
 11
1.0
 21
1.0
 12
74.50000000000001
 22
65.0
 13
0.0
 23
0.0
 14
1.0
 24
1.0
 15
0.0
 25
0.0
 16
0.0
 26
0.0
 36
1.0
 17
0.0
 27
0.0
 37
0.0
 40
130.997442455243
 41
2.078104993597951
 42
50.0
 43
0.0
 44
0.0
 50
0.0
 51
0.0
 71
     0
 72
   100
 73
     1
 74
     3
 75
     0
 76
     0
 77
     0
 78
     0
  0
ENDTAB
  0
TABLE
  2
LTYPE
  5
5
330
0
100
AcDbSymbolTable
 70
     1
  0
LTYPE
  5
13
330
5
100
AcDbSymbolTableRecord
100
AcDbLinetypeTableRecord
  2
BYBLOCK
 70
     0
  3

 72
    65
 73
     0
 40
0.0
  0
LTYPE
  5
14
330
5
100
AcDbSymbolTableRecord
100
AcDbLinetypeTableRecord
  2
BYLAYER
 70
     0
  3

 72
    65
 73
     0
 40
0.0
  0
LTYPE
  5
15
330
5
100
AcDbSymbolTableRecord
100
AcDbLinetypeTableRecord
  2
CONTINUOUS
 70
     0
  3
Solid line
 72
    65
 73
     0
 40
0.0
  0
ENDTAB
  0
TABLE
  2
LAYER
  5
2
330
0
100
AcDbSymbolTable
 70
     1
  0
LAYER
  5
10
330
2
100
AcDbSymbolTableRecord
100
AcDbLayerTableRecord
  2
0
 70
     0
 62
     7
  6
CONTINUOUS
  0
ENDTAB
  0
TABLE
  2
STYLE
  5
3
330
0
100
AcDbSymbolTable
 70
     1
  0
STYLE
  5
11
330
3
100
AcDbSymbolTableRecord
100
AcDbTextStyleTableRecord
  2
STANDARD
 70
     0
 40
0.0
 41
1.0
 50
0.0
 71
     0
 42
0.2
  3
txt
  4

  0
ENDTAB
  0
TABLE
  2
VIEW
  5
6
330
0
100
AcDbSymbolTable
 70
     0
  0
ENDTAB
  0
TABLE
  2
UCS
  5
7
330
0
100
AcDbSymbolTable
 70
     0
  0
ENDTAB
  0
TABLE
  2
APPID
  5
9
330
0
100
AcDbSymbolTable
 70
     1
  0
APPID
  5
12
330
9
100
AcDbSymbolTableRecord
100
AcDbRegAppTableRecord
  2
ACAD
 70
     0
  0
ENDTAB
  0
TABLE
  2
DIMSTYLE
  5
A
330
0
100
AcDbSymbolTable
 70
     1
  0
DIMSTYLE
105
167
330
A
100
AcDbSymbolTableRecord
100
AcDbDimStyleTableRecord
  2
STANDARD
 70
     0
  3

  4

  5

  6

  7

 40
1.0
 41
0.18
 42
0.0625
 43
0.38
 44
0.18
 45
0.0
 46
0.0
 47
0.0
 48
0.0
140
0.18
141
0.09
142
0.0
143
25.4
144
1.0
145
0.0
146
1.0
147
0.09
 71
     0
 72
     0
 73
     1
 74
     1
 75
     0
 76
     0
 77
     0
 78
     0
170
     0
171
     2
172
     0
173
     0
174
     0
175
     0
176
     0
177
     0
178
     0
270
     2
271
     4
272
     4
273
     2
274
     2
340
11
275
     0
280
     0
281
     0
282
     0
283
     1
284
     0
285
     0
286
     0
287
     3
288
     0
  0
ENDTAB
  0
TABLE
  2
BLOCK_RECORD
  5
1
330
0
100
AcDbSymbolTable
 70
     0
  0
BLOCK_RECORD
  5
1E
102
{ACAD_XDICTIONARY
360
1B5
102
}
330
1
100
AcDbSymbolTableRecord
100
AcDbBlockTableRecord
  2
*MODEL_SPACE
  0
BLOCK_RECORD
  5
1A
102
{ACAD_XDICTIONARY
360
1B3
102
}
330
1
100
AcDbSymbolTableRecord
100
AcDbBlockTableRecord
  2
*PAPER_SPACE
  0
ENDTAB
  0
ENDSEC
  0
SECTION
  2
BLOCKS
  0
BLOCK
  5
1F
330
1E
100
AcDbEntity
  8
0
100
AcDbBlockBegin
  2
*MODEL_SPACE
 70
     0
 10
0.0
 20
0.0
 30
0.0
  3
*MODEL_SPACE
  1

  0
ENDBLK
  5
20
330
1E
100
AcDbEntity
  8
0
100
AcDbBlockEnd
  0
BLOCK
  5
1B
330
1A
100
AcDbEntity
 67
     1
  8
0
100
AcDbBlockBegin
  2
*PAPER_SPACE
 70
     0
 10
0.0
 20
0.0
 30
0.0
  3
*PAPER_SPACE
  1

  0
ENDBLK
  5
1C
330
1A
100
AcDbEntity
 67
     1
  8
0
100
AcDbBlockEnd
  0
ENDSEC
  0
SECTION
  2
ENTITIES
  0
LINE
  5
22
330
1E
100
AcDbEntity
  8
0
100
AcDbLine
 10
26.9316
 20
53.3817
 30
0.0
 11
26.9316
 21
53.0217
 31
0.0
  0
LINE
  5
23
330
1E
100
AcDbEntity
  8
0
100
AcDbLine
 10
26.9316
 20
53.3817
 30
0.0
 11
26.9316
 21
54.3417
 31
0.0
  0
LINE
  5
24
330
1E
100
AcDbEntity
  8
0
100
AcDbLine
 10
26.9316
 20
53.3817
 30
0.0
 11
26.9316
 21
53.615
 31
0.0
  0
LINE
  5
25
330
1E
100
AcDbEntity
  8
0
100
AcDbLine
 10
26.9316
 20
53.0217
 30
0.0
 11
27.4673
 21
52.7817
 31
0.0
  0
LINE
  5
26
330
1E
100
AcDbEntity
  8
0
100
AcDbLine
 10
26.9316
 20
53.0217
 30
0.0
 11
26.9316
 21
53.3817
 31
0.0
  0
LINE
  5
27
330
1E
100
AcDbEntity
  8
0
100
AcDbLine
 10
8.931582000000009
 20
54.1605
 30
0.0
 11
8.931582000000009
 21
53.8332
 31
0.0
  0
LINE
  5
28
330
1E
100
AcDbEntity
  8
0
100
AcDbLine
 10
8.931582000000009
 20
54.1605
 30
0.0
 11
8.931582000000009
 21
55.0332
 31
0.0
  0
LINE
  5
29
330
1E
100
AcDbEntity
  8
0
100
AcDbLine
 10
26.9316
 20
54.3417
 30
0.0
 11
26.9316
 21
53.3817
 31
0.0
  0
LINE
  5
2A
330
1E
100
AcDbEntity
  8
0
100
AcDbLine
 10
26.9316
 20
54.3417
 30
0.0
 11
26.9316
 21
55.9017
 31
0.0
  0
LINE
  5
2B
330
1E
100
AcDbEntity
  8
0
100
AcDbLine
 10
8.931582000000009
 20
53.8332
 30
0.0
 11
9.33773600000001
 21
53.615
 31
0.0
  0
LINE
  5
2C
330
1E
100
AcDbEntity
  8
0
100
AcDbLine
 10
8.931582000000009
 20
53.8332
 30
0.0
 11
8.931582000000009
 21
54.1605
 31
0.0
  0
LINE
  5
2D
330
1E
100
AcDbEntity
  8
0
100
AcDbLine
 10
8.931582000000009
 20
56.4514
 30
0.0
 11
8.931582000000009
 21
55.0332
 31
0.0
  0
LINE
  5
2E
330
1E
100
AcDbEntity
  8
0
100
AcDbLine
 10
8.931582000000009
 20
56.4514
 30
0.0
 11
8.931582000000009
 21
58.3059
 31
0.0
  0
LINE
  5
2F
330
1E
100
AcDbEntity
  8
0
100
AcDbLine
 10
26.9316
 20
57.9417
 30
0.0
 11
26.9316
 21
55.9017
 31
0.0
  0
LINE
  5
30
330
1E
100
AcDbEntity
  8
0
100
AcDbLine
 10
26.9316
 20
57.9417
 30
0.0
 11
26.9316
 21
60.2617
 31
0.0
  0
LINE
  5
31
330
1E
100
AcDbEntity
  8
0
100
AcDbLine
 10
26.9316
 20
55.9017
 30
0.0
 11
26.9316
 21
54.3417
 31
0.0
  0
LINE
  5
32
330
1E
100
AcDbEntity
  8
0
100
AcDbLine
 10
26.9316
 20
55.9017
 30
0.0
 11
26.9316
 21
57.9417
 31
0.0
  0
LINE
  5
33
330
1E
100
AcDbEntity
  8
0
100
AcDbLine
 10
8.931582000000009
 20
55.0332
 30
0.0
 11
8.931582000000009
 21
54.1605
 31
0.0
  0
LINE
  5
34
330
1E
100
AcDbEntity
  8
0
100
AcDbLine
 10
8.931582000000009
 20
55.0332
 30
0.0
 11
8.931582000000009
 21
56.4514
 31
0.0
  0
LINE
  5
35
330
1E
100
AcDbEntity
  8
0
100
AcDbLine
 10
26.9316
 20
62.7817
 30
0.0
 11
26.9316
 21
60.2617
 31
0.0
  0
LINE
  5
36
330
1E
100
AcDbEntity
  8
0
100
AcDbLine
 10
26.9316
 20
62.7817
 30
0.0
 11
26.9316
 21
65.3017
 31
0.0
  0
LINE
  5
37
330
1E
100
AcDbEntity
  8
0
100
AcDbLine
 10
26.9316
 20
60.2617
 30
0.0
 11
26.9316
 21
57.9417
 31
0.0
  0
LINE
  5
38
330
1E
100
AcDbEntity
  8
0
100
AcDbLine
 10
26.9316
 20
60.2617
 30
0.0
 11
26.9316
 21
62.7817
 31
0.0
  0
LINE
  5
39
330
1E
100
AcDbEntity
  8
0
100
AcDbLine
 10
8.931582000000009
 20
62.706
 30
0.0
 11
8.931582000000009
 21
64.9969
 31
0.0
  0
LINE
  5
3A
330
1E
100
AcDbEntity
  8
0
100
AcDbLine
 10
8.931582000000009
 20
64.9969
 30
0.0
 11
8.931582000000009
 21
62.706
 31
0.0
  0
LINE
  5
3B
330
1E
100
AcDbEntity
  8
0
100
AcDbLine
 10
8.931582000000009
 20
64.9969
 30
0.0
 11
8.931582000000009
 21
67.10600000000001
 31
0.0
  0
LINE
  5
3C
330
1E
100
AcDbEntity
  8
0
100
AcDbLine
 10
26.9316
 20
62.706
 30
0.0
 11
26.9316
 21
65.03319999999999
 31
0.0
  0
LINE
  5
3D
330
1E
100
AcDbEntity
  8
0
100
AcDbLine
 10
8.931582000000009
 20
67.10600000000001
 30
0.0
 11
8.931582000000009
 21
64.9969
 31
0.0
  0
LINE
  5
3E
330
1E
100
AcDbEntity
  8
0
100
AcDbLine
 10
8.931582000000009
 20
67.10600000000001
 30
0.0
 11
8.931582000000009
 21
68.96049999999999
 31
0.0
  0
LINE
  5
3F
330
1E
100
AcDbEntity
  8
0
100
AcDbLine
 10
26.9316
 20
65.3017
 30
0.0
 11
26.9316
 21
62.7817
 31
0.0
  0
LINE
  5
40
330
1E
100
AcDbEntity
  8
0
100
AcDbLine
 10
26.9316
 20
65.3017
 30
0.0
 11
26.9316
 21
67.62170000000001
 31
0.0
  0
LINE
  5
41
330
1E
100
AcDbEntity
  8
0
100
AcDbLine
 10
26.9316
 20
67.62170000000001
 30
0.0
 11
26.9316
 21
65.3017
 31
0.0
  0
LINE
  5
42
330
1E
100
AcDbEntity
  8
0
100
AcDbLine
 10
26.9316
 20
67.62170000000001
 30
0.0
 11
26.9316
 21
69.66169999999999
 31
0.0
  0
LINE
  5
43
330
1E
100
AcDbEntity
  8
0
100
AcDbLine
 10
8.931582000000009
 20
68.96049999999999
 30
0.0
 11
8.931582000000009
 21
67.10600000000001
 31
0.0
  0
LINE
  5
44
330
1E
100
AcDbEntity
  8
0
100
AcDbLine
 10
8.931582000000009
 20
68.96049999999999
 30
0.0
 11
8.931582000000009
 21
70.37869999999999
 31
0.0
  0
LINE
  5
45
330
1E
100
AcDbEntity
  8
0
100
AcDbLine
 10
26.9316
 20
65.03319999999999
 30
0.0
 11
26.9316
 21
67.21510000000001
 31
0.0
  0
LINE
  5
46
330
1E
100
AcDbEntity
  8
0
100
AcDbLine
 10
26.9316
 20
67.21510000000001
 30
0.0
 11
26.9316
 21
69.1423
 31
0.0
  0
LINE
  5
47
330
1E
100
AcDbEntity
  8
0
100
AcDbLine
 10
8.931582000000009
 20
70.37869999999999
 30
0.0
 11
8.931582000000009
 21
68.96049999999999
 31
0.0
  0
LINE
  5
48
330
1E
100
AcDbEntity
  8
0
100
AcDbLine
 10
8.931582000000009
 20
70.37869999999999
 30
0.0
 11
8.931582000000009
 21
71.2514
 31
0.0
  0
LINE
  5
49
330
1E
100
AcDbEntity
  8
0
100
AcDbLine
 10
26.9316
 20
69.66169999999999
 30
0.0
 11
26.9316
 21
67.62170000000001
 31
0.0
  0
LINE
  5
4A
330
1E
100
AcDbEntity
  8
0
100
AcDbLine
 10
26.9316
 20
69.66169999999999
 30
0.0
 11
26.9316
 21
71.2217
 31
0.0
  0
LINE
  5
4B
330
1E
100
AcDbEntity
  8
0
100
AcDbLine
 10
26.9316
 20
71.2217
 30
0.0
 11
26.9316
 21
69.66169999999999
 31
0.0
  0
LINE
  5
4C
330
1E
100
AcDbEntity
  8
0
100
AcDbLine
 10
26.9316
 20
71.2217
 30
0.0
 11
26.9316
 21
72.1817
 31
0.0
  0
LINE
  5
4D
330
1E
100
AcDbEntity
  8
0
100
AcDbLine
 10
8.931582000000009
 20
71.2514
 30
0.0
 11
8.931582000000009
 21
70.37869999999999
 31
0.0
  0
LINE
  5
4E
330
1E
100
AcDbEntity
  8
0
100
AcDbLine
 10
8.931582000000009
 20
71.2514
 30
0.0
 11
8.931582000000009
 21
71.57869999999999
 31
0.0
  0
LINE
  5
4F
330
1E
100
AcDbEntity
  8
0
100
AcDbLine
 10
26.9316
 20
69.1423
 30
0.0
 11
26.9316
 21
70.5969
 31
0.0
  0
LINE
  5
50
330
1E
100
AcDbEntity
  8
0
100
AcDbLine
 10
26.9316
 20
70.5969
 30
0.0
 11
26.9316
 21
71.46959999999999
 31
0.0
  0
LINE
  5
51
330
1E
100
AcDbEntity
  8
0
100
AcDbLine
 10
8.931582000000009
 20
71.57869999999999
 30
0.0
 11
8.931582000000009
 21
71.2514
 31
0.0
  0
LINE
  5
52
330
1E
100
AcDbEntity
  8
0
100
AcDbLine
 10
8.931582000000009
 20
71.57869999999999
 30
0.0
 11
9.33773600000001
 21
71.79689999999999
 31
0.0
  0
LINE
  5
53
330
1E
100
AcDbEntity
  8
0
100
AcDbLine
 10
26.9316
 20
71.79689999999999
 30
0.0
 11
26.9316
 21
72.1817
 31
0.0
  0
LINE
  5
54
330
1E
100
AcDbEntity
  8
0
100
AcDbLine
 10
26.9316
 20
72.1817
 30
0.0
 11
26.9316
 21
71.2217
 31
0.0
  0
LINE
  5
55
330
1E
100
AcDbEntity
  8
0
100
AcDbLine
 10
26.9316
 20
72.1817
 30
0.0
 11
26.9316
 21
72.54170000000001
 31
0.0
  0
LINE
  5
56
330
1E
100
AcDbEntity
  8
0
100
AcDbLine
 10
26.9316
 20
72.1817
 30
0.0
 11
26.9316
 21
71.79689999999999
 31
0.0
  0
LINE
  5
57
330
1E
100
AcDbEntity
  8
0
100
AcDbLine
 10
26.9316
 20
72.54170000000001
 30
0.0
 11
26.9316
 21
72.1817
 31
0.0
  0
LINE
  5
58
330
1E
100
AcDbEntity
  8
0
100
AcDbLine
 10
26.9316
 20
72.54170000000001
 30
0.0
 11
27.4673
 21
72.7817
 31
0.0
  0
LINE
  5
59
330
1E
100
AcDbEntity
  8
0
100
AcDbLine
 10
9.33773600000001
 20
71.79689999999999
 30
0.0
 11
26.9316
 21
71.79689999999999
 31
0.0
  0
LINE
  5
5A
330
1E
100
AcDbEntity
  8
0
100
AcDbLine
 10
26.9316
 20
71.46959999999999
 30
0.0
 11
26.9316
 21
71.79689999999999
 31
0.0
  0
LINE
  5
5B
330
1E
100
AcDbEntity
  8
0
100
AcDbLine
 10
8.931582000000009
 20
60.415
 30
0.0
 11
8.931582000000009
 21
58.3059
 31
0.0
  0
LINE
  5
5C
330
1E
100
AcDbEntity
  8
0
100
AcDbLine
 10
8.931582000000009
 20
60.415
 30
0.0
 11
8.931582000000009
 21
62.706
 31
0.0
  0
LINE
  5
5D
330
1E
100
AcDbEntity
  8
0
100
AcDbLine
 10
8.931582000000009
 20
58.3059
 30
0.0
 11
8.931582000000009
 21
56.4514
 31
0.0
  0
LINE
  5
5E
330
1E
100
AcDbEntity
  8
0
100
AcDbLine
 10
8.931582000000009
 20
58.3059
 30
0.0
 11
8.931582000000009
 21
60.415
 31
0.0
  0
LINE
  5
5F
330
1E
100
AcDbEntity
  8
0
100
AcDbLine
 10
26.9316
 20
60.3787
 30
0.0
 11
26.9316
 21
62.706
 31
0.0
  0
LINE
  5
60
330
1E
100
AcDbEntity
  8
0
100
AcDbLine
 10
26.9316
 20
58.1969
 30
0.0
 11
26.9316
 21
60.3787
 31
0.0
  0
LINE
  5
61
330
1E
100
AcDbEntity
  8
0
100
AcDbLine
 10
26.9316
 20
56.2696
 30
0.0
 11
26.9316
 21
58.1969
 31
0.0
  0
LINE
  5
62
330
1E
100
AcDbEntity
  8
0
100
AcDbLine
 10
26.9316
 20
54.815
 30
0.0
 11
26.9316
 21
56.2696
 31
0.0
  0
LINE
  5
63
330
1E
100
AcDbEntity
  8
0
100
AcDbLine
 10
26.9316
 20
53.9423
 30
0.0
 11
26.9316
 21
54.815
 31
0.0
  0
LINE
  5
64
330
1E
100
AcDbEntity
  8
0
100
AcDbLine
 10
9.33773600000001
 20
53.615
 30
0.0
 11
26.9316
 21
53.615
 31
0.0
  0
LINE
  5
65
330
1E
100
AcDbEntity
  8
0
100
AcDbLine
 10
27.4673
 20
52.7817
 30
0.0
 11
31.3959
 21
52.7817
 31
0.0
  0
LINE
  5
66
330
1E
100
AcDbEntity
  8
0
100
AcDbLine
 10
46.6
 20
53.0
 30
0.0
 11
59.29999999999999
 21
48.5
 31
0.0
  0
LINE
  5
67
330
1E
100
AcDbEntity
  8
0
100
AcDbLine
 10
59.29999999999999
 20
48.5
 30
0.0
 11
68.4
 21
41.9
 31
0.0
  0
LINE
  5
68
330
1E
100
AcDbEntity
  8
0
100
AcDbLine
 10
68.4
 20
41.9
 30
0.0
 11
76.4
 21
32.1
 31
0.0
  0
LINE
  5
69
330
1E
100
AcDbEntity
  8
0
100
AcDbLine
 10
31.3959
 20
52.7817
 30
0.0
 11
31.9316
 21
53.0217
 31
0.0
  0
LINE
  5
6A
330
1E
100
AcDbEntity
  8
0
100
AcDbLine
 10
31.9316
 20
59.1453
 30
0.0
 11
33.39999999999999
 21
59.1453
 31
0.0
  0
LINE
  5
6B
330
1E
100
AcDbEntity
  8
0
100
AcDbLine
 10
31.9316
 20
66.41809999999999
 30
0.0
 11
33.39999999999999
 21
66.41809999999999
 31
0.0
  0
LINE
  5
6C
330
1E
100
AcDbEntity
  8
0
100
AcDbLine
 10
31.9316
 20
65.3017
 30
0.0
 11
31.9316
 21
67.62170000000001
 31
0.0
  0
LINE
  5
6D
330
1E
100
AcDbEntity
  8
0
100
AcDbLine
 10
31.9316
 20
65.3017
 30
0.0
 11
31.9316
 21
62.7817
 31
0.0
  0
LINE
  5
6E
330
1E
100
AcDbEntity
  8
0
100
AcDbLine
 10
31.9316
 20
67.62170000000001
 30
0.0
 11
31.9316
 21
69.66169999999999
 31
0.0
  0
LINE
  5
6F
330
1E
100
AcDbEntity
  8
0
100
AcDbLine
 10
31.9316
 20
67.62170000000001
 30
0.0
 11
31.9316
 21
65.3017
 31
0.0
  0
LINE
  5
70
330
1E
100
AcDbEntity
  8
0
100
AcDbLine
 10
31.9316
 20
69.66169999999999
 30
0.0
 11
31.9316
 21
71.2217
 31
0.0
  0
LINE
  5
71
330
1E
100
AcDbEntity
  8
0
100
AcDbLine
 10
31.9316
 20
69.66169999999999
 30
0.0
 11
31.9316
 21
67.62170000000001
 31
0.0
  0
LINE
  5
72
330
1E
100
AcDbEntity
  8
0
100
AcDbLine
 10
31.9316
 20
72.54170000000001
 30
0.0
 11
31.9316
 21
72.1817
 31
0.0
  0
LINE
  5
73
330
1E
100
AcDbEntity
  8
0
100
AcDbLine
 10
31.9316
 20
71.2217
 30
0.0
 11
31.9316
 21
72.1817
 31
0.0
  0
LINE
  5
74
330
1E
100
AcDbEntity
  8
0
100
AcDbLine
 10
31.9316
 20
71.2217
 30
0.0
 11
31.9316
 21
69.66169999999999
 31
0.0
  0
LINE
  5
75
330
1E
100
AcDbEntity
  8
0
100
AcDbLine
 10
31.9316
 20
72.1817
 30
0.0
 11
31.9316
 21
72.54170000000001
 31
0.0
  0
LINE
  5
76
330
1E
100
AcDbEntity
  8
0
100
AcDbLine
 10
31.9316
 20
72.1817
 30
0.0
 11
31.9316
 21
71.2217
 31
0.0
  0
LINE
  5
77
330
1E
100
AcDbEntity
  8
0
100
AcDbLine
 10
31.3959
 20
72.7817
 30
0.0
 11
31.9316
 21
72.54170000000001
 31
0.0
  0
LINE
  5
78
330
1E
100
AcDbEntity
  8
0
100
AcDbLine
 10
27.4673
 20
72.7817
 30
0.0
 11
31.3959
 21
72.7817
 31
0.0
  0
LINE
  5
79
330
1E
100
AcDbEntity
  8
0
100
AcDbLine
 10
31.9316
 20
62.7817
 30
0.0
 11
31.9316
 21
60.2617
 31
0.0
  0
LINE
  5
7A
330
1E
100
AcDbEntity
  8
0
100
AcDbLine
 10
31.9316
 20
62.7817
 30
0.0
 11
31.9316
 21
65.3017
 31
0.0
  0
LINE
  5
7B
330
1E
100
AcDbEntity
  8
0
100
AcDbLine
 10
31.9316
 20
60.2617
 30
0.0
 11
31.9316
 21
62.7817
 31
0.0
  0
LINE
  5
7C
330
1E
100
AcDbEntity
  8
0
100
AcDbLine
 10
31.9316
 20
60.2617
 30
0.0
 11
31.9316
 21
57.9417
 31
0.0
  0
LINE
  5
7D
330
1E
100
AcDbEntity
  8
0
100
AcDbLine
 10
31.9316
 20
57.9417
 30
0.0
 11
31.9316
 21
60.2617
 31
0.0
  0
LINE
  5
7E
330
1E
100
AcDbEntity
  8
0
100
AcDbLine
 10
31.9316
 20
57.9417
 30
0.0
 11
31.9316
 21
55.9017
 31
0.0
  0
LINE
  5
7F
330
1E
100
AcDbEntity
  8
0
100
AcDbLine
 10
31.9316
 20
55.9017
 30
0.0
 11
31.9316
 21
57.9417
 31
0.0
  0
LINE
  5
80
330
1E
100
AcDbEntity
  8
0
100
AcDbLine
 10
31.9316
 20
55.9017
 30
0.0
 11
31.9316
 21
54.3417
 31
0.0
  0
LINE
  5
81
330
1E
100
AcDbEntity
  8
0
100
AcDbLine
 10
31.9316
 20
54.3417
 30
0.0
 11
31.9316
 21
55.9017
 31
0.0
  0
LINE
  5
82
330
1E
100
AcDbEntity
  8
0
100
AcDbLine
 10
31.9316
 20
54.3417
 30
0.0
 11
31.9316
 21
53.3817
 31
0.0
  0
LINE
  5
83
330
1E
100
AcDbEntity
  8
0
100
AcDbLine
 10
34.39999999999999
 20
53.9
 30
0.0
 11
36.4
 21
54.0
 31
0.0
  0
LINE
  5
84
330
1E
100
AcDbEntity
  8
0
100
AcDbLine
 10
34.39999999999999
 20
53.9
 30
0.0
 11
34.39999999999999
 21
54.4
 31
0.0
  0
LINE
  5
85
330
1E
100
AcDbEntity
  8
0
100
AcDbLine
 10
33.39999999999999
 20
55.2831
 30
0.0
 11
33.39999999999999
 21
56.3659
 31
0.0
  0
LINE
  5
86
330
1E
100
AcDbEntity
  8
0
100
AcDbLine
 10
33.39999999999999
 20
55.2831
 30
0.0
 11
33.39999999999999
 21
54.85
 31
0.0
  0
LINE
  5
87
330
1E
100
AcDbEntity
  8
0
100
AcDbLine
 10
33.39999999999999
 20
54.85
 30
0.0
 11
34.39999999999999
 21
53.9
 31
0.0
  0
LINE
  5
88
330
1E
100
AcDbEntity
  8
0
100
AcDbLine
 10
33.39999999999999
 20
54.85
 30
0.0
 11
33.39999999999999
 21
55.2831
 31
0.0
  0
LINE
  5
89
330
1E
100
AcDbEntity
  8
0
100
AcDbLine
 10
33.39999999999999
 20
59.1453
 30
0.0
 11
33.39999999999999
 21
58.1849
 31
0.0
  0
LINE
  5
8A
330
1E
100
AcDbEntity
  8
0
100
AcDbLine
 10
33.39999999999999
 20
63.2523
 30
0.0
 11
33.39999999999999
 21
60.52369999999999
 31
0.0
  0
LINE
  5
8B
330
1E
100
AcDbEntity
  8
0
100
AcDbLine
 10
33.39999999999999
 20
63.2523
 30
0.0
 11
33.39999999999999
 21
66.1541
 31
0.0
  0
LINE
  5
8C
330
1E
100
AcDbEntity
  8
0
100
AcDbLine
 10
33.39999999999999
 20
60.52369999999999
 30
0.0
 11
33.39999999999999
 21
58.1849
 31
0.0
  0
LINE
  5
8D
330
1E
100
AcDbEntity
  8
0
100
AcDbLine
 10
33.39999999999999
 20
60.52369999999999
 30
0.0
 11
33.39999999999999
 21
63.2523
 31
0.0
  0
LINE
  5
8F
330
1E
100
AcDbEntity
  8
0
100
AcDbLine
 10
33.39999999999999
 20
66.1541
 30
0.0
 11
33.39999999999999
 21
63.2523
 31
0.0
  0
LINE
  5
90
330
1E
100
AcDbEntity
  8
0
100
AcDbLine
 10
33.39999999999999
 20
66.1541
 30
0.0
 11
33.39999999999999
 21
67.1503
 31
0.0
  0
LINE
  5
91
330
1E
100
AcDbEntity
  8
0
100
AcDbLine
 10
33.39999999999999
 20
66.41809999999999
 30
0.0
 11
33.39999999999999
 21
67.1503
 31
0.0
  0
LINE
  5
92
330
1E
100
AcDbEntity
  8
0
100
AcDbLine
 10
33.39999999999999
 20
67.1503
 30
0.0
 11
33.39999999999999
 21
68.01649999999999
 31
0.0
  0
LINE
  5
93
330
1E
100
AcDbEntity
  8
0
100
AcDbLine
 10
33.39999999999999
 20
67.1503
 30
0.0
 11
33.39999999999999
 21
66.1541
 31
0.0
  0
LINE
  5
94
330
1E
100
AcDbEntity
  8
0
100
AcDbLine
 10
33.39999999999999
 20
67.1503
 30
0.0
 11
33.39999999999999
 21
66.41809999999999
 31
0.0
  0
LINE
  5
95
330
1E
100
AcDbEntity
  8
0
100
AcDbLine
 10
33.39999999999999
 20
68.01649999999999
 30
0.0
 11
33.39999999999999
 21
68.79609999999999
 31
0.0
  0
LINE
  5
96
330
1E
100
AcDbEntity
  8
0
100
AcDbLine
 10
33.39999999999999
 20
68.01649999999999
 30
0.0
 11
33.39999999999999
 21
67.1503
 31
0.0
  0
LINE
  5
97
330
1E
100
AcDbEntity
  8
0
100
AcDbLine
 10
33.39999999999999
 20
58.1849
 30
0.0
 11
33.39999999999999
 21
59.1453
 31
0.0
  0
LINE
  5
98
330
1E
100
AcDbEntity
  8
0
100
AcDbLine
 10
33.39999999999999
 20
58.1849
 30
0.0
 11
33.39999999999999
 21
56.3659
 31
0.0
  0
LINE
  5
99
330
1E
100
AcDbEntity
  8
0
100
AcDbLine
 10
33.39999999999999
 20
58.1849
 30
0.0
 11
33.39999999999999
 21
60.52369999999999
 31
0.0
  0
LINE
  5
9A
330
1E
100
AcDbEntity
  8
0
100
AcDbLine
 10
33.39999999999999
 20
56.3659
 30
0.0
 11
33.39999999999999
 21
58.1849
 31
0.0
  0
LINE
  5
9B
330
1E
100
AcDbEntity
  8
0
100
AcDbLine
 10
33.39999999999999
 20
56.3659
 30
0.0
 11
33.39999999999999
 21
55.2831
 31
0.0
  0
LINE
  5
9C
330
1E
100
AcDbEntity
  8
0
100
AcDbLine
 10
34.39999999999999
 20
55.6333
 30
0.0
 11
34.39999999999999
 21
54.4
 31
0.0
  0
LINE
  5
9D
330
1E
100
AcDbEntity
  8
0
100
AcDbLine
 10
34.39999999999999
 20
54.4
 30
0.0
 11
34.39999999999999
 21
53.9
 31
0.0
  0
LINE
  5
9E
330
1E
100
AcDbEntity
  8
0
100
AcDbLine
 10
34.39999999999999
 20
54.4
 30
0.0
 11
34.39999999999999
 21
55.6333
 31
0.0
  0
LINE
  5
9F
330
1E
100
AcDbEntity
  8
0
100
AcDbLine
 10
33.39999999999999
 20
68.79609999999999
 30
0.0
 11
33.39999999999999
 21
69.3158
 31
0.0
  0
LINE
  5
A0
330
1E
100
AcDbEntity
  8
0
100
AcDbLine
 10
33.39999999999999
 20
68.79609999999999
 30
0.0
 11
33.39999999999999
 21
68.01649999999999
 31
0.0
  0
LINE
  5
A1
330
1E
100
AcDbEntity
  8
0
100
AcDbLine
 10
34.39999999999999
 20
68.0667
 30
0.0
 11
34.39999999999999
 21
55.6333
 31
0.0
  0
LINE
  5
A2
330
1E
100
AcDbEntity
  8
0
100
AcDbLine
 10
34.39999999999999
 20
68.0667
 30
0.0
 11
34.39999999999999
 21
69.0667
 31
0.0
  0
LINE
  5
A4
330
1E
100
AcDbEntity
  8
0
100
AcDbLine
 10
34.39999999999999
 20
55.6333
 30
0.0
 11
34.39999999999999
 21
68.0667
 31
0.0
  0
LINE
  5
A5
330
1E
100
AcDbEntity
  8
0
100
AcDbLine
 10
33.39999999999999
 20
69.3158
 30
0.0
 11
33.39999999999999
 21
69.6623
 31
0.0
  0
LINE
  5
A6
330
1E
100
AcDbEntity
  8
0
100
AcDbLine
 10
33.39999999999999
 20
69.3158
 30
0.0
 11
33.39999999999999
 21
68.79609999999999
 31
0.0
  0
LINE
  5
A7
330
1E
100
AcDbEntity
  8
0
100
AcDbLine
 10
33.39999999999999
 20
69.8356
 30
0.0
 11
34.39999999999999
 21
71.1667
 31
0.0
  0
LINE
  5
A8
330
1E
100
AcDbEntity
  8
0
100
AcDbLine
 10
33.39999999999999
 20
69.8356
 30
0.0
 11
33.39999999999999
 21
69.6623
 31
0.0
  0
LINE
  5
A9
330
1E
100
AcDbEntity
  8
0
100
AcDbLine
 10
33.39999999999999
 20
69.6623
 30
0.0
 11
33.39999999999999
 21
69.8356
 31
0.0
  0
LINE
  5
AA
330
1E
100
AcDbEntity
  8
0
100
AcDbLine
 10
33.39999999999999
 20
69.6623
 30
0.0
 11
33.39999999999999
 21
69.3158
 31
0.0
  0
LINE
  5
AB
330
1E
100
AcDbEntity
  8
0
100
AcDbLine
 10
34.39999999999999
 20
69.0667
 30
0.0
 11
34.39999999999999
 21
68.0667
 31
0.0
  0
LINE
  5
AC
330
1E
100
AcDbEntity
  8
0
100
AcDbLine
 10
34.39999999999999
 20
69.0667
 30
0.0
 11
34.39999999999999
 21
69.9667
 31
0.0
  0
LINE
  5
AD
330
1E
100
AcDbEntity
  8
0
100
AcDbLine
 10
34.39999999999999
 20
69.9667
 30
0.0
 11
34.39999999999999
 21
69.0667
 31
0.0
  0
LINE
  5
AE
330
1E
100
AcDbEntity
  8
0
100
AcDbLine
 10
34.39999999999999
 20
69.9667
 30
0.0
 11
34.39999999999999
 21
70.5667
 31
0.0
  0
LINE
  5
AF
330
1E
100
AcDbEntity
  8
0
100
AcDbLine
 10
34.39999999999999
 20
70.5667
 30
0.0
 11
34.39999999999999
 21
69.9667
 31
0.0
  0
LINE
  5
B0
330
1E
100
AcDbEntity
  8
0
100
AcDbLine
 10
34.39999999999999
 20
70.5667
 30
0.0
 11
34.39999999999999
 21
70.9667
 31
0.0
  0
LINE
  5
B2
330
1E
100
AcDbEntity
  8
0
100
AcDbLine
 10
34.39999999999999
 20
70.9667
 30
0.0
 11
34.39999999999999
 21
70.5667
 31
0.0
  0
LINE
  5
B3
330
1E
100
AcDbEntity
  8
0
100
AcDbLine
 10
34.39999999999999
 20
70.9667
 30
0.0
 11
34.39999999999999
 21
71.1667
 31
0.0
  0
LINE
  5
B4
330
1E
100
AcDbEntity
  8
0
100
AcDbLine
 10
34.39999999999999
 20
71.1667
 30
0.0
 11
36.4
 21
71.2
 31
0.0
  0
LINE
  5
B5
330
1E
100
AcDbEntity
  8
0
100
AcDbLine
 10
34.39999999999999
 20
71.1667
 30
0.0
 11
34.39999999999999
 21
70.9667
 31
0.0
  0
LINE
  5
B6
330
1E
100
AcDbEntity
  8
0
100
AcDbLine
 10
36.4
 20
71.2
 30
0.0
 11
50.4
 21
71.4
 31
0.0
  0
LINE
  5
B7
330
1E
100
AcDbEntity
  8
0
100
AcDbLine
 10
50.4
 20
71.4
 30
0.0
 11
69.40000000000001
 21
70.7
 31
0.0
  0
LINE
  5
B8
330
1E
100
AcDbEntity
  8
0
100
AcDbLine
 10
69.40000000000001
 20
70.7
 30
0.0
 11
72.09999999999999
 21
71.0
 31
0.0
  0
LINE
  5
B9
330
1E
100
AcDbEntity
  8
0
100
AcDbLine
 10
72.09999999999999
 20
71.0
 30
0.0
 11
73.59999999999999
 21
72.8
 31
0.0
  0
LINE
  5
BB
330
1E
100
AcDbEntity
  8
0
100
AcDbLine
 10
36.4
 20
54.0
 30
0.0
 11
46.6
 21
53.0
 31
0.0
  0
LINE
  5
BC
330
1E
100
AcDbEntity
  8
0
100
AcDbLine
 10
31.9316
 20
53.3817
 30
0.0
 11
31.9316
 21
54.3417
 31
0.0
  0
LINE
  5
BD
330
1E
100
AcDbEntity
  8
0
100
AcDbLine
 10
31.9316
 20
53.3817
 30
0.0
 11
31.9316
 21
53.0217
 31
0.0
  0
LINE
  5
BE
330
1E
100
AcDbEntity
  8
0
100
AcDbLine
 10
31.9316
 20
53.0217
 30
0.0
 11
31.9316
 21
53.3817
 31
0.0
  0
LINE
  5
BF
330
1E
100
AcDbEntity
  8
0
100
AcDbLine
 10
26.9316
 20
53.615
 30
0.0
 11
26.9316
 21
53.9423
 31
0.0
  0
LINE
  5
C0
330
1E
100
AcDbEntity
  8
0
100
AcDbLine
 10
26.9316
 20
53.615
 30
0.0
 11
26.9316
 21
53.3817
 31
0.0
  0
LINE
  5
C2
330
1E
100
AcDbEntity
  8
0
100
AcDbLine
 10
73.59999999999999
 20
72.8
 30
0.0
 11
73.79999999999999
 21
74.5
 31
0.0
  0
LINE
  5
C3
330
1E
100
AcDbEntity
  8
0
100
AcDbLine
 10
73.5
 20
77.8
 30
0.0
 11
73.79999999999999
 21
74.5
 31
0.0
  0
LINE
  5
C4
330
1E
100
AcDbEntity
  8
0
100
AcDbLine
 10
73.5
 20
77.8
 30
0.0
 11
74.35277482163271
 21
78.8422803375511
 31
0.0
  0
LINE
  5
C5
330
1E
100
AcDbEntity
  8
0
100
AcDbLine
 10
73.5
 20
77.8
 30
0.0
 11
74.40000000000001
 21
77.9
 31
0.0
  0
LINE
  5
C6
330
1E
100
AcDbEntity
  8
0
100
AcDbLine
 10
73.7
 20
82.0
 30
0.0
 11
76.2
 21
82.2
 31
0.0
  0
LINE
  5
C7
330
1E
100
AcDbEntity
  8
0
100
AcDbLine
 10
72.8
 20
81.90000000000001
 30
0.0
 11
73.7
 21
82.0
 31
0.0
  0
LINE
  5
CC
330
1E
100
AcDbEntity
  8
0
100
AcDbLine
 10
9.10000000000001
 20
118.9
 30
0.0
 11
15.4
 21
118.2
 31
0.0
  0
LINE
  5
CD
330
1E
100
AcDbEntity
  8
0
100
AcDbLine
 10
15.4
 20
118.2
 30
0.0
 11
26.4
 21
119.3
 31
0.0
  0
LINE
  5
CE
330
1E
100
AcDbEntity
  8
0
100
AcDbLine
 10
4.100000000000009
 20
120.5
 30
0.0
 11
9.10000000000001
 21
118.9
 31
0.0
  0
LINE
  5
CF
330
1E
100
AcDbEntity
  8
0
100
AcDbLine
 10
-0.0999999999999851
 20
124.0
 30
0.0
 11
0.200000000000016
 21
125.0999999999999
 31
0.0
  0
LINE
  5
D0
330
1E
100
AcDbEntity
  8
0
100
AcDbLine
 10
-0.0999999999999851
 20
124.0
 30
0.0
 11
0.200000000000016
 21
123.0999999999999
 31
0.0
  0
LINE
  5
D1
330
1E
100
AcDbEntity
  8
0
100
AcDbLine
 10
0.200000000000016
 20
125.0
 30
0.0
 11
0.200000000000016
 21
125.0999999999999
 31
0.0
  0
LINE
  5
D2
330
1E
100
AcDbEntity
  8
0
100
AcDbLine
 10
-0.0999999999999851
 20
124.0
 30
0.0
 11
0.200000000000016
 21
125.0999999999999
 31
0.0
  0
LINE
  5
D3
330
1E
100
AcDbEntity
  8
0
100
AcDbLine
 10
-0.0999999999999851
 20
124.0
 30
0.0
 11
0.200000000000016
 21
123.0999999999999
 31
0.0
  0
LINE
  5
D4
330
1E
100
AcDbEntity
  8
0
100
AcDbLine
 10
0.200000000000016
 20
123.0999999999999
 30
0.0
 11
1.10000000000001
 21
122.0
 31
0.0
  0
LINE
  5
D5
330
1E
100
AcDbEntity
  8
0
100
AcDbLine
 10
0.200000000000016
 20
125.0999999999999
 30
0.0
 11
1.10000000000002
 21
125.8
 31
0.0
  0
LINE
  5
D6
330
1E
100
AcDbEntity
  8
0
100
AcDbLine
 10
0.200000000000016
 20
125.0999999999999
 30
0.0
 11
0.200000000000016
 21
125.0
 31
0.0
  0
LINE
  5
D7
330
1E
100
AcDbEntity
  8
0
100
AcDbLine
 10
1.10000000000001
 20
122.0
 30
0.0
 11
4.100000000000009
 21
120.5
 31
0.0
  0
LINE
  5
D8
330
1E
100
AcDbEntity
  8
0
100
AcDbLine
 10
1.10000000000002
 20
125.8
 30
0.0
 11
4.100000000000009
 21
126.8
 31
0.0
  0
LINE
  5
DA
330
1E
100
AcDbEntity
  8
0
100
AcDbLine
 10
1.10000000000002
 20
125.8
 30
0.0
 11
4.100000000000009
 21
126.8
 31
0.0
  0
LINE
  5
DB
330
1E
100
AcDbEntity
  8
0
100
AcDbLine
 10
4.100000000000009
 20
120.5
 30
0.0
 11
9.10000000000001
 21
118.9
 31
0.0
  0
LINE
  5
DE
330
1E
100
AcDbEntity
  8
0
100
AcDbLine
 10
4.100000000000009
 20
126.8
 30
0.0
 11
9.100000000000019
 21
127.8
 31
0.0
  0
LINE
  5
DF
330
1E
100
AcDbEntity
  8
0
100
AcDbLine
 10
9.100000000000019
 20
127.8
 30
0.0
 11
15.4
 21
128.6999999999999
 31
0.0
  0
LINE
  5
E2
330
1E
100
AcDbEntity
  8
0
100
AcDbLine
 10
15.4
 20
128.6999999999999
 30
0.0
 11
26.4
 21
129.4
 31
0.0
  0
LINE
  5
E3
330
1E
100
AcDbEntity
  8
0
100
AcDbLine
 10
26.4
 20
119.3
 30
0.0
 11
40.4
 21
120.0
 31
0.0
  0
LINE
  5
E5
330
1E
100
AcDbEntity
  8
0
100
AcDbLine
 10
40.4
 20
120.0
 30
0.0
 11
49.1
 21
119.0
 31
0.0
  0
LINE
  5
E6
330
1E
100
AcDbEntity
  8
0
100
AcDbLine
 10
49.1
 20
119.0
 30
0.0
 11
57.5
 21
115.7999999999999
 31
0.0
  0
LINE
  5
E8
330
1E
100
AcDbEntity
  8
0
100
AcDbLine
 10
57.5
 20
115.7999999999999
 30
0.0
 11
64.0
 21
110.8
 31
0.0
  0
LINE
  5
E9
330
1E
100
AcDbEntity
  8
0
100
AcDbLine
 10
26.4
 20
129.4
 30
0.0
 11
40.4
 21
130.0
 31
0.0
  0
LINE
  5
EA
330
1E
100
AcDbEntity
  8
0
100
AcDbLine
 10
40.4
 20
130.0
 30
0.0
 11
49.1
 21
129.6999999999999
 31
0.0
  0
LINE
  5
EB
330
1E
100
AcDbEntity
  8
0
100
AcDbLine
 10
49.1
 20
129.6999999999999
 30
0.0
 11
61.0
 21
128.9
 31
0.0
  0
LINE
  5
EC
330
1E
100
AcDbEntity
  8
0
100
AcDbLine
 10
61.0
 20
128.9
 30
0.0
 11
73.5
 21
127.2999999999999
 31
0.0
  0
LINE
  5
ED
330
1E
100
AcDbEntity
  8
0
100
AcDbLine
 10
64.0
 20
110.8
 30
0.0
 11
69.40000000000001
 21
102.4999999999999
 31
0.0
  0
LINE
  5
EE
330
1E
100
AcDbEntity
  8
0
100
AcDbLine
 10
69.40000000000001
 20
102.4999999999999
 30
0.0
 11
70.59999999999999
 21
98.50000000000001
 31
0.0
  0
LINE
  5
EF
330
1E
100
AcDbEntity
  8
0
100
AcDbLine
 10
70.59999999999999
 20
98.50000000000001
 30
0.0
 11
70.9
 21
97.1
 31
0.0
  0
LINE
  5
F0
330
1E
100
AcDbEntity
  8
0
100
AcDbLine
 10
70.9
 20
97.1
 30
0.0
 11
71.2
 21
95.0
 31
0.0
  0
LINE
  5
FA
330
1E
100
AcDbEntity
  8
0
100
AcDbLine
 10
73.5
 20
127.2999999999999
 30
0.0
 11
89.9
 21
122.9
 31
0.0
  0
LINE
  5
FB
330
1E
100
AcDbEntity
  8
0
100
AcDbLine
 10
71.2
 20
95.0
 30
0.0
 11
72.8
 21
81.90000000000001
 31
0.0
  0
LINE
  5
FD
330
1E
100
AcDbEntity
  8
0
100
AcDbLine
 10
114.9
 20
-0.0000000000000101
 30
0.0
 11
120.9
 21
-0.0000000000000105
 31
0.0
  0
LINE
  5
FE
330
1E
100
AcDbEntity
  8
0
100
AcDbLine
 10
120.9
 20
-0.0000000000000105
 30
0.0
 11
126.0999999999999
 21
-0.0000000000000108
 31
0.0
  0
LINE
  5
FF
330
1E
100
AcDbEntity
  8
0
100
AcDbLine
 10
76.4
 20
32.1
 30
0.0
 11
80.29999999999999
 21
22.2
 31
0.0
  0
LINE
  5
100
330
1E
100
AcDbEntity
  8
0
100
AcDbLine
 10
83.40000000000001
 20
-0.0000000000000082
 30
0.0
 11
84.29999999999999
 21
-0.0000000000000083
 31
0.0
  0
LINE
  5
101
330
1E
100
AcDbEntity
  8
0
100
AcDbLine
 10
96.0
 20
-0.000000000000009
 30
0.0
 11
102.0
 21
-0.0000000000000093
 31
0.0
  0
LINE
  5
102
330
1E
100
AcDbEntity
  8
0
100
AcDbLine
 10
90.8
 20
-0.0000000000000087
 30
0.0
 11
96.0
 21
-0.000000000000009
 31
0.0
  0
LINE
  5
103
330
1E
100
AcDbEntity
  8
0
100
AcDbLine
 10
102.0
 20
-0.0000000000000093
 30
0.0
 11
108.4
 21
-0.0000000000000097
 31
0.0
  0
LINE
  5
104
330
1E
100
AcDbEntity
  8
0
100
AcDbLine
 10
86.79999999999999
 20
-0.0000000000000084
 30
0.0
 11
90.8
 21
-0.0000000000000087
 31
0.0
  0
LINE
  5
105
330
1E
100
AcDbEntity
  8
0
100
AcDbLine
 10
84.29999999999999
 20
-0.0000000000000083
 30
0.0
 11
86.79999999999999
 21
-0.0000000000000084
 31
0.0
  0
LINE
  5
106
330
1E
100
AcDbEntity
  8
0
100
AcDbLine
 10
81.5
 20
14.0
 30
0.0
 11
83.40000000000001
 21
-0.0000000000000082
 31
0.0
  0
LINE
  5
107
330
1E
100
AcDbEntity
  8
0
100
AcDbLine
 10
81.5
 20
14.0
 30
0.0
 11
83.40000000000001
 21
-0.000000000000009
 31
0.0
  0
LINE
  5
108
330
1E
100
AcDbEntity
  8
0
100
AcDbLine
 10
80.29999999999999
 20
22.2
 30
0.0
 11
81.5
 21
14.0
 31
0.0
  0
LINE
  5
109
330
1E
100
AcDbEntity
  8
0
100
AcDbLine
 10
108.4
 20
-0.0000000000000097
 30
0.0
 11
114.9
 21
-0.0000000000000101
 31
0.0
  0
LINE
  5
10A
330
1E
100
AcDbEntity
  8
0
100
AcDbLine
 10
130.0999999999999
 20
-0.0000000000000111
 30
0.0
 11
132.4999999999999
 21
-0.0000000000000112
 31
0.0
  0
LINE
  5
10B
330
1E
100
AcDbEntity
  8
0
100
AcDbLine
 10
126.0999999999999
 20
-0.0000000000000108
 30
0.0
 11
130.0999999999999
 21
-0.0000000000000111
 31
0.0
  0
LINE
  5
10C
330
1E
100
AcDbEntity
  8
0
100
AcDbLine
 10
74.40000000000001
 20
77.9
 30
0.0
 11
76.79999999999999
 21
78.09999999999999
 31
0.0
  0
LINE
  5
10D
330
1E
100
AcDbEntity
  8
0
100
AcDbLine
 10
74.35277482163271
 20
78.8422803375511
 30
0.0
 11
81.4
 21
79.5
 31
0.0
  0
LINE
  5
10E
330
1E
100
AcDbEntity
  8
0
100
AcDbLine
 10
81.4
 20
79.5
 30
0.0
 11
86.4
 21
80.0
 31
0.0
  0
LINE
  5
10F
330
1E
100
AcDbEntity
  8
0
100
AcDbLine
 10
76.79999999999999
 20
78.09999999999999
 30
0.0
 11
92.0
 21
79.40000000000001
 31
0.0
  0
LINE
  5
110
330
1E
100
AcDbEntity
  8
0
100
AcDbLine
 10
76.2
 20
82.2
 30
0.0
 11
80.20000000000001
 21
82.59999999999999
 31
0.0
  0
LINE
  5
111
330
1E
100
AcDbEntity
  8
0
100
AcDbLine
 10
80.20000000000001
 20
82.59999999999999
 30
0.0
 11
85.29999999999999
 21
83.0
 31
0.0
  0
LINE
  5
112
330
1E
100
AcDbEntity
  8
0
100
AcDbLine
 10
86.4
 20
80.0
 30
0.0
 11
92.09999999999999
 21
80.5
 31
0.0
  0
LINE
  5
113
330
1E
100
AcDbEntity
  8
0
100
AcDbLine
 10
92.09999999999999
 20
80.5
 30
0.0
 11
98.2
 21
81.0
 31
0.0
  0
LINE
  5
114
330
1E
100
AcDbEntity
  8
0
100
AcDbLine
 10
92.0
 20
79.40000000000001
 30
0.0
 11
98.40000000000001
 21
80.0
 31
0.0
  0
LINE
  5
115
330
1E
100
AcDbEntity
  8
0
100
AcDbLine
 10
85.29999999999999
 20
83.0
 30
0.0
 11
91.3
 21
83.49999999999999
 31
0.0
  0
LINE
  5
116
330
1E
100
AcDbEntity
  8
0
100
AcDbLine
 10
91.3
 20
83.49999999999999
 30
0.0
 11
97.70000000000001
 21
84.1
 31
0.0
  0
LINE
  5
117
330
1E
100
AcDbEntity
  8
0
100
AcDbLine
 10
98.2
 20
81.0
 30
0.0
 11
104.4999999999999
 21
81.5
 31
0.0
  0
LINE
  5
118
330
1E
100
AcDbEntity
  8
0
100
AcDbLine
 10
98.40000000000001
 20
80.0
 30
0.0
 11
104.8
 21
80.6
 31
0.0
  0
LINE
  5
119
330
1E
100
AcDbEntity
  8
0
100
AcDbLine
 10
104.8
 20
80.6
 30
0.0
 11
110.8
 21
81.09999999999999
 31
0.0
  0
LINE
  5
11A
330
1E
100
AcDbEntity
  8
0
100
AcDbLine
 10
104.4999999999999
 20
81.5
 30
0.0
 11
110.2
 21
82.0
 31
0.0
  0
LINE
  5
11B
330
1E
100
AcDbEntity
  8
0
100
AcDbLine
 10
110.8
 20
81.09999999999999
 30
0.0
 11
116.0
 21
81.5
 31
0.0
  0
LINE
  5
11C
330
1E
100
AcDbEntity
  8
0
100
AcDbLine
 10
116.0
 20
81.5
 30
0.0
 11
120.0
 21
81.90000000000001
 31
0.0
  0
LINE
  5
11D
330
1E
100
AcDbEntity
  8
0
100
AcDbLine
 10
110.2
 20
82.0
 30
0.0
 11
115.2
 21
82.5
 31
0.0
  0
LINE
  5
11E
330
1E
100
AcDbEntity
  8
0
100
AcDbLine
 10
120.0
 20
81.90000000000001
 30
0.0
 11
122.3999999999999
 21
82.09999999999999
 31
0.0
  0
LINE
  5
11F
330
1E
100
AcDbEntity
  8
0
100
AcDbLine
 10
122.3999999999999
 20
82.09999999999999
 30
0.0
 11
123.3
 21
82.2
 31
0.0
  0
LINE
  5
120
330
1E
100
AcDbEntity
  8
0
100
AcDbLine
 10
115.089847680209
 20
82.4902806776655
 30
0.0
 11
115.2
 21
82.5
 31
0.0
  0
LINE
  5
121
330
1E
100
AcDbEntity
  8
0
100
AcDbLine
 10
115.2
 20
82.5
 30
0.0
 11
119.0
 21
82.79999999999999
 31
0.0
  0
LINE
  5
122
330
1E
100
AcDbEntity
  8
0
100
AcDbLine
 10
119.0
 20
82.79999999999999
 30
0.0
 11
121.4
 21
83.0
 31
0.0
  0
LINE
  5
123
330
1E
100
AcDbEntity
  8
0
100
AcDbLine
 10
121.4
 20
83.0
 30
0.0
 11
122.1999999999999
 21
83.1
 31
0.0
  0
LINE
  5
124
330
1E
100
AcDbEntity
  8
0
100
AcDbLine
 10
122.1999999999999
 20
83.1
 30
0.0
 11
123.3
 21
82.2
 31
0.0
  0
LINE
  5
125
330
1E
100
AcDbEntity
  8
0
100
AcDbLine
 10
123.3
 20
82.2
 30
0.0
 11
127.854418655525
 21
45.1333451995895
 31
0.0
  0
LINE
  5
126
330
1E
100
AcDbEntity
  8
0
100
AcDbLine
 10
97.70000000000001
 20
84.1
 30
0.0
 11
103.9665
 21
86.6249
 31
0.0
  0
LINE
  5
127
330
1E
100
AcDbEntity
  8
0
100
AcDbLine
 10
103.9665
 20
86.6249
 30
0.0
 11
109.6959999999999
 21
88.96639999999999
 31
0.0
  0
LINE
  5
128
330
1E
100
AcDbEntity
  8
0
100
AcDbLine
 10
129.7679999999999
 20
48.4144
 30
0.0
 11
130.5109999999999
 21
49.3979
 31
0.0
  0
LINE
  5
131
330
1E
100
AcDbEntity
  8
0
100
AcDbLine
 10
131.275
 20
50.04100000000001
 30
0.0
 11
132.151
 21
50.5197
 31
0.0
  0
LINE
  5
132
330
1E
100
AcDbEntity
  8
0
100
AcDbLine
 10
130.5109999999999
 20
49.3979
 30
0.0
 11
131.275
 21
50.04100000000001
 31
0.0
  0
LINE
  5
134
330
1E
100
AcDbEntity
  8
0
100
AcDbLine
 10
127.854418655525
 20
45.1333451995895
 30
0.0
 11
129.7679999999999
 21
48.4144
 31
0.0
  0
LINE
  5
135
330
1E
100
AcDbEntity
  8
0
100
AcDbLine
 10
128.8685624090159
 20
36.8796207899883
 30
0.0
 11
134.08103789077
 21
45.924330543949
 31
0.0
  0
LINE
  5
136
330
1E
100
AcDbEntity
  8
0
100
AcDbLine
 10
128.8685624090159
 20
36.8796207899883
 30
0.0
 11
134.08103789077
 21
45.924330543949
 31
0.0
  0
LINE
  5
137
330
1E
100
AcDbEntity
  8
0
100
AcDbLine
 10
128.8685624090159
 20
36.8796207899883
 30
0.0
 11
133.4
 21
-0.0000000000000144
 31
0.0
  0
LINE
  5
138
330
1E
100
AcDbEntity
  8
0
100
AcDbLine
 10
127.854418655525
 20
45.1333451995895
 30
0.0
 11
133.4
 21
-0.0000000000000113
 31
0.0
  0
LINE
  5
139
330
1E
100
AcDbEntity
  8
0
100
AcDbLine
 10
132.4999999999999
 20
-0.0000000000000112
 30
0.0
 11
133.4
 21
-0.0000000000000113
 31
0.0
  0
LINE
  5
13A
330
1E
100
AcDbEntity
  8
0
100
AcDbLine
 10
134.0979999999999
 20
45.9144
 30
0.0
 11
149.0979999999999
 21
45.91429999999999
 31
0.0
  0
LINE
  5
13B
330
1E
100
AcDbEntity
  8
0
100
AcDbLine
 10
149.0979999999999
 20
45.91429999999999
 30
0.0
 11
149.0989999999999
 21
46.103
 31
0.0
  0
LINE
  5
13C
330
1E
100
AcDbEntity
  8
0
100
AcDbLine
 10
132.151
 20
50.5197
 30
0.0
 11
133.1049999999999
 21
50.8147
 31
0.0
  0
LINE
  5
13E
330
1E
100
AcDbEntity
  8
0
100
AcDbLine
 10
133.1049999999999
 20
50.8147
 30
0.0
 11
134.0979999999999
 21
50.91429999999999
 31
0.0
  0
LINE
  5
141
330
1E
100
AcDbEntity
  8
0
100
AcDbLine
 10
149.096
 20
49.3747
 30
0.0
 11
149.096
 21
48.4183
 31
0.0
  0
LINE
  5
142
330
1E
100
AcDbEntity
  8
0
100
AcDbLine
 10
149.096
 20
49.3747
 30
0.0
 11
149.097
 21
50.18489999999999
 31
0.0
  0
LINE
  5
143
330
1E
100
AcDbEntity
  8
0
100
AcDbLine
 10
149.097
 20
50.18489999999999
 30
0.0
 11
149.097
 21
50.7256
 31
0.0
  0
LINE
  5
144
330
1E
100
AcDbEntity
  8
0
100
AcDbLine
 10
149.097
 20
50.7256
 30
0.0
 11
149.097
 21
50.18489999999999
 31
0.0
  0
LINE
  5
145
330
1E
100
AcDbEntity
  8
0
100
AcDbLine
 10
149.097
 20
50.7256
 30
0.0
 11
149.0979999999999
 21
50.91429999999999
 31
0.0
  0
LINE
  5
146
330
1E
100
AcDbEntity
  8
0
100
AcDbLine
 10
149.096
 20
48.4183
 30
0.0
 11
149.096
 21
47.4612
 31
0.0
  0
LINE
  5
147
330
1E
100
AcDbEntity
  8
0
100
AcDbLine
 10
149.096
 20
48.4183
 30
0.0
 11
149.096
 21
49.3747
 31
0.0
  0
LINE
  5
148
330
1E
100
AcDbEntity
  8
0
100
AcDbLine
 10
149.096
 20
47.4612
 30
0.0
 11
149.097
 21
46.6494
 31
0.0
  0
LINE
  5
149
330
1E
100
AcDbEntity
  8
0
100
AcDbLine
 10
149.096
 20
47.4612
 30
0.0
 11
149.096
 21
48.4183
 31
0.0
  0
LINE
  5
14A
330
1E
100
AcDbEntity
  8
0
100
AcDbLine
 10
149.097
 20
46.6494
 30
0.0
 11
149.097
 21
46.1061
 31
0.0
  0
LINE
  5
14B
330
1E
100
AcDbEntity
  8
0
100
AcDbLine
 10
149.097
 20
46.1061
 30
0.0
 11
149.0979999999999
 21
45.91429999999999
 31
0.0
  0
LINE
  5
14C
330
1E
100
AcDbEntity
  8
0
100
AcDbLine
 10
149.097
 20
46.1061
 30
0.0
 11
149.097
 21
46.6494
 31
0.0
  0
LINE
  5
14D
330
1E
100
AcDbEntity
  8
0
100
AcDbLine
 10
149.0989999999999
 20
46.103
 30
0.0
 11
149.0999999999999
 21
46.6437
 31
0.0
  0
LINE
  5
14E
330
1E
100
AcDbEntity
  8
0
100
AcDbLine
 10
149.0999999999999
 20
46.6437
 30
0.0
 11
149.0999999999999
 21
47.45389999999999
 31
0.0
  0
LINE
  5
14F
330
1E
100
AcDbEntity
  8
0
100
AcDbLine
 10
149.0999999999999
 20
47.45389999999999
 30
0.0
 11
149.0999999999999
 21
48.41029999999999
 31
0.0
  0
LINE
  5
150
330
1E
100
AcDbEntity
  8
0
100
AcDbLine
 10
149.0999999999999
 20
47.45389999999999
 30
0.0
 11
149.0999999999999
 21
46.6437
 31
0.0
  0
LINE
  5
151
330
1E
100
AcDbEntity
  8
0
100
AcDbLine
 10
149.0999999999999
 20
50.1792
 30
0.0
 11
149.0999999999999
 21
49.3674
 31
0.0
  0
LINE
  5
152
330
1E
100
AcDbEntity
  8
0
100
AcDbLine
 10
149.0999999999999
 20
48.41029999999999
 30
0.0
 11
149.0999999999999
 21
49.3674
 31
0.0
  0
LINE
  5
153
330
1E
100
AcDbEntity
  8
0
100
AcDbLine
 10
149.0999999999999
 20
48.41029999999999
 30
0.0
 11
149.0999999999999
 21
47.45389999999999
 31
0.0
  0
LINE
  5
154
330
1E
100
AcDbEntity
  8
0
100
AcDbLine
 10
149.0999999999999
 20
49.3674
 30
0.0
 11
149.0999999999999
 21
50.1792
 31
0.0
  0
LINE
  5
155
330
1E
100
AcDbEntity
  8
0
100
AcDbLine
 10
149.0999999999999
 20
49.3674
 30
0.0
 11
149.0999999999999
 21
48.41029999999999
 31
0.0
  0
LINE
  5
156
330
1E
100
AcDbEntity
  8
0
100
AcDbLine
 10
149.0989999999999
 20
50.7225
 30
0.0
 11
149.0999999999999
 21
50.1792
 31
0.0
  0
LINE
  5
157
330
1E
100
AcDbEntity
  8
0
100
AcDbLine
 10
149.0979999999999
 20
50.91429999999999
 30
0.0
 11
149.0989999999999
 21
50.7225
 31
0.0
  0
LINE
  5
158
330
1E
100
AcDbEntity
  8
0
100
AcDbLine
 10
134.0979999999999
 20
50.91429999999999
 30
0.0
 11
149.0979999999999
 21
50.91429999999999
 31
0.0
  0
LINE
  5
15B
330
1E
100
AcDbEntity
  8
0
100
AcDbLine
 10
109.6959999999999
 20
88.96639999999999
 30
0.0
 11
114.538
 21
90.90419999999999
 31
0.0
  0
LINE
  5
15C
330
1E
100
AcDbEntity
  8
0
100
AcDbLine
 10
114.538
 20
90.90419999999999
 30
0.0
 11
118.4919999999999
 21
92.4383
 31
0.0
  0
LINE
  5
15D
330
1E
100
AcDbEntity
  8
0
100
AcDbLine
 10
118.4919999999999
 20
92.4383
 30
0.0
 11
120.832
 21
93.16489999999999
 31
0.0
  0
LINE
  5
15E
330
1E
100
AcDbEntity
  8
0
100
AcDbLine
 10
89.9
 20
122.9
 30
0.0
 11
106.2999999999999
 21
115.5999999999999
 31
0.0
  0
LINE
  5
15F
330
1E
100
AcDbEntity
  8
0
100
AcDbLine
 10
106.2999999999999
 20
115.5999999999999
 30
0.0
 11
118.3
 21
105.4999999999999
 31
0.0
  0
LINE
  5
160
330
1E
100
AcDbEntity
  8
0
100
AcDbLine
 10
120.832
 20
93.16489999999999
 30
0.0
 11
121.639
 21
93.48789999999999
 31
0.0
  0
LINE
  5
161
330
1E
100
AcDbEntity
  8
0
100
AcDbLine
 10
118.3
 20
105.4999999999999
 30
0.0
 11
121.4
 21
95.0
 31
0.0
  0
LINE
  5
162
330
1E
100
AcDbEntity
  8
0
100
AcDbLine
 10
120.1446455412249
 20
92.9514676283137
 30
0.0
 11
121.0309999999999
 21
90.3035
 31
0.0
  0
LINE
  5
163
330
1E
100
AcDbEntity
  8
0
100
AcDbLine
 10
121.4
 20
95.0
 30
0.0
 11
121.639
 21
93.48789999999999
 31
0.0
  0
LINE
  5
164
330
1E
100
AcDbEntity
  8
0
100
AcDbLine
 10
121.0309999999999
 20
90.3035
 30
0.0
 11
121.847
 21
86.7209
 31
0.0
  0
LINE
  5
165
330
1E
100
AcDbEntity
  8
0
100
AcDbLine
 10
121.847
 20
86.7209
 30
0.0
 11
122.164034906647
 21
83.09550436333079
 31
0.0
  0
LINE
  5
166
330
1E
100
AcDbEntity
  8
0
100
AcDbLine
 10
74.07389859705521
 20
82.0299118877644
 30
0.0
 11
74.35277482163271
 21
78.8422803375511
 31
0.0
  0
ENDSEC
  0
SECTION
  2
OBJECTS
  0
DICTIONARY
  5
C
330
0
100
AcDbDictionary
  3
ACAD_GROUP
350
D
  3
ACAD_LAYOUT
350
19
  3
ACAD_MLINESTYLE
350
16
  3
ACAD_PLOTSETTINGS
350
18
  3
ACAD_PLOTSTYLENAME
350
E
  3
ACDBHEADERROUNDTRIPXREC
350
193
  3
ACDBVARIABLEDICTIONARY
350
16B
  0
DICTIONARY
  5
1B5
330
1E
100
AcDbDictionary
280
     1
  3
ACAD_LAYOUTSELFREF
360
1B6
  0
DICTIONARY
  5
1B3
330
1A
100
AcDbDictionary
280
     1
  3
ACAD_LAYOUTSELFREF
360
1B4
  0
DICTIONARY
  5
D
102
{ACAD_REACTORS
330
C
102
}
330
C
100
AcDbDictionary
  0
DICTIONARY
  5
19
102
{ACAD_REACTORS
330
C
102
}
330
C
100
AcDbDictionary
  0
DICTIONARY
  5
16
102
{ACAD_REACTORS
330
C
102
}
330
C
100
AcDbDictionary
  3
STANDARD
350
17
  0
DICTIONARY
  5
18
102
{ACAD_REACTORS
330
C
102
}
330
C
100
AcDbDictionary
  0
ACDBDICTIONARYWDFLT
  5
E
102
{ACAD_REACTORS
330
C
102
}
330
C
100
AcDbDictionary
281
     1
  3
Normal
350
F
100
AcDbDictionaryWithDefault
340
F
  0
DICTIONARY
  5
193
102
{ACAD_REACTORS
330
C
102
}
330
C
100
AcDbDictionary
  3
CEPSNTYPE
350
19D
  3
FINGERPRINTGUID
350
19E
  3
HYPERLINKBASE
350
196
  3
INSUNITS
350
19C
  3
LAYOUTDICT
350
198
  3
LWETCUNION
350
19B
  3
PLOTSETDICT
350
199
  3
PLOTSTYLNAMDICT
350
19A
  3
PSVPSCALE
350
1A0
  3
PUCSBASE
350
1A3
  3
PUCSORGBACK
350
1A9
  3
PUCSORGBOTTOM
350
1A5
  3
PUCSORGFRONT
350
1A8
  3
PUCSORGLEFT
350
1A6
  3
PUCSORGRIGHT
350
1A7
  3
PUCSORGTOP
350
1A4
  3
PUCSORTHOREF
350
1A1
  3
PUCSORTHOVIEW
350
1A2
  3
STYLESHEET
350
197
  3
TSTACKALIGN
350
194
  3
TSTACKSIZE
350
195
  3
UCSBASE
350
1AC
  3
UCSORGBACK
350
1B2
  3
UCSORGBOTTOM
350
1AE
  3
UCSORGFRONT
350
1B1
  3
UCSORGLEFT
350
1AF
  3
UCSORGRIGHT
350
1B0
  3
UCSORGTOP
350
1AD
  3
UCSORTHOREF
350
1AA
  3
UCSORTHOVIEW
350
1AB
  3
VERSIONGUID
350
19F
  0
DICTIONARY
  5
16B
102
{ACAD_REACTORS
330
C
102
}
330
C
100
AcDbDictionary
  3
DIMASSOC
350
16C
  0
XRECORD
  5
1B6
102
{ACAD_REACTORS
330
1B5
102
}
330
1B5
100
AcDbXrecord
340
1E
  0
XRECORD
  5
1B4
102
{ACAD_REACTORS
330
1B3
102
}
330
1B3
100
AcDbXrecord
340
1A
  0
MLINESTYLE
  5
17
102
{ACAD_REACTORS
330
16
102
}
330
16
100
AcDbMlineStyle
  2
STANDARD
 70
     0
  3

 62
   256
 51
90.0
 52
90.0
 71
     2
 49
0.5
 62
   256
  6
BYLAYER
 49
-0.5
 62
   256
  6
BYLAYER
  0
ACDBPLACEHOLDER
  5
F
102
{ACAD_REACTORS
330
E
102
}
330
E
100
AcDbPlaceHolder
280
     0
  0
XRECORD
  5
19D
102
{ACAD_REACTORS
330
193
102
}
330
193
100
AcDbXrecord
 90
        0
  0
XRECORD
  5
19E
102
{ACAD_REACTORS
330
193
102
}
330
193
100
AcDbXrecord
  1
{C4B02998-940A-4B7F-83D1-692E8C1B0266}
  0
XRECORD
  5
196
102
{ACAD_REACTORS
330
193
102
}
330
193
100
AcDbXrecord
  1

  0
XRECORD
  5
19C
102
{ACAD_REACTORS
330
193
102
}
330
193
100
AcDbXrecord
 90
        0
  0
XRECORD
  5
198
102
{ACAD_REACTORS
330
193
102
}
330
193
100
AcDbXrecord
340
19
  0
XRECORD
  5
19B
102
{ACAD_REACTORS
330
193
102
}
330
193
100
AcDbXrecord
 90
    10781
  0
XRECORD
  5
199
102
{ACAD_REACTORS
330
193
102
}
330
193
100
AcDbXrecord
340
18
  0
XRECORD
  5
19A
102
{ACAD_REACTORS
330
193
102
}
330
193
100
AcDbXrecord
340
E
  0
XRECORD
  5
1A0
102
{ACAD_REACTORS
330
193
102
}
330
193
100
AcDbXrecord
 40
0.0
  0
XRECORD
  5
1A3
102
{ACAD_REACTORS
330
193
102
}
330
193
100
AcDbXrecord
340
0
  0
XRECORD
  5
1A9
102
{ACAD_REACTORS
330
193
102
}
330
193
100
AcDbXrecord
 10
0.0
 20
0.0
 30
0.0
  0
XRECORD
  5
1A5
102
{ACAD_REACTORS
330
193
102
}
330
193
100
AcDbXrecord
 10
0.0
 20
0.0
 30
0.0
  0
XRECORD
  5
1A8
102
{ACAD_REACTORS
330
193
102
}
330
193
100
AcDbXrecord
 10
0.0
 20
0.0
 30
0.0
  0
XRECORD
  5
1A6
102
{ACAD_REACTORS
330
193
102
}
330
193
100
AcDbXrecord
 10
0.0
 20
0.0
 30
0.0
  0
XRECORD
  5
1A7
102
{ACAD_REACTORS
330
193
102
}
330
193
100
AcDbXrecord
 10
0.0
 20
0.0
 30
0.0
  0
XRECORD
  5
1A4
102
{ACAD_REACTORS
330
193
102
}
330
193
100
AcDbXrecord
 10
0.0
 20
0.0
 30
0.0
  0
XRECORD
  5
1A1
102
{ACAD_REACTORS
330
193
102
}
330
193
100
AcDbXrecord
340
0
  0
XRECORD
  5
1A2
102
{ACAD_REACTORS
330
193
102
}
330
193
100
AcDbXrecord
 70
     0
  0
XRECORD
  5
197
102
{ACAD_REACTORS
330
193
102
}
330
193
100
AcDbXrecord
  1

  0
XRECORD
  5
194
102
{ACAD_REACTORS
330
193
102
}
330
193
100
AcDbXrecord
 90
        1
  0
XRECORD
  5
195
102
{ACAD_REACTORS
330
193
102
}
330
193
100
AcDbXrecord
 90
       70
  0
XRECORD
  5
1AC
102
{ACAD_REACTORS
330
193
102
}
330
193
100
AcDbXrecord
340
0
  0
XRECORD
  5
1B2
102
{ACAD_REACTORS
330
193
102
}
330
193
100
AcDbXrecord
 10
0.0
 20
0.0
 30
0.0
  0
XRECORD
  5
1AE
102
{ACAD_REACTORS
330
193
102
}
330
193
100
AcDbXrecord
 10
0.0
 20
0.0
 30
0.0
  0
XRECORD
  5
1B1
102
{ACAD_REACTORS
330
193
102
}
330
193
100
AcDbXrecord
 10
0.0
 20
0.0
 30
0.0
  0
XRECORD
  5
1AF
102
{ACAD_REACTORS
330
193
102
}
330
193
100
AcDbXrecord
 10
0.0
 20
0.0
 30
0.0
  0
XRECORD
  5
1B0
102
{ACAD_REACTORS
330
193
102
}
330
193
100
AcDbXrecord
 10
0.0
 20
0.0
 30
0.0
  0
XRECORD
  5
1AD
102
{ACAD_REACTORS
330
193
102
}
330
193
100
AcDbXrecord
 10
0.0
 20
0.0
 30
0.0
  0
XRECORD
  5
1AA
102
{ACAD_REACTORS
330
193
102
}
330
193
100
AcDbXrecord
340
0
  0
XRECORD
  5
1AB
102
{ACAD_REACTORS
330
193
102
}
330
193
100
AcDbXrecord
 70
     1
  0
XRECORD
  5
19F
102
{ACAD_REACTORS
330
193
102
}
330
193
100
AcDbXrecord
  1
{6E54F510-C38B-4256-BDC2-7D9B9814B060}
  0
DICTIONARYVAR
  5
16C
102
{ACAD_REACTORS
330
16B
102
}
330
16B
100
DictionaryVariables
280
     0
  1
1
  0
ENDSEC
  0
EOF
