  0
SECTION
  2
HEADER
  9
$ACADVER
  1
AC1014
  9
$ACADMAINTVER
 70
     9
  9
$DWGCODEPAGE
  3
ANSI_1252
  9
$INSBASE
 10
0.0
 20
0.0
 30
0.0
  9
$EXTMIN
 10
0.0539997250245961
 20
0.249999999999997
 30
0.0
  9
$EXTMAX
 10
150.0
 20
152.546655227492
 30
0.0
  9
$LIMMIN
 10
0.0
 20
0.0
  9
$LIMMAX
 10
12.0
 20
9.0
  9
$ORTHOMODE
 70
     0
  9
$REGENMODE
 70
     1
  9
$FILLMODE
 70
     1
  9
$QTEXTMODE
 70
     0
  9
$MIRRTEXT
 70
     1
  9
$DRAGMODE
 70
     2
  9
$LTSCALE
 40
1.0
  9
$OSMODE
 70
    37
  9
$ATTMODE
 70
     1
  9
$TEXTSIZE
 40
0.2
  9
$TRACEWID
 40
0.05
  9
$TEXTSTYLE
  7
STANDARD
  9
$CLAYER
  8
0
  9
$CELTYPE
  6
CONTINUOUS
  9
$CECOLOR
 62
   256
  9
$CELTSCALE
 40
1.0
  9
$DELOBJ
 70
     1
  9
$DISPSILH
 70
     0
  9
$DIMSCALE
 40
1.0
  9
$DIMASZ
 40
0.18
  9
$DIMEXO
 40
0.0625
  9
$DIMDLI
 40
0.38
  9
$DIMRND
 40
0.0
  9
$DIMDLE
 40
0.0
  9
$DIMEXE
 40
0.18
  9
$DIMTP
 40
0.0
  9
$DIMTM
 40
0.0
  9
$DIMTXT
 40
0.18
  9
$DIMCEN
 40
0.09
  9
$DIMTSZ
 40
0.0
  9
$DIMTOL
 70
     0
  9
$DIMLIM
 70
     0
  9
$DIMTIH
 70
     1
  9
$DIMTOH
 70
     1
  9
$DIMSE1
 70
     0
  9
$DIMSE2
 70
     0
  9
$DIMTAD
 70
     0
  9
$DIMZIN
 70
     0
  9
$DIMBLK
  1

  9
$DIMASO
 70
     1
  9
$DIMSHO
 70
     1
  9
$DIMPOST
  1

  9
$DIMAPOST
  1

  9
$DIMALT
 70
     0
  9
$DIMALTD
 70
     2
  9
$DIMALTF
 40
25.4
  9
$DIMLFAC
 40
1.0
  9
$DIMTOFL
 70
     0
  9
$DIMTVP
 40
0.0
  9
$DIMTIX
 70
     0
  9
$DIMSOXD
 70
     0
  9
$DIMSAH
 70
     0
  9
$DIMBLK1
  1

  9
$DIMBLK2
  1

  9
$DIMSTYLE
  2
STANDARD
  9
$DIMCLRD
 70
     0
  9
$DIMCLRE
 70
     0
  9
$DIMCLRT
 70
     0
  9
$DIMTFAC
 40
1.0
  9
$DIMGAP
 40
0.09
  9
$DIMJUST
 70
     0
  9
$DIMSD1
 70
     0
  9
$DIMSD2
 70
     0
  9
$DIMTOLJ
 70
     1
  9
$DIMTZIN
 70
     0
  9
$DIMALTZ
 70
     0
  9
$DIMALTTZ
 70
     0
  9
$DIMFIT
 70
     3
  9
$DIMUPT
 70
     0
  9
$DIMUNIT
 70
     2
  9
$DIMDEC
 70
     4
  9
$DIMTDEC
 70
     4
  9
$DIMALTU
 70
     2
  9
$DIMALTTD
 70
     2
  9
$DIMTXSTY
  7
STANDARD
  9
$DIMAUNIT
 70
     0
  9
$LUNITS
 70
     2
  9
$LUPREC
 70
     4
  9
$SKETCHINC
 40
0.1
  9
$FILLETRAD
 40
0.0
  9
$AUNITS
 70
     0
  9
$AUPREC
 70
     0
  9
$MENU
  1
.
  9
$ELEVATION
 40
0.0
  9
$PELEVATION
 40
0.0
  9
$THICKNESS
 40
0.0
  9
$LIMCHECK
 70
     0
  9
$BLIPMODE
 70
     0
  9
$CHAMFERA
 40
0.0
  9
$CHAMFERB
 40
0.0
  9
$CHAMFERC
 40
0.0
  9
$CHAMFERD
 40
0.0
  9
$SKPOLY
 70
     0
  9
$TDCREATE
 40
2454700.514477720
  9
$TDUPDATE
 40
2454700.520600219
  9
$TDINDWG
 40
0.0061225000
  9
$TDUSRTIMER
 40
0.0061225000
  9
$USRTIMER
 70
     1
  9
$ANGBASE
 50
0.0
  9
$ANGDIR
 70
     0
  9
$PDMODE
 70
     0
  9
$PDSIZE
 40
0.0
  9
$PLINEWID
 40
0.0
  9
$COORDS
 70
     1
  9
$SPLFRAME
 70
     0
  9
$SPLINETYPE
 70
     6
  9
$SPLINESEGS
 70
     8
  9
$ATTDIA
 70
     0
  9
$ATTREQ
 70
     1
  9
$HANDLING
 70
 22529
  9
$HANDSEED
  5
12E
  9
$SURFTAB1
 70
     6
  9
$SURFTAB2
 70
     6
  9
$SURFTYPE
 70
     6
  9
$SURFU
 70
     6
  9
$SURFV
 70
     6
  9
$UCSNAME
  2

  9
$UCSORG
 10
0.0
 20
0.0
 30
0.0
  9
$UCSXDIR
 10
1.0
 20
0.0
 30
0.0
  9
$UCSYDIR
 10
0.0
 20
1.0
 30
0.0
  9
$PUCSNAME
  2

  9
$PUCSORG
 10
0.0
 20
0.0
 30
0.0
  9
$PUCSXDIR
 10
1.0
 20
0.0
 30
0.0
  9
$PUCSYDIR
 10
0.0
 20
1.0
 30
0.0
  9
$USERI1
 70
     0
  9
$USERI2
 70
     0
  9
$USERI3
 70
     0
  9
$USERI4
 70
     0
  9
$USERI5
 70
     0
  9
$USERR1
 40
0.0
  9
$USERR2
 40
0.0
  9
$USERR3
 40
0.0
  9
$USERR4
 40
0.0
  9
$USERR5
 40
0.0
  9
$WORLDVIEW
 70
     1
  9
$SHADEDGE
 70
     3
  9
$SHADEDIF
 70
    70
  9
$TILEMODE
 70
     1
  9
$MAXACTVP
 70
    64
  9
$PINSBASE
 10
0.0
 20
0.0
 30
0.0
  9
$PLIMCHECK
 70
     0
  9
$PEXTMIN
 10
1.000000000000000E+20
 20
1.000000000000000E+20
 30
1.000000000000000E+20
  9
$PEXTMAX
 10
-1.000000000000000E+20
 20
-1.000000000000000E+20
 30
-1.000000000000000E+20
  9
$PLIMMIN
 10
0.0
 20
0.0
  9
$PLIMMAX
 10
12.0
 20
9.0
  9
$UNITMODE
 70
     0
  9
$VISRETAIN
 70
     1
  9
$PLINEGEN
 70
     0
  9
$PSLTSCALE
 70
     1
  9
$TREEDEPTH
 70
  3020
  9
$PICKSTYLE
 70
     1
  9
$CMLSTYLE
  2
STANDARD
  9
$CMLJUST
 70
     0
  9
$CMLSCALE
 40
1.0
  9
$PROXYGRAPHICS
 70
     1
  9
$MEASUREMENT
 70
     0
  0
ENDSEC
  0
SECTION
  2
CLASSES
  0
CLASS
  1
ACDBDICTIONARYWDFLT
  2
AcDbDictionaryWithDefault
  3
AutoCAD 2000
 90
        0
280
     0
281
     0
  0
CLASS
  1
ACDBPLACEHOLDER
  2
AcDbPlaceHolder
  3
AutoCAD 2000
 90
        0
280
     0
281
     0
  0
CLASS
  1
LAYOUT
  2
AcDbLayout
  3
AutoCAD 2000
 90
        0
280
     0
281
     0
  0
CLASS
  1
DICTIONARYVAR
  2
AcDbDictionaryVar
  3
AutoCAD 2000
 90
        0
280
     0
281
     0
  0
CLASS
  1
LONG_TRANSACTION
  2
AcDbLongTransaction
  3
AutoCAD 2000
 90
        0
280
     0
281
     0
  0
CLASS
  1
LWPOLYLINE
  2
AcDbPolyline
  3
AutoCAD 2000
 90
        0
280
     0
281
     1
  0
CLASS
  1
HATCH
  2
AcDbHatch
  3
AutoCAD 2000
 90
        0
280
     0
281
     1
  0
CLASS
  1
XRECORD
  2
AcDbXrecord
  3
AutoCAD 2000
 90
        0
280
     0
281
     0
  0
ENDSEC
  0
SECTION
  2
TABLES
  0
TABLE
  2
VPORT
  5
8
330
0
100
AcDbSymbolTable
 70
     2
  0
VPORT
  5
109
330
8
100
AcDbSymbolTableRecord
100
AcDbViewportTableRecord
  2
*ACTIVE
 70
     0
 10
0.0
 20
0.0
 11
1.0
 21
1.0
 12
75.02699986251229
 22
76.39832761374603
 13
0.0
 23
0.0
 14
1.0
 24
1.0
 15
0.0
 25
0.0
 16
0.0
 26
0.0
 36
1.0
 17
0.0
 27
0.0
 37
0.0
 40
153.4651717637643
 41
2.078104993597951
 42
50.0
 43
0.0
 44
0.0
 50
0.0
 51
0.0
 71
     0
 72
   100
 73
     1
 74
     3
 75
     0
 76
     0
 77
     0
 78
     0
  0
ENDTAB
  0
TABLE
  2
LTYPE
  5
5
330
0
100
AcDbSymbolTable
 70
     1
  0
LTYPE
  5
13
330
5
100
AcDbSymbolTableRecord
100
AcDbLinetypeTableRecord
  2
BYBLOCK
 70
     0
  3

 72
    65
 73
     0
 40
0.0
  0
LTYPE
  5
14
330
5
100
AcDbSymbolTableRecord
100
AcDbLinetypeTableRecord
  2
BYLAYER
 70
     0
  3

 72
    65
 73
     0
 40
0.0
  0
LTYPE
  5
15
330
5
100
AcDbSymbolTableRecord
100
AcDbLinetypeTableRecord
  2
CONTINUOUS
 70
     0
  3
Solid line
 72
    65
 73
     0
 40
0.0
  0
ENDTAB
  0
TABLE
  2
LAYER
  5
2
330
0
100
AcDbSymbolTable
 70
     1
  0
LAYER
  5
10
330
2
100
AcDbSymbolTableRecord
100
AcDbLayerTableRecord
  2
0
 70
     0
 62
     7
  6
CONTINUOUS
  0
ENDTAB
  0
TABLE
  2
STYLE
  5
3
330
0
100
AcDbSymbolTable
 70
     1
  0
STYLE
  5
11
330
3
100
AcDbSymbolTableRecord
100
AcDbTextStyleTableRecord
  2
STANDARD
 70
     0
 40
0.0
 41
1.0
 50
0.0
 71
     0
 42
0.2
  3
txt
  4

  0
ENDTAB
  0
TABLE
  2
VIEW
  5
6
330
0
100
AcDbSymbolTable
 70
     0
  0
ENDTAB
  0
TABLE
  2
UCS
  5
7
330
0
100
AcDbSymbolTable
 70
     0
  0
ENDTAB
  0
TABLE
  2
APPID
  5
9
330
0
100
AcDbSymbolTable
 70
     1
  0
APPID
  5
12
330
9
100
AcDbSymbolTableRecord
100
AcDbRegAppTableRecord
  2
ACAD
 70
     0
  0
ENDTAB
  0
TABLE
  2
DIMSTYLE
  5
A
330
0
100
AcDbSymbolTable
 70
     1
  0
DIMSTYLE
105
EF
330
A
100
AcDbSymbolTableRecord
100
AcDbDimStyleTableRecord
  2
STANDARD
 70
     0
  3

  4

  5

  6

  7

 40
1.0
 41
0.18
 42
0.0625
 43
0.38
 44
0.18
 45
0.0
 46
0.0
 47
0.0
 48
0.0
140
0.18
141
0.09
142
0.0
143
25.4
144
1.0
145
0.0
146
1.0
147
0.09
 71
     0
 72
     0
 73
     1
 74
     1
 75
     0
 76
     0
 77
     0
 78
     0
170
     0
171
     2
172
     0
173
     0
174
     0
175
     0
176
     0
177
     0
178
     0
270
     2
271
     4
272
     4
273
     2
274
     2
340
11
275
     0
280
     0
281
     0
282
     0
283
     1
284
     0
285
     0
286
     0
287
     3
288
     0
  0
ENDTAB
  0
TABLE
  2
BLOCK_RECORD
  5
1
330
0
100
AcDbSymbolTable
 70
     0
  0
BLOCK_RECORD
  5
1E
102
{ACAD_XDICTIONARY
360
12C
102
}
330
1
100
AcDbSymbolTableRecord
100
AcDbBlockTableRecord
  2
*MODEL_SPACE
  0
BLOCK_RECORD
  5
1A
102
{ACAD_XDICTIONARY
360
12A
102
}
330
1
100
AcDbSymbolTableRecord
100
AcDbBlockTableRecord
  2
*PAPER_SPACE
  0
ENDTAB
  0
ENDSEC
  0
SECTION
  2
BLOCKS
  0
BLOCK
  5
1F
330
1E
100
AcDbEntity
  8
0
100
AcDbBlockBegin
  2
*MODEL_SPACE
 70
     0
 10
0.0
 20
0.0
 30
0.0
  3
*MODEL_SPACE
  1

  0
ENDBLK
  5
20
330
1E
100
AcDbEntity
  8
0
100
AcDbBlockEnd
  0
BLOCK
  5
1B
330
1A
100
AcDbEntity
 67
     1
  8
0
100
AcDbBlockBegin
  2
*PAPER_SPACE
 70
     0
 10
0.0
 20
0.0
 30
0.0
  3
*PAPER_SPACE
  1

  0
ENDBLK
  5
1C
330
1A
100
AcDbEntity
 67
     1
  8
0
100
AcDbBlockEnd
  0
ENDSEC
  0
SECTION
  2
ENTITIES
  0
LINE
  5
22
330
1E
100
AcDbEntity
  8
0
100
AcDbLine
 10
10.0588
 20
40.4265
 30
0.0
 11
15.6176
 21
32.13239999999999
 31
0.0
  0
LINE
  5
23
330
1E
100
AcDbEntity
  8
0
100
AcDbLine
 10
2.735289999999999
 20
58.42649999999999
 30
0.0
 11
5.82352999999999
 21
49.0735
 31
0.0
  0
LINE
  5
24
330
1E
100
AcDbEntity
  8
0
100
AcDbLine
 10
5.82352999999999
 20
49.0735
 30
0.0
 11
10.0588
 21
40.4265
 31
0.0
  0
LINE
  5
25
330
1E
100
AcDbEntity
  8
0
100
AcDbLine
 10
0.7941179999999949
 20
67.9559
 30
0.0
 11
2.735289999999999
 21
58.42649999999999
 31
0.0
  0
LINE
  5
26
330
1E
100
AcDbEntity
  8
0
100
AcDbLine
 10
5.82352999999999
 20
106.4259999999999
 30
0.0
 11
10.0588
 21
115.074
 31
0.0
  0
LINE
  5
27
330
1E
100
AcDbEntity
  8
0
100
AcDbLine
 10
2.735289999999999
 20
97.07399999999999
 30
0.0
 11
5.82352999999999
 21
106.4259999999999
 31
0.0
  0
LINE
  5
28
330
1E
100
AcDbEntity
  8
0
100
AcDbLine
 10
0.7941179999999949
 20
87.5441
 30
0.0
 11
2.735289999999999
 21
97.07399999999999
 31
0.0
  0
LINE
  5
29
330
1E
100
AcDbEntity
  8
0
100
AcDbLine
 10
15.6176
 20
32.13239999999999
 30
0.0
 11
22.0588
 21
24.8088
 31
0.0
  0
LINE
  5
2A
330
1E
100
AcDbEntity
  8
0
100
AcDbLine
 10
29.3824
 20
18.36759999999999
 30
0.0
 11
37.67649999999999
 21
12.8088
 31
0.0
  0
LINE
  5
2B
330
1E
100
AcDbEntity
  8
0
100
AcDbLine
 10
22.0588
 20
24.8088
 30
0.0
 11
29.3824
 21
18.36759999999999
 31
0.0
  0
LINE
  5
2C
330
1E
100
AcDbEntity
  8
0
100
AcDbLine
 10
15.6176
 20
123.3679999999999
 30
0.0
 11
22.0588
 21
130.691
 31
0.0
  0
LINE
  5
2D
330
1E
100
AcDbEntity
  8
0
100
AcDbLine
 10
10.0588
 20
115.074
 30
0.0
 11
15.6176
 21
123.3679999999999
 31
0.0
  0
LINE
  5
2E
330
1E
100
AcDbEntity
  8
0
100
AcDbLine
 10
22.0588
 20
130.691
 30
0.0
 11
29.3824
 21
137.132
 31
0.0
  0
LINE
  5
2F
330
1E
100
AcDbEntity
  8
0
100
AcDbLine
 10
46.3235
 20
8.57349999999999
 30
0.0
 11
55.6765
 21
5.48529999999999
 31
0.0
  0
LINE
  5
30
330
1E
100
AcDbEntity
  8
0
100
AcDbLine
 10
37.67649999999999
 20
12.8088
 30
0.0
 11
46.3235
 21
8.57349999999999
 31
0.0
  0
LINE
  5
31
330
1E
100
AcDbEntity
  8
0
100
AcDbLine
 10
37.67649999999999
 20
142.691
 30
0.0
 11
46.3235
 21
146.926
 31
0.0
  0
LINE
  5
32
330
1E
100
AcDbEntity
  8
0
100
AcDbLine
 10
67.5333
 20
2.25
 30
0.0
 11
71.13330000000001
 21
0.783329999999997
 31
0.0
  0
LINE
  5
33
330
1E
100
AcDbEntity
  8
0
100
AcDbLine
 10
71.13330000000001
 20
0.783329999999997
 30
0.0
 11
75.0
 21
0.249999999999997
 31
0.0
  0
LINE
  5
34
330
1E
100
AcDbEntity
  8
0
100
AcDbLine
 10
71.13330000000001
 20
0.783329999999997
 30
0.0
 11
75.0
 21
0.249999999999997
 31
0.0
  0
LINE
  5
35
330
1E
100
AcDbEntity
  8
0
100
AcDbLine
 10
67.7333
 20
2.516669999999999
 30
0.0
 11
71.2
 21
1.11667
 31
0.0
  0
LINE
  5
36
330
1E
100
AcDbEntity
  8
0
100
AcDbLine
 10
67.7333
 20
2.516669999999999
 30
0.0
 11
71.2
 21
1.11667
 31
0.0
  0
LINE
  5
37
330
1E
100
AcDbEntity
  8
0
100
AcDbLine
 10
75.0
 20
0.5833299999999979
 30
0.0
 11
78.79999999999999
 21
1.11667
 31
0.0
  0
LINE
  5
38
330
1E
100
AcDbEntity
  8
0
100
AcDbLine
 10
78.79999999999999
 20
1.11667
 30
0.0
 11
82.2667
 21
2.516669999999999
 31
0.0
  0
LINE
  5
39
330
1E
100
AcDbEntity
  8
0
100
AcDbLine
 10
78.79999999999999
 20
1.11667
 30
0.0
 11
82.2667
 21
2.516669999999999
 31
0.0
  0
LINE
  5
3A
330
1E
100
AcDbEntity
  8
0
100
AcDbLine
 10
82.2667
 20
2.516669999999999
 30
0.0
 11
85.33329999999999
 21
4.916669999999999
 31
0.0
  0
LINE
  5
3B
330
1E
100
AcDbEntity
  8
0
100
AcDbLine
 10
82.46669999999999
 20
2.25
 30
0.0
 11
85.6
 21
4.65
 31
0.0
  0
LINE
  5
3C
330
1E
100
AcDbEntity
  8
0
100
AcDbLine
 10
82.46669999999999
 20
2.25
 30
0.0
 11
85.6
 21
4.65
 31
0.0
  0
LINE
  5
3D
330
1E
100
AcDbEntity
  8
0
100
AcDbLine
 10
82.46669999999999
 20
2.25
 30
0.0
 11
85.6
 21
4.65
 31
0.0
  0
LINE
  5
3E
330
1E
100
AcDbEntity
  8
0
100
AcDbLine
 10
78.86669999999999
 20
0.783329999999997
 30
0.0
 11
82.46669999999999
 21
2.25
 31
0.0
  0
LINE
  5
3F
330
1E
100
AcDbEntity
  8
0
100
AcDbLine
 10
71.2
 20
1.11667
 30
0.0
 11
75.0
 21
0.5833299999999979
 31
0.0
  0
LINE
  5
40
330
1E
100
AcDbEntity
  8
0
100
AcDbLine
 10
62.0
 20
7.78333
 30
0.0
 11
64.40000000000001
 21
4.65
 31
0.0
  0
LINE
  5
41
330
1E
100
AcDbEntity
  8
0
100
AcDbLine
 10
64.40000000000001
 20
4.65
 30
0.0
 11
67.5333
 21
2.25
 31
0.0
  0
LINE
  5
42
330
1E
100
AcDbEntity
  8
0
100
AcDbLine
 10
64.40000000000001
 20
4.65
 30
0.0
 11
67.5333
 21
2.25
 31
0.0
  0
LINE
  5
43
330
1E
100
AcDbEntity
  8
0
100
AcDbLine
 10
60.53329999999999
 20
11.3833
 30
0.0
 11
62.0
 21
7.78333
 31
0.0
  0
LINE
  5
44
330
1E
100
AcDbEntity
  8
0
100
AcDbLine
 10
60.3333
 20
15.25
 30
0.0
 11
60.8667
 21
11.45
 31
0.0
  0
LINE
  5
45
330
1E
100
AcDbEntity
  8
0
100
AcDbLine
 10
60.8667
 20
11.45
 30
0.0
 11
62.2667
 21
7.98333
 31
0.0
  0
LINE
  5
46
330
1E
100
AcDbEntity
  8
0
100
AcDbLine
 10
62.2667
 20
7.98333
 30
0.0
 11
64.6667
 21
4.916669999999999
 31
0.0
  0
LINE
  5
47
330
1E
100
AcDbEntity
  8
0
100
AcDbLine
 10
62.0
 20
7.78333
 30
0.0
 11
64.40000000000001
 21
4.65
 31
0.0
  0
LINE
  5
48
330
1E
100
AcDbEntity
  8
0
100
AcDbLine
 10
85.33329999999999
 20
4.916669999999999
 30
0.0
 11
87.73329999999999
 21
7.98333
 31
0.0
  0
LINE
  5
49
330
1E
100
AcDbEntity
  8
0
100
AcDbLine
 10
85.6
 20
4.65
 30
0.0
 11
88.0
 21
7.78333
 31
0.0
  0
LINE
  5
4A
330
1E
100
AcDbEntity
  8
0
100
AcDbLine
 10
85.6
 20
4.65
 30
0.0
 11
88.0
 21
7.78333
 31
0.0
  0
LINE
  5
4B
330
1E
100
AcDbEntity
  8
0
100
AcDbLine
 10
87.73329999999999
 20
7.98333
 30
0.0
 11
89.1333
 21
11.45
 31
0.0
  0
LINE
  5
4C
330
1E
100
AcDbEntity
  8
0
100
AcDbLine
 10
88.0
 20
7.78333
 30
0.0
 11
89.46670000000001
 21
11.3833
 31
0.0
  0
LINE
  5
4D
330
1E
100
AcDbEntity
  8
0
100
AcDbLine
 10
89.1333
 20
11.45
 30
0.0
 11
89.6667
 21
15.25
 31
0.0
  0
LINE
  5
4E
330
1E
100
AcDbEntity
  8
0
100
AcDbLine
 10
89.46670000000001
 20
11.3833
 30
0.0
 11
90.0
 21
15.25
 31
0.0
  0
LINE
  5
4F
330
1E
100
AcDbEntity
  8
0
100
AcDbLine
 10
90.0
 20
15.25
 30
0.0
 11
97.5
 21
77.75
 31
0.0
  0
LINE
  5
50
330
1E
100
AcDbEntity
  8
0
100
AcDbLine
 10
89.6667
 20
15.25
 30
0.0
 11
97.0
 21
77.75
 31
0.0
  0
LINE
  5
51
330
1E
100
AcDbEntity
  8
0
100
AcDbLine
 10
89.6667
 20
15.25
 30
0.0
 11
97.0
 21
77.75
 31
0.0
  0
LINE
  5
52
330
1E
100
AcDbEntity
  8
0
100
AcDbLine
 10
90.0
 20
15.25
 30
0.0
 11
97.5
 21
77.75
 31
0.0
  0
LINE
  5
53
330
1E
100
AcDbEntity
  8
0
100
AcDbLine
 10
64.6667
 20
4.916669999999999
 30
0.0
 11
67.7333
 21
2.516669999999999
 31
0.0
  0
LINE
  5
54
330
1E
100
AcDbEntity
  8
0
100
AcDbLine
 10
64.40000000000001
 20
4.65
 30
0.0
 11
67.5333
 21
2.25
 31
0.0
  0
LINE
  5
55
330
1E
100
AcDbEntity
  8
0
100
AcDbLine
 10
95.7255892255892
 20
62.9632435465769
 30
0.0
 11
97.3
 21
64.95
 31
0.0
  0
LINE
  5
56
330
1E
100
AcDbEntity
  8
0
100
AcDbLine
 10
97.3
 20
64.95
 30
0.0
 11
99.8
 21
71.15000000000001
 31
0.0
  0
LINE
  5
57
330
1E
100
AcDbEntity
  8
0
100
AcDbLine
 10
95.66959459459459
 20
62.49662162162159
 30
0.0
 11
97.5
 21
64.84999999999999
 31
0.0
  0
LINE
  5
58
330
1E
100
AcDbEntity
  8
0
100
AcDbLine
 10
97.5
 20
64.84999999999999
 30
0.0
 11
100.0999999999999
 21
71.05
 31
0.0
  0
LINE
  5
6B
330
1E
100
AcDbEntity
  8
0
100
AcDbLine
 10
96.6278048780488
 20
70.4817073170732
 30
0.0
 11
97.2
 21
71.84999999999999
 31
0.0
  0
LINE
  5
6C
330
1E
100
AcDbEntity
  8
0
100
AcDbLine
 10
100.0999999999999
 20
71.05
 30
0.0
 11
101.0
 21
77.75
 31
0.0
  0
LINE
  5
6D
330
1E
100
AcDbEntity
  8
0
100
AcDbLine
 10
52.7
 20
64.95
 30
0.0
 11
54.27441077441081
 21
62.9632435465769
 31
0.0
  0
LINE
  5
6E
330
1E
100
AcDbEntity
  8
0
100
AcDbLine
 10
52.5
 20
64.84999999999999
 30
0.0
 11
54.3304054054054
 21
62.49662162162159
 31
0.0
  0
LINE
  5
73
330
1E
100
AcDbEntity
  8
0
100
AcDbLine
 10
99.8
 20
71.15000000000001
 30
0.0
 11
100.7
 21
77.75
 31
0.0
  0
LINE
  5
74
330
1E
100
AcDbEntity
  8
0
100
AcDbLine
 10
50.2
 20
84.35
 30
0.0
 11
52.7
 21
90.54999999999999
 31
0.0
  0
LINE
  5
75
330
1E
100
AcDbEntity
  8
0
100
AcDbLine
 10
49.9
 20
84.45
 30
0.0
 11
52.5
 21
90.65000000000001
 31
0.0
  0
LINE
  5
82
330
1E
100
AcDbEntity
  8
0
100
AcDbLine
 10
97.2
 20
71.84999999999999
 30
0.0
 11
98.0
 21
77.75
 31
0.0
  0
LINE
  5
83
330
1E
100
AcDbEntity
  8
0
100
AcDbLine
 10
52.5
 20
77.75
 30
0.0
 11
53.3
 21
83.55
 31
0.0
  0
LINE
  5
84
330
1E
100
AcDbEntity
  8
0
100
AcDbLine
 10
52.5
 20
77.75
 30
0.0
 11
60.0
 21
15.25
 31
0.0
  0
LINE
  5
85
330
1E
100
AcDbEntity
  8
0
100
AcDbLine
 10
52.5
 20
77.75
 30
0.0
 11
60.0
 21
15.25
 31
0.0
  0
LINE
  5
86
330
1E
100
AcDbEntity
  8
0
100
AcDbLine
 10
53.0
 20
77.75
 30
0.0
 11
53.79999999999999
 21
83.45
 31
0.0
  0
LINE
  5
87
330
1E
100
AcDbEntity
  8
0
100
AcDbLine
 10
53.0
 20
77.75
 30
0.0
 11
60.3333
 21
15.25
 31
0.0
  0
LINE
  5
88
330
1E
100
AcDbEntity
  8
0
100
AcDbLine
 10
53.0
 20
77.75
 30
0.0
 11
60.3333
 21
15.25
 31
0.0
  0
LINE
  5
97
330
1E
100
AcDbEntity
  8
0
100
AcDbLine
 10
96.2
 20
83.45
 30
0.0
 11
97.0
 21
77.75
 31
0.0
  0
LINE
  5
98
330
1E
100
AcDbEntity
  8
0
100
AcDbLine
 10
96.70000000000001
 20
83.55
 30
0.0
 11
97.5
 21
77.75
 31
0.0
  0
LINE
  5
99
330
1E
100
AcDbEntity
  8
0
100
AcDbLine
 10
53.79999999999999
 20
83.45
 30
0.0
 11
55.89999999999999
 21
88.65
 31
0.0
  0
LINE
  5
9A
330
1E
100
AcDbEntity
  8
0
100
AcDbLine
 10
96.70000000000001
 20
83.57829999999999
 30
0.0
 11
96.71002182655207
 21
83.5052872353828
 31
0.0
  0
LINE
  5
9B
330
1E
100
AcDbEntity
  8
0
100
AcDbLine
 10
53.3
 20
83.57829999999999
 30
0.0
 11
55.5
 21
88.95239999999999
 31
0.0
  0
LINE
  5
9C
330
1E
100
AcDbEntity
  8
0
100
AcDbLine
 10
53.3
 20
83.55
 30
0.0
 11
55.5
 21
88.95000000000001
 31
0.0
  0
LINE
  5
9D
330
1E
100
AcDbEntity
  8
0
100
AcDbLine
 10
97.2
 20
83.65
 30
0.0
 11
98.0
 21
77.75
 31
0.0
  0
LINE
  5
9E
330
1E
100
AcDbEntity
  8
0
100
AcDbLine
 10
94.1
 20
88.65
 30
0.0
 11
96.2
 21
83.45
 31
0.0
  0
LINE
  5
9F
330
1E
100
AcDbEntity
  8
0
100
AcDbLine
 10
94.50000000000001
 20
88.95000000000001
 30
0.0
 11
96.70000000000001
 21
83.55
 31
0.0
  0
LINE
  5
A0
330
1E
100
AcDbEntity
  8
0
100
AcDbLine
 10
55.89999999999999
 20
88.65
 30
0.0
 11
59.5
 21
93.25000000000001
 31
0.0
  0
LINE
  5
A1
330
1E
100
AcDbEntity
  8
0
100
AcDbLine
 10
94.39489051094922
 20
89.08722627737189
 30
0.0
 11
94.50000000000001
 21
88.95239999999999
 31
0.0
  0
LINE
  5
A2
330
1E
100
AcDbEntity
  8
0
100
AcDbLine
 10
94.50000000000001
 20
88.95239999999999
 30
0.0
 11
96.70000000000001
 21
83.57829999999999
 31
0.0
  0
LINE
  5
A3
330
1E
100
AcDbEntity
  8
0
100
AcDbLine
 10
55.5
 20
88.95239999999999
 30
0.0
 11
55.60510948905079
 21
89.08722627737189
 31
0.0
  0
LINE
  5
A4
330
1E
100
AcDbEntity
  8
0
100
AcDbLine
 10
55.5
 20
88.95000000000001
 30
0.0
 11
59.1
 21
93.65
 31
0.0
  0
LINE
  5
A5
330
1E
100
AcDbEntity
  8
0
100
AcDbLine
 10
94.9
 20
89.15
 30
0.0
 11
97.2
 21
83.65
 31
0.0
  0
LINE
  5
A6
330
1E
100
AcDbEntity
  8
0
100
AcDbLine
 10
99.8
 20
84.35
 30
0.0
 11
100.7
 21
77.75
 31
0.0
  0
LINE
  5
A7
330
1E
100
AcDbEntity
  8
0
100
AcDbLine
 10
100.0999999999999
 20
84.45
 30
0.0
 11
101.0
 21
77.75
 31
0.0
  0
LINE
  5
A8
330
1E
100
AcDbEntity
  8
0
100
AcDbLine
 10
97.3
 20
90.54999999999999
 30
0.0
 11
99.8
 21
84.35
 31
0.0
  0
LINE
  5
A9
330
1E
100
AcDbEntity
  8
0
100
AcDbLine
 10
55.1
 20
89.15
 30
0.0
 11
58.79999999999999
 21
93.95000000000001
 31
0.0
  0
LINE
  5
AA
330
1E
100
AcDbEntity
  8
0
100
AcDbLine
 10
52.8
 20
83.65
 30
0.0
 11
55.1
 21
89.15
 31
0.0
  0
LINE
  5
AB
330
1E
100
AcDbEntity
  8
0
100
AcDbLine
 10
90.5
 20
93.25000000000001
 30
0.0
 11
94.1
 21
88.65
 31
0.0
  0
LINE
  5
AC
330
1E
100
AcDbEntity
  8
0
100
AcDbLine
 10
90.90000000000001
 20
93.65
 30
0.0
 11
94.50000000000001
 21
88.95000000000001
 31
0.0
  0
LINE
  5
AD
330
1E
100
AcDbEntity
  8
0
100
AcDbLine
 10
59.5
 20
93.25000000000001
 30
0.0
 11
64.1
 21
96.85
 31
0.0
  0
LINE
  5
AE
330
1E
100
AcDbEntity
  8
0
100
AcDbLine
 10
59.1
 20
93.65
 30
0.0
 11
63.79999999999999
 21
97.25000000000001
 31
0.0
  0
LINE
  5
AF
330
1E
100
AcDbEntity
  8
0
100
AcDbLine
 10
91.2
 20
93.95000000000001
 30
0.0
 11
94.9
 21
89.15
 31
0.0
  0
LINE
  5
B0
330
1E
100
AcDbEntity
  8
0
100
AcDbLine
 10
93.1
 20
95.84999999999999
 30
0.0
 11
97.3
 21
90.54999999999999
 31
0.0
  0
LINE
  5
B1
330
1E
100
AcDbEntity
  8
0
100
AcDbLine
 10
97.5
 20
90.65000000000001
 30
0.0
 11
100.0999999999999
 21
84.45
 31
0.0
  0
LINE
  5
B2
330
1E
100
AcDbEntity
  8
0
100
AcDbLine
 10
58.79999999999999
 20
93.95000000000001
 30
0.0
 11
63.6
 21
97.65
 31
0.0
  0
LINE
  5
B3
330
1E
100
AcDbEntity
  8
0
100
AcDbLine
 10
85.90000000000001
 20
96.85
 30
0.0
 11
90.5
 21
93.25000000000001
 31
0.0
  0
LINE
  5
B4
330
1E
100
AcDbEntity
  8
0
100
AcDbLine
 10
64.1
 20
96.85
 30
0.0
 11
69.29999999999999
 21
98.95000000000001
 31
0.0
  0
LINE
  5
B5
330
1E
100
AcDbEntity
  8
0
100
AcDbLine
 10
93.3
 20
96.05
 30
0.0
 11
97.5
 21
90.65000000000001
 31
0.0
  0
LINE
  5
B6
330
1E
100
AcDbEntity
  8
0
100
AcDbLine
 10
56.9
 20
95.84999999999999
 30
0.0
 11
62.2
 21
100.0499999999999
 31
0.0
  0
LINE
  5
B7
330
1E
100
AcDbEntity
  8
0
100
AcDbLine
 10
56.7
 20
96.05
 30
0.0
 11
62.1
 21
100.2499999999999
 31
0.0
  0
LINE
  5
B8
330
1E
100
AcDbEntity
  8
0
100
AcDbLine
 10
52.7
 20
90.54999999999999
 30
0.0
 11
56.9
 21
95.84999999999999
 31
0.0
  0
LINE
  5
B9
330
1E
100
AcDbEntity
  8
0
100
AcDbLine
 10
52.5
 20
90.65000000000001
 30
0.0
 11
56.7
 21
96.05
 31
0.0
  0
LINE
  5
BA
330
1E
100
AcDbEntity
  8
0
100
AcDbLine
 10
52.8
 20
71.84999999999999
 30
0.0
 11
53.3721951219512
 21
70.4817073170732
 31
0.0
  0
LINE
  5
BB
330
1E
100
AcDbEntity
  8
0
100
AcDbLine
 10
52.0
 20
77.75
 30
0.0
 11
52.8
 21
71.84999999999999
 31
0.0
  0
LINE
  5
BC
330
1E
100
AcDbEntity
  8
0
100
AcDbLine
 10
52.0
 20
77.75
 30
0.0
 11
52.8
 21
83.65
 31
0.0
  0
LINE
  5
BD
330
1E
100
AcDbEntity
  8
0
100
AcDbLine
 10
50.2
 20
71.15000000000001
 30
0.0
 11
52.7
 21
64.95
 31
0.0
  0
LINE
  5
BE
330
1E
100
AcDbEntity
  8
0
100
AcDbLine
 10
49.29999999999999
 20
77.75
 30
0.0
 11
50.2
 21
71.15000000000001
 31
0.0
  0
LINE
  5
BF
330
1E
100
AcDbEntity
  8
0
100
AcDbLine
 10
49.29999999999999
 20
77.75
 30
0.0
 11
50.2
 21
84.35
 31
0.0
  0
LINE
  5
C0
330
1E
100
AcDbEntity
  8
0
100
AcDbLine
 10
49.9
 20
71.05
 30
0.0
 11
52.5
 21
64.84999999999999
 31
0.0
  0
LINE
  5
C1
330
1E
100
AcDbEntity
  8
0
100
AcDbLine
 10
49.0
 20
77.75
 30
0.0
 11
49.9
 21
71.05
 31
0.0
  0
LINE
  5
C2
330
1E
100
AcDbEntity
  8
0
100
AcDbLine
 10
49.0
 20
77.75
 30
0.0
 11
49.9
 21
84.45
 31
0.0
  0
LINE
  5
C3
330
1E
100
AcDbEntity
  8
0
100
AcDbLine
 10
65.2059
 20
3.54409999999999
 30
0.0
 11
65.91931537919639
 21
3.486256691005809
 31
0.0
  0
LINE
  5
C4
330
1E
100
AcDbEntity
  8
0
100
AcDbLine
 10
112.324
 20
12.8088
 30
0.0
 11
120.618
 21
18.36759999999999
 31
0.0
  0
LINE
  5
C5
330
1E
100
AcDbEntity
  8
0
100
AcDbLine
 10
149.206
 20
67.9559
 30
0.0
 11
150.0
 21
77.75
 31
0.0
  0
LINE
  5
C6
330
1E
100
AcDbEntity
  8
0
100
AcDbLine
 10
147.2649999999999
 20
58.42649999999999
 30
0.0
 11
149.206
 21
67.9559
 31
0.0
  0
LINE
  5
C7
330
1E
100
AcDbEntity
  8
0
100
AcDbLine
 10
139.941
 20
40.4265
 30
0.0
 11
144.176
 21
49.0735
 31
0.0
  0
LINE
  5
C8
330
1E
100
AcDbEntity
  8
0
100
AcDbLine
 10
134.382
 20
32.13239999999999
 30
0.0
 11
139.941
 21
40.4265
 31
0.0
  0
LINE
  5
C9
330
1E
100
AcDbEntity
  8
0
100
AcDbLine
 10
103.676
 20
8.57349999999999
 30
0.0
 11
112.324
 21
12.8088
 31
0.0
  0
LINE
  5
CB
330
1E
100
AcDbEntity
  8
0
100
AcDbLine
 10
149.206
 20
87.5441
 30
0.0
 11
150.0
 21
77.75
 31
0.0
  0
LINE
  5
CC
330
1E
100
AcDbEntity
  8
0
100
AcDbLine
 10
63.79999999999999
 20
97.25000000000001
 30
0.0
 11
69.2
 21
99.45
 31
0.0
  0
LINE
  5
CD
330
1E
100
AcDbEntity
  8
0
100
AcDbLine
 10
68.27785817655561
 20
99.07431259044859
 30
0.0
 11
69.2
 21
99.4618
 31
0.0
  0
LINE
  5
CE
330
1E
100
AcDbEntity
  8
0
100
AcDbLine
 10
63.6
 20
97.65
 30
0.0
 11
69.1
 21
99.95
 31
0.0
  0
LINE
  5
CF
330
1E
100
AcDbEntity
  8
0
100
AcDbLine
 10
62.2
 20
100.0499999999999
 30
0.0
 11
68.4
 21
102.55
 31
0.0
  0
LINE
  5
D0
330
1E
100
AcDbEntity
  8
0
100
AcDbLine
 10
62.1
 20
100.2499999999999
 30
0.0
 11
68.3
 21
102.8499999999999
 31
0.0
  0
LINE
  5
D1
330
1E
100
AcDbEntity
  8
0
100
AcDbLine
 10
80.7
 20
98.95000000000001
 30
0.0
 11
85.90000000000001
 21
96.85
 31
0.0
  0
LINE
  5
D2
330
1E
100
AcDbEntity
  8
0
100
AcDbLine
 10
86.2
 20
97.25000000000001
 30
0.0
 11
90.90000000000001
 21
93.65
 31
0.0
  0
LINE
  5
D3
330
1E
100
AcDbEntity
  8
0
100
AcDbLine
 10
80.8
 20
99.45
 30
0.0
 11
86.2
 21
97.25000000000001
 31
0.0
  0
LINE
  5
D4
330
1E
100
AcDbEntity
  8
0
100
AcDbLine
 10
69.29999999999999
 20
98.95000000000001
 30
0.0
 11
75.0
 21
99.75000000000001
 31
0.0
  0
LINE
  5
D5
330
1E
100
AcDbEntity
  8
0
100
AcDbLine
 10
75.0
 20
99.75000000000001
 30
0.0
 11
80.7
 21
98.95000000000001
 31
0.0
  0
LINE
  5
D6
330
1E
100
AcDbEntity
  8
0
100
AcDbLine
 10
80.8
 20
99.4618
 30
0.0
 11
81.7221418234444
 21
99.07431259044859
 31
0.0
  0
LINE
  5
D7
330
1E
100
AcDbEntity
  8
0
100
AcDbLine
 10
69.2
 20
99.4618
 30
0.0
 11
75.0
 21
100.2499999999999
 31
0.0
  0
LINE
  5
D8
330
1E
100
AcDbEntity
  8
0
100
AcDbLine
 10
69.2
 20
99.45
 30
0.0
 11
75.0
 21
100.2499999999999
 31
0.0
  0
LINE
  5
D9
330
1E
100
AcDbEntity
  8
0
100
AcDbLine
 10
86.4
 20
97.65
 30
0.0
 11
91.2
 21
93.95000000000001
 31
0.0
  0
LINE
  5
DA
330
1E
100
AcDbEntity
  8
0
100
AcDbLine
 10
75.0
 20
100.2499999999999
 30
0.0
 11
80.8
 21
99.4618
 31
0.0
  0
LINE
  5
DB
330
1E
100
AcDbEntity
  8
0
100
AcDbLine
 10
75.0
 20
100.2499999999999
 30
0.0
 11
80.8
 21
99.45
 31
0.0
  0
LINE
  5
DC
330
1E
100
AcDbEntity
  8
0
100
AcDbLine
 10
80.90000000000001
 20
99.95
 30
0.0
 11
86.4
 21
97.65
 31
0.0
  0
LINE
  5
DD
330
1E
100
AcDbEntity
  8
0
100
AcDbLine
 10
87.79999999999999
 20
100.0499999999999
 30
0.0
 11
93.1
 21
95.84999999999999
 31
0.0
  0
LINE
  5
DE
330
1E
100
AcDbEntity
  8
0
100
AcDbLine
 10
75.0
 20
100.75
 30
0.0
 11
80.90000000000001
 21
99.95
 31
0.0
  0
LINE
  5
DF
330
1E
100
AcDbEntity
  8
0
100
AcDbLine
 10
81.6
 20
102.55
 30
0.0
 11
87.79999999999999
 21
100.0499999999999
 31
0.0
  0
LINE
  5
E0
330
1E
100
AcDbEntity
  8
0
100
AcDbLine
 10
87.9
 20
100.2499999999999
 30
0.0
 11
93.3
 21
96.05
 31
0.0
  0
LINE
  5
E1
330
1E
100
AcDbEntity
  8
0
100
AcDbLine
 10
69.1
 20
99.95
 30
0.0
 11
75.0
 21
100.75
 31
0.0
  0
LINE
  5
E2
330
1E
100
AcDbEntity
  8
0
100
AcDbLine
 10
75.0
 20
103.4499999999999
 30
0.0
 11
81.6
 21
102.55
 31
0.0
  0
LINE
  5
E3
330
1E
100
AcDbEntity
  8
0
100
AcDbLine
 10
81.69999999999999
 20
102.8499999999999
 30
0.0
 11
87.9
 21
100.2499999999999
 31
0.0
  0
LINE
  5
E4
330
1E
100
AcDbEntity
  8
0
100
AcDbLine
 10
75.0
 20
103.75
 30
0.0
 11
81.69999999999999
 21
102.8499999999999
 31
0.0
  0
LINE
  5
E5
330
1E
100
AcDbEntity
  8
0
100
AcDbLine
 10
68.4
 20
102.55
 30
0.0
 11
75.0
 21
103.4499999999999
 31
0.0
  0
LINE
  5
E6
330
1E
100
AcDbEntity
  8
0
100
AcDbLine
 10
68.3
 20
102.8499999999999
 30
0.0
 11
75.0
 21
103.75
 31
0.0
  0
LINE
  5
E7
330
1E
100
AcDbEntity
  8
0
100
AcDbLine
 10
94.32349999999999
 20
150.0149999999999
 30
0.0
 11
103.676
 21
146.926
 31
0.0
  0
LINE
  5
E8
330
1E
100
AcDbEntity
  8
0
100
AcDbLine
 10
112.324
 20
142.691
 30
0.0
 11
120.618
 21
137.132
 31
0.0
  0
LINE
  5
E9
330
1E
100
AcDbEntity
  8
0
100
AcDbLine
 10
139.941
 20
115.074
 30
0.0
 11
144.176
 21
106.4259999999999
 31
0.0
  0
LINE
  5
EA
330
1E
100
AcDbEntity
  8
0
100
AcDbLine
 10
134.382
 20
123.3679999999999
 30
0.0
 11
139.941
 21
115.074
 31
0.0
  0
LINE
  5
EB
330
1E
100
AcDbEntity
  8
0
100
AcDbLine
 10
147.2649999999999
 20
97.07399999999999
 30
0.0
 11
149.206
 21
87.5441
 31
0.0
  0
LINE
  5
EC
330
1E
100
AcDbEntity
  8
0
100
AcDbLine
 10
46.3235
 20
146.926
 30
0.0
 11
55.6765
 21
150.0149999999999
 31
0.0
  0
LINE
  5
ED
330
1E
100
AcDbEntity
  8
0
100
AcDbLine
 10
84.79409999999999
 20
151.956
 30
0.0
 11
94.32349999999999
 21
150.0149999999999
 31
0.0
  0
LINE
  5
EE
330
1E
100
AcDbEntity
  8
0
100
AcDbLine
 10
29.3824
 20
137.132
 30
0.0
 11
37.67649999999999
 21
142.691
 31
0.0
  0
LINE
  5
F3
330
1E
100
AcDbEntity
  8
0
100
AcDbLine
 10
84.79409999999999
 20
151.956
 30
0.0
 11
76.64819137228358
 21
152.546655227492
 31
0.0
  0
LINE
  5
F4
330
1E
100
AcDbEntity
  8
0
100
AcDbLine
 10
76.64819137228358
 20
152.546655227492
 30
0.0
 11
69.44414430022868
 21
152.0613112195564
 31
0.0
  0
LINE
  5
F5
330
1E
100
AcDbEntity
  8
0
100
AcDbLine
 10
69.44414430022868
 20
152.0613112195564
 30
0.0
 11
61.75443163207297
 21
151.1715142869239
 31
0.0
  0
LINE
  5
F6
330
1E
100
AcDbEntity
  8
0
100
AcDbLine
 10
61.75443163207297
 20
151.1715142869239
 30
0.0
 11
55.6765
 21
150.0149999999999
 31
0.0
  0
LINE
  5
F7
330
1E
100
AcDbEntity
  8
0
100
AcDbLine
 10
103.676
 20
146.926
 30
0.0
 11
112.324
 21
142.691
 31
0.0
  0
LINE
  5
F8
330
1E
100
AcDbEntity
  8
0
100
AcDbLine
 10
120.618
 20
137.132
 30
0.0
 11
127.6431277801614
 21
131.4341971110346
 31
0.0
  0
LINE
  5
F9
330
1E
100
AcDbEntity
  8
0
100
AcDbLine
 10
127.6431277801614
 20
131.4341971110346
 30
0.0
 11
134.382
 21
123.3679999999999
 31
0.0
  0
LINE
  5
FA
330
1E
100
AcDbEntity
  8
0
100
AcDbLine
 10
0.7941179999999949
 20
87.5441
 30
0.0
 11
0.0539997250245961
 21
78.47483609389667
 31
0.0
  0
LINE
  5
FB
330
1E
100
AcDbEntity
  8
0
100
AcDbLine
 10
0.0539997250245961
 20
78.47483609389667
 30
0.0
 11
0.7941179999999949
 21
67.9559
 31
0.0
  0
LINE
  5
FC
330
1E
100
AcDbEntity
  8
0
100
AcDbLine
 10
144.176
 20
106.4259999999999
 30
0.0
 11
147.2649999999999
 21
97.07399999999999
 31
0.0
  0
LINE
  5
FD
330
1E
100
AcDbEntity
  8
0
100
AcDbLine
 10
120.618
 20
18.36759999999999
 30
0.0
 11
128.8140677468604
 21
25.75324470408321
 31
0.0
  0
LINE
  5
FE
330
1E
100
AcDbEntity
  8
0
100
AcDbLine
 10
128.8140677468604
 20
25.75324470408321
 30
0.0
 11
134.382
 21
32.13239999999999
 31
0.0
  0
LINE
  5
FF
330
1E
100
AcDbEntity
  8
0
100
AcDbLine
 10
65.2059
 20
3.54409999999999
 30
0.0
 11
60.12667265742743
 21
4.439391395517304
 31
0.0
  0
LINE
  5
100
330
1E
100
AcDbEntity
  8
0
100
AcDbLine
 10
60.12667265742743
 20
4.439391395517304
 30
0.0
 11
55.6765
 21
5.48529999999999
 31
0.0
  0
LINE
  5
101
330
1E
100
AcDbEntity
  8
0
100
AcDbLine
 10
60.0
 20
15.25
 30
0.0
 11
60.53329999999999
 21
11.3833
 31
0.0
  0
LINE
  5
102
330
1E
100
AcDbEntity
  8
0
100
AcDbLine
 10
75.0
 20
0.249999999999997
 30
0.0
 11
78.86669999999999
 21
0.783329999999997
 31
0.0
  0
LINE
  5
103
330
1E
100
AcDbEntity
  8
0
100
AcDbLine
 10
103.676
 20
8.57349999999999
 30
0.0
 11
97.03872691810909
 21
6.595474688837896
 31
0.0
  0
LINE
  5
104
330
1E
100
AcDbEntity
  8
0
100
AcDbLine
 10
97.03872691810909
 20
6.595474688837896
 30
0.0
 11
89.46152038169135
 21
4.618026048967124
 31
0.0
  0
LINE
  5
105
330
1E
100
AcDbEntity
  8
0
100
AcDbLine
 10
89.46152038169135
 20
4.618026048967124
 30
0.0
 11
84.25907962882376
 21
3.587306120233904
 31
0.0
  0
LINE
  5
106
330
1E
100
AcDbEntity
  8
0
100
AcDbLine
 10
144.176
 20
49.0735
 30
0.0
 11
147.2649999999999
 21
58.42649999999999
 31
0.0
  0
ENDSEC
  0
SECTION
  2
OBJECTS
  0
DICTIONARY
  5
C
330
0
100
AcDbDictionary
  3
ACAD_GROUP
350
D
  3
ACAD_LAYOUT
350
19
  3
ACAD_MLINESTYLE
350
16
  3
ACAD_PLOTSETTINGS
350
18
  3
ACAD_PLOTSTYLENAME
350
E
  3
ACDBHEADERROUNDTRIPXREC
350
10A
  3
ACDBVARIABLEDICTIONARY
350
107
  0
DICTIONARY
  5
12C
330
1E
100
AcDbDictionary
280
     1
  3
ACAD_LAYOUTSELFREF
360
12D
  0
DICTIONARY
  5
12A
330
1A
100
AcDbDictionary
280
     1
  3
ACAD_LAYOUTSELFREF
360
12B
  0
DICTIONARY
  5
D
102
{ACAD_REACTORS
330
C
102
}
330
C
100
AcDbDictionary
  0
DICTIONARY
  5
19
102
{ACAD_REACTORS
330
C
102
}
330
C
100
AcDbDictionary
  0
DICTIONARY
  5
16
102
{ACAD_REACTORS
330
C
102
}
330
C
100
AcDbDictionary
  3
STANDARD
350
17
  0
DICTIONARY
  5
18
102
{ACAD_REACTORS
330
C
102
}
330
C
100
AcDbDictionary
  0
ACDBDICTIONARYWDFLT
  5
E
102
{ACAD_REACTORS
330
C
102
}
330
C
100
AcDbDictionary
281
     1
  3
Normal
350
F
100
AcDbDictionaryWithDefault
340
F
  0
DICTIONARY
  5
10A
102
{ACAD_REACTORS
330
C
102
}
330
C
100
AcDbDictionary
  3
CEPSNTYPE
350
114
  3
FINGERPRINTGUID
350
115
  3
HYPERLINKBASE
350
10D
  3
INSUNITS
350
113
  3
LAYOUTDICT
350
10F
  3
LWETCUNION
350
112
  3
PLOTSETDICT
350
110
  3
PLOTSTYLNAMDICT
350
111
  3
PSVPSCALE
350
117
  3
PUCSBASE
350
11A
  3
PUCSORGBACK
350
120
  3
PUCSORGBOTTOM
350
11C
  3
PUCSORGFRONT
350
11F
  3
PUCSORGLEFT
350
11D
  3
PUCSORGRIGHT
350
11E
  3
PUCSORGTOP
350
11B
  3
PUCSORTHOREF
350
118
  3
PUCSORTHOVIEW
350
119
  3
STYLESHEET
350
10E
  3
TSTACKALIGN
350
10B
  3
TSTACKSIZE
350
10C
  3
UCSBASE
350
123
  3
UCSORGBACK
350
129
  3
UCSORGBOTTOM
350
125
  3
UCSORGFRONT
350
128
  3
UCSORGLEFT
350
126
  3
UCSORGRIGHT
350
127
  3
UCSORGTOP
350
124
  3
UCSORTHOREF
350
121
  3
UCSORTHOVIEW
350
122
  3
VERSIONGUID
350
116
  0
DICTIONARY
  5
107
102
{ACAD_REACTORS
330
C
102
}
330
C
100
AcDbDictionary
  3
DIMASSOC
350
108
  0
XRECORD
  5
12D
102
{ACAD_REACTORS
330
12C
102
}
330
12C
100
AcDbXrecord
340
1E
  0
XRECORD
  5
12B
102
{ACAD_REACTORS
330
12A
102
}
330
12A
100
AcDbXrecord
340
1A
  0
MLINESTYLE
  5
17
102
{ACAD_REACTORS
330
16
102
}
330
16
100
AcDbMlineStyle
  2
STANDARD
 70
     0
  3

 62
   256
 51
90.0
 52
90.0
 71
     2
 49
0.5
 62
   256
  6
BYLAYER
 49
-0.5
 62
   256
  6
BYLAYER
  0
ACDBPLACEHOLDER
  5
F
102
{ACAD_REACTORS
330
E
102
}
330
E
100
AcDbPlaceHolder
280
     0
  0
XRECORD
  5
114
102
{ACAD_REACTORS
330
10A
102
}
330
10A
100
AcDbXrecord
 90
        0
  0
XRECORD
  5
115
102
{ACAD_REACTORS
330
10A
102
}
330
10A
100
AcDbXrecord
  1
{5F5CBA3B-8473-42E1-820C-7BB29B31922D}
  0
XRECORD
  5
10D
102
{ACAD_REACTORS
330
10A
102
}
330
10A
100
AcDbXrecord
  1

  0
XRECORD
  5
113
102
{ACAD_REACTORS
330
10A
102
}
330
10A
100
AcDbXrecord
 90
        0
  0
XRECORD
  5
10F
102
{ACAD_REACTORS
330
10A
102
}
330
10A
100
AcDbXrecord
340
19
  0
XRECORD
  5
112
102
{ACAD_REACTORS
330
10A
102
}
330
10A
100
AcDbXrecord
 90
    10781
  0
XRECORD
  5
110
102
{ACAD_REACTORS
330
10A
102
}
330
10A
100
AcDbXrecord
340
18
  0
XRECORD
  5
111
102
{ACAD_REACTORS
330
10A
102
}
330
10A
100
AcDbXrecord
340
E
  0
XRECORD
  5
117
102
{ACAD_REACTORS
330
10A
102
}
330
10A
100
AcDbXrecord
 40
0.0
  0
XRECORD
  5
11A
102
{ACAD_REACTORS
330
10A
102
}
330
10A
100
AcDbXrecord
340
0
  0
XRECORD
  5
120
102
{ACAD_REACTORS
330
10A
102
}
330
10A
100
AcDbXrecord
 10
0.0
 20
0.0
 30
0.0
  0
XRECORD
  5
11C
102
{ACAD_REACTORS
330
10A
102
}
330
10A
100
AcDbXrecord
 10
0.0
 20
0.0
 30
0.0
  0
XRECORD
  5
11F
102
{ACAD_REACTORS
330
10A
102
}
330
10A
100
AcDbXrecord
 10
0.0
 20
0.0
 30
0.0
  0
XRECORD
  5
11D
102
{ACAD_REACTORS
330
10A
102
}
330
10A
100
AcDbXrecord
 10
0.0
 20
0.0
 30
0.0
  0
XRECORD
  5
11E
102
{ACAD_REACTORS
330
10A
102
}
330
10A
100
AcDbXrecord
 10
0.0
 20
0.0
 30
0.0
  0
XRECORD
  5
11B
102
{ACAD_REACTORS
330
10A
102
}
330
10A
100
AcDbXrecord
 10
0.0
 20
0.0
 30
0.0
  0
XRECORD
  5
118
102
{ACAD_REACTORS
330
10A
102
}
330
10A
100
AcDbXrecord
340
0
  0
XRECORD
  5
119
102
{ACAD_REACTORS
330
10A
102
}
330
10A
100
AcDbXrecord
 70
     0
  0
XRECORD
  5
10E
102
{ACAD_REACTORS
330
10A
102
}
330
10A
100
AcDbXrecord
  1

  0
XRECORD
  5
10B
102
{ACAD_REACTORS
330
10A
102
}
330
10A
100
AcDbXrecord
 90
        1
  0
XRECORD
  5
10C
102
{ACAD_REACTORS
330
10A
102
}
330
10A
100
AcDbXrecord
 90
       70
  0
XRECORD
  5
123
102
{ACAD_REACTORS
330
10A
102
}
330
10A
100
AcDbXrecord
340
0
  0
XRECORD
  5
129
102
{ACAD_REACTORS
330
10A
102
}
330
10A
100
AcDbXrecord
 10
0.0
 20
0.0
 30
0.0
  0
XRECORD
  5
125
102
{ACAD_REACTORS
330
10A
102
}
330
10A
100
AcDbXrecord
 10
0.0
 20
0.0
 30
0.0
  0
XRECORD
  5
128
102
{ACAD_REACTORS
330
10A
102
}
330
10A
100
AcDbXrecord
 10
0.0
 20
0.0
 30
0.0
  0
XRECORD
  5
126
102
{ACAD_REACTORS
330
10A
102
}
330
10A
100
AcDbXrecord
 10
0.0
 20
0.0
 30
0.0
  0
XRECORD
  5
127
102
{ACAD_REACTORS
330
10A
102
}
330
10A
100
AcDbXrecord
 10
0.0
 20
0.0
 30
0.0
  0
XRECORD
  5
124
102
{ACAD_REACTORS
330
10A
102
}
330
10A
100
AcDbXrecord
 10
0.0
 20
0.0
 30
0.0
  0
XRECORD
  5
121
102
{ACAD_REACTORS
330
10A
102
}
330
10A
100
AcDbXrecord
340
0
  0
XRECORD
  5
122
102
{ACAD_REACTORS
330
10A
102
}
330
10A
100
AcDbXrecord
 70
     1
  0
XRECORD
  5
116
102
{ACAD_REACTORS
330
10A
102
}
330
10A
100
AcDbXrecord
  1
{F12B596D-2B92-4640-89F6-83EBE5AC3677}
  0
DICTIONARYVAR
  5
108
102
{ACAD_REACTORS
330
107
102
}
330
107
100
DictionaryVariables
280
     0
  1
1
  0
ENDSEC
  0
EOF
