  0
SECTION
  2
HEADER
  9
$ACADVER
  1
AC1015
  9
$ACADMAINTVER
 70
    13
  9
$DWGCODEPAGE
  3
ANSI_1252
  9
$INSBASE
 10
0.0
 20
0.0
 30
0.0
  9
$EXTMIN
 10
0.186499999999992
 20
-0.027000000000001
 30
0.0
  9
$EXTMAX
 10
283.8134999999999
 20
374.0
 30
0.0
  9
$LIMMIN
 10
0.0
 20
0.0
  9
$LIMMAX
 10
12.0
 20
9.0
  9
$ORTHOMODE
 70
     0
  9
$REGENMODE
 70
     1
  9
$FILLMODE
 70
     1
  9
$QTEXTMODE
 70
     0
  9
$MIRRTEXT
 70
     1
  9
$LTSCALE
 40
1.0
  9
$ATTMODE
 70
     1
  9
$TEXTSIZE
 40
0.2
  9
$TRACEWID
 40
0.05
  9
$TEXTSTYLE
  7
Standard
  9
$CLAYER
  8
0
  9
$CELTYPE
  6
Continuous
  9
$CECOLOR
 62
   256
  9
$CELTSCALE
 40
1.0
  9
$DISPSILH
 70
     0
  9
$DIMSCALE
 40
1.0
  9
$DIMASZ
 40
0.18
  9
$DIMEXO
 40
0.0625
  9
$DIMDLI
 40
0.38
  9
$DIMRND
 40
0.0
  9
$DIMDLE
 40
0.0
  9
$DIMEXE
 40
0.18
  9
$DIMTP
 40
0.0
  9
$DIMTM
 40
0.0
  9
$DIMTXT
 40
0.18
  9
$DIMCEN
 40
0.09
  9
$DIMTSZ
 40
0.0
  9
$DIMTOL
 70
     0
  9
$DIMLIM
 70
     0
  9
$DIMTIH
 70
     1
  9
$DIMTOH
 70
     1
  9
$DIMSE1
 70
     0
  9
$DIMSE2
 70
     0
  9
$DIMTAD
 70
     0
  9
$DIMZIN
 70
     0
  9
$DIMBLK
  1

  9
$DIMASO
 70
     1
  9
$DIMSHO
 70
     1
  9
$DIMPOST
  1

  9
$DIMAPOST
  1

  9
$DIMALT
 70
     0
  9
$DIMALTD
 70
     2
  9
$DIMALTF
 40
25.4
  9
$DIMLFAC
 40
1.0
  9
$DIMTOFL
 70
     0
  9
$DIMTVP
 40
0.0
  9
$DIMTIX
 70
     0
  9
$DIMSOXD
 70
     0
  9
$DIMSAH
 70
     0
  9
$DIMBLK1
  1

  9
$DIMBLK2
  1

  9
$DIMSTYLE
  2
Standard
  9
$DIMCLRD
 70
     0
  9
$DIMCLRE
 70
     0
  9
$DIMCLRT
 70
     0
  9
$DIMTFAC
 40
1.0
  9
$DIMGAP
 40
0.09
  9
$DIMJUST
 70
     0
  9
$DIMSD1
 70
     0
  9
$DIMSD2
 70
     0
  9
$DIMTOLJ
 70
     1
  9
$DIMTZIN
 70
     0
  9
$DIMALTZ
 70
     0
  9
$DIMALTTZ
 70
     0
  9
$DIMUPT
 70
     0
  9
$DIMDEC
 70
     4
  9
$DIMTDEC
 70
     4
  9
$DIMALTU
 70
     2
  9
$DIMALTTD
 70
     2
  9
$DIMTXSTY
  7
Standard
  9
$DIMAUNIT
 70
     0
  9
$DIMADEC
 70
     0
  9
$DIMALTRND
 40
0.0
  9
$DIMAZIN
 70
     0
  9
$DIMDSEP
 70
    46
  9
$DIMATFIT
 70
     3
  9
$DIMFRAC
 70
     0
  9
$DIMLDRBLK
  1

  9
$DIMLUNIT
 70
     2
  9
$DIMLWD
 70
    -2
  9
$DIMLWE
 70
    -2
  9
$DIMTMOVE
 70
     0
  9
$LUNITS
 70
     2
  9
$LUPREC
 70
     4
  9
$SKETCHINC
 40
0.1
  9
$FILLETRAD
 40
0.0
  9
$AUNITS
 70
     0
  9
$AUPREC
 70
     0
  9
$MENU
  1
.
  9
$ELEVATION
 40
0.0
  9
$PELEVATION
 40
0.0
  9
$THICKNESS
 40
0.0
  9
$LIMCHECK
 70
     0
  9
$CHAMFERA
 40
0.0
  9
$CHAMFERB
 40
0.0
  9
$CHAMFERC
 40
0.0
  9
$CHAMFERD
 40
0.0
  9
$SKPOLY
 70
     0
  9
$TDCREATE
 40
2454783.415628425
  9
$TDUCREATE
 40
2454783.373961759
  9
$TDUPDATE
 40
2454783.418209815
  9
$TDUUPDATE
 40
2454783.376543148
  9
$TDINDWG
 40
0.0025815625
  9
$TDUSRTIMER
 40
0.0025815625
  9
$USRTIMER
 70
     1
  9
$ANGBASE
 50
0.0
  9
$ANGDIR
 70
     0
  9
$PDMODE
 70
     0
  9
$PDSIZE
 40
0.0
  9
$PLINEWID
 40
0.0
  9
$SPLFRAME
 70
     0
  9
$SPLINETYPE
 70
     6
  9
$SPLINESEGS
 70
     8
  9
$HANDSEED
  5
41D
  9
$SURFTAB1
 70
     6
  9
$SURFTAB2
 70
     6
  9
$SURFTYPE
 70
     6
  9
$SURFU
 70
     6
  9
$SURFV
 70
     6
  9
$UCSBASE
  2

  9
$UCSNAME
  2

  9
$UCSORG
 10
0.0
 20
0.0
 30
0.0
  9
$UCSXDIR
 10
1.0
 20
0.0
 30
0.0
  9
$UCSYDIR
 10
0.0
 20
1.0
 30
0.0
  9
$UCSORTHOREF
  2

  9
$UCSORTHOVIEW
 70
     1
  9
$UCSORGTOP
 10
0.0
 20
0.0
 30
0.0
  9
$UCSORGBOTTOM
 10
0.0
 20
0.0
 30
0.0
  9
$UCSORGLEFT
 10
0.0
 20
0.0
 30
0.0
  9
$UCSORGRIGHT
 10
0.0
 20
0.0
 30
0.0
  9
$UCSORGFRONT
 10
0.0
 20
0.0
 30
0.0
  9
$UCSORGBACK
 10
0.0
 20
0.0
 30
0.0
  9
$PUCSBASE
  2

  9
$PUCSNAME
  2

  9
$PUCSORG
 10
0.0
 20
0.0
 30
0.0
  9
$PUCSXDIR
 10
1.0
 20
0.0
 30
0.0
  9
$PUCSYDIR
 10
0.0
 20
1.0
 30
0.0
  9
$PUCSORTHOREF
  2

  9
$PUCSORTHOVIEW
 70
     0
  9
$PUCSORGTOP
 10
0.0
 20
0.0
 30
0.0
  9
$PUCSORGBOTTOM
 10
0.0
 20
0.0
 30
0.0
  9
$PUCSORGLEFT
 10
0.0
 20
0.0
 30
0.0
  9
$PUCSORGRIGHT
 10
0.0
 20
0.0
 30
0.0
  9
$PUCSORGFRONT
 10
0.0
 20
0.0
 30
0.0
  9
$PUCSORGBACK
 10
0.0
 20
0.0
 30
0.0
  9
$USERI1
 70
     0
  9
$USERI2
 70
     0
  9
$USERI3
 70
     0
  9
$USERI4
 70
     0
  9
$USERI5
 70
     0
  9
$USERR1
 40
0.0
  9
$USERR2
 40
0.0
  9
$USERR3
 40
0.0
  9
$USERR4
 40
0.0
  9
$USERR5
 40
0.0
  9
$WORLDVIEW
 70
     1
  9
$SHADEDGE
 70
     3
  9
$SHADEDIF
 70
    70
  9
$TILEMODE
 70
     1
  9
$MAXACTVP
 70
    64
  9
$PINSBASE
 10
0.0
 20
0.0
 30
0.0
  9
$PLIMCHECK
 70
     0
  9
$PEXTMIN
 10
1.000000000000000E+20
 20
1.000000000000000E+20
 30
1.000000000000000E+20
  9
$PEXTMAX
 10
-1.000000000000000E+20
 20
-1.000000000000000E+20
 30
-1.000000000000000E+20
  9
$PLIMMIN
 10
0.0
 20
0.0
  9
$PLIMMAX
 10
12.0
 20
9.0
  9
$UNITMODE
 70
     0
  9
$VISRETAIN
 70
     1
  9
$PLINEGEN
 70
     0
  9
$PSLTSCALE
 70
     1
  9
$TREEDEPTH
 70
  3020
  9
$CMLSTYLE
  2
Standard
  9
$CMLJUST
 70
     0
  9
$CMLSCALE
 40
1.0
  9
$PROXYGRAPHICS
 70
     1
  9
$MEASUREMENT
 70
     0
  9
$CELWEIGHT
370
    -1
  9
$ENDCAPS
280
     0
  9
$JOINSTYLE
280
     0
  9
$LWDISPLAY
290
     0
  9
$INSUNITS
 70
     0
  9
$HYPERLINKBASE
  1

  9
$STYLESHEET
  1

  9
$XEDIT
290
     1
  9
$CEPSNTYPE
380
     0
  9
$PSTYLEMODE
290
     1
  9
$FINGERPRINTGUID
  2
{364F83F1-495D-4864-8980-DA05412301BC}
  9
$VERSIONGUID
  2
{D268AEB0-903C-4A38-A5CA-C19D9F0DB830}
  9
$EXTNAMES
290
     1
  9
$PSVPSCALE
 40
0.0
  9
$OLESTARTUP
290
     0
  0
ENDSEC
  0
SECTION
  2
CLASSES
  0
CLASS
  1
ACDBDICTIONARYWDFLT
  2
AcDbDictionaryWithDefault
  3
AutoCAD 2000
 90
        0
280
     0
281
     0
  0
CLASS
  1
ACDBPLACEHOLDER
  2
AcDbPlaceHolder
  3
AutoCAD 2000
 90
        0
280
     0
281
     0
  0
CLASS
  1
LAYOUT
  2
AcDbLayout
  3
AutoCAD 2000
 90
        0
280
     0
281
     0
  0
CLASS
  1
DICTIONARYVAR
  2
AcDbDictionaryVar
  3
AutoCAD 2000
 90
        0
280
     0
281
     0
  0
ENDSEC
  0
SECTION
  2
TABLES
  0
TABLE
  2
VPORT
  5
8
330
0
100
AcDbSymbolTable
 70
     2
  0
VPORT
  5
41C
330
8
100
AcDbSymbolTableRecord
100
AcDbViewportTableRecord
  2
*Active
 70
     0
 10
0.0
 20
0.0
 11
1.0
 21
1.0
 12
142.0
 22
186.9864999999999
 13
0.0
 23
0.0
 14
1.0
 24
1.0
 15
0.0
 25
0.0
 16
0.0
 26
0.0
 36
1.0
 17
0.0
 27
0.0
 37
0.0
 40
376.8967723785166
 41
2.078104993597951
 42
50.0
 43
0.0
 44
0.0
 50
0.0
 51
0.0
 71
     0
 72
   100
 73
     1
 74
     3
 75
     0
 76
     0
 77
     0
 78
     0
281
     0
 65
     1
110
0.0
120
0.0
130
0.0
111
1.0
121
0.0
131
0.0
112
0.0
122
1.0
132
0.0
 79
     1
146
0.0
  0
ENDTAB
  0
TABLE
  2
LTYPE
  5
5
330
0
100
AcDbSymbolTable
 70
     1
  0
LTYPE
  5
13
330
5
100
AcDbSymbolTableRecord
100
AcDbLinetypeTableRecord
  2
ByBlock
 70
     0
  3

 72
    65
 73
     0
 40
0.0
  0
LTYPE
  5
14
330
5
100
AcDbSymbolTableRecord
100
AcDbLinetypeTableRecord
  2
ByLayer
 70
     0
  3

 72
    65
 73
     0
 40
0.0
  0
LTYPE
  5
15
330
5
100
AcDbSymbolTableRecord
100
AcDbLinetypeTableRecord
  2
Continuous
 70
     0
  3
Solid line
 72
    65
 73
     0
 40
0.0
  0
ENDTAB
  0
TABLE
  2
LAYER
  5
2
330
0
100
AcDbSymbolTable
 70
     1
  0
LAYER
  5
10
330
2
100
AcDbSymbolTableRecord
100
AcDbLayerTableRecord
  2
0
 70
     0
 62
     7
  6
Continuous
370
    -3
390
F
  0
ENDTAB
  0
TABLE
  2
STYLE
  5
3
330
0
100
AcDbSymbolTable
 70
     1
  0
STYLE
  5
11
330
3
100
AcDbSymbolTableRecord
100
AcDbTextStyleTableRecord
  2
Standard
 70
     0
 40
0.0
 41
1.0
 50
0.0
 71
     0
 42
0.2
  3
txt
  4

  0
ENDTAB
  0
TABLE
  2
VIEW
  5
6
330
0
100
AcDbSymbolTable
 70
     0
  0
ENDTAB
  0
TABLE
  2
UCS
  5
7
330
0
100
AcDbSymbolTable
 70
     0
  0
ENDTAB
  0
TABLE
  2
APPID
  5
9
330
0
100
AcDbSymbolTable
 70
     1
  0
APPID
  5
12
330
9
100
AcDbSymbolTableRecord
100
AcDbRegAppTableRecord
  2
ACAD
 70
     0
  0
ENDTAB
  0
TABLE
  2
DIMSTYLE
  5
A
330
0
100
AcDbSymbolTable
 70
     1
100
AcDbDimStyleTable
 71
     0
  0
DIMSTYLE
105
410
330
A
100
AcDbSymbolTableRecord
100
AcDbDimStyleTableRecord
  2
Standard
 70
     0
340
11
  0
ENDTAB
  0
TABLE
  2
BLOCK_RECORD
  5
1
330
0
100
AcDbSymbolTable
 70
     0
  0
BLOCK_RECORD
  5
1E
330
1
100
AcDbSymbolTableRecord
100
AcDbBlockTableRecord
  2
*Model_Space
340
21
  0
BLOCK_RECORD
  5
1A
330
1
100
AcDbSymbolTableRecord
100
AcDbBlockTableRecord
  2
*Paper_Space
340
1D
  0
ENDTAB
  0
ENDSEC
  0
SECTION
  2
BLOCKS
  0
BLOCK
  5
1F
330
1E
100
AcDbEntity
  8
0
100
AcDbBlockBegin
  2
*Model_Space
 70
     0
 10
0.0
 20
0.0
 30
0.0
  3
*Model_Space
  1

  0
ENDBLK
  5
20
330
1E
100
AcDbEntity
  8
0
100
AcDbBlockEnd
  0
BLOCK
  5
1B
330
1A
100
AcDbEntity
 67
     1
  8
0
100
AcDbBlockBegin
  2
*Paper_Space
 70
     0
 10
0.0
 20
0.0
 30
0.0
  3
*Paper_Space
  1

  0
ENDBLK
  5
1C
330
1A
100
AcDbEntity
 67
     1
  8
0
100
AcDbBlockEnd
  0
ENDSEC
  0
SECTION
  2
ENTITIES
  0
LINE
  5
22
330
1E
100
AcDbEntity
  8
0
100
AcDbLine
 10
33.18649999999999
 20
88.1268
 30
0.0
 11
33.18649999999999
 21
83.1503
 31
0.0
  0
LINE
  5
23
330
1E
100
AcDbEntity
  8
0
100
AcDbLine
 10
33.18649999999999
 20
88.1268
 30
0.0
 11
34.0865
 21
77.3138
 31
0.0
  0
LINE
  5
24
330
1E
100
AcDbEntity
  8
0
100
AcDbLine
 10
33.18649999999999
 20
88.1268
 30
0.0
 11
34.0865
 21
98.93970000000001
 31
0.0
  0
LINE
  5
25
330
1E
100
AcDbEntity
  8
0
100
AcDbLine
 10
36.41149999999999
 20
66.6394
 30
0.0
 11
40.2365
 21
56.3809
 31
0.0
  0
LINE
  5
26
330
1E
100
AcDbEntity
  8
0
100
AcDbLine
 10
45.2615
 20
46.7461
 30
0.0
 11
51.9365
 21
37.59659999999999
 31
0.0
  0
LINE
  5
27
330
1E
100
AcDbEntity
  8
0
100
AcDbLine
 10
78.4115
 20
16.1092
 30
0.0
 11
88.83650000000001
 21
11.4651
 31
0.0
  0
LINE
  5
28
330
1E
100
AcDbEntity
  8
0
100
AcDbLine
 10
59.66149999999999
 20
29.41759999999999
 30
0.0
 11
68.5115
 21
22.27819999999999
 31
0.0
  0
LINE
  5
29
330
1E
100
AcDbEntity
  8
0
100
AcDbLine
 10
60.1865
 20
30.2856
 30
0.0
 11
68.9615
 21
23.2154
 31
0.0
  0
LINE
  5
2A
330
1E
100
AcDbEntity
  8
0
100
AcDbLine
 10
68.9615
 20
23.2154
 30
0.0
 11
78.7865
 21
17.04649999999999
 31
0.0
  0
LINE
  5
2B
330
1E
100
AcDbEntity
  8
0
100
AcDbLine
 10
68.5115
 20
22.27819999999999
 30
0.0
 11
78.4115
 21
16.1092
 31
0.0
  0
LINE
  5
2C
330
1E
100
AcDbEntity
  8
0
100
AcDbLine
 10
59.66149999999999
 20
24.441
 30
0.0
 11
68.5115
 21
17.3016
 31
0.0
  0
LINE
  5
2D
330
1E
100
AcDbEntity
  8
0
100
AcDbLine
 10
68.5115
 20
17.3016
 30
0.0
 11
78.4115
 21
11.13269999999999
 31
0.0
  0
LINE
  5
2E
330
1E
100
AcDbEntity
  8
0
100
AcDbLine
 10
78.7865
 20
17.04649999999999
 30
0.0
 11
89.0615
 21
12.4718
 31
0.0
  0
LINE
  5
2F
330
1E
100
AcDbEntity
  8
0
100
AcDbLine
 10
89.0615
 20
12.4718
 30
0.0
 11
100.1615
 21
9.006100000000003
 31
0.0
  0
LINE
  5
30
330
1E
100
AcDbEntity
  8
0
100
AcDbLine
 10
88.83650000000001
 20
11.4651
 30
0.0
 11
99.9365
 21
7.930090000000006
 31
0.0
  0
LINE
  5
31
330
1E
100
AcDbEntity
  8
0
100
AcDbLine
 10
99.9365
 20
7.930090000000006
 30
0.0
 11
111.4864999999999
 21
5.781340000000014
 31
0.0
  0
LINE
  5
32
330
1E
100
AcDbEntity
  8
0
100
AcDbLine
 10
78.4115
 20
11.13269999999999
 30
0.0
 11
88.83650000000001
 21
6.488550000000003
 31
0.0
  0
LINE
  5
33
330
1E
100
AcDbEntity
  8
0
100
AcDbLine
 10
88.83650000000001
 20
6.488550000000003
 30
0.0
 11
99.9365
 21
2.953510000000008
 31
0.0
  0
LINE
  5
34
330
1E
100
AcDbEntity
  8
0
100
AcDbLine
 10
100.1615
 20
9.006100000000003
 30
0.0
 11
111.4864999999999
 21
6.857290000000006
 31
0.0
  0
LINE
  5
35
330
1E
100
AcDbEntity
  8
0
100
AcDbLine
 10
99.9365
 20
2.953510000000008
 30
0.0
 11
111.4864999999999
 21
0.8047700000000048
 31
0.0
  0
LINE
  5
36
330
1E
100
AcDbEntity
  8
0
100
AcDbLine
 10
45.8615
 20
47.4756
 30
0.0
 11
52.5365
 21
38.39529999999999
 31
0.0
  0
LINE
  5
37
330
1E
100
AcDbEntity
  8
0
100
AcDbLine
 10
52.5365
 20
38.39529999999999
 30
0.0
 11
60.1865
 21
30.2856
 31
0.0
  0
LINE
  5
38
330
1E
100
AcDbEntity
  8
0
100
AcDbLine
 10
51.9365
 20
37.59659999999999
 30
0.0
 11
59.66149999999999
 21
29.41759999999999
 31
0.0
  0
LINE
  5
39
330
1E
100
AcDbEntity
  8
0
100
AcDbLine
 10
51.9365
 20
32.6201
 30
0.0
 11
59.66149999999999
 21
24.441
 31
0.0
  0
LINE
  5
3A
330
1E
100
AcDbEntity
  8
0
100
AcDbLine
 10
45.2615
 20
41.7696
 30
0.0
 11
51.9365
 21
32.6201
 31
0.0
  0
LINE
  5
3B
330
1E
100
AcDbEntity
  8
0
100
AcDbLine
 10
37.16149999999998
 20
67.23019999999999
 30
0.0
 11
40.91149999999998
 21
56.9716
 31
0.0
  0
LINE
  5
3C
330
1E
100
AcDbEntity
  8
0
100
AcDbLine
 10
108.8615
 20
56.5558
 30
0.0
 11
113.5115
 21
55.1001
 31
0.0
  0
LINE
  5
3D
330
1E
100
AcDbEntity
  8
0
100
AcDbLine
 10
104.5115
 20
59.645
 30
0.0
 11
108.8615
 21
57.7042
 31
0.0
  0
LINE
  5
3E
330
1E
100
AcDbEntity
  8
0
100
AcDbLine
 10
96.7115
 20
65.1901
 30
0.0
 11
100.3865
 21
62.2096
 31
0.0
  0
LINE
  5
3F
330
1E
100
AcDbEntity
  8
0
100
AcDbLine
 10
100.3865
 20
62.2096
 30
0.0
 11
104.5115
 21
59.645
 31
0.0
  0
LINE
  5
40
330
1E
100
AcDbEntity
  8
0
100
AcDbLine
 10
96.7115
 20
64.0417
 30
0.0
 11
100.3865
 21
61.0612
 31
0.0
  0
LINE
  5
41
330
1E
100
AcDbEntity
  8
0
100
AcDbLine
 10
100.3865
 20
61.0612
 30
0.0
 11
104.5115
 21
58.4966
 31
0.0
  0
LINE
  5
42
330
1E
100
AcDbEntity
  8
0
100
AcDbLine
 10
108.8615
 20
57.7042
 30
0.0
 11
113.5115
 21
56.2485
 31
0.0
  0
LINE
  5
43
330
1E
100
AcDbEntity
  8
0
100
AcDbLine
 10
104.5115
 20
58.4966
 30
0.0
 11
108.8615
 21
56.5558
 31
0.0
  0
LINE
  5
44
330
1E
100
AcDbEntity
  8
0
100
AcDbLine
 10
93.48650000000001
 20
68.5865
 30
0.0
 11
96.7115
 21
65.1901
 31
0.0
  0
LINE
  5
45
330
1E
100
AcDbEntity
  8
0
100
AcDbLine
 10
93.48650000000001
 20
67.4381
 30
0.0
 11
96.7115
 21
64.0417
 31
0.0
  0
LINE
  5
46
330
1E
100
AcDbEntity
  8
0
100
AcDbLine
 10
90.71150000000001
 20
71.2504
 30
0.0
 11
93.48650000000001
 21
67.4381
 31
0.0
  0
LINE
  5
47
330
1E
100
AcDbEntity
  8
0
100
AcDbLine
 10
40.91149999999998
 20
56.9716
 30
0.0
 11
45.8615
 21
47.4756
 31
0.0
  0
LINE
  5
48
330
1E
100
AcDbEntity
  8
0
100
AcDbLine
 10
40.2365
 20
56.3809
 30
0.0
 11
45.2615
 21
46.7461
 31
0.0
  0
LINE
  5
49
330
1E
100
AcDbEntity
  8
0
100
AcDbLine
 10
40.2365
 20
51.4043
 30
0.0
 11
45.2615
 21
41.7696
 31
0.0
  0
LINE
  5
4A
330
1E
100
AcDbEntity
  8
0
100
AcDbLine
 10
36.41149999999999
 20
61.6629
 30
0.0
 11
40.2365
 21
51.4043
 31
0.0
  0
LINE
  5
4B
330
1E
100
AcDbEntity
  8
0
100
AcDbLine
 10
33.93649999999999
 20
88.5097
 30
0.0
 11
34.8365
 21
77.6966
 31
0.0
  0
LINE
  5
4C
330
1E
100
AcDbEntity
  8
0
100
AcDbLine
 10
33.93649999999999
 20
88.5097
 30
0.0
 11
34.8365
 21
99.32299999999999
 31
0.0
  0
LINE
  5
4D
330
1E
100
AcDbEntity
  8
0
100
AcDbLine
 10
88.6115
 20
76.41899999999999
 30
0.0
 11
90.71150000000001
 21
72.39879999999999
 31
0.0
  0
LINE
  5
4E
330
1E
100
AcDbEntity
  8
0
100
AcDbLine
 10
90.71150000000001
 20
72.39879999999999
 30
0.0
 11
93.48650000000001
 21
68.5865
 31
0.0
  0
LINE
  5
4F
330
1E
100
AcDbEntity
  8
0
100
AcDbLine
 10
88.6115
 20
75.2706
 30
0.0
 11
90.71150000000001
 21
71.2504
 31
0.0
  0
LINE
  5
50
330
1E
100
AcDbEntity
  8
0
100
AcDbLine
 10
85.68649999999999
 20
89.65799999999999
 30
0.0
 11
85.68649999999999
 21
88.5097
 31
0.0
  0
LINE
  5
51
330
1E
100
AcDbEntity
  8
0
100
AcDbLine
 10
85.68649999999999
 20
89.65799999999999
 30
0.0
 11
86.06149999999999
 21
85.15259999999999
 31
0.0
  0
LINE
  5
52
330
1E
100
AcDbEntity
  8
0
100
AcDbLine
 10
85.68649999999999
 20
89.65799999999999
 30
0.0
 11
86.06149999999999
 21
94.1636
 31
0.0
  0
LINE
  5
53
330
1E
100
AcDbEntity
  8
0
100
AcDbLine
 10
87.03650000000001
 20
80.71649999999999
 30
0.0
 11
88.6115
 21
76.41899999999999
 31
0.0
  0
LINE
  5
54
330
1E
100
AcDbEntity
  8
0
100
AcDbLine
 10
87.03650000000001
 20
79.5681
 30
0.0
 11
88.6115
 21
75.2706
 31
0.0
  0
LINE
  5
55
330
1E
100
AcDbEntity
  8
0
100
AcDbLine
 10
86.06149999999999
 20
94.1636
 30
0.0
 11
87.03650000000001
 21
98.5997
 31
0.0
  0
LINE
  5
56
330
1E
100
AcDbEntity
  8
0
100
AcDbLine
 10
86.06149999999999
 20
85.15259999999999
 30
0.0
 11
87.03650000000001
 21
80.71649999999999
 31
0.0
  0
LINE
  5
57
330
1E
100
AcDbEntity
  8
0
100
AcDbLine
 10
86.06149999999999
 20
84.0042
 30
0.0
 11
87.03650000000001
 21
79.5681
 31
0.0
  0
LINE
  5
58
330
1E
100
AcDbEntity
  8
0
100
AcDbLine
 10
85.68649999999999
 20
88.5097
 30
0.0
 11
86.06149999999999
 21
84.0042
 31
0.0
  0
LINE
  5
59
330
1E
100
AcDbEntity
  8
0
100
AcDbLine
 10
85.68649999999999
 20
88.5097
 30
0.0
 11
85.68649999999999
 21
89.65799999999999
 31
0.0
  0
LINE
  5
5A
330
1E
100
AcDbEntity
  8
0
100
AcDbLine
 10
34.8365
 20
77.6966
 30
0.0
 11
37.16149999999998
 21
67.23019999999999
 31
0.0
  0
LINE
  5
5B
330
1E
100
AcDbEntity
  8
0
100
AcDbLine
 10
34.0865
 20
77.3138
 30
0.0
 11
36.41149999999999
 21
66.6394
 31
0.0
  0
LINE
  5
5C
330
1E
100
AcDbEntity
  8
0
100
AcDbLine
 10
34.0865
 20
72.33719999999999
 30
0.0
 11
36.41149999999999
 21
61.6629
 31
0.0
  0
LINE
  5
5D
330
1E
100
AcDbEntity
  8
0
100
AcDbLine
 10
33.18649999999999
 20
83.1503
 30
0.0
 11
34.0865
 21
72.33719999999999
 31
0.0
  0
LINE
  5
5E
330
1E
100
AcDbEntity
  8
0
100
AcDbLine
 10
33.18649999999999
 20
83.1503
 30
0.0
 11
33.18649999999999
 21
88.1268
 31
0.0
  0
LINE
  5
5F
330
1E
100
AcDbEntity
  8
0
100
AcDbLine
 10
87.03650000000001
 20
98.5997
 30
0.0
 11
88.6115
 21
102.898
 31
0.0
  0
LINE
  5
60
330
1E
100
AcDbEntity
  8
0
100
AcDbLine
 10
90.71150000000001
 20
106.9169999999999
 30
0.0
 11
93.48650000000001
 21
110.729
 31
0.0
  0
LINE
  5
61
330
1E
100
AcDbEntity
  8
0
100
AcDbLine
 10
88.6115
 20
102.898
 30
0.0
 11
90.71150000000001
 21
106.9169999999999
 31
0.0
  0
LINE
  5
62
330
1E
100
AcDbEntity
  8
0
100
AcDbLine
 10
34.8365
 20
99.32299999999999
 30
0.0
 11
37.16149999999998
 21
109.789
 31
0.0
  0
LINE
  5
63
330
1E
100
AcDbEntity
  8
0
100
AcDbLine
 10
34.0865
 20
98.93970000000001
 30
0.0
 11
36.41149999999999
 21
109.615
 31
0.0
  0
LINE
  5
64
330
1E
100
AcDbEntity
  8
0
100
AcDbLine
 10
37.16149999999998
 20
109.789
 30
0.0
 11
40.91149999999998
 21
120.0479999999999
 31
0.0
  0
LINE
  5
65
330
1E
100
AcDbEntity
  8
0
100
AcDbLine
 10
40.91149999999998
 20
120.0479999999999
 30
0.0
 11
45.8615
 21
129.5439999999999
 31
0.0
  0
LINE
  5
66
330
1E
100
AcDbEntity
  8
0
100
AcDbLine
 10
45.8615
 20
129.5439999999999
 30
0.0
 11
52.5365
 21
138.624
 31
0.0
  0
LINE
  5
67
330
1E
100
AcDbEntity
  8
0
100
AcDbLine
 10
52.5365
 20
138.624
 30
0.0
 11
60.1865
 21
146.7339999999999
 31
0.0
  0
LINE
  5
68
330
1E
100
AcDbEntity
  8
0
100
AcDbLine
 10
51.9365
 20
138.6569999999999
 30
0.0
 11
59.66149999999999
 21
146.836
 31
0.0
  0
LINE
  5
69
330
1E
100
AcDbEntity
  8
0
100
AcDbLine
 10
45.2615
 20
129.507
 30
0.0
 11
51.9365
 21
138.6569999999999
 31
0.0
  0
LINE
  5
6A
330
1E
100
AcDbEntity
  8
0
100
AcDbLine
 10
40.2365
 20
119.873
 30
0.0
 11
45.2615
 21
129.507
 31
0.0
  0
LINE
  5
6B
330
1E
100
AcDbEntity
  8
0
100
AcDbLine
 10
36.41149999999999
 20
109.615
 30
0.0
 11
40.2365
 21
119.873
 31
0.0
  0
LINE
  5
6C
330
1E
100
AcDbEntity
  8
0
100
AcDbLine
 10
60.1865
 20
146.7339999999999
 30
0.0
 11
68.9615
 21
153.804
 31
0.0
  0
LINE
  5
6D
330
1E
100
AcDbEntity
  8
0
100
AcDbLine
 10
68.9615
 20
153.804
 30
0.0
 11
78.7865
 21
159.9719999999999
 31
0.0
  0
LINE
  5
6E
330
1E
100
AcDbEntity
  8
0
100
AcDbLine
 10
59.66149999999999
 20
146.836
 30
0.0
 11
68.5115
 21
153.976
 31
0.0
  0
LINE
  5
6F
330
1E
100
AcDbEntity
  8
0
100
AcDbLine
 10
68.5115
 20
153.976
 30
0.0
 11
78.4115
 21
160.1449999999999
 31
0.0
  0
LINE
  5
70
330
1E
100
AcDbEntity
  8
0
100
AcDbLine
 10
93.48650000000001
 20
110.729
 30
0.0
 11
96.7115
 21
114.1259999999999
 31
0.0
  0
LINE
  5
71
330
1E
100
AcDbEntity
  8
0
100
AcDbLine
 10
96.7115
 20
114.1259999999999
 30
0.0
 11
100.3865
 21
117.1059999999999
 31
0.0
  0
LINE
  5
72
330
1E
100
AcDbEntity
  8
0
100
AcDbLine
 10
78.7865
 20
159.9719999999999
 30
0.0
 11
89.0615
 21
164.548
 31
0.0
  0
LINE
  5
73
330
1E
100
AcDbEntity
  8
0
100
AcDbLine
 10
89.0615
 20
164.548
 30
0.0
 11
100.1615
 21
168.0129999999999
 31
0.0
  0
LINE
  5
74
330
1E
100
AcDbEntity
  8
0
100
AcDbLine
 10
78.4115
 20
160.1449999999999
 30
0.0
 11
88.83650000000001
 21
164.7889999999999
 31
0.0
  0
LINE
  5
75
330
1E
100
AcDbEntity
  8
0
100
AcDbLine
 10
39.7865
 20
217.0
 30
0.0
 11
111.1864999999999
 21
217.0
 31
0.0
  0
LINE
  5
76
330
1E
100
AcDbEntity
  8
0
100
AcDbLine
 10
38.5865
 20
217.0
 30
0.0
 11
39.1865
 21
217.312
 31
0.0
  0
LINE
  5
77
330
1E
100
AcDbEntity
  8
0
100
AcDbLine
 10
35.1865
 20
217.0
 30
0.0
 11
38.5865
 21
217.0
 31
0.0
  0
LINE
  5
78
330
1E
100
AcDbEntity
  8
0
100
AcDbLine
 10
31.1865
 20
217.312
 30
0.0
 11
31.1865
 21
217.7799999999999
 31
0.0
  0
LINE
  5
79
330
1E
100
AcDbEntity
  8
0
100
AcDbLine
 10
31.1865
 20
217.312
 30
0.0
 11
31.7865
 21
217.0
 31
0.0
  0
LINE
  5
7A
330
1E
100
AcDbEntity
  8
0
100
AcDbLine
 10
31.1865
 20
217.7799999999999
 30
0.0
 11
31.1865
 21
219.028
 31
0.0
  0
LINE
  5
7B
330
1E
100
AcDbEntity
  8
0
100
AcDbLine
 10
31.1865
 20
217.7799999999999
 30
0.0
 11
31.1865
 21
217.312
 31
0.0
  0
LINE
  5
7C
330
1E
100
AcDbEntity
  8
0
100
AcDbLine
 10
31.1865
 20
219.028
 30
0.0
 11
31.1865
 21
221.056
 31
0.0
  0
LINE
  5
7D
330
1E
100
AcDbEntity
  8
0
100
AcDbLine
 10
31.1865
 20
219.028
 30
0.0
 11
31.1865
 21
217.7799999999999
 31
0.0
  0
LINE
  5
7E
330
1E
100
AcDbEntity
  8
0
100
AcDbLine
 10
31.1865
 20
221.056
 30
0.0
 11
31.1865
 21
223.708
 31
0.0
  0
LINE
  5
7F
330
1E
100
AcDbEntity
  8
0
100
AcDbLine
 10
31.1865
 20
221.056
 30
0.0
 11
31.1865
 21
219.028
 31
0.0
  0
LINE
  5
80
330
1E
100
AcDbEntity
  8
0
100
AcDbLine
 10
31.1865
 20
230.0
 30
0.0
 11
31.1865
 21
226.724
 31
0.0
  0
LINE
  5
81
330
1E
100
AcDbEntity
  8
0
100
AcDbLine
 10
31.1865
 20
230.0
 30
0.0
 11
31.1865
 21
307.0
 31
0.0
  0
LINE
  5
82
330
1E
100
AcDbEntity
  8
0
100
AcDbLine
 10
31.1865
 20
223.708
 30
0.0
 11
31.1865
 21
226.724
 31
0.0
  0
LINE
  5
83
330
1E
100
AcDbEntity
  8
0
100
AcDbLine
 10
31.1865
 20
223.708
 30
0.0
 11
31.1865
 21
221.056
 31
0.0
  0
LINE
  5
84
330
1E
100
AcDbEntity
  8
0
100
AcDbLine
 10
39.1865
 20
217.312
 30
0.0
 11
39.1865
 21
217.7799999999999
 31
0.0
  0
LINE
  5
85
330
1E
100
AcDbEntity
  8
0
100
AcDbLine
 10
39.1865
 20
217.312
 30
0.0
 11
39.7865
 21
217.0
 31
0.0
  0
LINE
  5
86
330
1E
100
AcDbEntity
  8
0
100
AcDbLine
 10
39.1865
 20
217.7799999999999
 30
0.0
 11
39.1865
 21
219.028
 31
0.0
  0
LINE
  5
87
330
1E
100
AcDbEntity
  8
0
100
AcDbLine
 10
39.1865
 20
217.7799999999999
 30
0.0
 11
39.1865
 21
217.312
 31
0.0
  0
LINE
  5
88
330
1E
100
AcDbEntity
  8
0
100
AcDbLine
 10
39.1865
 20
219.028
 30
0.0
 11
39.1865
 21
221.056
 31
0.0
  0
LINE
  5
89
330
1E
100
AcDbEntity
  8
0
100
AcDbLine
 10
39.1865
 20
219.028
 30
0.0
 11
39.1865
 21
217.7799999999999
 31
0.0
  0
LINE
  5
8A
330
1E
100
AcDbEntity
  8
0
100
AcDbLine
 10
39.1865
 20
219.028
 30
0.0
 11
39.7865
 21
218.7159999999999
 31
0.0
  0
LINE
  5
8B
330
1E
100
AcDbEntity
  8
0
100
AcDbLine
 10
39.1865
 20
221.056
 30
0.0
 11
39.1865
 21
223.708
 31
0.0
  0
LINE
  5
8C
330
1E
100
AcDbEntity
  8
0
100
AcDbLine
 10
39.1865
 20
221.056
 30
0.0
 11
39.1865
 21
219.028
 31
0.0
  0
LINE
  5
8D
330
1E
100
AcDbEntity
  8
0
100
AcDbLine
 10
39.1865
 20
223.708
 30
0.0
 11
39.1865
 21
226.724
 31
0.0
  0
LINE
  5
8E
330
1E
100
AcDbEntity
  8
0
100
AcDbLine
 10
39.1865
 20
223.708
 30
0.0
 11
39.1865
 21
221.056
 31
0.0
  0
LINE
  5
8F
330
1E
100
AcDbEntity
  8
0
100
AcDbLine
 10
39.7865
 20
218.7159999999999
 30
0.0
 11
111.1864999999999
 21
218.7159999999999
 31
0.0
  0
LINE
  5
90
330
1E
100
AcDbEntity
  8
0
100
AcDbLine
 10
39.7865
 20
230.0
 30
0.0
 11
96.1865
 21
230.0
 31
0.0
  0
LINE
  5
91
330
1E
100
AcDbEntity
  8
0
100
AcDbLine
 10
39.1865
 20
226.724
 30
0.0
 11
39.1865
 21
230.0
 31
0.0
  0
LINE
  5
92
330
1E
100
AcDbEntity
  8
0
100
AcDbLine
 10
39.1865
 20
226.724
 30
0.0
 11
39.1865
 21
223.708
 31
0.0
  0
LINE
  5
93
330
1E
100
AcDbEntity
  8
0
100
AcDbLine
 10
39.1865
 20
230.0
 30
0.0
 11
39.1865
 21
279.6111111111109
 31
0.0
  0
LINE
  5
94
330
1E
100
AcDbEntity
  8
0
100
AcDbLine
 10
39.1865
 20
230.0
 30
0.0
 11
39.1865
 21
226.724
 31
0.0
  0
LINE
  5
95
330
1E
100
AcDbEntity
  8
0
100
AcDbLine
 10
39.1865
 20
230.0
 30
0.0
 11
39.7865
 21
230.0
 31
0.0
  0
LINE
  5
96
330
1E
100
AcDbEntity
  8
0
100
AcDbLine
 10
31.1865
 20
226.724
 30
0.0
 11
31.1865
 21
230.0
 31
0.0
  0
LINE
  5
97
330
1E
100
AcDbEntity
  8
0
100
AcDbLine
 10
31.1865
 20
226.724
 30
0.0
 11
31.1865
 21
223.708
 31
0.0
  0
LINE
  5
98
330
1E
100
AcDbEntity
  8
0
100
AcDbLine
 10
31.7865
 20
217.0
 30
0.0
 11
35.1865
 21
217.0
 31
0.0
  0
LINE
  5
99
330
1E
100
AcDbEntity
  8
0
100
AcDbLine
 10
96.1865
 20
223.6
 30
0.0
 11
97.0865
 21
223.6
 31
0.0
  0
LINE
  5
9A
330
1E
100
AcDbEntity
  8
0
100
AcDbLine
 10
96.1865
 20
223.6
 30
0.0
 11
96.78650000000001
 21
223.0
 31
0.0
  0
LINE
  5
9B
330
1E
100
AcDbEntity
  8
0
100
AcDbLine
 10
96.1865
 20
223.6
 30
0.0
 11
96.1865
 21
263.0
 31
0.0
  0
LINE
  5
9C
330
1E
100
AcDbEntity
  8
0
100
AcDbLine
 10
39.1865
 20
242.688
 30
0.0
 11
39.7865
 21
243.0
 31
0.0
  0
LINE
  5
9D
330
1E
100
AcDbEntity
  8
0
100
AcDbLine
 10
39.7865
 20
243.0
 30
0.0
 11
96.1865
 21
243.0
 31
0.0
  0
LINE
  5
9E
330
1E
100
AcDbEntity
  8
0
100
AcDbLine
 10
61.4191
 20
270.9309999999999
 30
0.0
 11
61.7188
 21
270.917
 31
0.0
  0
LINE
  5
9F
330
1E
100
AcDbEntity
  8
0
100
AcDbLine
 10
66.2142
 20
270.7139999999999
 30
0.0
 11
68.51189999999999
 21
270.61
 31
0.0
  0
LINE
  5
A0
330
1E
100
AcDbEntity
  8
0
100
AcDbLine
 10
66.2142
 20
270.7139999999999
 30
0.0
 11
68.51189999999999
 21
270.61
 31
0.0
  0
LINE
  5
A1
330
1E
100
AcDbEntity
  8
0
100
AcDbLine
 10
78.9012032115165
 20
270.1410710588029
 30
0.0
 11
79.1011
 21
270.1319999999999
 31
0.0
  0
LINE
  5
A2
330
1E
100
AcDbEntity
  8
0
100
AcDbLine
 10
75.60469999999999
 20
270.29
 30
0.0
 11
77.60259999999999
 21
270.1999999999999
 31
0.0
  0
LINE
  5
A3
330
1E
100
AcDbEntity
  8
0
100
AcDbLine
 10
75.60469999999999
 20
270.29
 30
0.0
 11
77.60259999999999
 21
270.1999999999999
 31
0.0
  0
LINE
  5
A4
330
1E
100
AcDbEntity
  8
0
100
AcDbLine
 10
77.60259999999999
 20
270.1999999999999
 30
0.0
 11
78.85135000003041
 21
270.143333333332
 31
0.0
  0
LINE
  5
A5
330
1E
100
AcDbEntity
  8
0
100
AcDbLine
 10
77.60259999999999
 20
270.1999999999999
 30
0.0
 11
79.1011
 21
270.1319999999999
 31
0.0
  0
LINE
  5
A6
330
1E
100
AcDbEntity
  8
0
100
AcDbLine
 10
75.60469999999999
 20
270.29
 30
0.0
 11
77.60259999999999
 21
270.1999999999999
 31
0.0
  0
LINE
  5
A7
330
1E
100
AcDbEntity
  8
0
100
AcDbLine
 10
77.60259999999999
 20
270.1999999999999
 30
0.0
 11
78.85135000003041
 21
270.143333333332
 31
0.0
  0
LINE
  5
A8
330
1E
100
AcDbEntity
  8
0
100
AcDbLine
 10
77.60259999999999
 20
270.1999999999999
 30
0.0
 11
78.8513500000045
 21
270.143333333333
 31
0.0
  0
LINE
  5
A9
330
1E
100
AcDbEntity
  8
0
100
AcDbLine
 10
77.60259999999999
 20
270.1999999999999
 30
0.0
 11
78.85135000003559
 21
270.143333333332
 31
0.0
  0
LINE
  5
AA
330
1E
100
AcDbEntity
  8
0
100
AcDbLine
 10
80.10009999999999
 20
270.087
 30
0.0
 11
80.39979999999999
 21
270.074
 31
0.0
  0
LINE
  5
AB
330
1E
100
AcDbEntity
  8
0
100
AcDbLine
 10
79.1011
 20
270.1319999999999
 30
0.0
 11
80.10009999999999
 21
270.087
 31
0.0
  0
LINE
  5
AC
330
1E
100
AcDbEntity
  8
0
100
AcDbLine
 10
79.1011
 20
270.1319999999999
 30
0.0
 11
80.10009999999999
 21
270.087
 31
0.0
  0
LINE
  5
AD
330
1E
100
AcDbEntity
  8
0
100
AcDbLine
 10
70.9094
 20
270.502
 30
0.0
 11
73.0073
 21
270.4069999999999
 31
0.0
  0
LINE
  5
AE
330
1E
100
AcDbEntity
  8
0
100
AcDbLine
 10
70.9094
 20
270.502
 30
0.0
 11
73.0073
 21
270.4069999999999
 31
0.0
  0
LINE
  5
AF
330
1E
100
AcDbEntity
  8
0
100
AcDbLine
 10
70.9094
 20
270.502
 30
0.0
 11
73.307
 21
270.394
 31
0.0
  0
LINE
  5
B0
330
1E
100
AcDbEntity
  8
0
100
AcDbLine
 10
70.70959999999999
 20
270.5109999999999
 30
0.0
 11
70.9094
 21
270.502
 31
0.0
  0
LINE
  5
B1
330
1E
100
AcDbEntity
  8
0
100
AcDbLine
 10
70.70959999999999
 20
270.5109999999999
 30
0.0
 11
70.9094
 21
270.502
 31
0.0
  0
LINE
  5
B2
330
1E
100
AcDbEntity
  8
0
100
AcDbLine
 10
73.307
 20
270.394
 30
0.0
 11
75.60469999999999
 21
270.29
 31
0.0
  0
LINE
  5
B3
330
1E
100
AcDbEntity
  8
0
100
AcDbLine
 10
74.18231428568191
 20
270.354380952382
 30
0.0
 11
75.60469999999999
 21
270.29
 31
0.0
  0
LINE
  5
B4
330
1E
100
AcDbEntity
  8
0
100
AcDbLine
 10
70.9094
 20
270.502
 30
0.0
 11
73.0073
 21
270.4069999999999
 31
0.0
  0
LINE
  5
B5
330
1E
100
AcDbEntity
  8
0
100
AcDbLine
 10
80.39979999999999
 20
270.074
 30
0.0
 11
82.6233
 21
274.978
 31
0.0
  0
LINE
  5
B6
330
1E
100
AcDbEntity
  8
0
100
AcDbLine
 10
80.10009999999999
 20
270.087
 30
0.0
 11
80.39979999999999
 21
270.074
 31
0.0
  0
LINE
  5
B7
330
1E
100
AcDbEntity
  8
0
100
AcDbLine
 10
80.39979999999999
 20
270.074
 30
0.0
 11
82.6233
 21
274.978
 31
0.0
  0
LINE
  5
B8
330
1E
100
AcDbEntity
  8
0
100
AcDbLine
 10
80.39979999999999
 20
270.074
 30
0.0
 11
82.6233
 21
274.978
 31
0.0
  0
LINE
  5
B9
330
1E
100
AcDbEntity
  8
0
100
AcDbLine
 10
68.51189999999999
 20
270.61
 30
0.0
 11
70.9094
 21
270.502
 31
0.0
  0
LINE
  5
BA
330
1E
100
AcDbEntity
  8
0
100
AcDbLine
 10
68.51189999999999
 20
270.61
 30
0.0
 11
70.709374736928
 21
270.5110105227989
 31
0.0
  0
LINE
  5
BB
330
1E
100
AcDbEntity
  8
0
100
AcDbLine
 10
68.51189999999999
 20
270.61
 30
0.0
 11
70.7093747369051
 21
270.5110105227999
 31
0.0
  0
LINE
  5
BC
330
1E
100
AcDbEntity
  8
0
100
AcDbLine
 10
68.51189999999999
 20
270.61
 30
0.0
 11
70.7093747369052
 21
270.5110105227999
 31
0.0
  0
LINE
  5
BD
330
1E
100
AcDbEntity
  8
0
100
AcDbLine
 10
68.51189999999999
 20
270.61
 30
0.0
 11
70.7093747369052
 21
270.5110105227999
 31
0.0
  0
LINE
  5
BE
330
1E
100
AcDbEntity
  8
0
100
AcDbLine
 10
66.2142
 20
270.7139999999999
 30
0.0
 11
68.51189999999999
 21
270.61
 31
0.0
  0
LINE
  5
BF
330
1E
100
AcDbEntity
  8
0
100
AcDbLine
 10
66.2142
 20
270.7139999999999
 30
0.0
 11
68.51189999999999
 21
270.61
 31
0.0
  0
LINE
  5
C0
330
1E
100
AcDbEntity
  8
0
100
AcDbLine
 10
64.0165
 20
270.813
 30
0.0
 11
64.1097103320023
 21
270.808836901851
 31
0.0
  0
LINE
  5
C1
330
1E
100
AcDbEntity
  8
0
100
AcDbLine
 10
62.71779999999999
 20
270.872
 30
0.0
 11
63.9438454545043
 21
270.816363636366
 31
0.0
  0
LINE
  5
C2
330
1E
100
AcDbEntity
  8
0
100
AcDbLine
 10
62.71779999999999
 20
270.872
 30
0.0
 11
64.2163
 21
270.804
 31
0.0
  0
LINE
  5
C3
330
1E
100
AcDbEntity
  8
0
100
AcDbLine
 10
61.7188
 20
270.917
 30
0.0
 11
62.71779999999999
 21
270.872
 31
0.0
  0
LINE
  5
C4
330
1E
100
AcDbEntity
  8
0
100
AcDbLine
 10
64.2163
 20
270.804
 30
0.0
 11
66.2142
 21
270.7139999999999
 31
0.0
  0
LINE
  5
C5
330
1E
100
AcDbEntity
  8
0
100
AcDbLine
 10
64.1097103320023
 20
270.808836901851
 30
0.0
 11
64.2163
 21
270.804
 31
0.0
  0
LINE
  5
C6
330
1E
100
AcDbEntity
  8
0
100
AcDbLine
 10
64.1097103319442
 20
270.8088369018539
 30
0.0
 11
64.2163
 21
270.804
 31
0.0
  0
LINE
  5
C7
330
1E
100
AcDbEntity
  8
0
100
AcDbLine
 10
64.0165
 20
270.813
 30
0.0
 11
64.1097103320023
 21
270.808836901851
 31
0.0
  0
LINE
  5
C8
330
1E
100
AcDbEntity
  8
0
100
AcDbLine
 10
64.0165
 20
270.813
 30
0.0
 11
64.1097103319981
 21
270.808836901851
 31
0.0
  0
LINE
  5
C9
330
1E
100
AcDbEntity
  8
0
100
AcDbLine
 10
64.2163
 20
270.804
 30
0.0
 11
66.2142
 21
270.7139999999999
 31
0.0
  0
LINE
  5
CA
330
1E
100
AcDbEntity
  8
0
100
AcDbLine
 10
64.2163
 20
270.804
 30
0.0
 11
66.2142
 21
270.7139999999999
 31
0.0
  0
LINE
  5
CB
330
1E
100
AcDbEntity
  8
0
100
AcDbLine
 10
61.4191
 20
270.9309999999999
 30
0.0
 11
61.7188
 21
270.917
 31
0.0
  0
LINE
  5
CC
330
1E
100
AcDbEntity
  8
0
100
AcDbLine
 10
81.12479999999999
 20
275.0459999999999
 30
0.0
 11
82.22369999999999
 21
274.9959999999999
 31
0.0
  0
LINE
  5
CD
330
1E
100
AcDbEntity
  8
0
100
AcDbLine
 10
82.22369999999999
 20
274.9959999999999
 30
0.0
 11
82.6233
 21
274.978
 31
0.0
  0
LINE
  5
CE
330
1E
100
AcDbEntity
  8
0
100
AcDbLine
 10
71.13500000000001
 20
275.497
 30
0.0
 11
74.1319
 21
275.362
 31
0.0
  0
LINE
  5
CF
330
1E
100
AcDbEntity
  8
0
100
AcDbLine
 10
74.1319
 20
275.362
 30
0.0
 11
76.8292
 21
275.24
 31
0.0
  0
LINE
  5
D0
330
1E
100
AcDbEntity
  8
0
100
AcDbLine
 10
76.8292
 20
275.24
 30
0.0
 11
79.22679999999999
 21
275.132
 31
0.0
  0
LINE
  5
D1
330
1E
100
AcDbEntity
  8
0
100
AcDbLine
 10
79.22679999999999
 20
275.132
 30
0.0
 11
81.12479999999999
 21
275.0459999999999
 31
0.0
  0
LINE
  5
D2
330
1E
100
AcDbEntity
  8
0
100
AcDbLine
 10
68.1381
 20
275.632
 30
0.0
 11
71.13500000000001
 21
275.497
 31
0.0
  0
LINE
  5
D3
330
1E
100
AcDbEntity
  8
0
100
AcDbLine
 10
65.4408
 20
275.754
 30
0.0
 11
68.1381
 21
275.632
 31
0.0
  0
LINE
  5
D4
330
1E
100
AcDbEntity
  8
0
100
AcDbLine
 10
82.6233
 20
274.978
 30
0.0
 11
82.6684
 21
275.977
 31
0.0
  0
LINE
  5
D5
330
1E
100
AcDbEntity
  8
0
100
AcDbLine
 10
82.6233
 20
274.978
 30
0.0
 11
82.6684
 21
275.977
 31
0.0
  0
LINE
  5
D6
330
1E
100
AcDbEntity
  8
0
100
AcDbLine
 10
86.16480000000001
 20
275.819
 30
0.0
 11
95.1782
 21
275.913
 31
0.0
  0
LINE
  5
D7
330
1E
100
AcDbEntity
  8
0
100
AcDbLine
 10
82.6233
 20
274.978
 30
0.0
 11
82.6684
 21
275.977
 31
0.0
  0
LINE
  5
D8
330
1E
100
AcDbEntity
  8
0
100
AcDbLine
 10
86.16480000000001
 20
275.819
 30
0.0
 11
95.1782
 21
275.913
 31
0.0
  0
LINE
  5
D9
330
1E
100
AcDbEntity
  8
0
100
AcDbLine
 10
86.16480000000001
 20
275.819
 30
0.0
 11
95.1782
 21
275.913
 31
0.0
  0
LINE
  5
DA
330
1E
100
AcDbEntity
  8
0
100
AcDbLine
 10
63.0433
 20
275.862
 30
0.0
 11
65.4408
 21
275.754
 31
0.0
  0
LINE
  5
DB
330
1E
100
AcDbEntity
  8
0
100
AcDbLine
 10
61.1452
 20
275.9479999999999
 30
0.0
 11
63.0433
 21
275.862
 31
0.0
  0
LINE
  5
DC
330
1E
100
AcDbEntity
  8
0
100
AcDbLine
 10
84.1669
 20
275.91
 30
0.0
 11
85.66540000000001
 21
275.842
 31
0.0
  0
LINE
  5
DD
330
1E
100
AcDbEntity
  8
0
100
AcDbLine
 10
84.1669
 20
275.91
 30
0.0
 11
85.66540000000001
 21
275.842
 31
0.0
  0
LINE
  5
DE
330
1E
100
AcDbEntity
  8
0
100
AcDbLine
 10
84.1669
 20
275.91
 30
0.0
 11
85.66540000000001
 21
275.842
 31
0.0
  0
LINE
  5
DF
330
1E
100
AcDbEntity
  8
0
100
AcDbLine
 10
60.0463
 20
275.998
 30
0.0
 11
61.1452
 21
275.9479999999999
 31
0.0
  0
LINE
  5
E0
330
1E
100
AcDbEntity
  8
0
100
AcDbLine
 10
59.6467
 20
276.0159999999999
 30
0.0
 11
59.69179444522589
 21
277.0148769574429
 31
0.0
  0
LINE
  5
E1
330
1E
100
AcDbEntity
  8
0
100
AcDbLine
 10
59.6467
 20
276.0159999999999
 30
0.0
 11
60.0463
 21
275.998
 31
0.0
  0
LINE
  5
E2
330
1E
100
AcDbEntity
  8
0
100
AcDbLine
 10
59.6467
 20
276.0159999999999
 30
0.0
 11
61.4191
 21
270.9309999999999
 31
0.0
  0
LINE
  5
E3
330
1E
100
AcDbEntity
  8
0
100
AcDbLine
 10
59.6467
 20
276.0159999999999
 30
0.0
 11
61.4191
 21
270.9309999999999
 31
0.0
  0
LINE
  5
E4
330
1E
100
AcDbEntity
  8
0
100
AcDbLine
 10
71.18009999999999
 20
276.4959999999999
 30
0.0
 11
75.07609999999999
 21
276.3199999999999
 31
0.0
  0
LINE
  5
E5
330
1E
100
AcDbEntity
  8
0
100
AcDbLine
 10
75.07609999999999
 20
276.3199999999999
 30
0.0
 11
78.6725
 21
276.158
 31
0.0
  0
LINE
  5
E6
330
1E
100
AcDbEntity
  8
0
100
AcDbLine
 10
67.2841
 20
276.672
 30
0.0
 11
71.18009999999999
 21
276.4959999999999
 31
0.0
  0
LINE
  5
E7
330
1E
100
AcDbEntity
  8
0
100
AcDbLine
 10
63.6878
 20
276.834
 30
0.0
 11
67.2841
 21
276.672
 31
0.0
  0
LINE
  5
E8
330
1E
100
AcDbEntity
  8
0
100
AcDbLine
 10
78.6725
 20
276.158
 30
0.0
 11
81.7693
 21
276.0179999999999
 31
0.0
  0
LINE
  5
E9
330
1E
100
AcDbEntity
  8
0
100
AcDbLine
 10
81.7693
 20
276.0179999999999
 30
0.0
 11
84.1669
 21
275.91
 31
0.0
  0
LINE
  5
EA
330
1E
100
AcDbEntity
  8
0
100
AcDbLine
 10
77.3964
 20
276.716
 30
0.0
 11
83.0906
 21
276.459
 31
0.0
  0
LINE
  5
EB
330
1E
100
AcDbEntity
  8
0
100
AcDbLine
 10
83.0906
 20
276.459
 30
0.0
 11
88.0855
 21
276.2329999999999
 31
0.0
  0
LINE
  5
EC
330
1E
100
AcDbEntity
  8
0
100
AcDbLine
 10
82.6683670895202
 20
275.977501482454
 30
0.0
 11
84.1669
 21
275.91
 31
0.0
  0
LINE
  5
ED
330
1E
100
AcDbEntity
  8
0
100
AcDbLine
 10
82.6683670895202
 20
275.977501482454
 30
0.0
 11
84.1669
 21
275.91
 31
0.0
  0
LINE
  5
EE
330
1E
100
AcDbEntity
  8
0
100
AcDbLine
 10
82.6683670895202
 20
275.977501482454
 30
0.0
 11
84.1669
 21
275.91
 31
0.0
  0
LINE
  5
EF
330
1E
100
AcDbEntity
  8
0
100
AcDbLine
 10
94.2792
 20
275.9529999999999
 30
0.0
 11
95.1782
 21
275.913
 31
0.0
  0
LINE
  5
F0
330
1E
100
AcDbEntity
  8
0
100
AcDbLine
 10
85.66540000000001
 20
275.842
 30
0.0
 11
86.16480000000001
 21
275.819
 31
0.0
  0
LINE
  5
F1
330
1E
100
AcDbEntity
  8
0
100
AcDbLine
 10
85.66540000000001
 20
275.842
 30
0.0
 11
86.16480000000001
 21
275.819
 31
0.0
  0
LINE
  5
F2
330
1E
100
AcDbEntity
  8
0
100
AcDbLine
 10
95.1782
 20
275.913
 30
0.0
 11
96.22230000000001
 21
276.867
 31
0.0
  0
LINE
  5
F3
330
1E
100
AcDbEntity
  8
0
100
AcDbLine
 10
88.0855
 20
276.2329999999999
 30
0.0
 11
91.9815
 21
276.057
 31
0.0
  0
LINE
  5
F4
330
1E
100
AcDbEntity
  8
0
100
AcDbLine
 10
91.9815
 20
276.057
 30
0.0
 11
94.2792
 21
275.9529999999999
 31
0.0
  0
LINE
  5
F5
330
1E
100
AcDbEntity
  8
0
100
AcDbLine
 10
84.1669
 20
275.91
 30
0.0
 11
85.66540000000001
 21
275.842
 31
0.0
  0
LINE
  5
F6
330
1E
100
AcDbEntity
  8
0
100
AcDbLine
 10
85.66540000000001
 20
275.842
 30
0.0
 11
86.16480000000001
 21
275.819
 31
0.0
  0
LINE
  5
F7
330
1E
100
AcDbEntity
  8
0
100
AcDbLine
 10
95.1782
 20
275.913
 30
0.0
 11
96.1865
 21
276.834289340102
 31
0.0
  0
LINE
  5
F8
330
1E
100
AcDbEntity
  8
0
100
AcDbLine
 10
95.1782
 20
275.913
 30
0.0
 11
96.1865
 21
276.834289340102
 31
0.0
  0
LINE
  5
F9
330
1E
100
AcDbEntity
  8
0
100
AcDbLine
 10
96.1865
 20
263.0
 30
0.0
 11
97.0865
 21
263.0
 31
0.0
  0
LINE
  5
FA
330
1E
100
AcDbEntity
  8
0
100
AcDbLine
 10
96.1865
 20
263.0
 30
0.0
 11
96.1865
 21
223.6
 31
0.0
  0
LINE
  5
FB
330
1E
100
AcDbEntity
  8
0
100
AcDbLine
 10
96.1865
 20
272.6
 30
0.0
 11
96.78650000000001
 21
272.0
 31
0.0
  0
LINE
  5
FC
330
1E
100
AcDbEntity
  8
0
100
AcDbLine
 10
96.1865
 20
272.6
 30
0.0
 11
96.1865
 21
276.834289340102
 31
0.0
  0
LINE
  5
FD
330
1E
100
AcDbEntity
  8
0
100
AcDbLine
 10
96.1865
 20
272.6
 30
0.0
 11
97.0865
 21
272.6
 31
0.0
  0
LINE
  5
FE
330
1E
100
AcDbEntity
  8
0
100
AcDbLine
 10
50.42390000000001
 20
277.934
 30
0.0
 11
54.31989999999999
 21
277.7579999999999
 31
0.0
  0
LINE
  5
FF
330
1E
100
AcDbEntity
  8
0
100
AcDbLine
 10
56.1954
 20
277.173
 30
0.0
 11
56.69489999999999
 21
277.1499999999999
 31
0.0
  0
LINE
  5
100
330
1E
100
AcDbEntity
  8
0
100
AcDbLine
 10
54.31989999999999
 20
277.7579999999999
 30
0.0
 11
59.3148
 21
277.5319999999999
 31
0.0
  0
LINE
  5
101
330
1E
100
AcDbEntity
  8
0
100
AcDbLine
 10
47.17229999999999
 20
279.082
 30
0.0
 11
49.5699
 21
278.974
 31
0.0
  0
LINE
  5
102
330
1E
100
AcDbEntity
  8
0
100
AcDbLine
 10
47.2271
 20
278.0779999999999
 30
0.0
 11
56.1954
 21
277.173
 31
0.0
  0
LINE
  5
103
330
1E
100
AcDbEntity
  8
0
100
AcDbLine
 10
47.2271
 20
278.0779999999999
 30
0.0
 11
48.12619999999999
 21
278.038
 31
0.0
  0
LINE
  5
104
330
1E
100
AcDbEntity
  8
0
100
AcDbLine
 10
50.1865
 20
279.0
 30
0.0
 11
71.18649999999999
 21
278.0
 31
0.0
  0
LINE
  5
105
330
1E
100
AcDbEntity
  8
0
100
AcDbLine
 10
50.1865
 20
279.0
 30
0.0
 11
58.1447006991384
 21
278.6210380619459
 31
0.0
  0
LINE
  5
106
330
1E
100
AcDbEntity
  8
0
100
AcDbLine
 10
53.56580000000001
 20
278.793
 30
0.0
 11
58.8604
 21
278.554
 31
0.0
  0
LINE
  5
107
330
1E
100
AcDbEntity
  8
0
100
AcDbLine
 10
49.5699
 20
278.974
 30
0.0
 11
53.56580000000001
 21
278.793
 31
0.0
  0
LINE
  5
108
330
1E
100
AcDbEntity
  8
0
100
AcDbLine
 10
48.12619999999999
 20
278.038
 30
0.0
 11
50.42390000000001
 21
277.934
 31
0.0
  0
LINE
  5
109
330
1E
100
AcDbEntity
  8
0
100
AcDbLine
 10
47.2271
 20
278.0779999999999
 30
0.0
 11
56.1954
 21
277.173
 31
0.0
  0
LINE
  5
10A
330
1E
100
AcDbEntity
  8
0
100
AcDbLine
 10
58.1934
 20
277.0829999999999
 30
0.0
 11
59.69179444522589
 21
277.0148769574429
 31
0.0
  0
LINE
  5
10B
330
1E
100
AcDbEntity
  8
0
100
AcDbLine
 10
58.1934
 20
277.0829999999999
 30
0.0
 11
60.5909
 21
276.974
 31
0.0
  0
LINE
  5
10C
330
1E
100
AcDbEntity
  8
0
100
AcDbLine
 10
95.32329999999999
 20
276.9069999999999
 30
0.0
 11
96.22230000000001
 21
276.867
 31
0.0
  0
LINE
  5
10D
330
1E
100
AcDbEntity
  8
0
100
AcDbLine
 10
92.1865
 20
277.0
 30
0.0
 11
121.1864999999999
 21
277.0
 31
0.0
  0
LINE
  5
10E
330
1E
100
AcDbEntity
  8
0
100
AcDbLine
 10
71.20269999999999
 20
276.9959999999999
 30
0.0
 11
77.3964
 21
276.716
 31
0.0
  0
LINE
  5
10F
330
1E
100
AcDbEntity
  8
0
100
AcDbLine
 10
93.27764128440408
 20
277.0
 30
0.0
 11
96.1865
 21
277.0
 31
0.0
  0
LINE
  5
110
330
1E
100
AcDbEntity
  8
0
100
AcDbLine
 10
93.27764128440229
 20
277.0
 30
0.0
 11
95.32329999999999
 21
276.9069999999999
 31
0.0
  0
LINE
  5
111
330
1E
100
AcDbEntity
  8
0
100
AcDbLine
 10
60.5909
 20
276.974
 30
0.0
 11
63.6878
 21
276.834
 31
0.0
  0
LINE
  5
112
330
1E
100
AcDbEntity
  8
0
100
AcDbLine
 10
58.1934
 20
277.0829999999999
 30
0.0
 11
59.69179444522589
 21
277.0148769574429
 31
0.0
  0
LINE
  5
113
330
1E
100
AcDbEntity
  8
0
100
AcDbLine
 10
58.1934
 20
277.0829999999999
 30
0.0
 11
59.69179444522589
 21
277.0148769574429
 31
0.0
  0
LINE
  5
114
330
1E
100
AcDbEntity
  8
0
100
AcDbLine
 10
65.009
 20
277.2749999999999
 30
0.0
 11
71.20269999999999
 21
276.9959999999999
 31
0.0
  0
LINE
  5
116
330
1E
100
AcDbEntity
  8
0
100
AcDbLine
 10
71.18649999999999
 20
278.0
 30
0.0
 11
92.1865
 21
277.0
 31
0.0
  0
LINE
  5
117
330
1E
100
AcDbEntity
  8
0
100
AcDbLine
 10
71.2478
 20
277.9949999999999
 30
0.0
 11
72.1088044684453
 21
277.956080739598
 31
0.0
  0
LINE
  5
118
330
1E
100
AcDbEntity
  8
0
100
AcDbLine
 10
64.8543
 20
278.283
 30
0.0
 11
71.2478
 21
277.9949999999999
 31
0.0
  0
LINE
  5
119
330
1E
100
AcDbEntity
  8
0
100
AcDbLine
 10
59.3148
 20
277.5319999999999
 30
0.0
 11
65.009
 21
277.2749999999999
 31
0.0
  0
LINE
  5
11A
330
1E
100
AcDbEntity
  8
0
100
AcDbLine
 10
58.8604
 20
278.554
 30
0.0
 11
64.8543
 21
278.283
 31
0.0
  0
LINE
  5
11C
330
1E
100
AcDbEntity
  8
0
100
AcDbLine
 10
56.69489999999999
 20
277.1499999999999
 30
0.0
 11
58.1934
 21
277.0829999999999
 31
0.0
  0
LINE
  5
11D
330
1E
100
AcDbEntity
  8
0
100
AcDbLine
 10
56.69489999999999
 20
277.1499999999999
 30
0.0
 11
58.1934
 21
277.0829999999999
 31
0.0
  0
LINE
  5
11E
330
1E
100
AcDbEntity
  8
0
100
AcDbLine
 10
56.69489999999999
 20
277.1499999999999
 30
0.0
 11
58.1934
 21
277.0829999999999
 31
0.0
  0
LINE
  5
11F
330
1E
100
AcDbEntity
  8
0
100
AcDbLine
 10
56.1954
 20
277.173
 30
0.0
 11
56.69489999999999
 21
277.1499999999999
 31
0.0
  0
LINE
  5
120
330
1E
100
AcDbEntity
  8
0
100
AcDbLine
 10
56.1954
 20
277.173
 30
0.0
 11
56.69489999999999
 21
277.1499999999999
 31
0.0
  0
LINE
  5
121
330
1E
100
AcDbEntity
  8
0
100
AcDbLine
 10
31.1865
 20
281.0
 30
0.0
 11
32.1865
 21
280.0
 31
0.0
  0
LINE
  5
122
330
1E
100
AcDbEntity
  8
0
100
AcDbLine
 10
31.1865
 20
281.0
 30
0.0
 11
31.1865
 21
306.0
 31
0.0
  0
LINE
  5
124
330
1E
100
AcDbEntity
  8
0
100
AcDbLine
 10
31.1865
 20
281.0
 30
0.0
 11
31.1865
 21
306.0
 31
0.0
  0
LINE
  5
125
330
1E
100
AcDbEntity
  8
0
100
AcDbLine
 10
31.1865
 20
306.0
 30
0.0
 11
31.1865
 21
281.0
 31
0.0
  0
LINE
  5
128
330
1E
100
AcDbEntity
  8
0
100
AcDbLine
 10
31.1865
 20
306.0
 30
0.0
 11
31.1865
 21
281.0
 31
0.0
  0
LINE
  5
129
330
1E
100
AcDbEntity
  8
0
100
AcDbLine
 10
1.1865
 20
307.0
 30
0.0
 11
31.1865
 21
307.0
 31
0.0
  0
LINE
  5
12A
330
1E
100
AcDbEntity
  8
0
100
AcDbLine
 10
1.1865
 20
307.0
 30
0.0
 11
32.1865
 21
307.0
 31
0.0
  0
LINE
  5
12B
330
1E
100
AcDbEntity
  8
0
100
AcDbLine
 10
1.18649999999999
 20
307.0
 30
0.0
 11
32.1865
 21
307.0
 31
0.0
  0
LINE
  5
12D
330
1E
100
AcDbEntity
  8
0
100
AcDbLine
 10
1.18649999999999
 20
307.0
 30
0.0
 11
31.1865
 21
307.0
 31
0.0
  0
LINE
  5
12E
330
1E
100
AcDbEntity
  8
0
100
AcDbLine
 10
39.1865
 20
279.6111111111109
 30
0.0
 11
50.1865
 21
279.0
 31
0.0
  0
LINE
  5
135
330
1E
100
AcDbEntity
  8
0
100
AcDbLine
 10
32.1865
 20
280.0
 30
0.0
 11
50.1865
 21
279.0
 31
0.0
  0
LINE
  5
136
330
1E
100
AcDbEntity
  8
0
100
AcDbLine
 10
39.1865
 20
279.6111111111109
 30
0.0
 11
39.1865
 21
230.0
 31
0.0
  0
LINE
  5
137
330
1E
100
AcDbEntity
  8
0
100
AcDbLine
 10
31.7865
 20
307.0
 30
0.0
 11
32.1865
 21
307.0
 31
0.0
  0
LINE
  5
138
330
1E
100
AcDbEntity
  8
0
100
AcDbLine
 10
31.7865
 20
307.0
 30
0.0
 11
32.1865
 21
307.0
 31
0.0
  0
LINE
  5
13A
330
1E
100
AcDbEntity
  8
0
100
AcDbLine
 10
0.186499999999992
 20
371.0
 30
0.0
 11
0.186499999999992
 21
310.0
 31
0.0
  0
LINE
  5
13C
330
1E
100
AcDbEntity
  8
0
100
AcDbLine
 10
0.186499999999992
 20
310.0
 30
0.0
 11
0.186499999999992
 21
371.0
 31
0.0
  0
LINE
  5
13D
330
1E
100
AcDbEntity
  8
0
100
AcDbLine
 10
0.186499999999992
 20
373.0
 30
0.0
 11
1.18649999999999
 21
374.0
 31
0.0
  0
LINE
  5
13E
330
1E
100
AcDbEntity
  8
0
100
AcDbLine
 10
0.186499999999992
 20
373.0
 30
0.0
 11
0.186499999999992
 21
308.0
 31
0.0
  0
LINE
  5
140
330
1E
100
AcDbEntity
  8
0
100
AcDbLine
 10
0.186499999999992
 20
373.0
 30
0.0
 11
0.186499999999992
 21
308.0
 31
0.0
  0
LINE
  5
141
330
1E
100
AcDbEntity
  8
0
100
AcDbLine
 10
0.186499999999992
 20
308.0
 30
0.0
 11
1.18649999999999
 21
307.0
 31
0.0
  0
LINE
  5
142
330
1E
100
AcDbEntity
  8
0
100
AcDbLine
 10
0.186499999999992
 20
308.0
 30
0.0
 11
0.186499999999992
 21
373.0
 31
0.0
  0
LINE
  5
148
330
1E
100
AcDbEntity
  8
0
100
AcDbLine
 10
3.18649999999999
 20
307.0
 30
0.0
 11
32.1865
 21
307.0
 31
0.0
  0
LINE
  5
149
330
1E
100
AcDbEntity
  8
0
100
AcDbLine
 10
3.1865
 20
307.0
 30
0.0
 11
32.1865
 21
307.0
 31
0.0
  0
LINE
  5
14A
330
1E
100
AcDbEntity
  8
0
100
AcDbLine
 10
32.1865
 20
307.0
 30
0.0
 11
121.1864999999999
 21
307.0
 31
0.0
  0
LINE
  5
14B
330
1E
100
AcDbEntity
  8
0
100
AcDbLine
 10
32.1865
 20
307.0
 30
0.0
 11
121.1864999999999
 21
307.0
 31
0.0
  0
LINE
  5
151
330
1E
100
AcDbEntity
  8
0
100
AcDbLine
 10
3.1865
 20
374.0
 30
0.0
 11
91.1865
 21
374.0
 31
0.0
  0
LINE
  5
158
330
1E
100
AcDbEntity
  8
0
100
AcDbLine
 10
3.18649999999999
 20
374.0
 30
0.0
 11
91.1865
 21
374.0
 31
0.0
  0
LINE
  5
159
330
1E
100
AcDbEntity
  8
0
100
AcDbLine
 10
1.1865
 20
374.0
 30
0.0
 11
3.18649999999999
 21
374.0
 31
0.0
  0
LINE
  5
15A
330
1E
100
AcDbEntity
  8
0
100
AcDbLine
 10
1.18649999999999
 20
374.0
 30
0.0
 11
3.18649999999999
 21
374.0
 31
0.0
  0
LINE
  5
15C
330
1E
100
AcDbEntity
  8
0
100
AcDbLine
 10
0.186499999999992
 20
308.0
 30
0.0
 11
1.18649999999999
 21
307.0
 31
0.0
  0
LINE
  5
15D
330
1E
100
AcDbEntity
  8
0
100
AcDbLine
 10
0.186499999999992
 20
308.0
 30
0.0
 11
0.186499999999992
 21
373.0
 31
0.0
  0
LINE
  5
15E
330
1E
100
AcDbEntity
  8
0
100
AcDbLine
 10
31.1865
 20
307.0
 30
0.0
 11
31.1865
 21
230.0
 31
0.0
  0
LINE
  5
15F
330
1E
100
AcDbEntity
  8
0
100
AcDbLine
 10
31.1865
 20
307.0
 30
0.0
 11
31.7865
 21
307.0
 31
0.0
  0
LINE
  5
160
330
1E
100
AcDbEntity
  8
0
100
AcDbLine
 10
91.1865
 20
309.0
 30
0.0
 11
91.1865
 21
372.0
 31
0.0
  0
LINE
  5
161
330
1E
100
AcDbEntity
  8
0
100
AcDbLine
 10
91.1865
 20
372.0
 30
0.0
 11
91.1865
 21
374.0
 31
0.0
  0
LINE
  5
162
330
1E
100
AcDbEntity
  8
0
100
AcDbLine
 10
91.1865
 20
307.0
 30
0.0
 11
91.1865
 21
309.0
 31
0.0
  0
LINE
  5
166
330
1E
100
AcDbEntity
  8
0
100
AcDbLine
 10
91.1865
 20
374.0
 30
0.0
 11
121.1864999999999
 21
374.0
 31
0.0
  0
LINE
  5
167
330
1E
100
AcDbEntity
  8
0
100
AcDbLine
 10
46.2732
 20
279.122
 30
0.0
 11
47.17229999999999
 21
279.082
 31
0.0
  0
LINE
  5
168
330
1E
100
AcDbEntity
  8
0
100
AcDbLine
 10
46.2732
 20
279.122
 30
0.0
 11
47.2271
 21
278.0779999999999
 31
0.0
  0
LINE
  5
169
330
1E
100
AcDbEntity
  8
0
100
AcDbLine
 10
46.2732
 20
279.122
 30
0.0
 11
47.2271
 21
278.0779999999999
 31
0.0
  0
LINE
  5
16A
330
1E
100
AcDbEntity
  8
0
100
AcDbLine
 10
46.2732
 20
279.122
 30
0.0
 11
47.2271
 21
278.0779999999999
 31
0.0
  0
LINE
  5
16B
330
1E
100
AcDbEntity
  8
0
100
AcDbLine
 10
96.1865
 20
276.868592880979
 30
0.0
 11
96.1865
 21
277.0
 31
0.0
  0
LINE
  5
16C
330
1E
100
AcDbEntity
  8
0
100
AcDbLine
 10
96.1865
 20
276.834289340102
 30
0.0
 11
96.1865
 21
272.6
 31
0.0
  0
LINE
  5
16D
330
1E
100
AcDbEntity
  8
0
100
AcDbLine
 10
96.1865
 20
277.0
 30
0.0
 11
96.1865
 21
276.868592880979
 31
0.0
  0
LINE
  5
16E
330
1E
100
AcDbEntity
  8
0
100
AcDbLine
 10
96.1865
 20
234.6
 30
0.0
 11
96.1865
 21
264.0
 31
0.0
  0
LINE
  5
16F
330
1E
100
AcDbEntity
  8
0
100
AcDbLine
 10
96.78650000000001
 20
223.0
 30
0.0
 11
97.6865
 21
223.0
 31
0.0
  0
LINE
  5
170
330
1E
100
AcDbEntity
  8
0
100
AcDbLine
 10
97.0865
 20
223.6
 30
0.0
 11
99.4865
 21
223.6
 31
0.0
  0
LINE
  5
171
330
1E
100
AcDbEntity
  8
0
100
AcDbLine
 10
97.6865
 20
223.0
 30
0.0
 11
100.0865
 21
223.0
 31
0.0
  0
LINE
  5
172
330
1E
100
AcDbEntity
  8
0
100
AcDbLine
 10
97.0865
 20
263.0
 30
0.0
 11
99.4865
 21
263.0
 31
0.0
  0
LINE
  5
173
330
1E
100
AcDbEntity
  8
0
100
AcDbLine
 10
97.0865
 20
272.6
 30
0.0
 11
99.4865
 21
272.6
 31
0.0
  0
LINE
  5
174
330
1E
100
AcDbEntity
  8
0
100
AcDbLine
 10
96.78650000000001
 20
272.0
 30
0.0
 11
97.6865
 21
272.0
 31
0.0
  0
LINE
  5
175
330
1E
100
AcDbEntity
  8
0
100
AcDbLine
 10
97.6865
 20
272.0
 30
0.0
 11
100.0865
 21
272.0
 31
0.0
  0
LINE
  5
176
330
1E
100
AcDbEntity
  8
0
100
AcDbLine
 10
97.0865
 20
264.0
 30
0.0
 11
99.4865
 21
264.0
 31
0.0
  0
LINE
  5
177
330
1E
100
AcDbEntity
  8
0
100
AcDbLine
 10
96.1865
 20
264.0
 30
0.0
 11
96.1865
 21
234.6
 31
0.0
  0
LINE
  5
178
330
1E
100
AcDbEntity
  8
0
100
AcDbLine
 10
96.1865
 20
264.0
 30
0.0
 11
97.0865
 21
264.0
 31
0.0
  0
LINE
  5
179
330
1E
100
AcDbEntity
  8
0
100
AcDbLine
 10
88.83650000000001
 20
164.7889999999999
 30
0.0
 11
99.9365
 21
168.3229999999999
 31
0.0
  0
LINE
  5
17A
330
1E
100
AcDbEntity
  8
0
100
AcDbLine
 10
100.3865
 20
117.1059999999999
 30
0.0
 11
104.5115
 21
119.6709999999999
 31
0.0
  0
LINE
  5
17B
330
1E
100
AcDbEntity
  8
0
100
AcDbLine
 10
104.5115
 20
119.6709999999999
 30
0.0
 11
108.8615
 21
121.6119999999999
 31
0.0
  0
LINE
  5
17C
330
1E
100
AcDbEntity
  8
0
100
AcDbLine
 10
108.8615
 20
121.6119999999999
 30
0.0
 11
111.1573339189817
 21
122.2781821106723
 31
0.0
  0
LINE
  5
17D
330
1E
100
AcDbEntity
  8
0
100
AcDbLine
 10
99.4865
 20
223.6
 30
0.0
 11
103.4865
 21
223.6
 31
0.0
  0
LINE
  5
17E
330
1E
100
AcDbEntity
  8
0
100
AcDbLine
 10
99.4865
 20
263.0
 30
0.0
 11
103.4865
 21
263.0
 31
0.0
  0
LINE
  5
17F
330
1E
100
AcDbEntity
  8
0
100
AcDbLine
 10
99.4865
 20
272.6
 30
0.0
 11
101.1865
 21
272.6
 31
0.0
  0
LINE
  5
180
330
1E
100
AcDbEntity
  8
0
100
AcDbLine
 10
101.1865
 20
263.0
 30
0.0
 11
101.1865
 21
277.0
 31
0.0
  0
LINE
  5
181
330
1E
100
AcDbEntity
  8
0
100
AcDbLine
 10
100.0865
 20
223.0
 30
0.0
 11
103.9865
 21
223.0
 31
0.0
  0
LINE
  5
182
330
1E
100
AcDbEntity
  8
0
100
AcDbLine
 10
100.0865
 20
272.0
 30
0.0
 11
101.1865
 21
272.0
 31
0.0
  0
LINE
  5
183
330
1E
100
AcDbEntity
  8
0
100
AcDbLine
 10
103.4865
 20
223.6
 30
0.0
 11
108.7865
 21
223.6
 31
0.0
  0
LINE
  5
184
330
1E
100
AcDbEntity
  8
0
100
AcDbLine
 10
103.9865
 20
223.0
 30
0.0
 11
109.0864999999999
 21
223.0
 31
0.0
  0
LINE
  5
185
330
1E
100
AcDbEntity
  8
0
100
AcDbLine
 10
109.0864999999999
 20
223.0
 30
0.0
 11
111.1864999999999
 21
223.0
 31
0.0
  0
LINE
  5
186
330
1E
100
AcDbEntity
  8
0
100
AcDbLine
 10
108.7865
 20
223.6
 30
0.0
 11
111.1864999999999
 21
223.6
 31
0.0
  0
LINE
  5
187
330
1E
100
AcDbEntity
  8
0
100
AcDbLine
 10
103.4865
 20
263.0
 30
0.0
 11
108.7865
 21
263.0
 31
0.0
  0
LINE
  5
188
330
1E
100
AcDbEntity
  8
0
100
AcDbLine
 10
108.7865
 20
263.0
 30
0.0
 11
111.1864999999999
 21
263.0
 31
0.0
  0
LINE
  5
189
330
1E
100
AcDbEntity
  8
0
100
AcDbLine
 10
101.1865
 20
264.0
 30
0.0
 11
101.1865
 21
272.0
 31
0.0
  0
LINE
  5
18A
330
1E
100
AcDbEntity
  8
0
100
AcDbLine
 10
101.1865
 20
277.0
 30
0.0
 11
101.1865
 21
263.0
 31
0.0
  0
LINE
  5
18B
330
1E
100
AcDbEntity
  8
0
100
AcDbLine
 10
101.1865
 20
272.0
 30
0.0
 11
101.1865
 21
264.0
 31
0.0
  0
LINE
  5
18C
330
1E
100
AcDbEntity
  8
0
100
AcDbLine
 10
99.4865
 20
264.0
 30
0.0
 11
101.1865
 21
264.0
 31
0.0
  0
LINE
  5
18D
330
1E
100
AcDbEntity
  8
0
100
AcDbLine
 10
100.1615
 20
168.0129999999999
 30
0.0
 11
111.4864999999999
 21
170.162
 31
0.0
  0
LINE
  5
18E
330
1E
100
AcDbEntity
  8
0
100
AcDbLine
 10
99.9365
 20
168.3229999999999
 30
0.0
 11
111.4864999999999
 21
170.472
 31
0.0
  0
LINE
  5
18F
330
1E
100
AcDbEntity
  8
0
100
AcDbLine
 10
111.1864999999999
 20
106.9649999999999
 30
0.0
 11
111.1864999999999
 21
98.4628
 31
0.0
  0
LINE
  5
192
330
1E
100
AcDbEntity
  8
0
100
AcDbLine
 10
111.1864999999999
 20
98.4628
 30
0.0
 11
111.5865
 21
95.5977
 31
0.0
  0
LINE
  5
193
330
1E
100
AcDbEntity
  8
0
100
AcDbLine
 10
111.1864999999999
 20
98.4628
 30
0.0
 11
111.1864999999999
 21
106.9649999999999
 31
0.0
  0
LINE
  5
194
330
1E
100
AcDbEntity
  8
0
100
AcDbLine
 10
111.1864999999999
 20
97.31430000000001
 30
0.0
 11
111.1965751222939
 21
95.87287317146589
 31
0.0
  0
LINE
  5
195
330
1E
100
AcDbEntity
  8
0
100
AcDbLine
 10
111.1864999999999
 20
97.31430000000001
 30
0.0
 11
111.5865
 21
94.4494
 31
0.0
  0
LINE
  5
196
330
1E
100
AcDbEntity
  8
0
100
AcDbLine
 10
111.1864999999999
 20
97.31430000000001
 30
0.0
 11
111.2666773185799
 21
97.88850991134069
 31
0.0
  0
LINE
  5
197
330
1E
100
AcDbEntity
  8
0
100
AcDbLine
 10
111.1965751222939
 20
95.87287317146589
 30
0.0
 11
111.5865
 21
92.91809999999999
 31
0.0
  0
LINE
  5
198
330
1E
100
AcDbEntity
  8
0
100
AcDbLine
 10
111.1965751222939
 20
95.87287317146589
 30
0.0
 11
111.1864999999999
 21
97.31430000000001
 31
0.0
  0
LINE
  5
199
330
1E
100
AcDbEntity
  8
0
100
AcDbLine
 10
111.1965751222939
 20
95.10727317146589
 30
0.0
 11
111.1965751222939
 21
89.74777317146589
 31
0.0
  0
LINE
  5
19A
330
1E
100
AcDbEntity
  8
0
100
AcDbLine
 10
111.1965751222939
 20
95.10727317146589
 30
0.0
 11
111.5865
 21
92.15250000000001
 31
0.0
  0
LINE
  5
19B
330
1E
100
AcDbEntity
  8
0
100
AcDbLine
 10
111.1965751222939
 20
95.10727317146589
 30
0.0
 11
111.2500210812109
 21
95.4900664907211
 31
0.0
  0
LINE
  5
19C
330
1E
100
AcDbEntity
  8
0
100
AcDbLine
 10
111.4864999999999
 20
6.857290000000006
 30
0.0
 11
123.1864999999999
 21
6.025520000000014
 31
0.0
  0
LINE
  5
19D
330
1E
100
AcDbEntity
  8
0
100
AcDbLine
 10
111.4864999999999
 20
5.781340000000014
 30
0.0
 11
123.1864999999999
 21
4.949560000000005
 31
0.0
  0
LINE
  5
19E
330
1E
100
AcDbEntity
  8
0
100
AcDbLine
 10
111.4864999999999
 20
0.8047700000000048
 30
0.0
 11
123.1864999999999
 21
-0.027000000000001
 31
0.0
  0
LINE
  5
19F
330
1E
100
AcDbEntity
  8
0
100
AcDbLine
 10
111.4864999999999
 20
0.8047700000000048
 30
0.0
 11
123.1864999999999
 21
-0.027000000000001
 31
0.0
  0
LINE
  5
1A0
330
1E
100
AcDbEntity
  8
0
100
AcDbLine
 10
113.5115
 20
56.2485
 30
0.0
 11
118.3114999999999
 21
55.34749999999999
 31
0.0
  0
LINE
  5
1A1
330
1E
100
AcDbEntity
  8
0
100
AcDbLine
 10
113.5115
 20
55.1001
 30
0.0
 11
118.3114999999999
 21
54.19900000000001
 31
0.0
  0
LINE
  5
1A2
330
1E
100
AcDbEntity
  8
0
100
AcDbLine
 10
118.3114999999999
 20
55.34749999999999
 30
0.0
 11
123.1864999999999
 21
55.0009
 31
0.0
  0
LINE
  5
1A3
330
1E
100
AcDbEntity
  8
0
100
AcDbLine
 10
123.1864999999999
 20
55.0009
 30
0.0
 11
128.0615
 21
55.34749999999999
 31
0.0
  0
LINE
  5
1A4
330
1E
100
AcDbEntity
  8
0
100
AcDbLine
 10
123.1864999999999
 20
53.8525
 30
0.0
 11
128.0615
 21
54.19900000000001
 31
0.0
  0
LINE
  5
1A5
330
1E
100
AcDbEntity
  8
0
100
AcDbLine
 10
123.1864999999999
 20
6.025520000000014
 30
0.0
 11
134.8865
 21
6.857290000000006
 31
0.0
  0
LINE
  5
1A6
330
1E
100
AcDbEntity
  8
0
100
AcDbLine
 10
123.1864999999999
 20
4.949560000000005
 30
0.0
 11
134.8865
 21
5.781340000000014
 31
0.0
  0
LINE
  5
1A7
330
1E
100
AcDbEntity
  8
0
100
AcDbLine
 10
123.1864999999999
 20
-0.027000000000001
 30
0.0
 11
134.8865
 21
0.8047700000000048
 31
0.0
  0
LINE
  5
1A8
330
1E
100
AcDbEntity
  8
0
100
AcDbLine
 10
123.1864999999999
 20
-0.027000000000001
 30
0.0
 11
134.8865
 21
0.8047700000000048
 31
0.0
  0
LINE
  5
1A9
330
1E
100
AcDbEntity
  8
0
100
AcDbLine
 10
118.3114999999999
 20
54.19900000000001
 30
0.0
 11
123.1864999999999
 21
53.8525
 31
0.0
  0
LINE
  5
1AA
330
1E
100
AcDbEntity
  8
0
100
AcDbLine
 10
123.1864999999999
 20
78.5678
 30
0.0
 11
126.2865
 21
78.9375
 31
0.0
  0
LINE
  5
1AB
330
1E
100
AcDbEntity
  8
0
100
AcDbLine
 10
132.8615
 20
56.2485
 30
0.0
 11
137.5115
 21
57.7042
 31
0.0
  0
LINE
  5
1AC
330
1E
100
AcDbEntity
  8
0
100
AcDbLine
 10
128.0615
 20
55.34749999999999
 30
0.0
 11
132.8615
 21
56.2485
 31
0.0
  0
LINE
  5
1AD
330
1E
100
AcDbEntity
  8
0
100
AcDbLine
 10
141.8615
 20
59.645
 30
0.0
 11
145.9865
 21
62.2096
 31
0.0
  0
LINE
  5
1AE
330
1E
100
AcDbEntity
  8
0
100
AcDbLine
 10
137.5115
 20
57.7042
 30
0.0
 11
141.8615
 21
59.645
 31
0.0
  0
LINE
  5
1AF
330
1E
100
AcDbEntity
  8
0
100
AcDbLine
 10
145.9865
 20
62.2096
 30
0.0
 11
149.6615
 21
65.1901
 31
0.0
  0
LINE
  5
1B0
330
1E
100
AcDbEntity
  8
0
100
AcDbLine
 10
145.9865
 20
61.0612
 30
0.0
 11
149.6615
 21
64.0417
 31
0.0
  0
LINE
  5
1B1
330
1E
100
AcDbEntity
  8
0
100
AcDbLine
 10
141.8615
 20
58.4966
 30
0.0
 11
145.9865
 21
61.0612
 31
0.0
  0
LINE
  5
1B2
330
1E
100
AcDbEntity
  8
0
100
AcDbLine
 10
137.5115
 20
56.5558
 30
0.0
 11
141.8615
 21
58.4966
 31
0.0
  0
LINE
  5
1B3
330
1E
100
AcDbEntity
  8
0
100
AcDbLine
 10
132.8615
 20
55.1001
 30
0.0
 11
137.5115
 21
56.5558
 31
0.0
  0
LINE
  5
1B4
330
1E
100
AcDbEntity
  8
0
100
AcDbLine
 10
128.0615
 20
54.19900000000001
 30
0.0
 11
132.8615
 21
55.1001
 31
0.0
  0
LINE
  5
1B5
330
1E
100
AcDbEntity
  8
0
100
AcDbLine
 10
146.2115
 20
9.006100000000003
 30
0.0
 11
157.3115
 21
12.4718
 31
0.0
  0
LINE
  5
1B6
330
1E
100
AcDbEntity
  8
0
100
AcDbLine
 10
134.8865
 20
6.857290000000006
 30
0.0
 11
146.2115
 21
9.006100000000003
 31
0.0
  0
LINE
  5
1B7
330
1E
100
AcDbEntity
  8
0
100
AcDbLine
 10
146.4364999999999
 20
7.930090000000006
 30
0.0
 11
157.5364999999999
 21
11.4651
 31
0.0
  0
LINE
  5
1B8
330
1E
100
AcDbEntity
  8
0
100
AcDbLine
 10
134.8865
 20
5.781340000000014
 30
0.0
 11
146.4364999999999
 21
7.930090000000006
 31
0.0
  0
LINE
  5
1B9
330
1E
100
AcDbEntity
  8
0
100
AcDbLine
 10
149.6615
 20
65.1901
 30
0.0
 11
152.8865
 21
68.5865
 31
0.0
  0
LINE
  5
1BA
330
1E
100
AcDbEntity
  8
0
100
AcDbLine
 10
149.6615
 20
64.0417
 30
0.0
 11
152.8865
 21
67.4381
 31
0.0
  0
LINE
  5
1BB
330
1E
100
AcDbEntity
  8
0
100
AcDbLine
 10
152.8865
 20
68.5865
 30
0.0
 11
155.6614999999999
 21
72.39879999999999
 31
0.0
  0
LINE
  5
1BC
330
1E
100
AcDbEntity
  8
0
100
AcDbLine
 10
155.6614999999999
 20
72.39879999999999
 30
0.0
 11
157.7615
 21
76.41899999999999
 31
0.0
  0
LINE
  5
1BD
330
1E
100
AcDbEntity
  8
0
100
AcDbLine
 10
152.8865
 20
67.4381
 30
0.0
 11
155.6614999999999
 21
71.2504
 31
0.0
  0
LINE
  5
1BE
330
1E
100
AcDbEntity
  8
0
100
AcDbLine
 10
155.6614999999999
 20
71.2504
 30
0.0
 11
157.7615
 21
75.2706
 31
0.0
  0
LINE
  5
1BF
330
1E
100
AcDbEntity
  8
0
100
AcDbLine
 10
157.7615
 20
76.41899999999999
 30
0.0
 11
159.3365
 21
80.71649999999999
 31
0.0
  0
LINE
  5
1C0
330
1E
100
AcDbEntity
  8
0
100
AcDbLine
 10
157.7615
 20
75.2706
 30
0.0
 11
159.3365
 21
79.5681
 31
0.0
  0
LINE
  5
1C1
330
1E
100
AcDbEntity
  8
0
100
AcDbLine
 10
167.5864999999999
 20
17.04649999999999
 30
0.0
 11
177.4114999999999
 21
23.2154
 31
0.0
  0
LINE
  5
1C2
330
1E
100
AcDbEntity
  8
0
100
AcDbLine
 10
157.3115
 20
12.4718
 30
0.0
 11
167.5864999999999
 21
17.04649999999999
 31
0.0
  0
LINE
  5
1C3
330
1E
100
AcDbEntity
  8
0
100
AcDbLine
 10
167.9615
 20
16.1092
 30
0.0
 11
177.8615
 21
22.27819999999999
 31
0.0
  0
LINE
  5
1C4
330
1E
100
AcDbEntity
  8
0
100
AcDbLine
 10
157.5364999999999
 20
11.4651
 30
0.0
 11
167.9615
 21
16.1092
 31
0.0
  0
LINE
  5
1C5
330
1E
100
AcDbEntity
  8
0
100
AcDbLine
 10
177.4114999999999
 20
23.2154
 30
0.0
 11
186.1864999999999
 21
30.2856
 31
0.0
  0
LINE
  5
1C6
330
1E
100
AcDbEntity
  8
0
100
AcDbLine
 10
186.1864999999999
 20
30.2856
 30
0.0
 11
193.8365
 21
38.39529999999999
 31
0.0
  0
LINE
  5
1C7
330
1E
100
AcDbEntity
  8
0
100
AcDbLine
 10
186.7115
 20
29.41759999999999
 30
0.0
 11
194.4364999999999
 21
37.59659999999999
 31
0.0
  0
LINE
  5
1C8
330
1E
100
AcDbEntity
  8
0
100
AcDbLine
 10
186.7115
 20
24.441
 30
0.0
 11
194.4364999999999
 21
32.6201
 31
0.0
  0
LINE
  5
1C9
330
1E
100
AcDbEntity
  8
0
100
AcDbLine
 10
193.8365
 20
38.39529999999999
 30
0.0
 11
200.5114999999999
 21
47.4756
 31
0.0
  0
LINE
  5
1CA
330
1E
100
AcDbEntity
  8
0
100
AcDbLine
 10
200.5114999999999
 20
47.4756
 30
0.0
 11
205.4615
 21
56.9716
 31
0.0
  0
LINE
  5
1CB
330
1E
100
AcDbEntity
  8
0
100
AcDbLine
 10
194.4364999999999
 20
37.59659999999999
 30
0.0
 11
201.1115
 21
46.7461
 31
0.0
  0
LINE
  5
1CC
330
1E
100
AcDbEntity
  8
0
100
AcDbLine
 10
201.1115
 20
46.7461
 30
0.0
 11
206.1365
 21
56.3809
 31
0.0
  0
LINE
  5
1CD
330
1E
100
AcDbEntity
  8
0
100
AcDbLine
 10
194.4364999999999
 20
32.6201
 30
0.0
 11
201.1115
 21
41.7696
 31
0.0
  0
LINE
  5
1CE
330
1E
100
AcDbEntity
  8
0
100
AcDbLine
 10
201.1115
 20
41.7696
 30
0.0
 11
206.1365
 21
51.4043
 31
0.0
  0
LINE
  5
1CF
330
1E
100
AcDbEntity
  8
0
100
AcDbLine
 10
205.4615
 20
56.9716
 30
0.0
 11
209.2115
 21
67.23019999999999
 31
0.0
  0
LINE
  5
1D0
330
1E
100
AcDbEntity
  8
0
100
AcDbLine
 10
209.2115
 20
67.23019999999999
 30
0.0
 11
211.5364999999999
 21
77.6966
 31
0.0
  0
LINE
  5
1D1
330
1E
100
AcDbEntity
  8
0
100
AcDbLine
 10
206.1365
 20
56.3809
 30
0.0
 11
209.9615
 21
66.6394
 31
0.0
  0
LINE
  5
1D2
330
1E
100
AcDbEntity
  8
0
100
AcDbLine
 10
209.9615
 20
66.6394
 30
0.0
 11
212.2865
 21
77.3138
 31
0.0
  0
LINE
  5
1D3
330
1E
100
AcDbEntity
  8
0
100
AcDbLine
 10
206.1365
 20
51.4043
 30
0.0
 11
209.9615
 21
61.6629
 31
0.0
  0
LINE
  5
1D4
330
1E
100
AcDbEntity
  8
0
100
AcDbLine
 10
209.9615
 20
61.6629
 30
0.0
 11
212.2865
 21
72.33719999999999
 31
0.0
  0
LINE
  5
1D5
330
1E
100
AcDbEntity
  8
0
100
AcDbLine
 10
211.5364999999999
 20
77.6966
 30
0.0
 11
212.4365
 21
88.5097
 31
0.0
  0
LINE
  5
1D6
330
1E
100
AcDbEntity
  8
0
100
AcDbLine
 10
212.2865
 20
77.3138
 30
0.0
 11
213.1864999999999
 21
88.1268
 31
0.0
  0
LINE
  5
1D7
330
1E
100
AcDbEntity
  8
0
100
AcDbLine
 10
212.2865
 20
72.33719999999999
 30
0.0
 11
213.1864999999999
 21
83.1503
 31
0.0
  0
LINE
  5
1D8
330
1E
100
AcDbEntity
  8
0
100
AcDbLine
 10
177.8615
 20
22.27819999999999
 30
0.0
 11
186.7115
 21
29.41759999999999
 31
0.0
  0
LINE
  5
1D9
330
1E
100
AcDbEntity
  8
0
100
AcDbLine
 10
177.8615
 20
17.3016
 30
0.0
 11
186.7115
 21
24.441
 31
0.0
  0
LINE
  5
1DA
330
1E
100
AcDbEntity
  8
0
100
AcDbLine
 10
167.9615
 20
11.13269999999999
 30
0.0
 11
177.8615
 21
17.3016
 31
0.0
  0
LINE
  5
1DB
330
1E
100
AcDbEntity
  8
0
100
AcDbLine
 10
157.5364999999999
 20
6.488550000000003
 30
0.0
 11
167.9615
 21
11.13269999999999
 31
0.0
  0
LINE
  5
1DC
330
1E
100
AcDbEntity
  8
0
100
AcDbLine
 10
146.4364999999999
 20
2.953510000000008
 30
0.0
 11
157.5364999999999
 21
6.488550000000003
 31
0.0
  0
LINE
  5
1DD
330
1E
100
AcDbEntity
  8
0
100
AcDbLine
 10
134.8865
 20
0.8047700000000048
 30
0.0
 11
146.4364999999999
 21
2.953510000000008
 31
0.0
  0
LINE
  5
1DE
330
1E
100
AcDbEntity
  8
0
100
AcDbLine
 10
126.2865
 20
78.9375
 30
0.0
 11
129.1865
 21
80.04649999999999
 31
0.0
  0
LINE
  5
1DF
330
1E
100
AcDbEntity
  8
0
100
AcDbLine
 10
129.1865
 20
80.04649999999999
 30
0.0
 11
131.6864999999999
 21
81.80240000000001
 31
0.0
  0
LINE
  5
1E0
330
1E
100
AcDbEntity
  8
0
100
AcDbLine
 10
159.3365
 20
80.71649999999999
 30
0.0
 11
160.3115
 21
85.15259999999999
 31
0.0
  0
LINE
  5
1E1
330
1E
100
AcDbEntity
  8
0
100
AcDbLine
 10
159.3365
 20
79.5681
 30
0.0
 11
160.3115
 21
84.0042
 31
0.0
  0
LINE
  5
1E2
330
1E
100
AcDbEntity
  8
0
100
AcDbLine
 10
131.6864999999999
 20
81.80240000000001
 30
0.0
 11
133.5865
 21
84.11289999999999
 31
0.0
  0
LINE
  5
1E3
330
1E
100
AcDbEntity
  8
0
100
AcDbLine
 10
120.0865
 20
78.9375
 30
0.0
 11
123.1864999999999
 21
78.5678
 31
0.0
  0
LINE
  5
1E4
330
1E
100
AcDbEntity
  8
0
100
AcDbLine
 10
117.1864999999999
 20
80.04649999999999
 30
0.0
 11
120.0865
 21
78.9375
 31
0.0
  0
LINE
  5
1E5
330
1E
100
AcDbEntity
  8
0
100
AcDbLine
 10
117.1864999999999
 20
86.1715
 30
0.0
 11
120.0865
 21
85.06249999999999
 31
0.0
  0
LINE
  5
1E6
330
1E
100
AcDbEntity
  8
0
100
AcDbLine
 10
123.1864999999999
 20
83.92709999999999
 30
0.0
 11
126.2865
 21
84.29680000000001
 31
0.0
  0
LINE
  5
1E7
330
1E
100
AcDbEntity
  8
0
100
AcDbLine
 10
126.2865
 20
84.29680000000001
 30
0.0
 11
129.1865
 21
85.4058
 31
0.0
  0
LINE
  5
1E8
330
1E
100
AcDbEntity
  8
0
100
AcDbLine
 10
160.3115
 20
84.0042
 30
0.0
 11
160.6864999999999
 21
88.5097
 31
0.0
  0
LINE
  5
1E9
330
1E
100
AcDbEntity
  8
0
100
AcDbLine
 10
213.1864999999999
 20
83.1503
 30
0.0
 11
213.1864999999999
 21
88.1268
 31
0.0
  0
LINE
  5
1EA
330
1E
100
AcDbEntity
  8
0
100
AcDbLine
 10
133.5865
 20
84.11289999999999
 30
0.0
 11
134.7864999999999
 21
86.79309999999999
 31
0.0
  0
LINE
  5
1EB
330
1E
100
AcDbEntity
  8
0
100
AcDbLine
 10
120.0865
 20
86.5937
 30
0.0
 11
123.1864999999999
 21
86.224
 31
0.0
  0
LINE
  5
1EC
330
1E
100
AcDbEntity
  8
0
100
AcDbLine
 10
123.1864999999999
 20
84.69280000000001
 30
0.0
 11
126.2865
 21
85.06249999999999
 31
0.0
  0
LINE
  5
1ED
330
1E
100
AcDbEntity
  8
0
100
AcDbLine
 10
126.2865
 20
85.06249999999999
 30
0.0
 11
129.1865
 21
86.1715
 31
0.0
  0
LINE
  5
1EE
330
1E
100
AcDbEntity
  8
0
100
AcDbLine
 10
123.1864999999999
 20
86.224
 30
0.0
 11
126.2865
 21
86.5937
 31
0.0
  0
LINE
  5
1EF
330
1E
100
AcDbEntity
  8
0
100
AcDbLine
 10
126.2865
 20
86.5937
 30
0.0
 11
129.1865
 21
87.7027
 31
0.0
  0
LINE
  5
1F0
330
1E
100
AcDbEntity
  8
0
100
AcDbLine
 10
129.1865
 20
86.1715
 30
0.0
 11
131.6864999999999
 21
87.9274
 31
0.0
  0
LINE
  5
1F1
330
1E
100
AcDbEntity
  8
0
100
AcDbLine
 10
160.3115
 20
85.15259999999999
 30
0.0
 11
160.6864999999999
 21
89.65799999999999
 31
0.0
  0
LINE
  5
1F2
330
1E
100
AcDbEntity
  8
0
100
AcDbLine
 10
129.1865
 20
85.4058
 30
0.0
 11
131.6864999999999
 21
87.1619
 31
0.0
  0
LINE
  5
1F3
330
1E
100
AcDbEntity
  8
0
100
AcDbLine
 10
134.7864999999999
 20
86.79309999999999
 30
0.0
 11
135.1864999999999
 21
89.65799999999999
 31
0.0
  0
LINE
  5
1F4
330
1E
100
AcDbEntity
  8
0
100
AcDbLine
 10
120.0865
 20
85.06249999999999
 30
0.0
 11
123.1864999999999
 21
84.69280000000001
 31
0.0
  0
LINE
  5
1F5
330
1E
100
AcDbEntity
  8
0
100
AcDbLine
 10
120.0865
 20
84.29680000000001
 30
0.0
 11
123.1864999999999
 21
83.92709999999999
 31
0.0
  0
LINE
  5
1F6
330
1E
100
AcDbEntity
  8
0
100
AcDbLine
 10
117.1864999999999
 20
85.4058
 30
0.0
 11
120.0865
 21
84.29680000000001
 31
0.0
  0
LINE
  5
1F7
330
1E
100
AcDbEntity
  8
0
100
AcDbLine
 10
114.6865
 20
81.80240000000001
 30
0.0
 11
117.1864999999999
 21
80.04649999999999
 31
0.0
  0
LINE
  5
1F8
330
1E
100
AcDbEntity
  8
0
100
AcDbLine
 10
112.7865
 20
84.11289999999999
 30
0.0
 11
114.6865
 21
81.80240000000001
 31
0.0
  0
LINE
  5
1FD
330
1E
100
AcDbEntity
  8
0
100
AcDbLine
 10
111.5865
 20
95.5977
 30
0.0
 11
112.7865
 21
92.91769999999999
 31
0.0
  0
LINE
  5
1FE
330
1E
100
AcDbEntity
  8
0
100
AcDbLine
 10
111.5865
 20
94.4494
 30
0.0
 11
112.7865
 21
91.7692
 31
0.0
  0
LINE
  5
1FF
330
1E
100
AcDbEntity
  8
0
100
AcDbLine
 10
111.5865
 20
92.91809999999999
 30
0.0
 11
112.7865
 21
90.23789999999999
 31
0.0
  0
LINE
  5
200
330
1E
100
AcDbEntity
  8
0
100
AcDbLine
 10
114.6865
 20
89.45869999999999
 30
0.0
 11
117.1864999999999
 21
87.7027
 31
0.0
  0
LINE
  5
201
330
1E
100
AcDbEntity
  8
0
100
AcDbLine
 10
114.6865
 20
87.9274
 30
0.0
 11
117.1864999999999
 21
86.1715
 31
0.0
  0
LINE
  5
202
330
1E
100
AcDbEntity
  8
0
100
AcDbLine
 10
123.1864999999999
 20
87.37250000000001
 30
0.0
 11
126.2865
 21
87.7421
 31
0.0
  0
LINE
  5
203
330
1E
100
AcDbEntity
  8
0
100
AcDbLine
 10
129.1865
 20
87.7027
 30
0.0
 11
131.6864999999999
 21
89.45869999999999
 31
0.0
  0
LINE
  5
204
330
1E
100
AcDbEntity
  8
0
100
AcDbLine
 10
131.6864999999999
 20
87.1619
 30
0.0
 11
133.5865
 21
89.47239999999998
 31
0.0
  0
LINE
  5
205
330
1E
100
AcDbEntity
  8
0
100
AcDbLine
 10
126.2865
 20
87.7421
 30
0.0
 11
129.1865
 21
88.8512
 31
0.0
  0
LINE
  5
206
330
1E
100
AcDbEntity
  8
0
100
AcDbLine
 10
129.1865
 20
88.8512
 30
0.0
 11
131.6864999999999
 21
90.60720000000001
 31
0.0
  0
LINE
  5
207
330
1E
100
AcDbEntity
  8
0
100
AcDbLine
 10
131.6864999999999
 20
89.45869999999999
 30
0.0
 11
133.5865
 21
91.7692
 31
0.0
  0
LINE
  5
208
330
1E
100
AcDbEntity
  8
0
100
AcDbLine
 10
131.6864999999999
 20
87.9274
 30
0.0
 11
133.5865
 21
90.23789999999999
 31
0.0
  0
LINE
  5
209
330
1E
100
AcDbEntity
  8
0
100
AcDbLine
 10
213.1864999999999
 20
88.1268
 30
0.0
 11
213.1864999999999
 21
83.1503
 31
0.0
  0
LINE
  5
20A
330
1E
100
AcDbEntity
  8
0
100
AcDbLine
 10
160.6864999999999
 20
88.5097
 30
0.0
 11
160.6864999999999
 21
89.65799999999999
 31
0.0
  0
LINE
  5
20B
330
1E
100
AcDbEntity
  8
0
100
AcDbLine
 10
133.5865
 20
89.47239999999998
 30
0.0
 11
134.7864999999999
 21
92.15250000000001
 31
0.0
  0
LINE
  5
20C
330
1E
100
AcDbEntity
  8
0
100
AcDbLine
 10
120.0865
 20
87.7421
 30
0.0
 11
123.1864999999999
 21
87.37250000000001
 31
0.0
  0
LINE
  5
20D
330
1E
100
AcDbEntity
  8
0
100
AcDbLine
 10
117.1864999999999
 20
88.8512
 30
0.0
 11
120.0865
 21
87.7421
 31
0.0
  0
LINE
  5
20E
330
1E
100
AcDbEntity
  8
0
100
AcDbLine
 10
117.1864999999999
 20
87.7027
 30
0.0
 11
120.0865
 21
86.5937
 31
0.0
  0
LINE
  5
20F
330
1E
100
AcDbEntity
  8
0
100
AcDbLine
 10
114.6865
 20
87.1619
 30
0.0
 11
117.1864999999999
 21
85.4058
 31
0.0
  0
LINE
  5
214
330
1E
100
AcDbEntity
  8
0
100
AcDbLine
 10
112.7865
 20
92.91769999999999
 30
0.0
 11
114.6865
 21
90.60720000000001
 31
0.0
  0
LINE
  5
215
330
1E
100
AcDbEntity
  8
0
100
AcDbLine
 10
112.7865
 20
91.7692
 30
0.0
 11
114.6865
 21
89.45869999999999
 31
0.0
  0
LINE
  5
216
330
1E
100
AcDbEntity
  8
0
100
AcDbLine
 10
131.6864999999999
 20
90.60720000000001
 30
0.0
 11
133.5865
 21
92.91769999999999
 31
0.0
  0
LINE
  5
217
330
1E
100
AcDbEntity
  8
0
100
AcDbLine
 10
133.5865
 20
90.23789999999999
 30
0.0
 11
134.7864999999999
 21
92.91809999999999
 31
0.0
  0
LINE
  5
218
330
1E
100
AcDbEntity
  8
0
100
AcDbLine
 10
160.6864999999999
 20
89.65799999999999
 30
0.0
 11
160.6864999999999
 21
88.5097
 31
0.0
  0
LINE
  5
219
330
1E
100
AcDbEntity
  8
0
100
AcDbLine
 10
135.1864999999999
 20
89.65799999999999
 30
0.0
 11
135.1864999999999
 21
95.01749999999999
 31
0.0
  0
LINE
  5
21A
330
1E
100
AcDbEntity
  8
0
100
AcDbLine
 10
111.1864999999999
 20
117.1969999999999
 30
0.0
 11
111.1864999999999
 21
124.079
 31
0.0
  0
LINE
  5
21B
330
1E
100
AcDbEntity
  8
0
100
AcDbLine
 10
111.1864999999999
 20
117.1969999999999
 30
0.0
 11
111.1864999999999
 21
111.327
 31
0.0
  0
LINE
  5
21C
330
1E
100
AcDbEntity
  8
0
100
AcDbLine
 10
111.1864999999999
 20
124.079
 30
0.0
 11
111.1864999999999
 21
131.366
 31
0.0
  0
LINE
  5
21D
330
1E
100
AcDbEntity
  8
0
100
AcDbLine
 10
111.1864999999999
 20
124.079
 30
0.0
 11
111.1864999999999
 21
117.1969999999999
 31
0.0
  0
LINE
  5
21E
330
1E
100
AcDbEntity
  8
0
100
AcDbLine
 10
111.1864999999999
 20
131.366
 30
0.0
 11
111.1864999999999
 21
277.0
 31
0.0
  0
LINE
  5
21F
330
1E
100
AcDbEntity
  8
0
100
AcDbLine
 10
111.1864999999999
 20
131.366
 30
0.0
 11
111.1864999999999
 21
124.079
 31
0.0
  0
LINE
  5
220
330
1E
100
AcDbEntity
  8
0
100
AcDbLine
 10
111.1864999999999
 20
277.0
 30
0.0
 11
111.1864999999999
 21
131.366
 31
0.0
  0
LINE
  5
221
330
1E
100
AcDbEntity
  8
0
100
AcDbLine
 10
111.1864999999999
 20
111.327
 30
0.0
 11
111.1864999999999
 21
106.9649999999999
 31
0.0
  0
LINE
  5
222
330
1E
100
AcDbEntity
  8
0
100
AcDbLine
 10
111.1864999999999
 20
111.327
 30
0.0
 11
111.1864999999999
 21
117.1969999999999
 31
0.0
  0
LINE
  5
223
330
1E
100
AcDbEntity
  8
0
100
AcDbLine
 10
111.1864999999999
 20
106.9649999999999
 30
0.0
 11
111.5865
 21
104.3129999999999
 31
0.0
  0
LINE
  5
224
330
1E
100
AcDbEntity
  8
0
100
AcDbLine
 10
111.1864999999999
 20
106.9649999999999
 30
0.0
 11
111.1864999999999
 21
111.327
 31
0.0
  0
LINE
  5
225
330
1E
100
AcDbEntity
  8
0
100
AcDbLine
 10
111.5865
 20
104.3129999999999
 30
0.0
 11
112.7865
 21
101.737
 31
0.0
  0
LINE
  5
228
330
1E
100
AcDbEntity
  8
0
100
AcDbLine
 10
133.5865
 20
91.7692
 30
0.0
 11
134.7864999999999
 21
94.4494
 31
0.0
  0
LINE
  5
229
330
1E
100
AcDbEntity
  8
0
100
AcDbLine
 10
133.5865
 20
92.91769999999999
 30
0.0
 11
134.7864999999999
 21
95.5977
 31
0.0
  0
LINE
  5
22A
330
1E
100
AcDbEntity
  8
0
100
AcDbLine
 10
123.1864999999999
 20
96.43819999999999
 30
0.0
 11
126.2865
 21
96.7594
 31
0.0
  0
LINE
  5
22B
330
1E
100
AcDbEntity
  8
0
100
AcDbLine
 10
126.2865
 20
96.7594
 30
0.0
 11
129.1865
 21
97.86090000000001
 31
0.0
  0
LINE
  5
22C
330
1E
100
AcDbEntity
  8
0
100
AcDbLine
 10
120.0865
 20
96.7594
 30
0.0
 11
123.1864999999999
 21
96.43819999999999
 31
0.0
  0
LINE
  5
22E
330
1E
100
AcDbEntity
  8
0
100
AcDbLine
 10
134.7864999999999
 20
95.5977
 30
0.0
 11
135.1864999999999
 21
98.4628
 31
0.0
  0
LINE
  5
22F
330
1E
100
AcDbEntity
  8
0
100
AcDbLine
 10
134.7864999999999
 20
94.4494
 30
0.0
 11
135.1864999999999
 21
97.31430000000001
 31
0.0
  0
LINE
  5
230
330
1E
100
AcDbEntity
  8
0
100
AcDbLine
 10
135.133054041083
 20
95.4002933192552
 30
0.0
 11
135.1864999999999
 21
95.01749999999999
 31
0.0
  0
LINE
  5
231
330
1E
100
AcDbEntity
  8
0
100
AcDbLine
 10
160.3115
 20
94.1636
 30
0.0
 11
160.6864999999999
 21
89.65799999999999
 31
0.0
  0
LINE
  5
232
330
1E
100
AcDbEntity
  8
0
100
AcDbLine
 10
135.1864999999999
 20
95.01749999999999
 30
0.0
 11
135.1864999999999
 21
89.65799999999999
 31
0.0
  0
LINE
  5
233
330
1E
100
AcDbEntity
  8
0
100
AcDbLine
 10
135.1864999999999
 20
97.31430000000001
 30
0.0
 11
135.1864999999999
 21
95.7831
 31
0.0
  0
LINE
  5
234
330
1E
100
AcDbEntity
  8
0
100
AcDbLine
 10
135.1864999999999
 20
95.7831
 30
0.0
 11
135.1864999999999
 21
97.31430000000001
 31
0.0
  0
LINE
  5
235
330
1E
100
AcDbEntity
  8
0
100
AcDbLine
 10
134.7864999999999
 20
92.91809999999999
 30
0.0
 11
135.1864999999999
 21
95.7831
 31
0.0
  0
LINE
  5
236
330
1E
100
AcDbEntity
  8
0
100
AcDbLine
 10
134.7864999999999
 20
92.15250000000001
 30
0.0
 11
135.1864999999999
 21
95.01749999999999
 31
0.0
  0
LINE
  5
238
330
1E
100
AcDbEntity
  8
0
100
AcDbLine
 10
129.1865
 20
97.86090000000001
 30
0.0
 11
131.6864999999999
 21
99.53200000000002
 31
0.0
  0
LINE
  5
239
330
1E
100
AcDbEntity
  8
0
100
AcDbLine
 10
117.1864999999999
 20
97.86090000000001
 30
0.0
 11
120.0865
 21
96.7594
 31
0.0
  0
LINE
  5
23B
330
1E
100
AcDbEntity
  8
0
100
AcDbLine
 10
112.7865
 20
101.737
 30
0.0
 11
114.6865
 21
99.53200000000002
 31
0.0
  0
LINE
  5
23C
330
1E
100
AcDbEntity
  8
0
100
AcDbLine
 10
131.6864999999999
 20
99.53200000000002
 30
0.0
 11
133.5865
 21
101.737
 31
0.0
  0
LINE
  5
23F
330
1E
100
AcDbEntity
  8
0
100
AcDbLine
 10
121.1864999999999
 20
307.0
 30
0.0
 11
210.1865
 21
307.0
 31
0.0
  0
LINE
  5
240
330
1E
100
AcDbEntity
  8
0
100
AcDbLine
 10
121.1864999999999
 20
277.0
 30
0.0
 11
150.1865
 21
277.0
 31
0.0
  0
LINE
  5
243
330
1E
100
AcDbEntity
  8
0
100
AcDbLine
 10
121.1864999999999
 20
374.0
 30
0.0
 11
151.1865
 21
374.0
 31
0.0
  0
LINE
  5
244
330
1E
100
AcDbEntity
  8
0
100
AcDbLine
 10
114.6865
 20
99.53200000000002
 30
0.0
 11
117.1864999999999
 21
97.86090000000001
 31
0.0
  0
LINE
  5
247
330
1E
100
AcDbEntity
  8
0
100
AcDbLine
 10
135.1864999999999
 20
101.245789473684
 30
0.0
 11
135.1864999999999
 21
98.4628
 31
0.0
  0
LINE
  5
248
330
1E
100
AcDbEntity
  8
0
100
AcDbLine
 10
135.10632268142
 20
97.88850991134069
 30
0.0
 11
135.1864999999999
 21
97.31430000000001
 31
0.0
  0
LINE
  5
249
330
1E
100
AcDbEntity
  8
0
100
AcDbLine
 10
159.3365
 20
98.5997
 30
0.0
 11
160.3115
 21
94.1636
 31
0.0
  0
LINE
  5
24A
330
1E
100
AcDbEntity
  8
0
100
AcDbLine
 10
133.5865
 20
101.737
 30
0.0
 11
134.7864999999999
 21
104.3129999999999
 31
0.0
  0
LINE
  5
24B
330
1E
100
AcDbEntity
  8
0
100
AcDbLine
 10
135.1864999999999
 20
106.9649999999999
 30
0.0
 11
135.1864999999999
 21
111.327
 31
0.0
  0
LINE
  5
24C
330
1E
100
AcDbEntity
  8
0
100
AcDbLine
 10
134.7864999999999
 20
104.3129999999999
 30
0.0
 11
135.1864999999999
 21
106.9649999999999
 31
0.0
  0
LINE
  5
24D
330
1E
100
AcDbEntity
  8
0
100
AcDbLine
 10
135.1864999999999
 20
111.327
 30
0.0
 11
135.1864999999999
 21
117.1969999999999
 31
0.0
  0
LINE
  5
24E
330
1E
100
AcDbEntity
  8
0
100
AcDbLine
 10
135.1864999999999
 20
111.327
 30
0.0
 11
135.1864999999999
 21
106.9649999999999
 31
0.0
  0
LINE
  5
24F
330
1E
100
AcDbEntity
  8
0
100
AcDbLine
 10
135.1864999999999
 20
117.1969999999999
 30
0.0
 11
135.1864999999999
 21
124.079
 31
0.0
  0
LINE
  5
250
330
1E
100
AcDbEntity
  8
0
100
AcDbLine
 10
135.1864999999999
 20
117.1969999999999
 30
0.0
 11
135.1864999999999
 21
111.327
 31
0.0
  0
LINE
  5
251
330
1E
100
AcDbEntity
  8
0
100
AcDbLine
 10
145.9865
 20
117.1059999999999
 30
0.0
 11
149.6615
 21
114.1259999999999
 31
0.0
  0
LINE
  5
252
330
1E
100
AcDbEntity
  8
0
100
AcDbLine
 10
141.8615
 20
119.6709999999999
 30
0.0
 11
145.9865
 21
117.1059999999999
 31
0.0
  0
LINE
  5
253
330
1E
100
AcDbEntity
  8
0
100
AcDbLine
 10
149.6615
 20
114.1259999999999
 30
0.0
 11
152.8865
 21
110.729
 31
0.0
  0
LINE
  5
254
330
1E
100
AcDbEntity
  8
0
100
AcDbLine
 10
152.8865
 20
110.729
 30
0.0
 11
155.6614999999999
 21
106.9169999999999
 31
0.0
  0
LINE
  5
255
330
1E
100
AcDbEntity
  8
0
100
AcDbLine
 10
155.6614999999999
 20
106.9169999999999
 30
0.0
 11
157.7615
 21
102.898
 31
0.0
  0
LINE
  5
256
330
1E
100
AcDbEntity
  8
0
100
AcDbLine
 10
157.7615
 20
102.898
 30
0.0
 11
159.3365
 21
98.5997
 31
0.0
  0
LINE
  5
257
330
1E
100
AcDbEntity
  8
0
100
AcDbLine
 10
209.2115
 20
109.789
 30
0.0
 11
211.5364999999999
 21
99.32299999999999
 31
0.0
  0
LINE
  5
258
330
1E
100
AcDbEntity
  8
0
100
AcDbLine
 10
135.1864999999999
 20
124.079
 30
0.0
 11
135.1864999999999
 21
131.366
 31
0.0
  0
LINE
  5
259
330
1E
100
AcDbEntity
  8
0
100
AcDbLine
 10
135.1864999999999
 20
124.079
 30
0.0
 11
135.1864999999999
 21
117.1969999999999
 31
0.0
  0
LINE
  5
25A
330
1E
100
AcDbEntity
  8
0
100
AcDbLine
 10
135.1864999999999
 20
131.366
 30
0.0
 11
135.1864999999999
 21
277.0
 31
0.0
  0
LINE
  5
25B
330
1E
100
AcDbEntity
  8
0
100
AcDbLine
 10
135.1864999999999
 20
131.366
 30
0.0
 11
135.1864999999999
 21
124.079
 31
0.0
  0
LINE
  5
25C
330
1E
100
AcDbEntity
  8
0
100
AcDbLine
 10
137.5115
 20
121.6119999999999
 30
0.0
 11
141.8615
 21
119.6709999999999
 31
0.0
  0
LINE
  5
25E
330
1E
100
AcDbEntity
  8
0
100
AcDbLine
 10
193.8365
 20
138.624
 30
0.0
 11
200.5114999999999
 21
129.5439999999999
 31
0.0
  0
LINE
  5
25F
330
1E
100
AcDbEntity
  8
0
100
AcDbLine
 10
200.5114999999999
 20
129.5439999999999
 30
0.0
 11
205.4615
 21
120.0479999999999
 31
0.0
  0
LINE
  5
260
330
1E
100
AcDbEntity
  8
0
100
AcDbLine
 10
135.1864999999999
 20
218.7159999999999
 30
0.0
 11
202.5865
 21
218.7159999999999
 31
0.0
  0
LINE
  5
261
330
1E
100
AcDbEntity
  8
0
100
AcDbLine
 10
135.1864999999999
 20
217.0
 30
0.0
 11
202.5865
 21
217.0
 31
0.0
  0
LINE
  5
262
330
1E
100
AcDbEntity
  8
0
100
AcDbLine
 10
135.1864999999999
 20
223.6
 30
0.0
 11
138.8865
 21
223.6
 31
0.0
  0
LINE
  5
263
330
1E
100
AcDbEntity
  8
0
100
AcDbLine
 10
135.1864999999999
 20
263.0
 30
0.0
 11
138.8865
 21
263.0
 31
0.0
  0
LINE
  5
264
330
1E
100
AcDbEntity
  8
0
100
AcDbLine
 10
135.1864999999999
 20
223.0
 30
0.0
 11
138.3865
 21
223.0
 31
0.0
  0
LINE
  5
265
330
1E
100
AcDbEntity
  8
0
100
AcDbLine
 10
135.1864999999999
 20
277.0
 30
0.0
 11
135.1864999999999
 21
131.366
 31
0.0
  0
LINE
  5
266
330
1E
100
AcDbEntity
  8
0
100
AcDbLine
 10
137.1864999999999
 20
169.725558498896
 30
0.0
 11
146.2115
 21
168.0129999999999
 31
0.0
  0
LINE
  5
267
330
1E
100
AcDbEntity
  8
0
100
AcDbLine
 10
157.3115
 20
164.548
 30
0.0
 11
167.5864999999999
 21
159.9719999999999
 31
0.0
  0
LINE
  5
268
330
1E
100
AcDbEntity
  8
0
100
AcDbLine
 10
146.2115
 20
168.0129999999999
 30
0.0
 11
157.3115
 21
164.548
 31
0.0
  0
LINE
  5
269
330
1E
100
AcDbEntity
  8
0
100
AcDbLine
 10
177.4114999999999
 20
153.804
 30
0.0
 11
186.1864999999999
 21
146.7339999999999
 31
0.0
  0
LINE
  5
26A
330
1E
100
AcDbEntity
  8
0
100
AcDbLine
 10
167.5864999999999
 20
159.9719999999999
 30
0.0
 11
177.4114999999999
 21
153.804
 31
0.0
  0
LINE
  5
26B
330
1E
100
AcDbEntity
  8
0
100
AcDbLine
 10
177.8615
 20
153.976
 30
0.0
 11
186.7115
 21
146.836
 31
0.0
  0
LINE
  5
26C
330
1E
100
AcDbEntity
  8
0
100
AcDbLine
 10
167.9615
 20
160.1449999999999
 30
0.0
 11
177.8615
 21
153.976
 31
0.0
  0
LINE
  5
26D
330
1E
100
AcDbEntity
  8
0
100
AcDbLine
 10
157.5364999999999
 20
164.7889999999999
 30
0.0
 11
167.9615
 21
160.1449999999999
 31
0.0
  0
LINE
  5
26E
330
1E
100
AcDbEntity
  8
0
100
AcDbLine
 10
138.8865
 20
223.6
 30
0.0
 11
142.8865
 21
223.6
 31
0.0
  0
LINE
  5
26F
330
1E
100
AcDbEntity
  8
0
100
AcDbLine
 10
141.1864999999999
 20
264.2740695019929
 30
0.0
 11
141.4035798811069
 21
264.0
 31
0.0
  0
LINE
  5
270
330
1E
100
AcDbEntity
  8
0
100
AcDbLine
 10
141.1864999999999
 20
263.0
 30
0.0
 11
141.1864999999999
 21
277.0
 31
0.0
  0
LINE
  5
271
330
1E
100
AcDbEntity
  8
0
100
AcDbLine
 10
138.8865
 20
263.0
 30
0.0
 11
142.8865
 21
263.0
 31
0.0
  0
LINE
  5
272
330
1E
100
AcDbEntity
  8
0
100
AcDbLine
 10
138.3865
 20
223.0
 30
0.0
 11
142.2864999999999
 21
223.0
 31
0.0
  0
LINE
  5
273
330
1E
100
AcDbEntity
  8
0
100
AcDbLine
 10
141.1864999999999
 20
272.0
 30
0.0
 11
142.2864999999999
 21
272.0
 31
0.0
  0
LINE
  5
274
330
1E
100
AcDbEntity
  8
0
100
AcDbLine
 10
141.1864999999999
 20
277.0
 30
0.0
 11
141.1864999999999
 21
263.0
 31
0.0
  0
LINE
  5
275
330
1E
100
AcDbEntity
  8
0
100
AcDbLine
 10
141.1864999999999
 20
272.6
 30
0.0
 11
142.8865
 21
272.6
 31
0.0
  0
LINE
  5
276
330
1E
100
AcDbEntity
  8
0
100
AcDbLine
 10
144.6865
 20
223.0
 30
0.0
 11
145.5865
 21
223.0
 31
0.0
  0
LINE
  5
277
330
1E
100
AcDbEntity
  8
0
100
AcDbLine
 10
142.8865
 20
223.6
 30
0.0
 11
145.2864999999999
 21
223.6
 31
0.0
  0
LINE
  5
278
330
1E
100
AcDbEntity
  8
0
100
AcDbLine
 10
145.2864999999999
 20
223.6
 30
0.0
 11
146.1864999999999
 21
223.6
 31
0.0
  0
LINE
  5
279
330
1E
100
AcDbEntity
  8
0
100
AcDbLine
 10
145.2864999999999
 20
263.0
 30
0.0
 11
146.1864999999999
 21
263.0
 31
0.0
  0
LINE
  5
27A
330
1E
100
AcDbEntity
  8
0
100
AcDbLine
 10
142.8865
 20
263.0
 30
0.0
 11
145.2864999999999
 21
263.0
 31
0.0
  0
LINE
  5
27B
330
1E
100
AcDbEntity
  8
0
100
AcDbLine
 10
142.2864999999999
 20
223.0
 30
0.0
 11
144.6865
 21
223.0
 31
0.0
  0
LINE
  5
27C
330
1E
100
AcDbEntity
  8
0
100
AcDbLine
 10
146.1864999999999
 20
243.0
 30
0.0
 11
202.5865
 21
243.0
 31
0.0
  0
LINE
  5
27D
330
1E
100
AcDbEntity
  8
0
100
AcDbLine
 10
146.1864999999999
 20
230.0
 30
0.0
 11
202.5865
 21
230.0
 31
0.0
  0
LINE
  5
27E
330
1E
100
AcDbEntity
  8
0
100
AcDbLine
 10
146.1864999999999
 20
257.961427800797
 30
0.0
 11
153.7835
 21
248.37
 31
0.0
  0
LINE
  5
27F
330
1E
100
AcDbEntity
  8
0
100
AcDbLine
 10
146.1864999999999
 20
223.6
 30
0.0
 11
146.1864999999999
 21
263.0
 31
0.0
  0
LINE
  5
280
330
1E
100
AcDbEntity
  8
0
100
AcDbLine
 10
145.5865
 20
223.0
 30
0.0
 11
146.1864999999999
 21
223.6
 31
0.0
  0
LINE
  5
281
330
1E
100
AcDbEntity
  8
0
100
AcDbLine
 10
177.9745
 20
243.9519999999999
 30
0.0
 11
178.782218696398
 21
243.0
 31
0.0
  0
LINE
  5
282
330
1E
100
AcDbEntity
  8
0
100
AcDbLine
 10
179.966081815595
 20
217.0
 30
0.0
 11
191.7624999999999
 21
203.586
 31
0.0
  0
LINE
  5
283
330
1E
100
AcDbEntity
  8
0
100
AcDbLine
 10
166.2065
 20
258.3559999999999
 30
0.0
 11
177.9745
 21
243.9519999999999
 31
0.0
  0
LINE
  5
284
330
1E
100
AcDbEntity
  8
0
100
AcDbLine
 10
153.7835
 20
248.37
 30
0.0
 11
158.170764648709
 21
243.0
 31
0.0
  0
LINE
  5
285
330
1E
100
AcDbEntity
  8
0
100
AcDbLine
 10
146.1864999999999
 20
263.0
 30
0.0
 11
146.1864999999999
 21
264.0
 31
0.0
  0
LINE
  5
286
330
1E
100
AcDbEntity
  8
0
100
AcDbLine
 10
146.1864999999999
 20
263.0
 30
0.0
 11
146.1864999999999
 21
223.6
 31
0.0
  0
LINE
  5
287
330
1E
100
AcDbEntity
  8
0
100
AcDbLine
 10
146.1864999999999
 20
264.0
 30
0.0
 11
146.1864999999999
 21
263.0
 31
0.0
  0
LINE
  5
288
330
1E
100
AcDbEntity
  8
0
100
AcDbLine
 10
145.2864999999999
 20
264.0
 30
0.0
 11
146.1864999999999
 21
264.0
 31
0.0
  0
LINE
  5
289
330
1E
100
AcDbEntity
  8
0
100
AcDbLine
 10
142.2864999999999
 20
272.0
 30
0.0
 11
144.6865
 21
272.0
 31
0.0
  0
LINE
  5
28A
330
1E
100
AcDbEntity
  8
0
100
AcDbLine
 10
161.9735
 20
270.074
 30
0.0
 11
162.2725
 21
270.087
 31
0.0
  0
LINE
  5
28B
330
1E
100
AcDbEntity
  8
0
100
AcDbLine
 10
161.9735
 20
270.074
 30
0.0
 11
162.2725
 21
270.087
 31
0.0
  0
LINE
  5
28C
330
1E
100
AcDbEntity
  8
0
100
AcDbLine
 10
163.4714999999999
 20
270.1409999999999
 30
0.0
 11
163.527302047776
 21
270.143604095563
 31
0.0
  0
LINE
  5
28D
330
1E
100
AcDbEntity
  8
0
100
AcDbLine
 10
163.4714999999999
 20
270.1409999999999
 30
0.0
 11
163.52730204775
 21
270.1436040955619
 31
0.0
  0
LINE
  5
28E
330
1E
100
AcDbEntity
  8
0
100
AcDbLine
 10
163.5273020477439
 20
270.1436040955609
 30
0.0
 11
164.7705
 21
270.1999999999999
 31
0.0
  0
LINE
  5
28F
330
1E
100
AcDbEntity
  8
0
100
AcDbLine
 10
163.4714999999999
 20
270.1409999999999
 30
0.0
 11
163.52730204775
 21
270.1436040955619
 31
0.0
  0
LINE
  5
290
330
1E
100
AcDbEntity
  8
0
100
AcDbLine
 10
163.2715
 20
270.1319999999999
 30
0.0
 11
163.4716055791199
 21
270.1410775045899
 31
0.0
  0
LINE
  5
291
330
1E
100
AcDbEntity
  8
0
100
AcDbLine
 10
163.2715
 20
270.1319999999999
 30
0.0
 11
164.7705
 21
270.1999999999999
 31
0.0
  0
LINE
  5
292
330
1E
100
AcDbEntity
  8
0
100
AcDbLine
 10
164.7705
 20
270.1999999999999
 30
0.0
 11
166.7684999999999
 21
270.29
 31
0.0
  0
LINE
  5
293
330
1E
100
AcDbEntity
  8
0
100
AcDbLine
 10
164.7705
 20
270.1999999999999
 30
0.0
 11
166.7684999999999
 21
270.29
 31
0.0
  0
LINE
  5
294
330
1E
100
AcDbEntity
  8
0
100
AcDbLine
 10
169.3654999999999
 20
270.4069999999999
 30
0.0
 11
171.4635
 21
270.502
 31
0.0
  0
LINE
  5
295
330
1E
100
AcDbEntity
  8
0
100
AcDbLine
 10
169.3654999999999
 20
270.4069999999999
 30
0.0
 11
171.4635
 21
270.502
 31
0.0
  0
LINE
  5
296
330
1E
100
AcDbEntity
  8
0
100
AcDbLine
 10
169.0664999999999
 20
270.394
 30
0.0
 11
171.4635
 21
270.502
 31
0.0
  0
LINE
  5
297
330
1E
100
AcDbEntity
  8
0
100
AcDbLine
 10
166.7684999999999
 20
270.29
 30
0.0
 11
169.0664999999999
 21
270.394
 31
0.0
  0
LINE
  5
298
330
1E
100
AcDbEntity
  8
0
100
AcDbLine
 10
171.4635
 20
270.502
 30
0.0
 11
171.6635
 21
270.5109999999999
 31
0.0
  0
LINE
  5
299
330
1E
100
AcDbEntity
  8
0
100
AcDbLine
 10
171.668107508535
 20
270.511215017065
 30
0.0
 11
173.8615
 21
270.61
 31
0.0
  0
LINE
  5
29A
330
1E
100
AcDbEntity
  8
0
100
AcDbLine
 10
171.6681075085579
 20
270.5112150170659
 30
0.0
 11
173.8615
 21
270.61
 31
0.0
  0
LINE
  5
29B
330
1E
100
AcDbEntity
  8
0
100
AcDbLine
 10
171.6681075085579
 20
270.5112150170659
 30
0.0
 11
173.8615
 21
270.61
 31
0.0
  0
LINE
  5
29C
330
1E
100
AcDbEntity
  8
0
100
AcDbLine
 10
171.6681075085589
 20
270.5112150170659
 30
0.0
 11
173.8615
 21
270.61
 31
0.0
  0
LINE
  5
29D
330
1E
100
AcDbEntity
  8
0
100
AcDbLine
 10
173.8615
 20
270.61
 30
0.0
 11
176.1585
 21
270.7139999999999
 31
0.0
  0
LINE
  5
29E
330
1E
100
AcDbEntity
  8
0
100
AcDbLine
 10
173.8615
 20
270.61
 30
0.0
 11
176.1585
 21
270.7139999999999
 31
0.0
  0
LINE
  5
29F
330
1E
100
AcDbEntity
  8
0
100
AcDbLine
 10
171.4635
 20
270.502
 30
0.0
 11
173.8615
 21
270.61
 31
0.0
  0
LINE
  5
2A0
330
1E
100
AcDbEntity
  8
0
100
AcDbLine
 10
171.4635
 20
270.502
 30
0.0
 11
171.6635
 21
270.5109999999999
 31
0.0
  0
LINE
  5
2A1
330
1E
100
AcDbEntity
  8
0
100
AcDbLine
 10
176.1585
 20
270.7139999999999
 30
0.0
 11
178.1565
 21
270.804
 31
0.0
  0
LINE
  5
2A2
330
1E
100
AcDbEntity
  8
0
100
AcDbLine
 10
173.8615
 20
270.61
 30
0.0
 11
176.1585
 21
270.7139999999999
 31
0.0
  0
LINE
  5
2A3
330
1E
100
AcDbEntity
  8
0
100
AcDbLine
 10
178.1565
 20
270.804
 30
0.0
 11
178.2546359712229
 21
270.808451798561
 31
0.0
  0
LINE
  5
2A4
330
1E
100
AcDbEntity
  8
0
100
AcDbLine
 10
176.1585
 20
270.7139999999999
 30
0.0
 11
178.1565
 21
270.804
 31
0.0
  0
LINE
  5
2A5
330
1E
100
AcDbEntity
  8
0
100
AcDbLine
 10
176.1585
 20
270.7139999999999
 30
0.0
 11
178.1565
 21
270.804
 31
0.0
  0
LINE
  5
2A6
330
1E
100
AcDbEntity
  8
0
100
AcDbLine
 10
169.3654999999999
 20
270.4069999999999
 30
0.0
 11
171.4635
 21
270.502
 31
0.0
  0
LINE
  5
2A7
330
1E
100
AcDbEntity
  8
0
100
AcDbLine
 10
164.7705
 20
270.1999999999999
 30
0.0
 11
166.7684999999999
 21
270.29
 31
0.0
  0
LINE
  5
2A8
330
1E
100
AcDbEntity
  8
0
100
AcDbLine
 10
163.52730204775
 20
270.1436040955619
 30
0.0
 11
164.7705
 21
270.1999999999999
 31
0.0
  0
LINE
  5
2A9
330
1E
100
AcDbEntity
  8
0
100
AcDbLine
 10
162.2725
 20
270.087
 30
0.0
 11
163.2715
 21
270.1319999999999
 31
0.0
  0
LINE
  5
2AA
330
1E
100
AcDbEntity
  8
0
100
AcDbLine
 10
178.254635971165
 20
270.808451798559
 30
0.0
 11
178.3565
 21
270.813
 31
0.0
  0
LINE
  5
2AB
330
1E
100
AcDbEntity
  8
0
100
AcDbLine
 10
178.254635971169
 20
270.808451798559
 30
0.0
 11
178.3565
 21
270.813
 31
0.0
  0
LINE
  5
2AC
330
1E
100
AcDbEntity
  8
0
100
AcDbLine
 10
178.254635971165
 20
270.808451798559
 30
0.0
 11
178.3565
 21
270.813
 31
0.0
  0
LINE
  5
2AD
330
1E
100
AcDbEntity
  8
0
100
AcDbLine
 10
178.1565
 20
270.804
 30
0.0
 11
178.254635971165
 21
270.808451798559
 31
0.0
  0
LINE
  5
2AE
330
1E
100
AcDbEntity
  8
0
100
AcDbLine
 10
178.1565
 20
270.804
 30
0.0
 11
179.6554999999999
 21
270.872
 31
0.0
  0
LINE
  5
2AF
330
1E
100
AcDbEntity
  8
0
100
AcDbLine
 10
180.6545
 20
270.917
 30
0.0
 11
180.9534999999999
 21
270.9309999999999
 31
0.0
  0
LINE
  5
2B0
330
1E
100
AcDbEntity
  8
0
100
AcDbLine
 10
179.6554999999999
 20
270.872
 30
0.0
 11
180.6545
 21
270.917
 31
0.0
  0
LINE
  5
2B1
330
1E
100
AcDbEntity
  8
0
100
AcDbLine
 10
180.9534999999999
 20
270.9309999999999
 30
0.0
 11
182.7264999999999
 21
276.0159999999999
 31
0.0
  0
LINE
  5
2B2
330
1E
100
AcDbEntity
  8
0
100
AcDbLine
 10
180.6545
 20
270.917
 30
0.0
 11
180.9534999999999
 21
270.9309999999999
 31
0.0
  0
LINE
  5
2B3
330
1E
100
AcDbEntity
  8
0
100
AcDbLine
 10
178.433503536733
 20
270.816565870913
 30
0.0
 11
179.6554999999999
 21
270.872
 31
0.0
  0
LINE
  5
2B4
330
1E
100
AcDbEntity
  8
0
100
AcDbLine
 10
180.9534999999999
 20
270.9309999999999
 30
0.0
 11
182.7264999999999
 21
276.0159999999999
 31
0.0
  0
LINE
  5
2B5
330
1E
100
AcDbEntity
  8
0
100
AcDbLine
 10
146.1864999999999
 20
272.6
 30
0.0
 11
146.1864999999999
 21
276.8341034482759
 31
0.0
  0
LINE
  5
2B6
330
1E
100
AcDbEntity
  8
0
100
AcDbLine
 10
145.5865
 20
272.0
 30
0.0
 11
146.1864999999999
 21
272.6
 31
0.0
  0
LINE
  5
2B7
330
1E
100
AcDbEntity
  8
0
100
AcDbLine
 10
144.6865
 20
272.0
 30
0.0
 11
145.5865
 21
272.0
 31
0.0
  0
LINE
  5
2B8
330
1E
100
AcDbEntity
  8
0
100
AcDbLine
 10
146.1864999999999
 20
276.8341034482759
 30
0.0
 11
147.1945
 21
275.913
 31
0.0
  0
LINE
  5
2B9
330
1E
100
AcDbEntity
  8
0
100
AcDbLine
 10
146.1864999999999
 20
277.0
 30
0.0
 11
149.0954999999999
 21
277.0
 31
0.0
  0
LINE
  5
2BA
330
1E
100
AcDbEntity
  8
0
100
AcDbLine
 10
146.1505
 20
276.867
 30
0.0
 11
147.1945
 21
275.913
 31
0.0
  0
LINE
  5
2BB
330
1E
100
AcDbEntity
  8
0
100
AcDbLine
 10
146.1505
 20
276.867
 30
0.0
 11
147.0494999999999
 21
276.9069999999999
 31
0.0
  0
LINE
  5
2BC
330
1E
100
AcDbEntity
  8
0
100
AcDbLine
 10
146.1864999999999
 20
276.8686017797549
 30
0.0
 11
146.1864999999999
 21
277.0
 31
0.0
  0
LINE
  5
2BD
330
1E
100
AcDbEntity
  8
0
100
AcDbLine
 10
146.1864999999999
 20
276.8686017797549
 30
0.0
 11
147.0494999999999
 21
276.9069999999999
 31
0.0
  0
LINE
  5
2BE
330
1E
100
AcDbEntity
  8
0
100
AcDbLine
 10
146.1864999999999
 20
276.8341034482759
 30
0.0
 11
146.1864999999999
 21
272.6
 31
0.0
  0
LINE
  5
2BF
330
1E
100
AcDbEntity
  8
0
100
AcDbLine
 10
146.1864999999999
 20
276.8341034482759
 30
0.0
 11
147.1945
 21
275.913
 31
0.0
  0
LINE
  5
2C0
330
1E
100
AcDbEntity
  8
0
100
AcDbLine
 10
147.1945
 20
275.913
 30
0.0
 11
156.2084999999999
 21
275.819
 31
0.0
  0
LINE
  5
2C1
330
1E
100
AcDbEntity
  8
0
100
AcDbLine
 10
147.1945
 20
275.913
 30
0.0
 11
156.2084999999999
 21
275.819
 31
0.0
  0
LINE
  5
2C3
330
1E
100
AcDbEntity
  8
0
100
AcDbLine
 10
150.1865
 20
277.0
 30
0.0
 11
171.1864999999999
 21
278.0
 31
0.0
  0
LINE
  5
2C4
330
1E
100
AcDbEntity
  8
0
100
AcDbLine
 10
151.1865
 20
307.0
 30
0.0
 11
151.1865
 21
309.0
 31
0.0
  0
LINE
  5
2C5
330
1E
100
AcDbEntity
  8
0
100
AcDbLine
 10
151.1865
 20
374.0
 30
0.0
 11
151.1865
 21
372.0
 31
0.0
  0
LINE
  5
2C6
330
1E
100
AcDbEntity
  8
0
100
AcDbLine
 10
151.1865
 20
374.0
 30
0.0
 11
239.1865
 21
374.0
 31
0.0
  0
LINE
  5
2C7
330
1E
100
AcDbEntity
  8
0
100
AcDbLine
 10
151.1865
 20
309.0
 30
0.0
 11
151.1865
 21
307.0
 31
0.0
  0
LINE
  5
2C9
330
1E
100
AcDbEntity
  8
0
100
AcDbLine
 10
151.1865
 20
309.0
 30
0.0
 11
151.1865
 21
372.0
 31
0.0
  0
LINE
  5
2CA
330
1E
100
AcDbEntity
  8
0
100
AcDbLine
 10
151.1865
 20
372.0
 30
0.0
 11
151.1865
 21
309.0
 31
0.0
  0
LINE
  5
2CB
330
1E
100
AcDbEntity
  8
0
100
AcDbLine
 10
151.1865
 20
372.0
 30
0.0
 11
151.1865
 21
374.0
 31
0.0
  0
LINE
  5
2CD
330
1E
100
AcDbEntity
  8
0
100
AcDbLine
 10
150.3915
 20
276.057
 30
0.0
 11
154.2874999999999
 21
276.2329999999999
 31
0.0
  0
LINE
  5
2CE
330
1E
100
AcDbEntity
  8
0
100
AcDbLine
 10
148.0935
 20
275.9529999999999
 30
0.0
 11
150.3915
 21
276.057
 31
0.0
  0
LINE
  5
2CF
330
1E
100
AcDbEntity
  8
0
100
AcDbLine
 10
147.0494999999999
 20
276.9069999999999
 30
0.0
 11
149.0955000000009
 21
277.0
 31
0.0
  0
LINE
  5
2D0
330
1E
100
AcDbEntity
  8
0
100
AcDbLine
 10
147.1945
 20
275.913
 30
0.0
 11
156.2084999999999
 21
275.819
 31
0.0
  0
LINE
  5
2D1
330
1E
100
AcDbEntity
  8
0
100
AcDbLine
 10
147.1945
 20
275.913
 30
0.0
 11
148.0935
 21
275.9529999999999
 31
0.0
  0
LINE
  5
2D2
330
1E
100
AcDbEntity
  8
0
100
AcDbLine
 10
159.7495
 20
274.978
 30
0.0
 11
161.9735
 21
270.074
 31
0.0
  0
LINE
  5
2D3
330
1E
100
AcDbEntity
  8
0
100
AcDbLine
 10
168.2414999999999
 20
275.362
 30
0.0
 11
171.2375
 21
275.497
 31
0.0
  0
LINE
  5
2D4
330
1E
100
AcDbEntity
  8
0
100
AcDbLine
 10
165.5434999999999
 20
275.24
 30
0.0
 11
168.2414999999999
 21
275.362
 31
0.0
  0
LINE
  5
2D5
330
1E
100
AcDbEntity
  8
0
100
AcDbLine
 10
163.1465
 20
275.132
 30
0.0
 11
165.5434999999999
 21
275.24
 31
0.0
  0
LINE
  5
2D6
330
1E
100
AcDbEntity
  8
0
100
AcDbLine
 10
161.2485
 20
275.0459999999999
 30
0.0
 11
163.1465
 21
275.132
 31
0.0
  0
LINE
  5
2D7
330
1E
100
AcDbEntity
  8
0
100
AcDbLine
 10
160.1494999999999
 20
274.9959999999999
 30
0.0
 11
161.2485
 21
275.0459999999999
 31
0.0
  0
LINE
  5
2D8
330
1E
100
AcDbEntity
  8
0
100
AcDbLine
 10
159.7495
 20
274.978
 30
0.0
 11
160.1494999999999
 21
274.9959999999999
 31
0.0
  0
LINE
  5
2D9
330
1E
100
AcDbEntity
  8
0
100
AcDbLine
 10
159.7495
 20
274.978
 30
0.0
 11
161.9735
 21
270.074
 31
0.0
  0
LINE
  5
2DA
330
1E
100
AcDbEntity
  8
0
100
AcDbLine
 10
159.7495
 20
274.978
 30
0.0
 11
161.9735
 21
270.074
 31
0.0
  0
LINE
  5
2DB
330
1E
100
AcDbEntity
  8
0
100
AcDbLine
 10
171.2375
 20
275.497
 30
0.0
 11
174.2345
 21
275.632
 31
0.0
  0
LINE
  5
2DC
330
1E
100
AcDbEntity
  8
0
100
AcDbLine
 10
156.2084999999999
 20
275.819
 30
0.0
 11
156.7075
 21
275.842
 31
0.0
  0
LINE
  5
2DD
330
1E
100
AcDbEntity
  8
0
100
AcDbLine
 10
156.2084999999999
 20
275.819
 30
0.0
 11
156.7075
 21
275.842
 31
0.0
  0
LINE
  5
2DE
330
1E
100
AcDbEntity
  8
0
100
AcDbLine
 10
174.2345
 20
275.632
 30
0.0
 11
176.9325
 21
275.754
 31
0.0
  0
LINE
  5
2DF
330
1E
100
AcDbEntity
  8
0
100
AcDbLine
 10
176.9325
 20
275.754
 30
0.0
 11
179.3295
 21
275.862
 31
0.0
  0
LINE
  5
2E0
330
1E
100
AcDbEntity
  8
0
100
AcDbLine
 10
156.7075
 20
275.842
 30
0.0
 11
158.2065
 21
275.91
 31
0.0
  0
LINE
  5
2E1
330
1E
100
AcDbEntity
  8
0
100
AcDbLine
 10
156.7075
 20
275.842
 30
0.0
 11
158.2065
 21
275.91
 31
0.0
  0
LINE
  5
2E2
330
1E
100
AcDbEntity
  8
0
100
AcDbLine
 10
158.2065
 20
275.91
 30
0.0
 11
159.704532594834
 21
275.9774958365629
 31
0.0
  0
LINE
  5
2E3
330
1E
100
AcDbEntity
  8
0
100
AcDbLine
 10
158.2065
 20
275.91
 30
0.0
 11
159.704532594834
 21
275.9774958365629
 31
0.0
  0
LINE
  5
2E4
330
1E
100
AcDbEntity
  8
0
100
AcDbLine
 10
156.7075
 20
275.842
 30
0.0
 11
158.2065
 21
275.91
 31
0.0
  0
LINE
  5
2E5
330
1E
100
AcDbEntity
  8
0
100
AcDbLine
 10
154.2874999999999
 20
276.2329999999999
 30
0.0
 11
159.2824999999999
 21
276.459
 31
0.0
  0
LINE
  5
2E6
330
1E
100
AcDbEntity
  8
0
100
AcDbLine
 10
159.7045
 20
275.977
 30
0.0
 11
159.7495
 21
274.978
 31
0.0
  0
LINE
  5
2E7
330
1E
100
AcDbEntity
  8
0
100
AcDbLine
 10
159.7045
 20
275.977
 30
0.0
 11
159.7495
 21
274.978
 31
0.0
  0
LINE
  5
2E8
330
1E
100
AcDbEntity
  8
0
100
AcDbLine
 10
179.3295
 20
275.862
 30
0.0
 11
181.2274999999999
 21
275.9479999999999
 31
0.0
  0
LINE
  5
2E9
330
1E
100
AcDbEntity
  8
0
100
AcDbLine
 10
181.2274999999999
 20
275.9479999999999
 30
0.0
 11
182.3265
 21
275.998
 31
0.0
  0
LINE
  5
2EA
330
1E
100
AcDbEntity
  8
0
100
AcDbLine
 10
167.2965
 20
276.3199999999999
 30
0.0
 11
171.1924999999999
 21
276.4959999999999
 31
0.0
  0
LINE
  5
2EB
330
1E
100
AcDbEntity
  8
0
100
AcDbLine
 10
163.7005
 20
276.158
 30
0.0
 11
167.2965
 21
276.3199999999999
 31
0.0
  0
LINE
  5
2EC
330
1E
100
AcDbEntity
  8
0
100
AcDbLine
 10
160.6035
 20
276.0179999999999
 30
0.0
 11
163.7005
 21
276.158
 31
0.0
  0
LINE
  5
2ED
330
1E
100
AcDbEntity
  8
0
100
AcDbLine
 10
164.9764999999999
 20
276.716
 30
0.0
 11
171.1705
 21
276.9959999999999
 31
0.0
  0
LINE
  5
2EE
330
1E
100
AcDbEntity
  8
0
100
AcDbLine
 10
159.2824999999999
 20
276.459
 30
0.0
 11
164.9764999999999
 21
276.716
 31
0.0
  0
LINE
  5
2EF
330
1E
100
AcDbEntity
  8
0
100
AcDbLine
 10
171.1924999999999
 20
276.4959999999999
 30
0.0
 11
175.0885
 21
276.672
 31
0.0
  0
LINE
  5
2F0
330
1E
100
AcDbEntity
  8
0
100
AcDbLine
 10
175.0885
 20
276.672
 30
0.0
 11
178.6854999999999
 21
276.834
 31
0.0
  0
LINE
  5
2F1
330
1E
100
AcDbEntity
  8
0
100
AcDbLine
 10
182.3265
 20
275.998
 30
0.0
 11
182.7264999999999
 21
276.0159999999999
 31
0.0
  0
LINE
  5
2F2
330
1E
100
AcDbEntity
  8
0
100
AcDbLine
 10
178.6854999999999
 20
276.834
 30
0.0
 11
181.7825
 21
276.974
 31
0.0
  0
LINE
  5
2F3
330
1E
100
AcDbEntity
  8
0
100
AcDbLine
 10
181.7825
 20
276.974
 30
0.0
 11
184.1794999999999
 21
277.0829999999999
 31
0.0
  0
LINE
  5
2F4
330
1E
100
AcDbEntity
  8
0
100
AcDbLine
 10
171.1705
 20
276.9959999999999
 30
0.0
 11
177.3644999999999
 21
277.2749999999999
 31
0.0
  0
LINE
  5
2F5
330
1E
100
AcDbEntity
  8
0
100
AcDbLine
 10
159.7045
 20
275.977
 30
0.0
 11
159.7495
 21
274.978
 31
0.0
  0
LINE
  5
2F6
330
1E
100
AcDbEntity
  8
0
100
AcDbLine
 10
158.2065
 20
275.91
 30
0.0
 11
159.704532594834
 21
275.9774958365629
 31
0.0
  0
LINE
  5
2F7
330
1E
100
AcDbEntity
  8
0
100
AcDbLine
 10
158.2065
 20
275.91
 30
0.0
 11
160.6035
 21
276.0179999999999
 31
0.0
  0
LINE
  5
2F8
330
1E
100
AcDbEntity
  8
0
100
AcDbLine
 10
156.2084999999999
 20
275.819
 30
0.0
 11
156.7075
 21
275.842
 31
0.0
  0
LINE
  5
2F9
330
1E
100
AcDbEntity
  8
0
100
AcDbLine
 10
184.1794999999999
 20
277.0829999999999
 30
0.0
 11
185.6785
 21
277.1499999999999
 31
0.0
  0
LINE
  5
2FA
330
1E
100
AcDbEntity
  8
0
100
AcDbLine
 10
182.6815053636
 20
277.01488092809
 30
0.0
 11
184.1794999999999
 21
277.0829999999999
 31
0.0
  0
LINE
  5
2FB
330
1E
100
AcDbEntity
  8
0
100
AcDbLine
 10
182.6815053636
 20
277.01488092809
 30
0.0
 11
182.7264999999999
 21
276.0159999999999
 31
0.0
  0
LINE
  5
2FC
330
1E
100
AcDbEntity
  8
0
100
AcDbLine
 10
182.6815053636
 20
277.01488092809
 30
0.0
 11
184.1794999999999
 21
277.0829999999999
 31
0.0
  0
LINE
  5
2FD
330
1E
100
AcDbEntity
  8
0
100
AcDbLine
 10
177.3644999999999
 20
277.2749999999999
 30
0.0
 11
183.0585
 21
277.5319999999999
 31
0.0
  0
LINE
  5
2FE
330
1E
100
AcDbEntity
  8
0
100
AcDbLine
 10
170.259850769199
 20
277.9558738461519
 30
0.0
 11
171.1254999999999
 21
277.9949999999999
 31
0.0
  0
LINE
  5
2FF
330
1E
100
AcDbEntity
  8
0
100
AcDbLine
 10
171.1864999999999
 20
278.0
 30
0.0
 11
192.1865
 21
279.0
 31
0.0
  0
LINE
  5
300
330
1E
100
AcDbEntity
  8
0
100
AcDbLine
 10
171.1254999999999
 20
277.9949999999999
 30
0.0
 11
177.5185
 21
278.283
 31
0.0
  0
LINE
  5
302
330
1E
100
AcDbEntity
  8
0
100
AcDbLine
 10
177.5185
 20
278.283
 30
0.0
 11
183.5124999999999
 21
278.554
 31
0.0
  0
LINE
  5
303
330
1E
100
AcDbEntity
  8
0
100
AcDbLine
 10
183.5124999999999
 20
278.554
 30
0.0
 11
188.8075
 21
278.793
 31
0.0
  0
LINE
  5
304
330
1E
100
AcDbEntity
  8
0
100
AcDbLine
 10
183.0585
 20
277.5319999999999
 30
0.0
 11
188.0535
 21
277.7579999999999
 31
0.0
  0
LINE
  5
305
330
1E
100
AcDbEntity
  8
0
100
AcDbLine
 10
184.228678187737
 20
278.621056104178
 30
0.0
 11
192.1865
 21
279.0
 31
0.0
  0
LINE
  5
306
330
1E
100
AcDbEntity
  8
0
100
AcDbLine
 10
184.1794999999999
 20
277.0829999999999
 30
0.0
 11
185.6785
 21
277.1499999999999
 31
0.0
  0
LINE
  5
307
330
1E
100
AcDbEntity
  8
0
100
AcDbLine
 10
152.384954353643
 20
275.8588727857509
 30
0.0
 11
153.4155
 21
274.5049999999999
 31
0.0
  0
LINE
  5
308
330
1E
100
AcDbEntity
  8
0
100
AcDbLine
 10
153.4155
 20
274.5049999999999
 30
0.0
 11
166.2065
 21
258.3559999999999
 31
0.0
  0
LINE
  5
309
330
1E
100
AcDbEntity
  8
0
100
AcDbLine
 10
146.1864999999999
 20
277.0
 30
0.0
 11
146.1864999999999
 21
276.8686017797549
 31
0.0
  0
LINE
  5
30A
330
1E
100
AcDbEntity
  8
0
100
AcDbLine
 10
145.2864999999999
 20
272.6
 30
0.0
 11
146.1864999999999
 21
272.6
 31
0.0
  0
LINE
  5
30B
330
1E
100
AcDbEntity
  8
0
100
AcDbLine
 10
142.8865
 20
272.6
 30
0.0
 11
145.2864999999999
 21
272.6
 31
0.0
  0
LINE
  5
30C
330
1E
100
AcDbEntity
  8
0
100
AcDbLine
 10
142.8865
 20
264.0
 30
0.0
 11
145.2864999999999
 21
264.0
 31
0.0
  0
LINE
  5
30D
330
1E
100
AcDbEntity
  8
0
100
AcDbLine
 10
141.1864999999999
 20
264.0
 30
0.0
 11
142.8865
 21
264.0
 31
0.0
  0
LINE
  5
30E
330
1E
100
AcDbEntity
  8
0
100
AcDbLine
 10
146.4364999999999
 20
168.3229999999999
 30
0.0
 11
157.5364999999999
 21
164.7889999999999
 31
0.0
  0
LINE
  5
30F
330
1E
100
AcDbEntity
  8
0
100
AcDbLine
 10
137.1864999999999
 20
170.044060606061
 30
0.0
 11
146.4364999999999
 21
168.3229999999999
 31
0.0
  0
LINE
  5
310
330
1E
100
AcDbEntity
  8
0
100
AcDbLine
 10
186.1864999999999
 20
146.7339999999999
 30
0.0
 11
193.8365
 21
138.624
 31
0.0
  0
LINE
  5
311
330
1E
100
AcDbEntity
  8
0
100
AcDbLine
 10
185.6785
 20
277.1499999999999
 30
0.0
 11
186.1775
 21
277.173
 31
0.0
  0
LINE
  5
312
330
1E
100
AcDbEntity
  8
0
100
AcDbLine
 10
186.1775
 20
277.173
 30
0.0
 11
195.1454999999999
 21
278.0779999999999
 31
0.0
  0
LINE
  5
313
330
1E
100
AcDbEntity
  8
0
100
AcDbLine
 10
185.6785
 20
277.1499999999999
 30
0.0
 11
186.1775
 21
277.173
 31
0.0
  0
LINE
  5
314
330
1E
100
AcDbEntity
  8
0
100
AcDbLine
 10
185.6785
 20
277.1499999999999
 30
0.0
 11
186.1775
 21
277.173
 31
0.0
  0
LINE
  5
315
330
1E
100
AcDbEntity
  8
0
100
AcDbLine
 10
188.0535
 20
277.7579999999999
 30
0.0
 11
191.9494999999999
 21
277.934
 31
0.0
  0
LINE
  5
316
330
1E
100
AcDbEntity
  8
0
100
AcDbLine
 10
191.9494999999999
 20
277.934
 30
0.0
 11
194.2465
 21
278.038
 31
0.0
  0
LINE
  5
317
330
1E
100
AcDbEntity
  8
0
100
AcDbLine
 10
195.1454999999999
 20
278.0779999999999
 30
0.0
 11
196.0995
 21
279.122
 31
0.0
  0
LINE
  5
318
330
1E
100
AcDbEntity
  8
0
100
AcDbLine
 10
195.1454999999999
 20
278.0779999999999
 30
0.0
 11
196.0995
 21
279.122
 31
0.0
  0
LINE
  5
319
330
1E
100
AcDbEntity
  8
0
100
AcDbLine
 10
194.2465
 20
278.038
 30
0.0
 11
195.1454999999999
 21
278.0779999999999
 31
0.0
  0
LINE
  5
31A
330
1E
100
AcDbEntity
  8
0
100
AcDbLine
 10
186.1775
 20
277.173
 30
0.0
 11
195.1454999999999
 21
278.0779999999999
 31
0.0
  0
LINE
  5
31B
330
1E
100
AcDbEntity
  8
0
100
AcDbLine
 10
192.1865
 20
279.0
 30
0.0
 11
203.1864999999999
 21
279.6111111111109
 31
0.0
  0
LINE
  5
31D
330
1E
100
AcDbEntity
  8
0
100
AcDbLine
 10
192.1865
 20
279.0
 30
0.0
 11
210.1865
 21
280.0
 31
0.0
  0
LINE
  5
31E
330
1E
100
AcDbEntity
  8
0
100
AcDbLine
 10
188.8075
 20
278.793
 30
0.0
 11
192.8035
 21
278.974
 31
0.0
  0
LINE
  5
31F
330
1E
100
AcDbEntity
  8
0
100
AcDbLine
 10
192.8035
 20
278.974
 30
0.0
 11
195.2004999999999
 21
279.082
 31
0.0
  0
LINE
  5
320
330
1E
100
AcDbEntity
  8
0
100
AcDbLine
 10
195.1454999999999
 20
278.0779999999999
 30
0.0
 11
196.0995
 21
279.122
 31
0.0
  0
LINE
  5
321
330
1E
100
AcDbEntity
  8
0
100
AcDbLine
 10
195.2004999999999
 20
279.082
 30
0.0
 11
196.0995
 21
279.122
 31
0.0
  0
LINE
  5
322
330
1E
100
AcDbEntity
  8
0
100
AcDbLine
 10
191.7624999999999
 20
203.586
 30
0.0
 11
204.7804999999999
 21
189.672
 31
0.0
  0
LINE
  5
323
330
1E
100
AcDbEntity
  8
0
100
AcDbLine
 10
186.7115
 20
146.836
 30
0.0
 11
194.4364999999999
 21
138.6569999999999
 31
0.0
  0
LINE
  5
324
330
1E
100
AcDbEntity
  8
0
100
AcDbLine
 10
194.4364999999999
 20
138.6569999999999
 30
0.0
 11
201.1115
 21
129.507
 31
0.0
  0
LINE
  5
325
330
1E
100
AcDbEntity
  8
0
100
AcDbLine
 10
202.5865
 20
217.0
 30
0.0
 11
203.1864999999999
 21
217.312
 31
0.0
  0
LINE
  5
326
330
1E
100
AcDbEntity
  8
0
100
AcDbLine
 10
203.7865
 20
217.0
 30
0.0
 11
207.1864999999999
 21
217.0
 31
0.0
  0
LINE
  5
327
330
1E
100
AcDbEntity
  8
0
100
AcDbLine
 10
204.1854999999999
 20
213.572
 30
0.0
 11
217.2035
 21
199.6579999999999
 31
0.0
  0
LINE
  5
328
330
1E
100
AcDbEntity
  8
0
100
AcDbLine
 10
202.5865
 20
218.7159999999999
 30
0.0
 11
203.1864999999999
 21
219.028
 31
0.0
  0
LINE
  5
329
330
1E
100
AcDbEntity
  8
0
100
AcDbLine
 10
203.1864999999999
 20
217.7799999999999
 30
0.0
 11
203.1864999999999
 21
217.312
 31
0.0
  0
LINE
  5
32A
330
1E
100
AcDbEntity
  8
0
100
AcDbLine
 10
203.1864999999999
 20
217.7799999999999
 30
0.0
 11
203.1864999999999
 21
219.028
 31
0.0
  0
LINE
  5
32B
330
1E
100
AcDbEntity
  8
0
100
AcDbLine
 10
203.1864999999999
 20
219.028
 30
0.0
 11
203.1864999999999
 21
221.056
 31
0.0
  0
LINE
  5
32C
330
1E
100
AcDbEntity
  8
0
100
AcDbLine
 10
203.1864999999999
 20
219.028
 30
0.0
 11
203.7865
 21
218.7159999999999
 31
0.0
  0
LINE
  5
32D
330
1E
100
AcDbEntity
  8
0
100
AcDbLine
 10
203.1864999999999
 20
219.028
 30
0.0
 11
203.1864999999999
 21
217.7799999999999
 31
0.0
  0
LINE
  5
32E
330
1E
100
AcDbEntity
  8
0
100
AcDbLine
 10
203.1864999999999
 20
221.056
 30
0.0
 11
203.1864999999999
 21
223.708
 31
0.0
  0
LINE
  5
32F
330
1E
100
AcDbEntity
  8
0
100
AcDbLine
 10
203.1864999999999
 20
221.056
 30
0.0
 11
203.1864999999999
 21
219.028
 31
0.0
  0
LINE
  5
330
330
1E
100
AcDbEntity
  8
0
100
AcDbLine
 10
203.1864999999999
 20
223.708
 30
0.0
 11
203.1864999999999
 21
226.724
 31
0.0
  0
LINE
  5
331
330
1E
100
AcDbEntity
  8
0
100
AcDbLine
 10
203.1864999999999
 20
223.708
 30
0.0
 11
203.1864999999999
 21
221.056
 31
0.0
  0
LINE
  5
332
330
1E
100
AcDbEntity
  8
0
100
AcDbLine
 10
203.1864999999999
 20
242.22
 30
0.0
 11
203.1864999999999
 21
242.688
 31
0.0
  0
LINE
  5
333
330
1E
100
AcDbEntity
  8
0
100
AcDbLine
 10
202.5865
 20
243.0
 30
0.0
 11
203.1864999999999
 21
242.688
 31
0.0
  0
LINE
  5
334
330
1E
100
AcDbEntity
  8
0
100
AcDbLine
 10
203.1864999999999
 20
240.972
 30
0.0
 11
203.1864999999999
 21
242.22
 31
0.0
  0
LINE
  5
335
330
1E
100
AcDbEntity
  8
0
100
AcDbLine
 10
203.1864999999999
 20
238.944
 30
0.0
 11
203.1864999999999
 21
240.972
 31
0.0
  0
LINE
  5
336
330
1E
100
AcDbEntity
  8
0
100
AcDbLine
 10
203.1864999999999
 20
236.2919999999999
 30
0.0
 11
203.1864999999999
 21
238.944
 31
0.0
  0
LINE
  5
337
330
1E
100
AcDbEntity
  8
0
100
AcDbLine
 10
203.1864999999999
 20
233.2759999999999
 30
0.0
 11
203.1864999999999
 21
236.2919999999999
 31
0.0
  0
LINE
  5
338
330
1E
100
AcDbEntity
  8
0
100
AcDbLine
 10
202.5865
 20
230.0
 30
0.0
 11
203.1864999999999
 21
230.0
 31
0.0
  0
LINE
  5
339
330
1E
100
AcDbEntity
  8
0
100
AcDbLine
 10
203.1864999999999
 20
242.688
 30
0.0
 11
203.1864999999999
 21
279.6111111111109
 31
0.0
  0
LINE
  5
33A
330
1E
100
AcDbEntity
  8
0
100
AcDbLine
 10
203.1864999999999
 20
242.688
 30
0.0
 11
203.1864999999999
 21
242.22
 31
0.0
  0
LINE
  5
33B
330
1E
100
AcDbEntity
  8
0
100
AcDbLine
 10
203.1864999999999
 20
279.6111111111109
 30
0.0
 11
203.1864999999999
 21
230.0
 31
0.0
  0
LINE
  5
33C
330
1E
100
AcDbEntity
  8
0
100
AcDbLine
 10
203.1864999999999
 20
230.0
 30
0.0
 11
203.1864999999999
 21
226.724
 31
0.0
  0
LINE
  5
33D
330
1E
100
AcDbEntity
  8
0
100
AcDbLine
 10
203.1864999999999
 20
230.0
 30
0.0
 11
203.1864999999999
 21
279.6111111111109
 31
0.0
  0
LINE
  5
33E
330
1E
100
AcDbEntity
  8
0
100
AcDbLine
 10
203.1864999999999
 20
230.0
 30
0.0
 11
203.1864999999999
 21
233.2759999999999
 31
0.0
  0
LINE
  5
33F
330
1E
100
AcDbEntity
  8
0
100
AcDbLine
 10
203.1864999999999
 20
226.724
 30
0.0
 11
203.1864999999999
 21
230.0
 31
0.0
  0
LINE
  5
340
330
1E
100
AcDbEntity
  8
0
100
AcDbLine
 10
203.1864999999999
 20
226.724
 30
0.0
 11
203.1864999999999
 21
223.708
 31
0.0
  0
LINE
  5
341
330
1E
100
AcDbEntity
  8
0
100
AcDbLine
 10
203.7865
 20
218.7159999999999
 30
0.0
 11
207.1864999999999
 21
218.7159999999999
 31
0.0
  0
LINE
  5
342
330
1E
100
AcDbEntity
  8
0
100
AcDbLine
 10
203.1864999999999
 20
217.312
 30
0.0
 11
203.7865
 21
217.0
 31
0.0
  0
LINE
  5
343
330
1E
100
AcDbEntity
  8
0
100
AcDbLine
 10
203.1864999999999
 20
217.312
 30
0.0
 11
203.1864999999999
 21
217.7799999999999
 31
0.0
  0
LINE
  5
344
330
1E
100
AcDbEntity
  8
0
100
AcDbLine
 10
201.170879339784
 20
217.0
 30
0.0
 11
204.1854999999999
 21
213.572
 31
0.0
  0
LINE
  5
345
330
1E
100
AcDbEntity
  8
0
100
AcDbLine
 10
207.1864999999999
 20
218.7159999999999
 30
0.0
 11
215.6668999999999
 21
218.7159999999999
 31
0.0
  0
LINE
  5
346
330
1E
100
AcDbEntity
  8
0
100
AcDbLine
 10
207.1864999999999
 20
217.0
 30
0.0
 11
216.612232142857
 21
217.0
 31
0.0
  0
LINE
  5
347
330
1E
100
AcDbEntity
  8
0
100
AcDbLine
 10
204.7804999999999
 20
189.672
 30
0.0
 11
215.2015
 21
178.932
 31
0.0
  0
LINE
  5
348
330
1E
100
AcDbEntity
  8
0
100
AcDbLine
 10
205.4615
 20
120.0479999999999
 30
0.0
 11
209.2115
 21
109.789
 31
0.0
  0
LINE
  5
349
330
1E
100
AcDbEntity
  8
0
100
AcDbLine
 10
201.1115
 20
129.507
 30
0.0
 11
206.1365
 21
119.873
 31
0.0
  0
LINE
  5
34A
330
1E
100
AcDbEntity
  8
0
100
AcDbLine
 10
206.1365
 20
119.873
 30
0.0
 11
209.9615
 21
109.615
 31
0.0
  0
LINE
  5
34B
330
1E
100
AcDbEntity
  8
0
100
AcDbLine
 10
225.5705
 20
169.562
 30
0.0
 11
233.5785
 21
162.7839999999999
 31
0.0
  0
LINE
  5
34C
330
1E
100
AcDbEntity
  8
0
100
AcDbLine
 10
223.5774999999999
 20
171.2959999999999
 30
0.0
 11
225.5705
 21
169.562
 31
0.0
  0
LINE
  5
34D
330
1E
100
AcDbEntity
  8
0
100
AcDbLine
 10
222.0474999999999
 20
203.937
 30
0.0
 11
223.2695
 21
201.712
 31
0.0
  0
LINE
  5
34E
330
1E
100
AcDbEntity
  8
0
100
AcDbLine
 10
223.2695
 20
201.712
 30
0.0
 11
229.7255
 21
190.6069999999999
 31
0.0
  0
LINE
  5
34F
330
1E
100
AcDbEntity
  8
0
100
AcDbLine
 10
227.6254999999999
 20
188.919
 30
0.0
 11
234.098585671633
 21
183.016318773223
 31
0.0
  0
LINE
  5
350
330
1E
100
AcDbEntity
  8
0
100
AcDbLine
 10
217.2035
 20
199.6579999999999
 30
0.0
 11
227.6254999999999
 21
188.919
 31
0.0
  0
LINE
  5
351
330
1E
100
AcDbEntity
  8
0
100
AcDbLine
 10
215.2015
 20
178.932
 30
0.0
 11
223.5774999999999
 21
171.2959999999999
 31
0.0
  0
LINE
  5
352
330
1E
100
AcDbEntity
  8
0
100
AcDbLine
 10
251.2035
 20
156.8079999999999
 30
0.0
 11
253.9865
 21
158.275
 31
0.0
  0
LINE
  5
353
330
1E
100
AcDbEntity
  8
0
100
AcDbLine
 10
253.9865
 20
158.275
 30
0.0
 11
256.0175
 21
160.677
 31
0.0
  0
LINE
  5
354
330
1E
100
AcDbEntity
  8
0
100
AcDbLine
 10
243.0734999999999
 20
157.329
 30
0.0
 11
246.0935
 21
156.4209999999999
 31
0.0
  0
LINE
  5
355
330
1E
100
AcDbEntity
  8
0
100
AcDbLine
 10
239.0885
 20
159.1299999999999
 30
0.0
 11
243.0734999999999
 21
157.329
 31
0.0
  0
LINE
  5
356
330
1E
100
AcDbEntity
  8
0
100
AcDbLine
 10
229.7255
 20
190.6069999999999
 30
0.0
 11
231.8305
 21
189.22
 31
0.0
  0
LINE
  5
357
330
1E
100
AcDbEntity
  8
0
100
AcDbLine
 10
229.7255
 20
190.6069999999999
 30
0.0
 11
235.3835
 21
180.7859999999999
 31
0.0
  0
LINE
  5
358
330
1E
100
AcDbEntity
  8
0
100
AcDbLine
 10
231.8305
 20
189.22
 30
0.0
 11
234.5274999999999
 21
188.9499999999999
 31
0.0
  0
LINE
  5
359
330
1E
100
AcDbEntity
  8
0
100
AcDbLine
 10
253.9695
 20
179.174
 30
0.0
 11
256.3544999999999
 21
173.0079999999999
 31
0.0
  0
LINE
  5
35A
330
1E
100
AcDbEntity
  8
0
100
AcDbLine
 10
241.0355
 20
168.393
 30
0.0
 11
241.9154999999999
 21
164.2249999999999
 31
0.0
  0
LINE
  5
35B
330
1E
100
AcDbEntity
  8
0
100
AcDbLine
 10
238.7645
 20
174.2649999999999
 30
0.0
 11
241.0355
 21
168.393
 31
0.0
  0
LINE
  5
35C
330
1E
100
AcDbEntity
  8
0
100
AcDbLine
 10
249.0714999999999
 20
188.4529999999999
 30
0.0
 11
253.9695
 21
179.174
 31
0.0
  0
LINE
  5
35D
330
1E
100
AcDbEntity
  8
0
100
AcDbLine
 10
234.538467254408
 20
182.25278448117
 30
0.0
 11
238.7645
 21
174.2649999999999
 31
0.0
  0
LINE
  5
35E
330
1E
100
AcDbEntity
  8
0
100
AcDbLine
 10
234.5274999999999
 20
188.9499999999999
 30
0.0
 11
237.4275
 21
189.485
 31
0.0
  0
LINE
  5
35F
330
1E
100
AcDbEntity
  8
0
100
AcDbLine
 10
243.2234999999999
 20
195.94
 30
0.0
 11
243.3224999999999
 21
198.4569999999999
 31
0.0
  0
LINE
  5
360
330
1E
100
AcDbEntity
  8
0
100
AcDbLine
 10
242.2414999999999
 20
193.3549999999999
 30
0.0
 11
243.2234999999999
 21
195.94
 31
0.0
  0
LINE
  5
361
330
1E
100
AcDbEntity
  8
0
100
AcDbLine
 10
240.1115
 20
191.1299999999999
 30
0.0
 11
242.2414999999999
 21
193.3549999999999
 31
0.0
  0
LINE
  5
362
330
1E
100
AcDbEntity
  8
0
100
AcDbLine
 10
238.424640374572
 20
207.0
 30
0.0
 11
242.1485
 21
200.5929999999999
 31
0.0
  0
LINE
  5
363
330
1E
100
AcDbEntity
  8
0
100
AcDbLine
 10
242.1485
 20
200.5929999999999
 30
0.0
 11
243.3224999999999
 21
198.4569999999999
 31
0.0
  0
LINE
  5
364
330
1E
100
AcDbEntity
  8
0
100
AcDbLine
 10
242.1485
 20
200.5929999999999
 30
0.0
 11
247.8064999999999
 21
190.772
 31
0.0
  0
LINE
  5
365
330
1E
100
AcDbEntity
  8
0
100
AcDbLine
 10
247.8064999999999
 20
190.772
 30
0.0
 11
249.0714999999999
 21
188.4529999999999
 31
0.0
  0
LINE
  5
366
330
1E
100
AcDbEntity
  8
0
100
AcDbLine
 10
237.4275
 20
189.485
 30
0.0
 11
240.1115
 21
191.1299999999999
 31
0.0
  0
LINE
  5
367
330
1E
100
AcDbEntity
  8
0
100
AcDbLine
 10
233.9515
 20
183.099
 30
0.0
 11
234.1458924846609
 21
182.934204914837
 31
0.0
  0
LINE
  5
368
330
1E
100
AcDbEntity
  8
0
100
AcDbLine
 10
233.5785
 20
162.7839999999999
 30
0.0
 11
239.0885
 21
159.1299999999999
 31
0.0
  0
LINE
  5
369
330
1E
100
AcDbEntity
  8
0
100
AcDbLine
 10
227.7565
 20
207.0
 30
0.0
 11
232.1095
 21
208.4
 31
0.0
  0
LINE
  5
36A
330
1E
100
AcDbEntity
  8
0
100
AcDbLine
 10
227.7565
 20
207.0
 30
0.0
 11
253.1324999999999
 21
207.0
 31
0.0
  0
LINE
  5
36B
330
1E
100
AcDbEntity
  8
0
100
AcDbLine
 10
253.1324999999999
 20
207.0
 30
0.0
 11
257.4854999999999
 21
208.4
 31
0.0
  0
LINE
  5
36C
330
1E
100
AcDbEntity
  8
0
100
AcDbLine
 10
256.0175
 20
160.677
 30
0.0
 11
256.6245
 21
162.705
 31
0.0
  0
LINE
  5
36D
330
1E
100
AcDbEntity
  8
0
100
AcDbLine
 10
256.3544999999999
 20
173.0079999999999
 30
0.0
 11
257.2554999999999
 21
168.729
 31
0.0
  0
LINE
  5
36E
330
1E
100
AcDbEntity
  8
0
100
AcDbLine
 10
257.2554999999999
 20
168.729
 30
0.0
 11
257.4934999999999
 21
165.585
 31
0.0
  0
LINE
  5
36F
330
1E
100
AcDbEntity
  8
0
100
AcDbLine
 10
256.6245
 20
162.705
 30
0.0
 11
257.4934999999999
 21
165.585
 31
0.0
  0
LINE
  5
370
330
1E
100
AcDbEntity
  8
0
100
AcDbLine
 10
254.4925
 20
207.0
 30
0.0
 11
258.8455
 21
208.4
 31
0.0
  0
LINE
  5
371
330
1E
100
AcDbEntity
  8
0
100
AcDbLine
 10
254.4925
 20
207.0
 30
0.0
 11
266.2745
 21
207.0
 31
0.0
  0
LINE
  5
372
330
1E
100
AcDbEntity
  8
0
100
AcDbLine
 10
253.8124999999999
 20
207.2186997473009
 30
0.0
 11
254.4925
 21
207.0
 31
0.0
  0
LINE
  5
373
330
1E
100
AcDbEntity
  8
0
100
AcDbLine
 10
223.4034999999999
 20
208.4
 30
0.0
 11
227.7565
 21
207.0
 31
0.0
  0
LINE
  5
374
330
1E
100
AcDbEntity
  8
0
100
AcDbLine
 10
232.1095
 20
208.4
 30
0.0
 11
236.1665
 21
212.4
 31
0.0
  0
LINE
  5
375
330
1E
100
AcDbEntity
  8
0
100
AcDbLine
 10
257.4854999999999
 20
208.4
 30
0.0
 11
261.5435
 21
212.4
 31
0.0
  0
LINE
  5
376
330
1E
100
AcDbEntity
  8
0
100
AcDbLine
 10
217.5854999999999
 20
212.2829999999999
 30
0.0
 11
222.0474999999999
 21
203.937
 31
0.0
  0
LINE
  5
377
330
1E
100
AcDbEntity
  8
0
100
AcDbLine
 10
219.3464999999999
 20
212.4
 30
0.0
 11
223.4034999999999
 21
208.4
 31
0.0
  0
LINE
  5
378
330
1E
100
AcDbEntity
  8
0
100
AcDbLine
 10
236.1665
 20
212.4
 30
0.0
 11
239.6745
 21
218.8
 31
0.0
  0
LINE
  5
379
330
1E
100
AcDbEntity
  8
0
100
AcDbLine
 10
261.5435
 20
212.4
 30
0.0
 11
265.0504999999999
 21
218.8
 31
0.0
  0
LINE
  5
37A
330
1E
100
AcDbEntity
  8
0
100
AcDbLine
 10
215.3981020354909
 20
217.0
 30
0.0
 11
217.5854999999999
 21
212.2829999999999
 31
0.0
  0
LINE
  5
37B
330
1E
100
AcDbEntity
  8
0
100
AcDbLine
 10
216.7775
 20
216.6999999999999
 30
0.0
 11
219.3464999999999
 21
212.4
 31
0.0
  0
LINE
  5
37C
330
1E
100
AcDbEntity
  8
0
100
AcDbLine
 10
209.8885
 20
256.0
 30
0.0
 11
211.0724999999999
 21
264.3999999999999
 31
0.0
  0
LINE
  5
37F
330
1E
100
AcDbEntity
  8
0
100
AcDbLine
 10
210.1865
 20
280.0
 30
0.0
 11
211.1864999999999
 21
281.0
 31
0.0
  0
LINE
  5
380
330
1E
100
AcDbEntity
  8
0
100
AcDbLine
 10
211.0724999999999
 20
264.3999999999999
 30
0.0
 11
213.6925
 21
271.7
 31
0.0
  0
LINE
  5
381
330
1E
100
AcDbEntity
  8
0
100
AcDbLine
 10
209.3395
 20
247.0
 30
0.0
 11
209.8885
 21
238.0
 31
0.0
  0
LINE
  5
382
330
1E
100
AcDbEntity
  8
0
100
AcDbLine
 10
209.3395
 20
247.0
 30
0.0
 11
209.8885
 21
256.0
 31
0.0
  0
LINE
  5
383
330
1E
100
AcDbEntity
  8
0
100
AcDbLine
 10
209.8885
 20
238.0
 30
0.0
 11
211.0724999999999
 21
229.5999999999999
 31
0.0
  0
LINE
  5
384
330
1E
100
AcDbEntity
  8
0
100
AcDbLine
 10
213.6925
 20
271.7
 30
0.0
 11
216.7775
 21
277.3
 31
0.0
  0
LINE
  5
385
330
1E
100
AcDbEntity
  8
0
100
AcDbLine
 10
211.1864999999999
 20
281.0
 30
0.0
 11
211.1864999999999
 21
306.0
 31
0.0
  0
LINE
  5
386
330
1E
100
AcDbEntity
  8
0
100
AcDbLine
 10
216.7775
 20
277.3
 30
0.0
 11
219.3464999999999
 21
281.6
 31
0.0
  0
LINE
  5
387
330
1E
100
AcDbEntity
  8
0
100
AcDbLine
 10
219.3464999999999
 20
281.6
 30
0.0
 11
223.4034999999999
 21
285.6
 31
0.0
  0
LINE
  5
388
330
1E
100
AcDbEntity
  8
0
100
AcDbLine
 10
223.4034999999999
 20
285.6
 30
0.0
 11
227.7565
 21
287.0
 31
0.0
  0
LINE
  5
389
330
1E
100
AcDbEntity
  8
0
100
AcDbLine
 10
211.0724999999999
 20
229.5999999999999
 30
0.0
 11
213.6925
 21
222.3
 31
0.0
  0
LINE
  5
38A
330
1E
100
AcDbEntity
  8
0
100
AcDbLine
 10
213.6925
 20
222.3
 30
0.0
 11
216.7775
 21
216.6999999999999
 31
0.0
  0
LINE
  5
38B
330
1E
100
AcDbEntity
  8
0
100
AcDbLine
 10
242.3785
 20
266.9
 30
0.0
 11
244.0695
 21
257.2999999999999
 31
0.0
  0
LINE
  5
38C
330
1E
100
AcDbEntity
  8
0
100
AcDbLine
 10
239.6745
 20
275.1999999999999
 30
0.0
 11
242.3785
 21
266.9
 31
0.0
  0
LINE
  5
38D
330
1E
100
AcDbEntity
  8
0
100
AcDbLine
 10
236.1665
 20
281.6
 30
0.0
 11
239.6745
 21
275.1999999999999
 31
0.0
  0
LINE
  5
38E
330
1E
100
AcDbEntity
  8
0
100
AcDbLine
 10
232.1095
 20
285.6
 30
0.0
 11
236.1665
 21
281.6
 31
0.0
  0
LINE
  5
392
330
1E
100
AcDbEntity
  8
0
100
AcDbLine
 10
210.1865
 20
307.0
 30
0.0
 11
211.1864999999999
 21
306.0
 31
0.0
  0
LINE
  5
394
330
1E
100
AcDbEntity
  8
0
100
AcDbLine
 10
210.1865
 20
307.0
 30
0.0
 11
239.1865
 21
307.0
 31
0.0
  0
LINE
  5
395
330
1E
100
AcDbEntity
  8
0
100
AcDbLine
 10
210.1865
 20
307.0
 30
0.0
 11
241.1865
 21
307.0
 31
0.0
  0
LINE
  5
396
330
1E
100
AcDbEntity
  8
0
100
AcDbLine
 10
211.1864999999999
 20
306.0
 30
0.0
 11
211.1864999999999
 21
281.0
 31
0.0
  0
LINE
  5
397
330
1E
100
AcDbEntity
  8
0
100
AcDbLine
 10
231.1865
 20
307.0
 30
0.0
 11
241.1865
 21
307.0
 31
0.0
  0
LINE
  5
398
330
1E
100
AcDbEntity
  8
0
100
AcDbLine
 10
241.1865
 20
307.0
 30
0.0
 11
242.1864999999999
 21
308.0
 31
0.0
  0
LINE
  5
399
330
1E
100
AcDbEntity
  8
0
100
AcDbLine
 10
241.1865
 20
307.0
 30
0.0
 11
242.1864999999999
 21
308.0
 31
0.0
  0
LINE
  5
39B
330
1E
100
AcDbEntity
  8
0
100
AcDbLine
 10
231.1865
 20
307.0
 30
0.0
 11
231.1865
 21
287.0
 31
0.0
  0
LINE
  5
3A9
330
1E
100
AcDbEntity
  8
0
100
AcDbLine
 10
239.1865
 20
374.0
 30
0.0
 11
241.1865
 21
374.0
 31
0.0
  0
LINE
  5
3AB
330
1E
100
AcDbEntity
  8
0
100
AcDbLine
 10
241.1865
 20
374.0
 30
0.0
 11
242.1864999999999
 21
373.0
 31
0.0
  0
LINE
  5
3AD
330
1E
100
AcDbEntity
  8
0
100
AcDbLine
 10
242.1864999999999
 20
371.0
 30
0.0
 11
242.1864999999999
 21
373.0
 31
0.0
  0
LINE
  5
3AE
330
1E
100
AcDbEntity
  8
0
100
AcDbLine
 10
242.1864999999999
 20
371.0
 30
0.0
 11
242.1864999999999
 21
310.0
 31
0.0
  0
LINE
  5
3AF
330
1E
100
AcDbEntity
  8
0
100
AcDbLine
 10
242.1864999999999
 20
308.0
 30
0.0
 11
242.1864999999999
 21
310.0
 31
0.0
  0
LINE
  5
3B0
330
1E
100
AcDbEntity
  8
0
100
AcDbLine
 10
242.1864999999999
 20
310.0
 30
0.0
 11
242.1864999999999
 21
308.0
 31
0.0
  0
LINE
  5
3B1
330
1E
100
AcDbEntity
  8
0
100
AcDbLine
 10
242.1864999999999
 20
310.0
 30
0.0
 11
242.1864999999999
 21
371.0
 31
0.0
  0
LINE
  5
3B2
330
1E
100
AcDbEntity
  8
0
100
AcDbLine
 10
242.1864999999999
 20
373.0
 30
0.0
 11
242.1864999999999
 21
371.0
 31
0.0
  0
LINE
  5
3B3
330
1E
100
AcDbEntity
  8
0
100
AcDbLine
 10
230.5865
 20
307.0
 30
0.0
 11
231.1865
 21
307.0
 31
0.0
  0
LINE
  5
3B4
330
1E
100
AcDbEntity
  8
0
100
AcDbLine
 10
210.1865
 20
307.0
 30
0.0
 11
230.5865
 21
307.0
 31
0.0
  0
LINE
  5
3B5
330
1E
100
AcDbEntity
  8
0
100
AcDbLine
 10
210.1865
 20
307.0
 30
0.0
 11
241.1865
 21
307.0
 31
0.0
  0
LINE
  5
3B6
330
1E
100
AcDbEntity
  8
0
100
AcDbLine
 10
227.7565
 20
287.0
 30
0.0
 11
232.1095
 21
285.6
 31
0.0
  0
LINE
  5
3B7
330
1E
100
AcDbEntity
  8
0
100
AcDbLine
 10
227.7565
 20
287.0
 30
0.0
 11
253.1324999999999
 21
287.0
 31
0.0
  0
LINE
  5
3B8
330
1E
100
AcDbEntity
  8
0
100
AcDbLine
 10
253.8124999999999
 20
286.781300252699
 30
0.0
 11
254.4925
 21
287.0
 31
0.0
  0
LINE
  5
3B9
330
1E
100
AcDbEntity
  8
0
100
AcDbLine
 10
254.4925
 20
287.0
 30
0.0
 11
258.8455
 21
285.6
 31
0.0
  0
LINE
  5
3BA
330
1E
100
AcDbEntity
  8
0
100
AcDbLine
 10
254.4925
 20
287.0
 30
0.0
 11
266.2745
 21
287.0
 31
0.0
  0
LINE
  5
3BB
330
1E
100
AcDbEntity
  8
0
100
AcDbLine
 10
244.0695
 20
257.2999999999999
 30
0.0
 11
244.6614999999999
 21
247.0
 31
0.0
  0
LINE
  5
3BC
330
1E
100
AcDbEntity
  8
0
100
AcDbLine
 10
258.8455
 20
285.6
 30
0.0
 11
262.9024999999999
 21
281.6
 31
0.0
  0
LINE
  5
3BD
330
1E
100
AcDbEntity
  8
0
100
AcDbLine
 10
261.5435
 20
281.6
 30
0.0
 11
265.0504999999999
 21
275.1999999999999
 31
0.0
  0
LINE
  5
3BE
330
1E
100
AcDbEntity
  8
0
100
AcDbLine
 10
257.4854999999999
 20
285.6
 30
0.0
 11
261.5435
 21
281.6
 31
0.0
  0
LINE
  5
3BF
330
1E
100
AcDbEntity
  8
0
100
AcDbLine
 10
253.1324999999999
 20
287.0
 30
0.0
 11
257.4854999999999
 21
285.6
 31
0.0
  0
LINE
  5
3C0
330
1E
100
AcDbEntity
  8
0
100
AcDbLine
 10
262.2384999999999
 20
280.8
 30
0.0
 11
265.6614999999999
 21
274.5
 31
0.0
  0
LINE
  5
3C1
330
1E
100
AcDbEntity
  8
0
100
AcDbLine
 10
261.699249450441
 20
281.315769465977
 30
0.0
 11
262.2384999999999
 21
280.8
 31
0.0
  0
LINE
  5
3C2
330
1E
100
AcDbEntity
  8
0
100
AcDbLine
 10
244.0695
 20
236.6999999999999
 30
0.0
 11
244.6614999999999
 21
247.0
 31
0.0
  0
LINE
  5
3C3
330
1E
100
AcDbEntity
  8
0
100
AcDbLine
 10
242.3785
 20
227.0999999999999
 30
0.0
 11
244.0695
 21
236.6999999999999
 31
0.0
  0
LINE
  5
3C4
330
1E
100
AcDbEntity
  8
0
100
AcDbLine
 10
239.6745
 20
218.8
 30
0.0
 11
242.3785
 21
227.0999999999999
 31
0.0
  0
LINE
  5
3C5
330
1E
100
AcDbEntity
  8
0
100
AcDbLine
 10
262.9024999999999
 20
281.6
 30
0.0
 11
266.4105
 21
275.1999999999999
 31
0.0
  0
LINE
  5
3C6
330
1E
100
AcDbEntity
  8
0
100
AcDbLine
 10
262.2384999999999
 20
213.2
 30
0.0
 11
265.6614999999999
 21
219.4999999999999
 31
0.0
  0
LINE
  5
3C7
330
1E
100
AcDbEntity
  8
0
100
AcDbLine
 10
261.699249450441
 20
212.684230534023
 30
0.0
 11
262.2384999999999
 21
213.2
 31
0.0
  0
LINE
  5
3C8
330
1E
100
AcDbEntity
  8
0
100
AcDbLine
 10
265.0504999999999
 20
218.8
 30
0.0
 11
267.7554999999999
 21
227.0999999999999
 31
0.0
  0
LINE
  5
3C9
330
1E
100
AcDbEntity
  8
0
100
AcDbLine
 10
267.7554999999999
 20
227.0999999999999
 30
0.0
 11
267.8704999999999
 21
227.5999999999999
 31
0.0
  0
LINE
  5
3CA
330
1E
100
AcDbEntity
  8
0
100
AcDbLine
 10
267.7554999999999
 20
227.0999999999999
 30
0.0
 11
269.4465
 21
236.6999999999999
 31
0.0
  0
LINE
  5
3CB
330
1E
100
AcDbEntity
  8
0
100
AcDbLine
 10
267.8704999999999
 20
266.3999999999999
 30
0.0
 11
268.739380284638
 21
261.314399330265
 31
0.0
  0
LINE
  5
3CC
330
1E
100
AcDbEntity
  8
0
100
AcDbLine
 10
265.0504999999999
 20
275.1999999999999
 30
0.0
 11
267.7554999999999
 21
266.9
 31
0.0
  0
LINE
  5
3CD
330
1E
100
AcDbEntity
  8
0
100
AcDbLine
 10
266.4105
 20
275.1999999999999
 30
0.0
 11
269.1145
 21
266.9
 31
0.0
  0
LINE
  5
3CE
330
1E
100
AcDbEntity
  8
0
100
AcDbLine
 10
266.2745
 20
287.0
 30
0.0
 11
270.6275
 21
285.6
 31
0.0
  0
LINE
  5
3CF
330
1E
100
AcDbEntity
  8
0
100
AcDbLine
 10
267.7554999999999
 20
266.9
 30
0.0
 11
267.8704999999999
 21
266.3999999999999
 31
0.0
  0
LINE
  5
3D0
330
1E
100
AcDbEntity
  8
0
100
AcDbLine
 10
267.7554999999999
 20
266.9
 30
0.0
 11
269.4465
 21
257.2999999999999
 31
0.0
  0
LINE
  5
3D1
330
1E
100
AcDbEntity
  8
0
100
AcDbLine
 10
265.6614999999999
 20
274.5
 30
0.0
 11
268.3235
 21
266.3999999999999
 31
0.0
  0
LINE
  5
3D2
330
1E
100
AcDbEntity
  8
0
100
AcDbLine
 10
267.8124698771299
 20
266.5765755053509
 30
0.0
 11
267.8704999999999
 21
266.3999999999999
 31
0.0
  0
LINE
  5
3D3
330
1E
100
AcDbEntity
  8
0
100
AcDbLine
 10
268.3235
 20
266.3999999999999
 30
0.0
 11
269.9295
 21
257.0
 31
0.0
  0
LINE
  5
3D4
330
1E
100
AcDbEntity
  8
0
100
AcDbLine
 10
267.8704999999999
 20
227.5999999999999
 30
0.0
 11
268.739380284638
 21
232.685600669735
 31
0.0
  0
LINE
  5
3D5
330
1E
100
AcDbEntity
  8
0
100
AcDbLine
 10
267.8124698771299
 20
227.423424494649
 30
0.0
 11
267.8704999999999
 21
227.5999999999999
 31
0.0
  0
LINE
  5
3D6
330
1E
100
AcDbEntity
  8
0
100
AcDbLine
 10
269.1145
 20
266.9
 30
0.0
 11
270.8054999999999
 21
257.2999999999999
 31
0.0
  0
LINE
  5
3D7
330
1E
100
AcDbEntity
  8
0
100
AcDbLine
 10
268.3235
 20
227.5999999999999
 30
0.0
 11
269.9295
 21
237.0
 31
0.0
  0
LINE
  5
3D8
330
1E
100
AcDbEntity
  8
0
100
AcDbLine
 10
265.6614999999999
 20
219.4999999999999
 30
0.0
 11
268.3235
 21
227.5999999999999
 31
0.0
  0
LINE
  5
3D9
330
1E
100
AcDbEntity
  8
0
100
AcDbLine
 10
269.4465
 20
236.6999999999999
 30
0.0
 11
270.0375
 21
247.0
 31
0.0
  0
LINE
  5
3DA
330
1E
100
AcDbEntity
  8
0
100
AcDbLine
 10
269.4764999999999
 20
237.0
 30
0.0
 11
270.0684999999999
 21
247.0
 31
0.0
  0
LINE
  5
3DB
330
1E
100
AcDbEntity
  8
0
100
AcDbLine
 10
269.4572479975239
 20
236.8873170465299
 30
0.0
 11
269.4764999999999
 21
237.0
 31
0.0
  0
LINE
  5
3DC
330
1E
100
AcDbEntity
  8
0
100
AcDbLine
 10
269.4465
 20
257.2999999999999
 30
0.0
 11
270.0375
 21
247.0
 31
0.0
  0
LINE
  5
3DD
330
1E
100
AcDbEntity
  8
0
100
AcDbLine
 10
269.9295
 20
257.0
 30
0.0
 11
270.5214999999999
 21
247.0
 31
0.0
  0
LINE
  5
3DE
330
1E
100
AcDbEntity
  8
0
100
AcDbLine
 10
270.6275
 20
285.6
 30
0.0
 11
274.6844999999999
 21
281.6
 31
0.0
  0
LINE
  5
3DF
330
1E
100
AcDbEntity
  8
0
100
AcDbLine
 10
269.4764999999999
 20
257.0
 30
0.0
 11
270.0684999999999
 21
247.0
 31
0.0
  0
LINE
  5
3E0
330
1E
100
AcDbEntity
  8
0
100
AcDbLine
 10
269.458119971949
 20
257.107579242636
 30
0.0
 11
269.4764999999999
 21
257.0
 31
0.0
  0
LINE
  5
3E1
330
1E
100
AcDbEntity
  8
0
100
AcDbLine
 10
269.9295
 20
237.0
 30
0.0
 11
270.5214999999999
 21
247.0
 31
0.0
  0
LINE
  5
3E2
330
1E
100
AcDbEntity
  8
0
100
AcDbLine
 10
269.1145
 20
227.0999999999999
 30
0.0
 11
270.8054999999999
 21
236.6999999999999
 31
0.0
  0
LINE
  5
3E3
330
1E
100
AcDbEntity
  8
0
100
AcDbLine
 10
266.4105
 20
218.8
 30
0.0
 11
269.1145
 21
227.0999999999999
 31
0.0
  0
LINE
  5
3E4
330
1E
100
AcDbEntity
  8
0
100
AcDbLine
 10
262.9024999999999
 20
212.4
 30
0.0
 11
266.4105
 21
218.8
 31
0.0
  0
LINE
  5
3E5
330
1E
100
AcDbEntity
  8
0
100
AcDbLine
 10
258.8455
 20
208.4
 30
0.0
 11
262.9024999999999
 21
212.4
 31
0.0
  0
LINE
  5
3E6
330
1E
100
AcDbEntity
  8
0
100
AcDbLine
 10
271.1854999999999
 20
248.0
 30
0.0
 11
272.0314999999999
 21
248.0
 31
0.0
  0
LINE
  5
3E7
330
1E
100
AcDbEntity
  8
0
100
AcDbLine
 10
271.1854999999999
 20
246.0
 30
0.0
 11
272.0314999999999
 21
246.0
 31
0.0
  0
LINE
  5
3E8
330
1E
100
AcDbEntity
  8
0
100
AcDbLine
 10
272.0314999999999
 20
248.0
 30
0.0
 11
272.0314999999999
 21
246.0
 31
0.0
  0
LINE
  5
3E9
330
1E
100
AcDbEntity
  8
0
100
AcDbLine
 10
272.0314999999999
 20
248.0
 30
0.0
 11
283.8134999999999
 21
248.0
 31
0.0
  0
LINE
  5
3EA
330
1E
100
AcDbEntity
  8
0
100
AcDbLine
 10
272.0314999999999
 20
246.0
 30
0.0
 11
283.8134999999999
 21
246.0
 31
0.0
  0
LINE
  5
3EB
330
1E
100
AcDbEntity
  8
0
100
AcDbLine
 10
272.0314999999999
 20
246.0
 30
0.0
 11
272.0314999999999
 21
248.0
 31
0.0
  0
LINE
  5
3EC
330
1E
100
AcDbEntity
  8
0
100
AcDbLine
 10
270.8054999999999
 20
257.2999999999999
 30
0.0
 11
271.3975
 21
247.0
 31
0.0
  0
LINE
  5
3ED
330
1E
100
AcDbEntity
  8
0
100
AcDbLine
 10
278.1925
 20
275.1999999999999
 30
0.0
 11
280.8974999999999
 21
266.9
 31
0.0
  0
LINE
  5
3EE
330
1E
100
AcDbEntity
  8
0
100
AcDbLine
 10
274.6844999999999
 20
281.6
 30
0.0
 11
278.1925
 21
275.1999999999999
 31
0.0
  0
LINE
  5
3EF
330
1E
100
AcDbEntity
  8
0
100
AcDbLine
 10
270.8054999999999
 20
236.6999999999999
 30
0.0
 11
271.3975
 21
247.0
 31
0.0
  0
LINE
  5
3F0
330
1E
100
AcDbEntity
  8
0
100
AcDbLine
 10
280.8974999999999
 20
266.9
 30
0.0
 11
281.0124999999999
 21
266.3999999999999
 31
0.0
  0
LINE
  5
3F1
330
1E
100
AcDbEntity
  8
0
100
AcDbLine
 10
280.8974999999999
 20
266.9
 30
0.0
 11
282.5874999999999
 21
257.2999999999999
 31
0.0
  0
LINE
  5
3F2
330
1E
100
AcDbEntity
  8
0
100
AcDbLine
 10
281.0124999999999
 20
266.3999999999999
 30
0.0
 11
281.9005315969259
 21
261.202305721602
 31
0.0
  0
LINE
  5
3F3
330
1E
100
AcDbEntity
  8
0
100
AcDbLine
 10
280.8974999999999
 20
227.0999999999999
 30
0.0
 11
281.0124999999999
 21
227.5999999999999
 31
0.0
  0
LINE
  5
3F4
330
1E
100
AcDbEntity
  8
0
100
AcDbLine
 10
280.8974999999999
 20
227.0999999999999
 30
0.0
 11
282.5874999999999
 21
236.6999999999999
 31
0.0
  0
LINE
  5
3F5
330
1E
100
AcDbEntity
  8
0
100
AcDbLine
 10
278.1925
 20
218.8
 30
0.0
 11
280.8974999999999
 21
227.0999999999999
 31
0.0
  0
LINE
  5
3F6
330
1E
100
AcDbEntity
  8
0
100
AcDbLine
 10
274.6844999999999
 20
212.4
 30
0.0
 11
278.1925
 21
218.8
 31
0.0
  0
LINE
  5
3F7
330
1E
100
AcDbEntity
  8
0
100
AcDbLine
 10
270.6275
 20
208.4
 30
0.0
 11
274.6844999999999
 21
212.4
 31
0.0
  0
LINE
  5
3F8
330
1E
100
AcDbEntity
  8
0
100
AcDbLine
 10
266.2745
 20
207.0
 30
0.0
 11
270.6275
 21
208.4
 31
0.0
  0
LINE
  5
3F9
330
1E
100
AcDbEntity
  8
0
100
AcDbLine
 10
282.5874999999999
 20
236.6999999999999
 30
0.0
 11
283.122024271845
 21
246.0
 31
0.0
  0
LINE
  5
3FA
330
1E
100
AcDbEntity
  8
0
100
AcDbLine
 10
282.6184999999999
 20
257.0
 30
0.0
 11
283.1503999999999
 21
248.0
 31
0.0
  0
LINE
  5
3FB
330
1E
100
AcDbEntity
  8
0
100
AcDbLine
 10
282.5874999999999
 20
257.2999999999999
 30
0.0
 11
283.122024271845
 21
248.0
 31
0.0
  0
LINE
  5
3FC
330
1E
100
AcDbEntity
  8
0
100
AcDbLine
 10
282.598573286582
 20
257.1166320710609
 30
0.0
 11
282.6184999999999
 21
257.0
 31
0.0
  0
LINE
  5
3FD
330
1E
100
AcDbEntity
  8
0
100
AcDbLine
 10
283.122024271845
 20
246.0
 30
0.0
 11
283.8134999999999
 21
246.0
 31
0.0
  0
LINE
  5
3FE
330
1E
100
AcDbEntity
  8
0
100
AcDbLine
 10
283.8134999999999
 20
248.0
 30
0.0
 11
283.8134999999999
 21
246.0
 31
0.0
  0
LINE
  5
3FF
330
1E
100
AcDbEntity
  8
0
100
AcDbLine
 10
283.8134999999999
 20
246.0
 30
0.0
 11
283.8134999999999
 21
248.0
 31
0.0
  0
LINE
  5
400
330
1E
100
AcDbEntity
  8
0
100
AcDbLine
 10
282.6184999999999
 20
237.0
 30
0.0
 11
283.1503999999999
 21
246.0
 31
0.0
  0
LINE
  5
401
330
1E
100
AcDbEntity
  8
0
100
AcDbLine
 10
282.597768452218
 20
236.8786571923109
 30
0.0
 11
282.6184999999999
 21
237.0
 31
0.0
  0
LINE
  5
402
330
1E
100
AcDbEntity
  8
0
100
AcDbLine
 10
281.0124999999999
 20
227.5999999999999
 30
0.0
 11
281.9005315969259
 21
232.797694278398
 31
0.0
  0
LINE
  5
403
330
1E
100
AcDbEntity
  8
0
100
AcDbLine
 10
211.5364999999999
 20
99.32299999999999
 30
0.0
 11
212.4365
 21
88.5097
 31
0.0
  0
LINE
  5
404
330
1E
100
AcDbEntity
  8
0
100
AcDbLine
 10
209.9615
 20
109.615
 30
0.0
 11
212.2865
 21
98.93970000000001
 31
0.0
  0
LINE
  5
405
330
1E
100
AcDbEntity
  8
0
100
AcDbLine
 10
212.2865
 20
98.93970000000001
 30
0.0
 11
213.1864999999999
 21
88.1268
 31
0.0
  0
LINE
  5
406
330
1E
100
AcDbEntity
  8
0
100
AcDbLine
 10
135.1864999999999
 20
98.4628
 30
0.0
 11
135.1864999999999
 21
101.245789473684
 31
0.0
  0
LINE
  5
409
330
1E
100
AcDbEntity
  8
0
100
AcDbLine
 10
114.6865
 20
90.60720000000001
 30
0.0
 11
117.1864999999999
 21
88.8512
 31
0.0
  0
LINE
  5
40A
330
1E
100
AcDbEntity
  8
0
100
AcDbLine
 10
112.7865
 20
90.23789999999999
 30
0.0
 11
114.6865
 21
87.9274
 31
0.0
  0
LINE
  5
40B
330
1E
100
AcDbEntity
  8
0
100
AcDbLine
 10
112.7865
 20
89.47239999999998
 30
0.0
 11
114.6865
 21
87.1619
 31
0.0
  0
LINE
  5
40C
330
1E
100
AcDbEntity
  8
0
100
AcDbLine
 10
111.5865
 20
92.15250000000001
 30
0.0
 11
112.7865
 21
89.47239999999998
 31
0.0
  0
LINE
  5
40D
330
1E
100
AcDbEntity
  8
0
100
AcDbLine
 10
111.5865
 20
86.79309999999999
 30
0.0
 11
112.7865
 21
84.11289999999999
 31
0.0
  0
LINE
  5
40E
330
1E
100
AcDbEntity
  8
0
100
AcDbLine
 10
111.1965751222939
 20
89.74777317146589
 30
0.0
 11
111.5865
 21
86.79309999999999
 31
0.0
  0
LINE
  5
40F
330
1E
100
AcDbEntity
  8
0
100
AcDbLine
 10
111.1965751222939
 20
89.74777317146589
 30
0.0
 11
111.1965751222939
 21
95.10727317146589
 31
0.0
  0
LINE
  5
414
330
1E
100
AcDbEntity
  8
0
100
AcDbLine
 10
246.0935
 20
156.4209999999999
 30
0.0
 11
251.2035
 21
156.8079999999999
 31
0.0
  0
LINE
  5
417
330
1E
100
AcDbEntity
  8
0
100
AcDbLine
 10
137.1864999999999
 20
170.044060606061
 30
0.0
 11
135.2040455978051
 21
170.2265613550109
 31
0.0
  0
LINE
  5
418
330
1E
100
AcDbEntity
  8
0
100
AcDbLine
 10
135.2040455978051
 20
169.8634626453006
 30
0.0
 11
137.1864999999999
 21
169.725558498896
 31
0.0
  0
LINE
  5
419
330
1E
100
AcDbEntity
  8
0
100
AcDbLine
 10
137.5115
 20
121.6119999999999
 30
0.0
 11
135.1964667081797
 21
122.095264245939
 31
0.0
  0
ENDSEC
  0
SECTION
  2
OBJECTS
  0
DICTIONARY
  5
C
330
0
100
AcDbDictionary
281
     1
  3
ACAD_GROUP
350
D
  3
ACAD_LAYOUT
350
19
  3
ACAD_MLINESTYLE
350
16
  3
ACAD_PLOTSETTINGS
350
18
  3
ACAD_PLOTSTYLENAME
350
E
  3
AcDbVariableDictionary
350
41A
  0
DICTIONARY
  5
D
102
{ACAD_REACTORS
330
C
102
}
330
C
100
AcDbDictionary
281
     1
  0
DICTIONARY
  5
19
102
{ACAD_REACTORS
330
C
102
}
330
C
100
AcDbDictionary
281
     1
  3
Layout1
350
1D
  3
Model
350
21
  0
DICTIONARY
  5
16
102
{ACAD_REACTORS
330
C
102
}
330
C
100
AcDbDictionary
281
     1
  3
Standard
350
17
  0
DICTIONARY
  5
18
102
{ACAD_REACTORS
330
C
102
}
330
C
100
AcDbDictionary
281
     1
  0
ACDBDICTIONARYWDFLT
  5
E
102
{ACAD_REACTORS
330
C
102
}
330
C
100
AcDbDictionary
281
     1
  3
Normal
350
F
100
AcDbDictionaryWithDefault
340
F
  0
DICTIONARY
  5
41A
102
{ACAD_REACTORS
330
C
102
}
330
C
100
AcDbDictionary
281
     1
  3
DIMASSOC
350
41B
  0
LAYOUT
  5
1D
102
{ACAD_REACTORS
330
19
102
}
330
19
100
AcDbPlotSettings
  1

  2
hp deskjet 980c series
  4

  6

 40
0.0
 41
0.0
 42
0.0
 43
0.0
 44
0.0
 45
0.0
 46
0.0
 47
0.0
 48
0.0
 49
0.0
140
0.0
141
0.0
142
1.0
143
1.0
 70
   688
 72
     0
 73
     0
 74
     5
  7

 75
    16
147
1.0
148
0.0
149
0.0
100
AcDbLayout
  1
Layout1
 70
     1
 71
     1
 10
0.0
 20
0.0
 11
12.0
 21
9.0
 12
0.0
 22
0.0
 32
0.0
 14
1.000000000000000E+20
 24
1.000000000000000E+20
 34
1.000000000000000E+20
 15
-1.000000000000000E+20
 25
-1.000000000000000E+20
 35
-1.000000000000000E+20
146
0.0
 13
0.0
 23
0.0
 33
0.0
 16
1.0
 26
0.0
 36
0.0
 17
0.0
 27
1.0
 37
0.0
 76
     0
330
1A
  0
LAYOUT
  5
21
102
{ACAD_REACTORS
330
19
102
}
330
19
100
AcDbPlotSettings
  1

  2
hp deskjet 980c series
  4

  6

 40
0.0
 41
0.0
 42
0.0
 43
0.0
 44
0.0
 45
0.0
 46
0.0
 47
0.0
 48
0.0
 49
0.0
140
0.0
141
0.0
142
1.0
143
1.0
 70
  1712
 72
     0
 73
     0
 74
     0
  7

 75
     0
147
1.0
148
0.0
149
0.0
100
AcDbLayout
  1
Model
 70
     1
 71
     0
 10
0.0
 20
0.0
 11
12.0
 21
9.0
 12
0.0
 22
0.0
 32
0.0
 14
0.0
 24
0.0
 34
0.0
 15
0.0
 25
0.0
 35
0.0
146
0.0
 13
0.0
 23
0.0
 33
0.0
 16
1.0
 26
0.0
 36
0.0
 17
0.0
 27
1.0
 37
0.0
 76
     0
330
1E
  0
MLINESTYLE
  5
17
102
{ACAD_REACTORS
330
16
102
}
330
16
100
AcDbMlineStyle
  2
STANDARD
 70
     0
  3

 62
   256
 51
90.0
 52
90.0
 71
     2
 49
0.5
 62
   256
  6
BYLAYER
 49
-0.5
 62
   256
  6
BYLAYER
  0
ACDBPLACEHOLDER
  5
F
102
{ACAD_REACTORS
330
E
102
}
330
E
  0
DICTIONARYVAR
  5
41B
102
{ACAD_REACTORS
330
41A
102
}
330
41A
100
DictionaryVariables
280
     0
  1
1
  0
ENDSEC
  0
EOF
