  0
SECTION
  2
HEADER
  9
$ACADVER
  1
AC1015
  9
$ACADMAINTVER
 70
     6
  9
$DWGCODEPAGE
  3
ANSI_1252
  9
$INSBASE
 10
0.0
 20
0.0
 30
0.0
  9
$EXTMIN
 10
0.14355
 20
-0.1305
 30
0.0
  9
$EXTMAX
 10
475.85445
 20
1269.1305
 30
0.0
  9
$LIMMIN
 10
0.0
 20
0.0
  9
$LIMMAX
 10
12.0
 20
9.0
  9
$ORTHOMODE
 70
     0
  9
$REGENMODE
 70
     1
  9
$FILLMODE
 70
     1
  9
$QTEXTMODE
 70
     0
  9
$MIRRTEXT
 70
     1
  9
$LTSCALE
 40
1.0
  9
$ATTMODE
 70
     1
  9
$TEXTSIZE
 40
0.2
  9
$TRACEWID
 40
0.05
  9
$TEXTSTYLE
  7
Standard
  9
$CLAYER
  8
0
  9
$CELTYPE
  6
ByBlock
  9
$CECOLOR
 62
   256
  9
$CELTSCALE
 40
1.0
  9
$DISPSILH
 70
     0
  9
$DIMSCALE
 40
1.0
  9
$DIMASZ
 40
0.18
  9
$DIMEXO
 40
0.0625
  9
$DIMDLI
 40
0.38
  9
$DIMRND
 40
0.0
  9
$DIMDLE
 40
0.0
  9
$DIMEXE
 40
0.18
  9
$DIMTP
 40
0.0
  9
$DIMTM
 40
0.0
  9
$DIMTXT
 40
0.18
  9
$DIMCEN
 40
0.09
  9
$DIMTSZ
 40
0.0
  9
$DIMTOL
 70
     0
  9
$DIMLIM
 70
     0
  9
$DIMTIH
 70
     1
  9
$DIMTOH
 70
     1
  9
$DIMSE1
 70
     0
  9
$DIMSE2
 70
     0
  9
$DIMTAD
 70
     0
  9
$DIMZIN
 70
     0
  9
$DIMBLK
  1

  9
$DIMASO
 70
     1
  9
$DIMSHO
 70
     1
  9
$DIMPOST
  1

  9
$DIMAPOST
  1

  9
$DIMALT
 70
     0
  9
$DIMALTD
 70
     2
  9
$DIMALTF
 40
25.4
  9
$DIMLFAC
 40
1.0
  9
$DIMTOFL
 70
     0
  9
$DIMTVP
 40
0.0
  9
$DIMTIX
 70
     0
  9
$DIMSOXD
 70
     0
  9
$DIMSAH
 70
     0
  9
$DIMBLK1
  1

  9
$DIMBLK2
  1

  9
$DIMSTYLE
  2
Standard
  9
$DIMCLRD
 70
     0
  9
$DIMCLRE
 70
     0
  9
$DIMCLRT
 70
     0
  9
$DIMTFAC
 40
1.0
  9
$DIMGAP
 40
0.09
  9
$DIMJUST
 70
     0
  9
$DIMSD1
 70
     0
  9
$DIMSD2
 70
     0
  9
$DIMTOLJ
 70
     1
  9
$DIMTZIN
 70
     0
  9
$DIMALTZ
 70
     0
  9
$DIMALTTZ
 70
     0
  9
$DIMUPT
 70
     0
  9
$DIMDEC
 70
     4
  9
$DIMTDEC
 70
     4
  9
$DIMALTU
 70
     2
  9
$DIMALTTD
 70
     2
  9
$DIMTXSTY
  7
Standard
  9
$DIMAUNIT
 70
     0
  9
$DIMADEC
 70
     0
  9
$DIMALTRND
 40
0.0
  9
$DIMAZIN
 70
     0
  9
$DIMDSEP
 70
    46
  9
$DIMATFIT
 70
     3
  9
$DIMFRAC
 70
     0
  9
$DIMLDRBLK
  1

  9
$DIMLUNIT
 70
     2
  9
$DIMLWD
 70
    -2
  9
$DIMLWE
 70
    -2
  9
$DIMTMOVE
 70
     2
  9
$LUNITS
 70
     2
  9
$LUPREC
 70
     4
  9
$SKETCHINC
 40
0.1
  9
$FILLETRAD
 40
0.5
  9
$AUNITS
 70
     0
  9
$AUPREC
 70
     0
  9
$MENU
  1
.
  9
$ELEVATION
 40
0.0
  9
$PELEVATION
 40
0.0
  9
$THICKNESS
 40
0.0
  9
$LIMCHECK
 70
     0
  9
$CHAMFERA
 40
0.5
  9
$CHAMFERB
 40
0.5
  9
$CHAMFERC
 40
1.0
  9
$CHAMFERD
 40
0.0
  9
$SKPOLY
 70
     0
  9
$TDCREATE
 40
2455824.957958438
  9
$TDUCREATE
 40
2455824.874625104
  9
$TDUPDATE
 40
2455824.960532581
  9
$TDUUPDATE
 40
2455824.877199247
  9
$TDINDWG
 40
0.0025727083
  9
$TDUSRTIMER
 40
0.0025727083
  9
$USRTIMER
 70
     1
  9
$ANGBASE
 50
0.0
  9
$ANGDIR
 70
     0
  9
$PDMODE
 70
     0
  9
$PDSIZE
 40
0.0
  9
$PLINEWID
 40
0.0
  9
$SPLFRAME
 70
     0
  9
$SPLINETYPE
 70
     6
  9
$SPLINESEGS
 70
     8
  9
$HANDSEED
  5
688
  9
$SURFTAB1
 70
     6
  9
$SURFTAB2
 70
     6
  9
$SURFTYPE
 70
     6
  9
$SURFU
 70
     6
  9
$SURFV
 70
     6
  9
$UCSBASE
  2

  9
$UCSNAME
  2

  9
$UCSORG
 10
0.0
 20
0.0
 30
0.0
  9
$UCSXDIR
 10
1.0
 20
0.0
 30
0.0
  9
$UCSYDIR
 10
0.0
 20
1.0
 30
0.0
  9
$UCSORTHOREF
  2

  9
$UCSORTHOVIEW
 70
     0
  9
$UCSORGTOP
 10
0.0
 20
0.0
 30
0.0
  9
$UCSORGBOTTOM
 10
0.0
 20
0.0
 30
0.0
  9
$UCSORGLEFT
 10
0.0
 20
0.0
 30
0.0
  9
$UCSORGRIGHT
 10
0.0
 20
0.0
 30
0.0
  9
$UCSORGFRONT
 10
0.0
 20
0.0
 30
0.0
  9
$UCSORGBACK
 10
0.0
 20
0.0
 30
0.0
  9
$PUCSBASE
  2

  9
$PUCSNAME
  2

  9
$PUCSORG
 10
0.0
 20
0.0
 30
0.0
  9
$PUCSXDIR
 10
1.0
 20
0.0
 30
0.0
  9
$PUCSYDIR
 10
0.0
 20
1.0
 30
0.0
  9
$PUCSORTHOREF
  2

  9
$PUCSORTHOVIEW
 70
     0
  9
$PUCSORGTOP
 10
0.0
 20
0.0
 30
0.0
  9
$PUCSORGBOTTOM
 10
0.0
 20
0.0
 30
0.0
  9
$PUCSORGLEFT
 10
0.0
 20
0.0
 30
0.0
  9
$PUCSORGRIGHT
 10
0.0
 20
0.0
 30
0.0
  9
$PUCSORGFRONT
 10
0.0
 20
0.0
 30
0.0
  9
$PUCSORGBACK
 10
0.0
 20
0.0
 30
0.0
  9
$USERI1
 70
     0
  9
$USERI2
 70
     0
  9
$USERI3
 70
     0
  9
$USERI4
 70
     0
  9
$USERI5
 70
     0
  9
$USERR1
 40
0.0
  9
$USERR2
 40
0.0
  9
$USERR3
 40
0.0
  9
$USERR4
 40
0.0
  9
$USERR5
 40
0.0
  9
$WORLDVIEW
 70
     1
  9
$SHADEDGE
 70
     3
  9
$SHADEDIF
 70
    70
  9
$TILEMODE
 70
     1
  9
$MAXACTVP
 70
    64
  9
$PINSBASE
 10
0.0
 20
0.0
 30
0.0
  9
$PLIMCHECK
 70
     0
  9
$PEXTMIN
 10
1.000000000000E+20
 20
1.000000000000E+20
 30
1.000000000000E+20
  9
$PEXTMAX
 10
-1.000000000000E+20
 20
-1.000000000000E+20
 30
-1.000000000000E+20
  9
$PLIMMIN
 10
0.0
 20
0.0
  9
$PLIMMAX
 10
12.0
 20
9.0
  9
$UNITMODE
 70
     0
  9
$VISRETAIN
 70
     1
  9
$PLINEGEN
 70
     0
  9
$PSLTSCALE
 70
     1
  9
$TREEDEPTH
 70
  3020
  9
$CMLSTYLE
  2
Standard
  9
$CMLJUST
 70
     0
  9
$CMLSCALE
 40
1.0
  9
$PROXYGRAPHICS
 70
     1
  9
$MEASUREMENT
 70
     0
  9
$CELWEIGHT
370
    -1
  9
$ENDCAPS
280
     0
  9
$JOINSTYLE
280
     0
  9
$LWDISPLAY
290
     0
  9
$INSUNITS
 70
     0
  9
$HYPERLINKBASE
  1

  9
$STYLESHEET
  1

  9
$XEDIT
290
     1
  9
$CEPSNTYPE
380
     0
  9
$PSTYLEMODE
290
     1
  9
$FINGERPRINTGUID
  2
{9E6676EE-B9C4-4EAF-8815-414BBD11547A}
  9
$VERSIONGUID
  2
{FAEB1C32-E019-11D5-929B-00C0DF256EC4}
  9
$EXTNAMES
290
     1
  9
$PSVPSCALE
 40
0.0
  9
$OLESTARTUP
290
     0
  0
ENDSEC
  0
SECTION
  2
CLASSES
  0
CLASS
  1
ACDBDICTIONARYWDFLT
  2
AcDbDictionaryWithDefault
  3
ObjectDBX Classes
 90
        0
280
     0
281
     0
  0
CLASS
  1
SCALE
  2
AcDbScale
  3
ObjectDBX Classes
 90
     1153
280
     0
281
     0
  0
CLASS
  1
DICTIONARYVAR
  2
AcDbDictionaryVar
  3
ObjectDBX Classes
 90
        0
280
     0
281
     0
  0
CLASS
  1
ACDBPLACEHOLDER
  2
AcDbPlaceHolder
  3
ObjectDBX Classes
 90
        0
280
     0
281
     0
  0
CLASS
  1
LAYOUT
  2
AcDbLayout
  3
ObjectDBX Classes
 90
        0
280
     0
281
     0
  0
ENDSEC
  0
SECTION
  2
TABLES
  0
TABLE
  2
VPORT
  5
8
330
0
100
AcDbSymbolTable
 70
     1
  0
VPORT
  5
3E1
330
8
100
AcDbSymbolTableRecord
100
AcDbViewportTableRecord
  2
*Active
 70
     0
 10
0.0
 20
0.0
 11
1.0
 21
1.0
 12
237.999
 22
634.5
 13
0.0
 23
0.0
 14
0.5
 24
0.5
 15
0.5
 25
0.5
 16
0.0
 26
0.0
 36
1.0
 17
0.0
 27
0.0
 37
0.0
 40
1294.64622
 41
1.790857142857
 42
50.0
 43
0.0
 44
0.0
 50
0.0
 51
0.0
 71
    16
 72
   100
 73
     1
 74
     3
 75
     0
 76
     0
 77
     0
 78
     0
281
     0
 65
     1
110
0.0
120
0.0
130
0.0
111
1.0
121
0.0
131
0.0
112
0.0
122
1.0
132
0.0
 79
     0
146
0.0
  0
ENDTAB
  0
TABLE
  2
LTYPE
  5
5
330
0
100
AcDbSymbolTable
 70
     1
  0
LTYPE
  5
14
330
5
100
AcDbSymbolTableRecord
100
AcDbLinetypeTableRecord
  2
ByBlock
 70
     0
  3

 72
    65
 73
     0
 40
0.0
  0
LTYPE
  5
15
330
5
100
AcDbSymbolTableRecord
100
AcDbLinetypeTableRecord
  2
ByLayer
 70
     0
  3

 72
    65
 73
     0
 40
0.0
  0
LTYPE
  5
16
330
5
100
AcDbSymbolTableRecord
100
AcDbLinetypeTableRecord
  2
Continuous
 70
     0
  3
Solid line
 72
    65
 73
     0
 40
0.0
  0
ENDTAB
  0
TABLE
  2
LAYER
  5
2
330
0
100
AcDbSymbolTable
 70
     1
  0
LAYER
  5
10
330
2
100
AcDbSymbolTableRecord
100
AcDbLayerTableRecord
  2
0
 70
     0
 62
     7
  6
Continuous
370
    -3
390
F
  0
ENDTAB
  0
TABLE
  2
STYLE
  5
3
330
0
100
AcDbSymbolTable
 70
     1
  0
STYLE
  5
11
330
3
100
AcDbSymbolTableRecord
100
AcDbTextStyleTableRecord
  2
Standard
 70
     0
 40
0.0
 41
1.0
 50
0.0
 71
     0
 42
0.2
  3
txt
  4

  0
ENDTAB
  0
TABLE
  2
VIEW
  5
6
330
0
100
AcDbSymbolTable
 70
     0
  0
ENDTAB
  0
TABLE
  2
UCS
  5
7
330
0
100
AcDbSymbolTable
 70
     0
  0
ENDTAB
  0
TABLE
  2
APPID
  5
9
330
0
100
AcDbSymbolTable
 70
     1
  0
APPID
  5
12
330
9
100
AcDbSymbolTableRecord
100
AcDbRegAppTableRecord
  2
ACAD
 70
     0
  0
ENDTAB
  0
TABLE
  2
DIMSTYLE
  5
A
330
0
100
AcDbSymbolTable
 70
     1
100
AcDbDimStyleTable
  0
DIMSTYLE
105
20
330
A
100
AcDbSymbolTableRecord
100
AcDbDimStyleTableRecord
  2
Standard
 70
     0
340
11
  0
ENDTAB
  0
TABLE
  2
BLOCK_RECORD
  5
1
330
0
100
AcDbSymbolTable
 70
     1
  0
BLOCK_RECORD
  5
1D
330
1
100
AcDbSymbolTableRecord
100
AcDbBlockTableRecord
  2
*Model_Space
340
1E
  0
BLOCK_RECORD
  5
1B
330
1
100
AcDbSymbolTableRecord
100
AcDbBlockTableRecord
  2
*Paper_Space
340
1C
  0
ENDTAB
  0
ENDSEC
  0
SECTION
  2
BLOCKS
  0
BLOCK
  5
3E4
330
1D
100
AcDbEntity
  8
0
100
AcDbBlockBegin
  2
*Model_Space
 70
     0
 10
0.0
 20
0.0
 30
0.0
  3
*Model_Space
  1
*Model_Space
  0
ENDBLK
  5
3E5
330
1D
100
AcDbEntity
  8
0
100
AcDbBlockEnd
  0
BLOCK
  5
3E2
330
1B
100
AcDbEntity
 67
     1
  8
0
100
AcDbBlockBegin
  2
*Paper_Space
 70
     0
 10
0.0
 20
0.0
 30
0.0
  3
*Paper_Space
  1
*Paper_Space
  0
ENDBLK
  5
3E3
330
1B
100
AcDbEntity
 67
     1
  8
0
100
AcDbBlockEnd
  0
ENDSEC
  0
SECTION
  2
ENTITIES
  0
LINE
  5
21
330
1D
100
AcDbEntity
  8
0
100
AcDbLine
 10
64.42665
 20
1204.6105
 30
0.0
 11
64.98435
 21
1204.5105
 31
0.0
  0
LINE
  5
22
330
1D
100
AcDbEntity
  8
0
100
AcDbLine
 10
64.42665
 20
1204.6105
 30
0.0
 11
64.77395
 21
1206.5805
 31
0.0
  0
LINE
  5
23
330
1D
100
AcDbEntity
  8
0
100
AcDbLine
 10
64.42665
 20
1204.6105
 30
0.0
 11
64.773907475662
 21
1206.58025878795
 31
0.0
  0
LINE
  5
24
330
1D
100
AcDbEntity
  8
0
100
AcDbLine
 10
64.77395
 20
1206.5805
 30
0.0
 11
65.33165
 21
1206.4805
 31
0.0
  0
LINE
  5
25
330
1D
100
AcDbEntity
  8
0
100
AcDbLine
 10
50.17635
 20
1207.1205
 30
0.0
 11
50.52365
 21
1209.0905
 31
0.0
  0
LINE
  5
26
330
1D
100
AcDbEntity
  8
0
100
AcDbLine
 10
49.61875
 20
1207.2205
 30
0.0
 11
50.17635
 21
1207.1205
 31
0.0
  0
LINE
  5
27
330
1D
100
AcDbEntity
  8
0
100
AcDbLine
 10
49.61875
 20
1207.2205
 30
0.0
 11
49.96605
 21
1209.1905
 31
0.0
  0
LINE
  5
28
330
1D
100
AcDbEntity
  8
0
100
AcDbLine
 10
48.31765
 20
1207.4505
 30
0.0
 11
49.61875
 21
1207.2205
 31
0.0
  0
LINE
  5
29
330
1D
100
AcDbEntity
  8
0
100
AcDbLine
 10
48.31765
 20
1207.4505
 30
0.0
 11
48.66485
 21
1209.4205
 31
0.0
  0
LINE
  5
2A
330
1D
100
AcDbEntity
  8
0
100
AcDbLine
 10
48.66485
 20
1209.4205
 30
0.0
 11
49.96605
 21
1209.1905
 31
0.0
  0
LINE
  5
2B
330
1D
100
AcDbEntity
  8
0
100
AcDbLine
 10
49.96605
 20
1209.1905
 30
0.0
 11
50.52365
 21
1209.0905
 31
0.0
  0
LINE
  5
2C
330
1D
100
AcDbEntity
  8
0
100
AcDbLine
 10
46.45885
 20
1207.7805
 30
0.0
 11
47.01645
 21
1207.6805
 31
0.0
  0
LINE
  5
2D
330
1D
100
AcDbEntity
  8
0
100
AcDbLine
 10
46.45885
 20
1207.7805
 30
0.0
 11
46.805954835562
 21
1209.74939296302
 31
0.0
  0
LINE
  5
2E
330
1D
100
AcDbEntity
  8
0
100
AcDbLine
 10
46.45885
 20
1207.7805
 30
0.0
 11
46.80576536437
 21
1209.74831822001
 31
0.0
  0
LINE
  5
2F
330
1D
100
AcDbEntity
  8
0
100
AcDbLine
 10
47.01645
 20
1207.6805
 30
0.0
 11
48.31765
 21
1207.4505
 31
0.0
  0
LINE
  5
30
330
1D
100
AcDbEntity
  8
0
100
AcDbLine
 10
47.01645
 20
1207.6805
 30
0.0
 11
47.36375
 21
1209.6505
 31
0.0
  0
LINE
  5
31
330
1D
100
AcDbEntity
  8
0
100
AcDbLine
 10
64.8570606836
 20
1206.56559760022
 30
0.0
 11
67.114222730842
 21
1206.16762526289
 31
0.0
  0
LINE
  5
32
330
1D
100
AcDbEntity
  8
0
100
AcDbLine
 10
64.857060683599
 20
1206.56559760022
 30
0.0
 11
67.114222730841
 21
1206.16762526289
 31
0.0
  0
LINE
  5
33
330
1D
100
AcDbEntity
  8
0
100
AcDbLine
 10
64.979668138022
 20
1206.54398002284
 30
0.0
 11
67.114222730841
 21
1206.16762526289
 31
0.0
  0
LINE
  5
34
330
1D
100
AcDbEntity
  8
0
100
AcDbLine
 10
64.98435
 20
1204.5105
 30
0.0
 11
66.28555
 21
1204.2805
 31
0.0
  0
LINE
  5
35
330
1D
100
AcDbEntity
  8
0
100
AcDbLine
 10
64.98435
 20
1204.5105
 30
0.0
 11
65.33165
 21
1206.4805
 31
0.0
  0
LINE
  5
36
330
1D
100
AcDbEntity
  8
0
100
AcDbLine
 10
68.14425
 20
1203.9605
 30
0.0
 11
68.490673859524
 21
1205.92553024262
 31
0.0
  0
LINE
  5
37
330
1D
100
AcDbEntity
  8
0
100
AcDbLine
 10
67.58655
 20
1204.0505
 30
0.0
 11
68.14425
 21
1203.9605
 31
0.0
  0
LINE
  5
38
330
1D
100
AcDbEntity
  8
0
100
AcDbLine
 10
67.58655
 20
1204.0505
 30
0.0
 11
67.93385
 21
1206.0205
 31
0.0
  0
LINE
  5
39
330
1D
100
AcDbEntity
  8
0
100
AcDbLine
 10
66.28555
 20
1204.2805
 30
0.0
 11
67.58655
 21
1204.0505
 31
0.0
  0
LINE
  5
3A
330
1D
100
AcDbEntity
  8
0
100
AcDbLine
 10
66.28555
 20
1204.2805
 30
0.0
 11
66.63285
 21
1206.2505
 31
0.0
  0
LINE
  5
3B
330
1D
100
AcDbEntity
  8
0
100
AcDbLine
 10
65.33165
 20
1206.4805
 30
0.0
 11
66.63285
 21
1206.2505
 31
0.0
  0
LINE
  5
3C
330
1D
100
AcDbEntity
  8
0
100
AcDbLine
 10
66.63285
 20
1206.2505
 30
0.0
 11
67.93385
 21
1206.0205
 31
0.0
  0
LINE
  5
3D
330
1D
100
AcDbEntity
  8
0
100
AcDbLine
 10
66.63285
 20
1206.2505
 30
0.0
 11
67.264391764083
 21
1206.14177166057
 31
0.0
  0
LINE
  5
3E
330
1D
100
AcDbEntity
  8
0
100
AcDbLine
 10
66.63285
 20
1206.2505
 30
0.0
 11
67.264391764083
 21
1206.14177166057
 31
0.0
  0
LINE
  5
3F
330
1D
100
AcDbEntity
  8
0
100
AcDbLine
 10
67.93385
 20
1206.0205
 30
0.0
 11
68.149064539639
 21
1205.98576930506
 31
0.0
  0
LINE
  5
40
330
1D
100
AcDbEntity
  8
0
100
AcDbLine
 10
67.93385
 20
1206.0205
 30
0.0
 11
68.149064539639
 21
1205.98576930506
 31
0.0
  0
LINE
  5
41
330
1D
100
AcDbEntity
  8
0
100
AcDbLine
 10
65.33165
 20
1206.4805
 30
0.0
 11
66.63285
 21
1206.2505
 31
0.0
  0
LINE
  5
42
330
1D
100
AcDbEntity
  8
0
100
AcDbLine
 10
68.490572219734
 20
1205.92495370825
 30
0.0
 11
81.192017440311
 21
1203.68549383073
 31
0.0
  0
LINE
  5
43
330
1D
100
AcDbEntity
  8
0
100
AcDbLine
 10
68.490572219734
 20
1205.92495370825
 30
0.0
 11
85.15418704683
 21
1202.986902473
 31
0.0
  0
LINE
  5
44
330
1D
100
AcDbEntity
  8
0
100
AcDbLine
 10
64.979668138023
 20
1206.54398002284
 30
0.0
 11
67.114222730842
 21
1206.16762526289
 31
0.0
  0
LINE
  5
45
330
1D
100
AcDbEntity
  8
0
100
AcDbLine
 10
14.24065
 20
1213.4605
 30
0.0
 11
14.58795
 21
1215.4305
 31
0.0
  0
LINE
  5
46
330
1D
100
AcDbEntity
  8
0
100
AcDbLine
 10
13.68295
 20
1213.5605
 30
0.0
 11
14.24065
 21
1213.4605
 31
0.0
  0
LINE
  5
47
330
1D
100
AcDbEntity
  8
0
100
AcDbLine
 10
13.68295
 20
1213.5605
 30
0.0
 11
14.029998587001
 21
1215.52907390266
 31
0.0
  0
LINE
  5
48
330
1D
100
AcDbEntity
  8
0
100
AcDbLine
 10
12.38195
 20
1213.7905
 30
0.0
 11
13.68295
 21
1213.5605
 31
0.0
  0
LINE
  5
49
330
1D
100
AcDbEntity
  8
0
100
AcDbLine
 10
12.38195
 20
1213.7905
 30
0.0
 11
12.728898923657
 21
1215.75850857934
 31
0.0
  0
LINE
  5
4A
330
1D
100
AcDbEntity
  8
0
100
AcDbLine
 10
10.52315
 20
1214.1205
 30
0.0
 11
11.08085
 21
1214.0205
 31
0.0
  0
LINE
  5
4B
330
1D
100
AcDbEntity
  8
0
100
AcDbLine
 10
10.52315
 20
1214.1205
 30
0.0
 11
10.869384156422
 21
1216.08445418414
 31
0.0
  0
LINE
  5
4C
330
1D
100
AcDbEntity
  8
0
100
AcDbLine
 10
10.52315
 20
1214.1205
 30
0.0
 11
10.869719183104
 21
1216.08635456584
 31
0.0
  0
LINE
  5
4D
330
1D
100
AcDbEntity
  8
0
100
AcDbLine
 10
11.08085
 20
1214.0205
 30
0.0
 11
12.38195
 21
1213.7905
 31
0.0
  0
LINE
  5
4E
330
1D
100
AcDbEntity
  8
0
100
AcDbLine
 10
11.08085
 20
1214.0205
 30
0.0
 11
11.427702275341
 21
1215.98796035826
 31
0.0
  0
LINE
  5
4F
330
1D
100
AcDbEntity
  8
0
100
AcDbLine
 10
14.587198159146
 20
1215.42894647249
 30
0.0
 11
28.837623253078
 21
1212.91637765207
 31
0.0
  0
LINE
  5
50
330
1D
100
AcDbEntity
  8
0
100
AcDbLine
 10
14.525540972853
 20
1215.44169042983
 30
0.0
 11
14.58795
 21
1215.4305
 31
0.0
  0
LINE
  5
51
330
1D
100
AcDbEntity
  8
0
100
AcDbLine
 10
14.525540972853
 20
1215.44169042983
 30
0.0
 11
14.58795
 21
1215.4305
 31
0.0
  0
LINE
  5
52
330
1D
100
AcDbEntity
  8
0
100
AcDbLine
 10
14.587198159146
 20
1215.42894647249
 30
0.0
 11
28.837623253078
 21
1212.91637765207
 31
0.0
  0
LINE
  5
53
330
1D
100
AcDbEntity
  8
0
100
AcDbLine
 10
9.498776900864
 20
1216.32775323847
 30
0.0
 11
10.8696599822
 21
1216.08601875881
 31
0.0
  0
LINE
  5
54
330
1D
100
AcDbEntity
  8
0
100
AcDbLine
 10
9.498776900865
 20
1216.32775323847
 30
0.0
 11
10.8696599822
 21
1216.08601875881
 31
0.0
  0
LINE
  5
55
330
1D
100
AcDbEntity
  8
0
100
AcDbLine
 10
9.82545
 20
1216.2705
 30
0.0
 11
93.58455
 21
1201.5005
 31
0.0
  0
LINE
  5
56
330
1D
100
AcDbEntity
  8
0
100
AcDbLine
 10
14.58766171294
 20
1215.42886474084
 30
0.0
 11
28.837623253078
 21
1212.91637765207
 31
0.0
  0
LINE
  5
57
330
1D
100
AcDbEntity
  8
0
100
AcDbLine
 10
7.373812323952
 20
1216.70245857498
 30
0.0
 11
7.94255
 21
1216.6005
 31
0.0
  0
LINE
  5
58
330
1D
100
AcDbEntity
  8
0
100
AcDbLine
 10
7.94255
 20
1216.6005
 30
0.0
 11
10.869384156422
 21
1216.08445418414
 31
0.0
  0
LINE
  5
59
330
1D
100
AcDbEntity
  8
0
100
AcDbLine
 10
7.94255
 20
1216.6005
 30
0.0
 11
10.869384156422
 21
1216.08445418414
 31
0.0
  0
LINE
  5
5A
330
1D
100
AcDbEntity
  8
0
100
AcDbLine
 10
7.94255
 20
1216.6005
 30
0.0
 11
14.029676360659
 21
1215.5272461287
 31
0.0
  0
LINE
  5
5B
330
1D
100
AcDbEntity
  8
0
100
AcDbLine
 10
7.94255
 20
1216.6005
 30
0.0
 11
14.029676360659
 21
1215.5272461287
 31
0.0
  0
LINE
  5
5C
330
1D
100
AcDbEntity
  8
0
100
AcDbLine
 10
32.20855
 20
1210.2905
 30
0.0
 11
32.55585
 21
1212.2605
 31
0.0
  0
LINE
  5
5D
330
1D
100
AcDbEntity
  8
0
100
AcDbLine
 10
31.65095
 20
1210.3905
 30
0.0
 11
32.20855
 21
1210.2905
 31
0.0
  0
LINE
  5
5E
330
1D
100
AcDbEntity
  8
0
100
AcDbLine
 10
31.65095
 20
1210.3905
 30
0.0
 11
31.99825
 21
1212.3605
 31
0.0
  0
LINE
  5
5F
330
1D
100
AcDbEntity
  8
0
100
AcDbLine
 10
30.34975
 20
1210.6205
 30
0.0
 11
31.65095
 21
1210.3905
 31
0.0
  0
LINE
  5
60
330
1D
100
AcDbEntity
  8
0
100
AcDbLine
 10
30.34975
 20
1210.6205
 30
0.0
 11
30.6969682574
 21
1212.59003632905
 31
0.0
  0
LINE
  5
61
330
1D
100
AcDbEntity
  8
0
100
AcDbLine
 10
28.49105
 20
1210.9505
 30
0.0
 11
29.04865
 21
1210.8505
 31
0.0
  0
LINE
  5
62
330
1D
100
AcDbEntity
  8
0
100
AcDbLine
 10
28.49105
 20
1210.9505
 30
0.0
 11
28.837623253078
 21
1212.91637765207
 31
0.0
  0
LINE
  5
63
330
1D
100
AcDbEntity
  8
0
100
AcDbLine
 10
28.49105
 20
1210.9505
 30
0.0
 11
28.837885501819
 21
1212.91786521331
 31
0.0
  0
LINE
  5
64
330
1D
100
AcDbEntity
  8
0
100
AcDbLine
 10
29.04865
 20
1210.8505
 30
0.0
 11
30.34975
 21
1210.6205
 31
0.0
  0
LINE
  5
65
330
1D
100
AcDbEntity
  8
0
100
AcDbLine
 10
29.04865
 20
1210.8505
 30
0.0
 11
29.395771609084
 21
1212.81948810796
 31
0.0
  0
LINE
  5
66
330
1D
100
AcDbEntity
  8
0
100
AcDbLine
 10
47.36375
 20
1209.6505
 30
0.0
 11
48.66485
 21
1209.4205
 31
0.0
  0
LINE
  5
67
330
1D
100
AcDbEntity
  8
0
100
AcDbLine
 10
47.251139557173
 20
1209.67069556005
 30
0.0
 11
67.237980112944
 21
1206.14631877864
 31
0.0
  0
LINE
  5
68
330
1D
100
AcDbEntity
  8
0
100
AcDbLine
 10
47.186509759721
 20
1209.68228626978
 30
0.0
 11
47.36375
 21
1209.6505
 31
0.0
  0
LINE
  5
69
330
1D
100
AcDbEntity
  8
0
100
AcDbLine
 10
47.186509759721
 20
1209.68228626978
 30
0.0
 11
47.36375
 21
1209.6505
 31
0.0
  0
LINE
  5
6A
330
1D
100
AcDbEntity
  8
0
100
AcDbLine
 10
47.251139557173
 20
1209.67069556005
 30
0.0
 11
67.237980112944
 21
1206.14631877864
 31
0.0
  0
LINE
  5
6B
330
1D
100
AcDbEntity
  8
0
100
AcDbLine
 10
48.592722419298
 20
1209.43325024484
 30
0.0
 11
64.773907475662
 21
1206.58025878795
 31
0.0
  0
LINE
  5
6C
330
1D
100
AcDbEntity
  8
0
100
AcDbLine
 10
48.592722419294
 20
1209.43325024484
 30
0.0
 11
64.773907475662
 21
1206.58025878795
 31
0.0
  0
LINE
  5
6D
330
1D
100
AcDbEntity
  8
0
100
AcDbLine
 10
48.637942633932
 20
1209.42527722645
 30
0.0
 11
64.773907475662
 21
1206.58025878795
 31
0.0
  0
LINE
  5
6E
330
1D
100
AcDbEntity
  8
0
100
AcDbLine
 10
32.457602146207
 20
1212.27811977292
 30
0.0
 11
46.80576536437
 21
1209.74831822001
 31
0.0
  0
LINE
  5
6F
330
1D
100
AcDbEntity
  8
0
100
AcDbLine
 10
31.99825
 20
1212.3605
 30
0.0
 11
32.55585
 21
1212.2605
 31
0.0
  0
LINE
  5
70
330
1D
100
AcDbEntity
  8
0
100
AcDbLine
 10
31.833007898075
 20
1212.38970817971
 30
0.0
 11
31.99825
 21
1212.3605
 31
0.0
  0
LINE
  5
71
330
1D
100
AcDbEntity
  8
0
100
AcDbLine
 10
31.833007898076
 20
1212.38970817971
 30
0.0
 11
31.99825
 21
1212.3605
 31
0.0
  0
LINE
  5
72
330
1D
100
AcDbEntity
  8
0
100
AcDbLine
 10
14.587925139579
 20
1215.4303589835
 30
0.0
 11
28.837839161143
 21
1212.91760235373
 31
0.0
  0
LINE
  5
73
330
1D
100
AcDbEntity
  8
0
100
AcDbLine
 10
14.587925139579
 20
1215.4303589835
 30
0.0
 11
28.837839161143
 21
1212.91760235373
 31
0.0
  0
LINE
  5
74
330
1D
100
AcDbEntity
  8
0
100
AcDbLine
 10
32.060894459179
 20
1212.34926534089
 30
0.0
 11
46.805921355046
 21
1209.74920305051
 31
0.0
  0
LINE
  5
75
330
1D
100
AcDbEntity
  8
0
100
AcDbLine
 10
32.060894459179
 20
1212.34926534089
 30
0.0
 11
46.805921355046
 21
1209.74920305051
 31
0.0
  0
LINE
  5
76
330
1D
100
AcDbEntity
  8
0
100
AcDbLine
 10
32.457602146208
 20
1212.27811977292
 30
0.0
 11
46.80576536437
 21
1209.74831822001
 31
0.0
  0
LINE
  5
77
330
1D
100
AcDbEntity
  8
0
100
AcDbLine
 10
14.58766171294
 20
1215.42886474084
 30
0.0
 11
28.837623253078
 21
1212.91637765207
 31
0.0
  0
LINE
  5
78
330
1D
100
AcDbEntity
  8
0
100
AcDbLine
 10
48.637942633933
 20
1209.42527722645
 30
0.0
 11
64.773907475662
 21
1206.58025878795
 31
0.0
  0
LINE
  5
79
330
1D
100
AcDbEntity
  8
0
100
AcDbLine
 10
86.11206
 20
1200.7905
 30
0.0
 11
86.458752891764
 21
1202.75705628211
 31
0.0
  0
LINE
  5
7A
330
1D
100
AcDbEntity
  8
0
100
AcDbLine
 10
85.55446
 20
1200.8905
 30
0.0
 11
86.11206
 21
1200.7905
 31
0.0
  0
LINE
  5
7B
330
1D
100
AcDbEntity
  8
0
100
AcDbLine
 10
85.55446
 20
1200.8905
 30
0.0
 11
85.900866784499
 21
1202.85543338745
 31
0.0
  0
LINE
  5
7C
330
1D
100
AcDbEntity
  8
0
100
AcDbLine
 10
82.394608
 20
1201.4405
 30
0.0
 11
82.952206
 21
1201.3405
 31
0.0
  0
LINE
  5
7D
330
1D
100
AcDbEntity
  8
0
100
AcDbLine
 10
82.394608
 20
1201.4405
 30
0.0
 11
82.741904
 21
1203.4105
 31
0.0
  0
LINE
  5
7E
330
1D
100
AcDbEntity
  8
0
100
AcDbLine
 10
82.952206
 20
1201.3405
 30
0.0
 11
83.875081730868
 21
1201.18445594825
 31
0.0
  0
LINE
  5
7F
330
1D
100
AcDbEntity
  8
0
100
AcDbLine
 10
82.952206
 20
1201.3405
 30
0.0
 11
84.25333
 21
1201.1205
 31
0.0
  0
LINE
  5
80
330
1D
100
AcDbEntity
  8
0
100
AcDbLine
 10
82.952206
 20
1201.3405
 30
0.0
 11
83.299502
 21
1203.3105
 31
0.0
  0
LINE
  5
81
330
1D
100
AcDbEntity
  8
0
100
AcDbLine
 10
81.29172
 20
1201.6405
 30
0.0
 11
82.395514018949
 21
1201.44563929711
 31
0.0
  0
LINE
  5
82
330
1D
100
AcDbEntity
  8
0
100
AcDbLine
 10
80.8456
 20
1201.7205
 30
0.0
 11
81.192067634601
 21
1203.68577854928
 31
0.0
  0
LINE
  5
83
330
1D
100
AcDbEntity
  8
0
100
AcDbLine
 10
80.8456
 20
1201.7205
 30
0.0
 11
81.29172
 21
1201.6405
 31
0.0
  0
LINE
  5
84
330
1D
100
AcDbEntity
  8
0
100
AcDbLine
 10
84.25333
 20
1201.1205
 30
0.0
 11
85.55446
 21
1200.8905
 31
0.0
  0
LINE
  5
85
330
1D
100
AcDbEntity
  8
0
100
AcDbLine
 10
84.25333
 20
1201.1205
 30
0.0
 11
84.60063
 21
1203.0805
 31
0.0
  0
LINE
  5
86
330
1D
100
AcDbEntity
  8
0
100
AcDbLine
 10
86.458528998743
 20
1202.75578628714
 30
0.0
 11
87.43826
 21
1202.5805
 31
0.0
  0
LINE
  5
87
330
1D
100
AcDbEntity
  8
0
100
AcDbLine
 10
83.875081730868
 20
1201.18445594825
 30
0.0
 11
84.46398
 21
1201.0805
 31
0.0
  0
LINE
  5
88
330
1D
100
AcDbEntity
  8
0
100
AcDbLine
 10
84.46398
 20
1201.0805
 30
0.0
 11
87.09096
 21
1200.6105
 31
0.0
  0
LINE
  5
89
330
1D
100
AcDbEntity
  8
0
100
AcDbLine
 10
93.23725
 20
1199.5305
 30
0.0
 11
96.40955
 21
1198.9705
 31
0.0
  0
LINE
  5
8A
330
1D
100
AcDbEntity
  8
0
100
AcDbLine
 10
90.06498
 20
1200.0905
 30
0.0
 11
93.23725
 21
1199.5305
 31
0.0
  0
LINE
  5
8B
330
1D
100
AcDbEntity
  8
0
100
AcDbLine
 10
87.09096
 20
1200.6105
 30
0.0
 11
93.23725
 21
1199.5305
 31
0.0
  0
LINE
  5
8C
330
1D
100
AcDbEntity
  8
0
100
AcDbLine
 10
87.09096
 20
1200.6105
 30
0.0
 11
90.06498
 21
1200.0905
 31
0.0
  0
LINE
  5
8D
330
1D
100
AcDbEntity
  8
0
100
AcDbLine
 10
87.43826
 20
1202.5805
 30
0.0
 11
90.006707076906
 21
1202.13141341686
 31
0.0
  0
LINE
  5
8E
330
1D
100
AcDbEntity
  8
0
100
AcDbLine
 10
87.43826
 20
1202.5805
 30
0.0
 11
90.006707076906
 21
1202.13141341686
 31
0.0
  0
LINE
  5
8F
330
1D
100
AcDbEntity
  8
0
100
AcDbLine
 10
93.58455
 20
1201.5005
 30
0.0
 11
97.112151057295
 21
1200.87837398709
 31
0.0
  0
LINE
  5
90
330
1D
100
AcDbEntity
  8
0
100
AcDbLine
 10
93.58455
 20
1201.5005
 30
0.0
 11
177.34345
 21
1186.7305
 31
0.0
  0
LINE
  5
91
330
1D
100
AcDbEntity
  8
0
100
AcDbLine
 10
93.58455
 20
1201.5005
 30
0.0
 11
97.125168278131
 21
1200.87609786656
 31
0.0
  0
LINE
  5
92
330
1D
100
AcDbEntity
  8
0
100
AcDbLine
 10
93.58455
 20
1201.5005
 30
0.0
 11
97.12516827813
 21
1200.87609786656
 31
0.0
  0
LINE
  5
93
330
1D
100
AcDbEntity
  8
0
100
AcDbLine
 10
93.58455
 20
1201.5005
 30
0.0
 11
97.112151057296
 21
1200.87837398709
 31
0.0
  0
LINE
  5
94
330
1D
100
AcDbEntity
  8
0
100
AcDbLine
 10
93.58455
 20
1201.5005
 30
0.0
 11
96.75685
 21
1200.9405
 31
0.0
  0
LINE
  5
95
330
1D
100
AcDbEntity
  8
0
100
AcDbLine
 10
86.458724029562
 20
1202.75689256619
 30
0.0
 11
89.948965068579
 21
1202.1415094634
 31
0.0
  0
LINE
  5
96
330
1D
100
AcDbEntity
  8
0
100
AcDbLine
 10
84.60063
 20
1203.0805
 30
0.0
 11
85.181713167987
 21
1202.98224825194
 31
0.0
  0
LINE
  5
97
330
1D
100
AcDbEntity
  8
0
100
AcDbLine
 10
84.60063
 20
1203.0805
 30
0.0
 11
85.181713167987
 21
1202.98224825194
 31
0.0
  0
LINE
  5
98
330
1D
100
AcDbEntity
  8
0
100
AcDbLine
 10
82.741904
 20
1203.4105
 30
0.0
 11
83.299502
 21
1203.3105
 31
0.0
  0
LINE
  5
99
330
1D
100
AcDbEntity
  8
0
100
AcDbLine
 10
83.299502
 20
1203.3105
 30
0.0
 11
84.60063
 21
1203.0805
 31
0.0
  0
LINE
  5
9A
330
1D
100
AcDbEntity
  8
0
100
AcDbLine
 10
86.458747791668
 20
1202.75702735268
 30
0.0
 11
89.99663753239
 21
1202.13317405167
 31
0.0
  0
LINE
  5
9B
330
1D
100
AcDbEntity
  8
0
100
AcDbLine
 10
68.490655899261
 20
1205.92542836609
 30
0.0
 11
85.176862230074
 21
1202.98306846694
 31
0.0
  0
LINE
  5
9C
330
1D
100
AcDbEntity
  8
0
100
AcDbLine
 10
68.490655899261
 20
1205.92542836609
 30
0.0
 11
85.176862230074
 21
1202.98306846694
 31
0.0
  0
LINE
  5
9D
330
1D
100
AcDbEntity
  8
0
100
AcDbLine
 10
86.458747791668
 20
1202.75702735268
 30
0.0
 11
89.996637532392
 21
1202.13317405167
 31
0.0
  0
LINE
  5
9E
330
1D
100
AcDbEntity
  8
0
100
AcDbLine
 10
86.458724029562
 20
1202.75689256619
 30
0.0
 11
89.948965068578
 21
1202.1415094634
 31
0.0
  0
LINE
  5
9F
330
1D
100
AcDbEntity
  8
0
100
AcDbLine
 10
68.490572219734
 20
1205.92495370825
 30
0.0
 11
81.192017440311
 21
1203.68549383073
 31
0.0
  0
LINE
  5
A0
330
1D
100
AcDbEntity
  8
0
100
AcDbLine
 10
68.490572219734
 20
1205.92495370825
 30
0.0
 11
85.15418704683
 21
1202.986902473
 31
0.0
  0
LINE
  5
A1
330
1D
100
AcDbEntity
  8
0
100
AcDbLine
 10
3.10095
 20
1217.4605
 30
0.0
 11
4.44585
 21
1217.2205
 31
0.0
  0
LINE
  5
A2
330
1D
100
AcDbEntity
  8
0
100
AcDbLine
 10
1.48705
 20
1217.7405
 30
0.0
 11
7.373812323952
 21
1216.70245857498
 31
0.0
  0
LINE
  5
A3
330
1D
100
AcDbEntity
  8
0
100
AcDbLine
 10
1.48705
 20
1217.7405
 30
0.0
 11
7.373812323953
 21
1216.70245857498
 31
0.0
  0
LINE
  5
A4
330
1D
100
AcDbEntity
  8
0
100
AcDbLine
 10
5.10025
 20
1217.7805
 30
0.0
 11
6.90935
 21
1217.4605
 31
0.0
  0
LINE
  5
A5
330
1D
100
AcDbEntity
  8
0
100
AcDbLine
 10
6.90935
 20
1217.4605
 30
0.0
 11
8.81775
 21
1217.1205
 31
0.0
  0
LINE
  5
A6
330
1D
100
AcDbEntity
  8
0
100
AcDbLine
 10
8.81775
 20
1217.1205
 30
0.0
 11
93.70035
 21
1202.1605
 31
0.0
  0
LINE
  5
A7
330
1D
100
AcDbEntity
  8
0
100
AcDbLine
 10
6.15755
 20
1216.9205
 30
0.0
 11
7.94255
 21
1216.6005
 31
0.0
  0
LINE
  5
A8
330
1D
100
AcDbEntity
  8
0
100
AcDbLine
 10
4.44585
 20
1217.2205
 30
0.0
 11
6.797103474516
 21
1216.80584615583
 31
0.0
  0
LINE
  5
A9
330
1D
100
AcDbEntity
  8
0
100
AcDbLine
 10
4.44585
 20
1217.2205
 30
0.0
 11
6.797103474516
 21
1216.80584615583
 31
0.0
  0
LINE
  5
AA
330
1D
100
AcDbEntity
  8
0
100
AcDbLine
 10
4.44585
 20
1217.2205
 30
0.0
 11
6.797103474516
 21
1216.80584615583
 31
0.0
  0
LINE
  5
AB
330
1D
100
AcDbEntity
  8
0
100
AcDbLine
 10
1.01095
 20
1218.5005
 30
0.0
 11
2.00235
 21
1218.3305
 31
0.0
  0
LINE
  5
AC
330
1D
100
AcDbEntity
  8
0
100
AcDbLine
 10
0.36665
 20
1218.6105
 30
0.0
 11
1.01095
 21
1218.5005
 31
0.0
  0
LINE
  5
AD
330
1D
100
AcDbEntity
  8
0
100
AcDbLine
 10
2.00235
 20
1218.3305
 30
0.0
 11
3.36535
 21
1218.0905
 31
0.0
  0
LINE
  5
AE
330
1D
100
AcDbEntity
  8
0
100
AcDbLine
 10
3.36535
 20
1218.0905
 30
0.0
 11
5.10025
 21
1217.7805
 31
0.0
  0
LINE
  5
AF
330
1D
100
AcDbEntity
  8
0
100
AcDbLine
 10
1.26695
 20
1217.7805
 30
0.0
 11
1.48705
 21
1217.7405
 31
0.0
  0
LINE
  5
B0
330
1D
100
AcDbEntity
  8
0
100
AcDbLine
 10
0.14355
 20
1218.6505
 30
0.0
 11
1.26695
 21
1217.7805
 31
0.0
  0
LINE
  5
B1
330
1D
100
AcDbEntity
  8
0
100
AcDbLine
 10
0.14355
 20
1218.6505
 30
0.0
 11
0.36665
 21
1218.6105
 31
0.0
  0
LINE
  5
B2
330
1D
100
AcDbEntity
  8
0
100
AcDbLine
 10
0.14355
 20
1218.6505
 30
0.0
 11
2.11155
 21
1229.8205
 31
0.0
  0
LINE
  5
B3
330
1D
100
AcDbEntity
  8
0
100
AcDbLine
 10
7.373812323952
 20
1216.70245857498
 30
0.0
 11
7.94255
 21
1216.6005
 31
0.0
  0
LINE
  5
B4
330
1D
100
AcDbEntity
  8
0
100
AcDbLine
 10
98.207065028355
 20
1198.65619628611
 30
0.0
 11
99.807806139108
 21
1198.3745894476
 31
0.0
  0
LINE
  5
B5
330
1D
100
AcDbEntity
  8
0
100
AcDbLine
 10
98.207065028354
 20
1198.65619628611
 30
0.0
 11
99.807806139108
 21
1198.3745894476
 31
0.0
  0
LINE
  5
B6
330
1D
100
AcDbEntity
  8
0
100
AcDbLine
 10
96.40955
 20
1198.9705
 30
0.0
 11
99.38345
 21
1198.4505
 31
0.0
  0
LINE
  5
B7
330
1D
100
AcDbEntity
  8
0
100
AcDbLine
 10
104.07995
 20
1197.6205
 30
0.0
 11
104.426908731407
 21
1199.58856421213
 31
0.0
  0
LINE
  5
B8
330
1D
100
AcDbEntity
  8
0
100
AcDbLine
 10
105.62905
 20
1197.3505
 30
0.0
 11
105.97546715991
 21
1199.31549224021
 31
0.0
  0
LINE
  5
B9
330
1D
100
AcDbEntity
  8
0
100
AcDbLine
 10
105.18295
 20
1197.4205
 30
0.0
 11
105.62905
 21
1197.3505
 31
0.0
  0
LINE
  5
BA
330
1D
100
AcDbEntity
  8
0
100
AcDbLine
 10
103.52255
 20
1197.7205
 30
0.0
 11
104.07995
 21
1197.6205
 31
0.0
  0
LINE
  5
BB
330
1D
100
AcDbEntity
  8
0
100
AcDbLine
 10
103.52255
 20
1197.7205
 30
0.0
 11
103.869216634233
 21
1199.68690734074
 31
0.0
  0
LINE
  5
BC
330
1D
100
AcDbEntity
  8
0
100
AcDbLine
 10
102.22165
 20
1197.9505
 30
0.0
 11
103.52255
 21
1197.7205
 31
0.0
  0
LINE
  5
BD
330
1D
100
AcDbEntity
  8
0
100
AcDbLine
 10
102.22165
 20
1197.9505
 30
0.0
 11
102.568214049523
 21
1199.91632544647
 31
0.0
  0
LINE
  5
BE
330
1D
100
AcDbEntity
  8
0
100
AcDbLine
 10
103.99335
 20
1197.6305
 30
0.0
 11
105.18295
 21
1197.4205
 31
0.0
  0
LINE
  5
BF
330
1D
100
AcDbEntity
  8
0
100
AcDbLine
 10
102.01085
 20
1197.9805
 30
0.0
 11
103.99335
 21
1197.6305
 31
0.0
  0
LINE
  5
C0
330
1D
100
AcDbEntity
  8
0
100
AcDbLine
 10
100.91975
 20
1198.1805
 30
0.0
 11
102.22165
 21
1197.9505
 31
0.0
  0
LINE
  5
C1
330
1D
100
AcDbEntity
  8
0
100
AcDbLine
 10
100.91975
 20
1198.1805
 30
0.0
 11
101.266241615172
 21
1200.14591457498
 31
0.0
  0
LINE
  5
C2
330
1D
100
AcDbEntity
  8
0
100
AcDbLine
 10
100.36235
 20
1198.2705
 30
0.0
 11
100.688350510471
 21
1198.21439277505
 31
0.0
  0
LINE
  5
C3
330
1D
100
AcDbEntity
  8
0
100
AcDbLine
 10
100.36235
 20
1198.2705
 30
0.0
 11
100.688350510471
 21
1198.21439277505
 31
0.0
  0
LINE
  5
C4
330
1D
100
AcDbEntity
  8
0
100
AcDbLine
 10
100.36235
 20
1198.2705
 30
0.0
 11
100.633157771344
 21
1198.22389187499
 31
0.0
  0
LINE
  5
C5
330
1D
100
AcDbEntity
  8
0
100
AcDbLine
 10
100.36235
 20
1198.2705
 30
0.0
 11
100.633157771344
 21
1198.22389187499
 31
0.0
  0
LINE
  5
C6
330
1D
100
AcDbEntity
  8
0
100
AcDbLine
 10
100.36235
 20
1198.2705
 30
0.0
 11
100.633157771344
 21
1198.22389187499
 31
0.0
  0
LINE
  5
C7
330
1D
100
AcDbEntity
  8
0
100
AcDbLine
 10
100.36235
 20
1198.2705
 30
0.0
 11
101.084041257587
 21
1198.14629131801
 31
0.0
  0
LINE
  5
C8
330
1D
100
AcDbEntity
  8
0
100
AcDbLine
 10
100.36235
 20
1198.2705
 30
0.0
 11
102.22165
 21
1197.9505
 31
0.0
  0
LINE
  5
C9
330
1D
100
AcDbEntity
  8
0
100
AcDbLine
 10
100.36235
 20
1198.2705
 30
0.0
 11
100.91975
 21
1198.1805
 31
0.0
  0
LINE
  5
CA
330
1D
100
AcDbEntity
  8
0
100
AcDbLine
 10
100.36235
 20
1198.2705
 30
0.0
 11
100.70965
 21
1200.2405
 31
0.0
  0
LINE
  5
CB
330
1D
100
AcDbEntity
  8
0
100
AcDbLine
 10
99.38345
 20
1198.4505
 30
0.0
 11
100.363185790039
 21
1198.27524087641
 31
0.0
  0
LINE
  5
CC
330
1D
100
AcDbEntity
  8
0
100
AcDbLine
 10
101.084041257587
 20
1198.14629131801
 30
0.0
 11
102.01085
 21
1197.9805
 31
0.0
  0
LINE
  5
CD
330
1D
100
AcDbEntity
  8
0
100
AcDbLine
 10
99.730076198833
 20
1200.41667797783
 30
0.0
 11
100.939303224665
 21
1200.20341928558
 31
0.0
  0
LINE
  5
CE
330
1D
100
AcDbEntity
  8
0
100
AcDbLine
 10
99.730076198833
 20
1200.41667797783
 30
0.0
 11
100.939303224665
 21
1200.20341928558
 31
0.0
  0
LINE
  5
CF
330
1D
100
AcDbEntity
  8
0
100
AcDbLine
 10
104.426345979011
 20
1199.58537209516
 30
0.0
 11
105.53025
 21
1199.3905
 31
0.0
  0
LINE
  5
D0
330
1D
100
AcDbEntity
  8
0
100
AcDbLine
 10
100.70965
 20
1200.2405
 30
0.0
 11
100.949214251249
 21
1200.20181901218
 31
0.0
  0
LINE
  5
D1
330
1D
100
AcDbEntity
  8
0
100
AcDbLine
 10
104.426871570335
 20
1199.58835342229
 30
0.0
 11
118.676531557679
 21
1197.07529029262
 31
0.0
  0
LINE
  5
D2
330
1D
100
AcDbEntity
  8
0
100
AcDbLine
 10
99.730082012651
 20
1200.41671095572
 30
0.0
 11
100.942036180552
 21
1200.20297801175
 31
0.0
  0
LINE
  5
D3
330
1D
100
AcDbEntity
  8
0
100
AcDbLine
 10
96.75685
 20
1200.9405
 30
0.0
 11
97.159772746042
 21
1200.87004711727
 31
0.0
  0
LINE
  5
D4
330
1D
100
AcDbEntity
  8
0
100
AcDbLine
 10
96.75685
 20
1200.9405
 30
0.0
 11
97.159772746042
 21
1200.87004711727
 31
0.0
  0
LINE
  5
D5
330
1D
100
AcDbEntity
  8
0
100
AcDbLine
 10
99.730082012651
 20
1200.41671095572
 30
0.0
 11
100.942036180552
 21
1200.20297801175
 31
0.0
  0
LINE
  5
D6
330
1D
100
AcDbEntity
  8
0
100
AcDbLine
 10
93.70035
 20
1202.1605
 30
0.0
 11
178.58285
 21
1187.1905
 31
0.0
  0
LINE
  5
D7
330
1D
100
AcDbEntity
  8
0
100
AcDbLine
 10
95.66835
 20
1213.3205
 30
0.0
 11
180.55085
 21
1198.3505
 31
0.0
  0
LINE
  5
D8
330
1D
100
AcDbEntity
  8
0
100
AcDbLine
 10
105.53025
 20
1199.3905
 30
0.0
 11
105.710521915221
 21
1199.36221254413
 31
0.0
  0
LINE
  5
D9
330
1D
100
AcDbEntity
  8
0
100
AcDbLine
 10
105.53025
 20
1199.3905
 30
0.0
 11
105.710521915221
 21
1199.36221254413
 31
0.0
  0
LINE
  5
DA
330
1D
100
AcDbEntity
  8
0
100
AcDbLine
 10
104.426881827436
 20
1199.58841160394
 30
0.0
 11
118.676555295307
 21
1197.07542494026
 31
0.0
  0
LINE
  5
DB
330
1D
100
AcDbEntity
  8
0
100
AcDbLine
 10
104.426881827436
 20
1199.58841160394
 30
0.0
 11
118.676555295307
 21
1197.07542494026
 31
0.0
  0
LINE
  5
DC
330
1D
100
AcDbEntity
  8
0
100
AcDbLine
 10
104.426871570335
 20
1199.58835342229
 30
0.0
 11
105.698020667688
 21
1199.36417418351
 31
0.0
  0
LINE
  5
DD
330
1D
100
AcDbEntity
  8
0
100
AcDbLine
 10
104.426871570335
 20
1199.58835342229
 30
0.0
 11
118.676531557679
 21
1197.07529029262
 31
0.0
  0
LINE
  5
DE
330
1D
100
AcDbEntity
  8
0
100
AcDbLine
 10
105.975424691314
 20
1199.31525134434
 30
0.0
 11
118.676531557679
 21
1197.07529029262
 31
0.0
  0
LINE
  5
DF
330
1D
100
AcDbEntity
  8
0
100
AcDbLine
 10
109.847511677847
 20
1218.94609219499
 30
0.0
 11
111.302096682034
 21
1218.68970145129
 31
0.0
  0
LINE
  5
E0
330
1D
100
AcDbEntity
  8
0
100
AcDbLine
 10
109.847511677847
 20
1218.94609219499
 30
0.0
 11
111.302096682034
 21
1218.68970145129
 31
0.0
  0
LINE
  5
E1
330
1D
100
AcDbEntity
  8
0
100
AcDbLine
 10
103.324403459216
 20
1220.09588032192
 30
0.0
 11
104.959336780445
 21
1219.80770069066
 31
0.0
  0
LINE
  5
E2
330
1D
100
AcDbEntity
  8
0
100
AcDbLine
 10
103.324403459216
 20
1220.09588032192
 30
0.0
 11
104.959336780445
 21
1219.80770069066
 31
0.0
  0
LINE
  5
E3
330
1D
100
AcDbEntity
  8
0
100
AcDbLine
 10
103.324403459216
 20
1220.09588032192
 30
0.0
 11
104.38445
 21
1219.9105
 31
0.0
  0
LINE
  5
E4
330
1D
100
AcDbEntity
  8
0
100
AcDbLine
 10
79.318732815791
 20
1224.32939183646
 30
0.0
 11
93.27705385888
 21
1221.86732932638
 31
0.0
  0
LINE
  5
E5
330
1D
100
AcDbEntity
  8
0
100
AcDbLine
 10
79.318732815791
 20
1224.32939183646
 30
0.0
 11
93.27705385888
 21
1221.86732932638
 31
0.0
  0
LINE
  5
E6
330
1D
100
AcDbEntity
  8
0
100
AcDbLine
 10
79.58534
 20
1224.2805
 30
0.0
 11
97.05755
 21
1221.2005
 31
0.0
  0
LINE
  5
E7
330
1D
100
AcDbEntity
  8
0
100
AcDbLine
 10
78.22227
 20
1224.5205
 30
0.0
 11
79.12740941618
 21
1224.36095563104
 31
0.0
  0
LINE
  5
E8
330
1D
100
AcDbEntity
  8
0
100
AcDbLine
 10
78.02402
 20
1224.5505
 30
0.0
 11
78.22227
 21
1224.5205
 31
0.0
  0
LINE
  5
E9
330
1D
100
AcDbEntity
  8
0
100
AcDbLine
 10
78.02402
 20
1224.5505
 30
0.0
 11
79.007451063903
 21
1224.37741103205
 31
0.0
  0
LINE
  5
EA
330
1D
100
AcDbEntity
  8
0
100
AcDbLine
 10
78.49486
 20
1224.4705
 30
0.0
 11
78.84181
 21
1224.4105
 31
0.0
  0
LINE
  5
EB
330
1D
100
AcDbEntity
  8
0
100
AcDbLine
 10
78.49486
 20
1224.4705
 30
0.0
 11
79.079045354166
 21
1224.36759001723
 31
0.0
  0
LINE
  5
EC
330
1D
100
AcDbEntity
  8
0
100
AcDbLine
 10
78.49486
 20
1224.4705
 30
0.0
 11
79.079045354166
 21
1224.36759001723
 31
0.0
  0
LINE
  5
ED
330
1D
100
AcDbEntity
  8
0
100
AcDbLine
 10
78.84181
 20
1224.4105
 30
0.0
 11
79.20363
 21
1224.3505
 31
0.0
  0
LINE
  5
EE
330
1D
100
AcDbEntity
  8
0
100
AcDbLine
 10
77.89511
 20
1224.5805
 30
0.0
 11
79.127334897367
 21
1224.36315188812
 31
0.0
  0
LINE
  5
EF
330
1D
100
AcDbEntity
  8
0
100
AcDbLine
 10
77.89511
 20
1224.5805
 30
0.0
 11
79.127334897367
 21
1224.36315188812
 31
0.0
  0
LINE
  5
F0
330
1D
100
AcDbEntity
  8
0
100
AcDbLine
 10
79.20363
 20
1224.3505
 30
0.0
 11
82.286459642667
 21
1223.80659068628
 31
0.0
  0
LINE
  5
F1
330
1D
100
AcDbEntity
  8
0
100
AcDbLine
 10
79.20363
 20
1224.3505
 30
0.0
 11
93.277083020183
 21
1221.86749475445
 31
0.0
  0
LINE
  5
F2
330
1D
100
AcDbEntity
  8
0
100
AcDbLine
 10
59.23645
 20
1227.1905
 30
0.0
 11
77.89511
 21
1224.5805
 31
0.0
  0
LINE
  5
F3
330
1D
100
AcDbEntity
  8
0
100
AcDbLine
 10
59.14725
 20
1227.2005
 30
0.0
 11
59.23645
 21
1227.1905
 31
0.0
  0
LINE
  5
F4
330
1D
100
AcDbEntity
  8
0
100
AcDbLine
 10
47.87905
 20
1228.5105
 30
0.0
 11
59.14725
 21
1227.2005
 31
0.0
  0
LINE
  5
F5
330
1D
100
AcDbEntity
  8
0
100
AcDbLine
 10
10.78575
 20
1228.2905
 30
0.0
 11
95.66835
 21
1213.3205
 31
0.0
  0
LINE
  5
F6
330
1D
100
AcDbEntity
  8
0
100
AcDbLine
 10
100.838399506849
 20
1220.5340729338
 30
0.0
 11
115.89295
 21
1217.8805
 31
0.0
  0
LINE
  5
F7
330
1D
100
AcDbEntity
  8
0
100
AcDbLine
 10
97.05755
 20
1221.2005
 30
0.0
 11
114.52995
 21
1218.1205
 31
0.0
  0
LINE
  5
F8
330
1D
100
AcDbEntity
  8
0
100
AcDbLine
 10
82.286459642667
 20
1223.80659068628
 30
0.0
 11
83.94767
 21
1233.2305
 31
0.0
  0
LINE
  5
F9
330
1D
100
AcDbEntity
  8
0
100
AcDbLine
 10
103.260901396629
 20
1220.10698552565
 30
0.0
 11
104.38445
 21
1219.9105
 31
0.0
  0
LINE
  5
FA
330
1D
100
AcDbEntity
  8
0
100
AcDbLine
 10
104.38445
 20
1219.9105
 30
0.0
 11
104.959336780445
 21
1219.80770069066
 31
0.0
  0
LINE
  5
FB
330
1D
100
AcDbEntity
  8
0
100
AcDbLine
 10
109.87975
 20
1218.9405
 30
0.0
 11
111.29785
 21
1218.6905
 31
0.0
  0
LINE
  5
FC
330
1D
100
AcDbEntity
  8
0
100
AcDbLine
 10
111.830712188601
 20
1218.59652565031
 30
0.0
 11
113.49195
 21
1228.0205
 31
0.0
  0
LINE
  5
FD
330
1D
100
AcDbEntity
  8
0
100
AcDbLine
 10
111.830712188601
 20
1218.59652565031
 30
0.0
 11
115.89295
 21
1217.8805
 31
0.0
  0
LINE
  5
FE
330
1D
100
AcDbEntity
  8
0
100
AcDbLine
 10
112.759264471446
 20
1228.58554804975
 30
0.0
 11
113.21155
 21
1228.5005
 31
0.0
  0
LINE
  5
FF
330
1D
100
AcDbEntity
  8
0
100
AcDbLine
 10
112.759264471446
 20
1228.58554804975
 30
0.0
 11
113.07365
 21
1228.5305
 31
0.0
  0
LINE
  5
100
330
1D
100
AcDbEntity
  8
0
100
AcDbLine
 10
111.54195
 20
1228.3605
 30
0.0
 11
112.96015
 21
1228.1105
 31
0.0
  0
LINE
  5
101
330
1D
100
AcDbEntity
  8
0
100
AcDbLine
 10
8.87745
 20
1228.6205
 30
0.0
 11
10.78575
 21
1228.2905
 31
0.0
  0
LINE
  5
102
330
1D
100
AcDbEntity
  8
0
100
AcDbLine
 10
5.33345
 20
1229.2505
 30
0.0
 11
7.06825
 21
1228.9405
 31
0.0
  0
LINE
  5
103
330
1D
100
AcDbEntity
  8
0
100
AcDbLine
 10
7.06825
 20
1228.9405
 30
0.0
 11
8.87745
 21
1228.6205
 31
0.0
  0
LINE
  5
104
330
1D
100
AcDbEntity
  8
0
100
AcDbLine
 10
108.90405
 20
1229.2605
 30
0.0
 11
111.18875
 21
1228.8605
 31
0.0
  0
LINE
  5
105
330
1D
100
AcDbEntity
  8
0
100
AcDbLine
 10
2.97895
 20
1229.6605
 30
0.0
 11
3.97035
 21
1229.4905
 31
0.0
  0
LINE
  5
106
330
1D
100
AcDbEntity
  8
0
100
AcDbLine
 10
2.33465
 20
1229.7805
 30
0.0
 11
2.97895
 21
1229.6605
 31
0.0
  0
LINE
  5
107
330
1D
100
AcDbEntity
  8
0
100
AcDbLine
 10
39.08925
 20
1229.3905
 30
0.0
 11
47.87905
 21
1228.5105
 31
0.0
  0
LINE
  5
108
330
1D
100
AcDbEntity
  8
0
100
AcDbLine
 10
3.97035
 20
1229.4905
 30
0.0
 11
5.33345
 21
1229.2505
 31
0.0
  0
LINE
  5
109
330
1D
100
AcDbEntity
  8
0
100
AcDbLine
 10
2.11155
 20
1229.8205
 30
0.0
 11
2.33465
 21
1229.7805
 31
0.0
  0
LINE
  5
10A
330
1D
100
AcDbEntity
  8
0
100
AcDbLine
 10
2.11155
 20
1229.8205
 30
0.0
 11
2.84695
 21
1230.3605
 31
0.0
  0
LINE
  5
10B
330
1D
100
AcDbEntity
  8
0
100
AcDbLine
 10
105.87675
 20
1229.8005
 30
0.0
 11
108.90405
 21
1229.2605
 31
0.0
  0
LINE
  5
10C
330
1D
100
AcDbEntity
  8
0
100
AcDbLine
 10
25.22685
 20
1230.4805
 30
0.0
 11
39.08925
 21
1229.3905
 31
0.0
  0
LINE
  5
10D
330
1D
100
AcDbEntity
  8
0
100
AcDbLine
 10
2.84695
 20
1230.3605
 30
0.0
 11
7.41555
 21
1230.9105
 31
0.0
  0
LINE
  5
10E
330
1D
100
AcDbEntity
  8
0
100
AcDbLine
 10
15.08205
 20
1230.9105
 30
0.0
 11
25.22685
 21
1230.4805
 31
0.0
  0
LINE
  5
10F
330
1D
100
AcDbEntity
  8
0
100
AcDbLine
 10
7.41555
 20
1230.9105
 30
0.0
 11
15.08205
 21
1230.9105
 31
0.0
  0
LINE
  5
110
330
1D
100
AcDbEntity
  8
0
100
AcDbLine
 10
94.48381785385
 20
1231.80509230477
 30
0.0
 11
95.13835
 21
1231.6905
 31
0.0
  0
LINE
  5
111
330
1D
100
AcDbEntity
  8
0
100
AcDbLine
 10
95.13835
 20
1231.6905
 30
0.0
 11
98.79395
 21
1231.0505
 31
0.0
  0
LINE
  5
112
330
1D
100
AcDbEntity
  8
0
100
AcDbLine
 10
95.07145
 20
1231.7005
 30
0.0
 11
98.79395
 21
1231.0505
 31
0.0
  0
LINE
  5
113
330
1D
100
AcDbEntity
  8
0
100
AcDbLine
 10
94.93815
 20
1231.2905
 30
0.0
 11
98.71975
 21
1230.6205
 31
0.0
  0
LINE
  5
114
330
1D
100
AcDbEntity
  8
0
100
AcDbLine
 10
91.71125
 20
1232.2905
 30
0.0
 11
95.13835
 21
1231.6905
 31
0.0
  0
LINE
  5
115
330
1D
100
AcDbEntity
  8
0
100
AcDbLine
 10
88.68395
 20
1232.8305
 30
0.0
 11
91.71125
 21
1232.2905
 31
0.0
  0
LINE
  5
116
330
1D
100
AcDbEntity
  8
0
100
AcDbLine
 10
91.64428
 20
1232.3105
 30
0.0
 11
95.07145
 21
1231.7005
 31
0.0
  0
LINE
  5
117
330
1D
100
AcDbEntity
  8
0
100
AcDbLine
 10
91.64428
 20
1232.3105
 30
0.0
 11
91.712651612592
 21
1232.29845074012
 31
0.0
  0
LINE
  5
118
330
1D
100
AcDbEntity
  8
0
100
AcDbLine
 10
88.63077
 20
1232.8405
 30
0.0
 11
91.64428
 21
1232.3105
 31
0.0
  0
LINE
  5
119
330
1D
100
AcDbEntity
  8
0
100
AcDbLine
 10
91.39281
 20
1231.9205
 30
0.0
 11
94.93815
 21
1231.2905
 31
0.0
  0
LINE
  5
11A
330
1D
100
AcDbEntity
  8
0
100
AcDbLine
 10
88.26113
 20
1232.4705
 30
0.0
 11
91.39281
 21
1231.9205
 31
0.0
  0
LINE
  5
11B
330
1D
100
AcDbEntity
  8
0
100
AcDbLine
 10
86.39919
 20
1233.2305
 30
0.0
 11
88.68395
 21
1232.8305
 31
0.0
  0
LINE
  5
11C
330
1D
100
AcDbEntity
  8
0
100
AcDbLine
 10
85.89759
 20
1232.8905
 30
0.0
 11
88.26113
 21
1232.4705
 31
0.0
  0
LINE
  5
11D
330
1D
100
AcDbEntity
  8
0
100
AcDbLine
 10
84.47946
 20
1233.1405
 30
0.0
 11
85.89759
 21
1232.8905
 31
0.0
  0
LINE
  5
11E
330
1D
100
AcDbEntity
  8
0
100
AcDbLine
 10
83.526156
 20
1246.4705
 30
0.0
 11
83.94059
 21
1246.3405
 31
0.0
  0
LINE
  5
11F
330
1D
100
AcDbEntity
  8
0
100
AcDbLine
 10
83.228843
 20
1246.5705
 30
0.0
 11
83.526156
 21
1246.4705
 31
0.0
  0
LINE
  5
120
330
1D
100
AcDbEntity
  8
0
100
AcDbLine
 10
83.94059
 20
1246.3405
 30
0.0
 11
84.68538
 21
1246.1005
 31
0.0
  0
LINE
  5
121
330
1D
100
AcDbEntity
  8
0
100
AcDbLine
 10
82.921519
 20
1246.7205
 30
0.0
 11
83.059664
 21
1246.6305
 31
0.0
  0
LINE
  5
122
330
1D
100
AcDbEntity
  8
0
100
AcDbLine
 10
82.883478
 20
1247.0405
 30
0.0
 11
86.11399
 21
1252.7105
 31
0.0
  0
LINE
  5
123
330
1D
100
AcDbEntity
  8
0
100
AcDbLine
 10
82.85645
 20
1246.8705
 30
0.0
 11
82.883478
 21
1247.0405
 31
0.0
  0
LINE
  5
124
330
1D
100
AcDbEntity
  8
0
100
AcDbLine
 10
82.85645
 20
1246.8705
 30
0.0
 11
82.921519
 21
1246.7205
 31
0.0
  0
LINE
  5
128
330
1D
100
AcDbEntity
  8
0
100
AcDbLine
 10
83.059664
 20
1246.6305
 30
0.0
 11
83.147404822399
 21
1246.61024869076
 31
0.0
  0
LINE
  5
129
330
1D
100
AcDbEntity
  8
0
100
AcDbLine
 10
83.059664
 20
1246.6305
 30
0.0
 11
83.228843
 21
1246.5705
 31
0.0
  0
LINE
  5
12A
330
1D
100
AcDbEntity
  8
0
100
AcDbLine
 10
85.02834
 20
1233.4705
 30
0.0
 11
86.39919
 21
1233.2305
 31
0.0
  0
LINE
  5
12B
330
1D
100
AcDbEntity
  8
0
100
AcDbLine
 10
86.32632
 20
1233.2405
 30
0.0
 11
88.63077
 21
1232.8405
 31
0.0
  0
LINE
  5
12D
330
1D
100
AcDbEntity
  8
0
100
AcDbLine
 10
84.68538
 20
1246.1005
 30
0.0
 11
94.65185
 21
1243.4605
 31
0.0
  0
LINE
  5
12E
330
1D
100
AcDbEntity
  8
0
100
AcDbLine
 10
84.514965202436
 20
1233.5644436239
 30
0.0
 11
86.633898375939
 21
1245.58436053312
 31
0.0
  0
LINE
  5
12F
330
1D
100
AcDbEntity
  8
0
100
AcDbLine
 10
86.372370158081
 20
1245.65363626416
 30
0.0
 11
86.632919124132
 21
1245.57880560317
 31
0.0
  0
LINE
  5
130
330
1D
100
AcDbEntity
  8
0
100
AcDbLine
 10
86.11399
 20
1252.7105
 30
0.0
 11
88.11493
 21
1255.2405
 31
0.0
  0
LINE
  5
133
330
1D
100
AcDbEntity
  8
0
100
AcDbLine
 10
94.65185
 20
1243.4605
 30
0.0
 11
104.17395
 21
1241.8105
 31
0.0
  0
LINE
  5
136
330
1D
100
AcDbEntity
  8
0
100
AcDbLine
 10
88.11493
 20
1255.2405
 30
0.0
 11
93.33255
 21
1260.8405
 31
0.0
  0
LINE
  5
138
330
1D
100
AcDbEntity
  8
0
100
AcDbLine
 10
84.828389255749
 20
1233.50550606334
 30
0.0
 11
85.02834
 21
1233.4705
 31
0.0
  0
LINE
  5
139
330
1D
100
AcDbEntity
  8
0
100
AcDbLine
 10
84.90819
 20
1233.4905
 30
0.0
 11
86.32632
 21
1233.2405
 31
0.0
  0
LINE
  5
13A
330
1D
100
AcDbEntity
  8
0
100
AcDbLine
 10
84.3764
 20
1233.5905
 30
0.0
 11
84.90819
 21
1233.4905
 31
0.0
  0
LINE
  5
13B
330
1D
100
AcDbEntity
  8
0
100
AcDbLine
 10
84.3764
 20
1233.5905
 30
0.0
 11
84.5153803811
 21
1233.56601524579
 31
0.0
  0
LINE
  5
13C
330
1D
100
AcDbEntity
  8
0
100
AcDbLine
 10
83.94767
 20
1233.2305
 30
0.0
 11
84.47946
 21
1233.1405
 31
0.0
  0
LINE
  5
13D
330
1D
100
AcDbEntity
  8
0
100
AcDbLine
 10
83.94767
 20
1233.2305
 30
0.0
 11
84.3764
 21
1233.5905
 31
0.0
  0
LINE
  5
13E
330
1D
100
AcDbEntity
  8
0
100
AcDbLine
 10
99.583743901791
 20
1264.33549985111
 30
0.0
 11
102.26465
 21
1265.9305
 31
0.0
  0
LINE
  5
140
330
1D
100
AcDbEntity
  8
0
100
AcDbLine
 10
99.583743901791
 20
1264.33549985111
 30
0.0
 11
102.26465
 21
1265.9305
 31
0.0
  0
LINE
  5
142
330
1D
100
AcDbEntity
  8
0
100
AcDbLine
 10
102.26465
 20
1265.9305
 30
0.0
 11
103.76015
 21
1266.6705
 31
0.0
  0
LINE
  5
144
330
1D
100
AcDbEntity
  8
0
100
AcDbLine
 10
98.79395
 20
1231.0505
 30
0.0
 11
102.51655
 21
1230.3905
 31
0.0
  0
LINE
  5
145
330
1D
100
AcDbEntity
  8
0
100
AcDbLine
 10
98.71975
 20
1230.6205
 30
0.0
 11
102.50145
 21
1229.9605
 31
0.0
  0
LINE
  5
146
330
1D
100
AcDbEntity
  8
0
100
AcDbLine
 10
104.366157567633
 20
1230.06495945945
 30
0.0
 11
107.675055058432
 21
1229.47972414972
 31
0.0
  0
LINE
  5
147
330
1D
100
AcDbEntity
  8
0
100
AcDbLine
 10
103.76015
 20
1266.6705
 30
0.0
 11
114.69525
 21
1269.1305
 31
0.0
  0
LINE
  5
14A
330
1D
100
AcDbEntity
  8
0
100
AcDbLine
 10
104.17395
 20
1241.8105
 30
0.0
 11
108.71575
 21
1241.3105
 31
0.0
  0
LINE
  5
14B
330
1D
100
AcDbEntity
  8
0
100
AcDbLine
 10
103.10829673193
 20
1230.28517319119
 30
0.0
 11
105.87675
 21
1229.8005
 31
0.0
  0
LINE
  5
14C
330
1D
100
AcDbEntity
  8
0
100
AcDbLine
 10
103.10829673193
 20
1230.28517319119
 30
0.0
 11
105.87675
 21
1229.8005
 31
0.0
  0
LINE
  5
14D
330
1D
100
AcDbEntity
  8
0
100
AcDbLine
 10
104.366157567633
 20
1230.06495945945
 30
0.0
 11
107.675055058432
 21
1229.47972414972
 31
0.0
  0
LINE
  5
14E
330
1D
100
AcDbEntity
  8
0
100
AcDbLine
 10
102.51655
 20
1230.3905
 30
0.0
 11
105.94365
 21
1229.7805
 31
0.0
  0
LINE
  5
14F
330
1D
100
AcDbEntity
  8
0
100
AcDbLine
 10
102.50145
 20
1229.9605
 30
0.0
 11
106.04675
 21
1229.3305
 31
0.0
  0
LINE
  5
152
330
1D
100
AcDbEntity
  8
0
100
AcDbLine
 10
105.94365
 20
1229.7805
 30
0.0
 11
108.95715
 21
1229.2505
 31
0.0
  0
LINE
  5
153
330
1D
100
AcDbEntity
  8
0
100
AcDbLine
 10
106.04675
 20
1229.3305
 30
0.0
 11
109.17845
 21
1228.7805
 31
0.0
  0
LINE
  5
156
330
1D
100
AcDbEntity
  8
0
100
AcDbLine
 10
109.596995281511
 20
1241.6559391389
 30
0.0
 11
113.71565
 21
1241.0105
 31
0.0
  0
LINE
  5
157
330
1D
100
AcDbEntity
  8
0
100
AcDbLine
 10
108.95715
 20
1229.2505
 30
0.0
 11
111.26165
 21
1228.8505
 31
0.0
  0
LINE
  5
158
330
1D
100
AcDbEntity
  8
0
100
AcDbLine
 10
109.17845
 20
1228.7805
 30
0.0
 11
111.54195
 21
1228.3605
 31
0.0
  0
LINE
  5
159
330
1D
100
AcDbEntity
  8
0
100
AcDbLine
 10
111.26165
 20
1228.8505
 30
0.0
 11
112.67975
 21
1228.6005
 31
0.0
  0
LINE
  5
15A
330
1D
100
AcDbEntity
  8
0
100
AcDbLine
 10
112.67975
 20
1228.6005
 30
0.0
 11
113.21155
 21
1228.5005
 31
0.0
  0
LINE
  5
15B
330
1D
100
AcDbEntity
  8
0
100
AcDbLine
 10
140.01565
 20
1191.2805
 30
0.0
 11
140.36295
 21
1193.2505
 31
0.0
  0
LINE
  5
15C
330
1D
100
AcDbEntity
  8
0
100
AcDbLine
 10
139.45825
 20
1191.3805
 30
0.0
 11
140.01565
 21
1191.2805
 31
0.0
  0
LINE
  5
15D
330
1D
100
AcDbEntity
  8
0
100
AcDbLine
 10
139.45825
 20
1191.3805
 30
0.0
 11
139.805449699532
 21
1193.3499310627
 31
0.0
  0
LINE
  5
15E
330
1D
100
AcDbEntity
  8
0
100
AcDbLine
 10
136.85535
 20
1191.8405
 30
0.0
 11
138.15725
 21
1191.6105
 31
0.0
  0
LINE
  5
15F
330
1D
100
AcDbEntity
  8
0
100
AcDbLine
 10
136.85535
 20
1191.8405
 30
0.0
 11
137.202377695506
 21
1193.80895539922
 31
0.0
  0
LINE
  5
160
330
1D
100
AcDbEntity
  8
0
100
AcDbLine
 10
138.15725
 20
1191.6105
 30
0.0
 11
139.45825
 21
1191.3805
 31
0.0
  0
LINE
  5
161
330
1D
100
AcDbEntity
  8
0
100
AcDbLine
 10
138.15725
 20
1191.6105
 30
0.0
 11
138.504350129857
 21
1193.57936627071
 31
0.0
  0
LINE
  5
162
330
1D
100
AcDbEntity
  8
0
100
AcDbLine
 10
136.29795
 20
1191.9405
 30
0.0
 11
136.85535
 21
1191.8405
 31
0.0
  0
LINE
  5
163
330
1D
100
AcDbEntity
  8
0
100
AcDbLine
 10
136.29795
 20
1191.9405
 30
0.0
 11
136.644685598333
 21
1193.90729852783
 31
0.0
  0
LINE
  5
164
330
1D
100
AcDbEntity
  8
0
100
AcDbLine
 10
118.33015
 20
1195.1105
 30
0.0
 11
118.676531557679
 21
1197.07529029262
 31
0.0
  0
LINE
  5
165
330
1D
100
AcDbEntity
  8
0
100
AcDbLine
 10
118.33015
 20
1195.1105
 30
0.0
 11
118.676617558165
 21
1197.07577811571
 31
0.0
  0
LINE
  5
166
330
1D
100
AcDbEntity
  8
0
100
AcDbLine
 10
118.33015
 20
1195.1105
 30
0.0
 11
118.88755
 21
1195.0105
 31
0.0
  0
LINE
  5
167
330
1D
100
AcDbEntity
  8
0
100
AcDbLine
 10
118.88755
 20
1195.0105
 30
0.0
 11
120.18945
 21
1194.7805
 31
0.0
  0
LINE
  5
168
330
1D
100
AcDbEntity
  8
0
100
AcDbLine
 10
118.88755
 20
1195.0105
 30
0.0
 11
119.234309655339
 21
1196.9774349871
 31
0.0
  0
LINE
  5
169
330
1D
100
AcDbEntity
  8
0
100
AcDbLine
 10
139.996950280948
 20
1193.31616195175
 30
0.0
 11
140.36295
 21
1193.2505
 31
0.0
  0
LINE
  5
16A
330
1D
100
AcDbEntity
  8
0
100
AcDbLine
 10
122.04775
 20
1194.4505
 30
0.0
 11
122.394976771574
 21
1196.42008462425
 31
0.0
  0
LINE
  5
16B
330
1D
100
AcDbEntity
  8
0
100
AcDbLine
 10
139.996950280948
 20
1193.31616195175
 30
0.0
 11
140.36295
 21
1193.2505
 31
0.0
  0
LINE
  5
16C
330
1D
100
AcDbEntity
  8
0
100
AcDbLine
 10
121.49035
 20
1194.5505
 30
0.0
 11
122.04775
 21
1194.4505
 31
0.0
  0
LINE
  5
16D
330
1D
100
AcDbEntity
  8
0
100
AcDbLine
 10
121.49035
 20
1194.5505
 30
0.0
 11
121.8372846744
 21
1196.51842775286
 31
0.0
  0
LINE
  5
16E
330
1D
100
AcDbEntity
  8
0
100
AcDbLine
 10
120.18945
 20
1194.7805
 30
0.0
 11
121.49035
 21
1194.5505
 31
0.0
  0
LINE
  5
16F
330
1D
100
AcDbEntity
  8
0
100
AcDbLine
 10
120.18945
 20
1194.7805
 30
0.0
 11
120.53628208969
 21
1196.74784585859
 31
0.0
  0
LINE
  5
170
330
1D
100
AcDbEntity
  8
0
100
AcDbLine
 10
140.217765324429
 20
1193.27654676634
 30
0.0
 11
154.612602204569
 21
1190.73795995681
 31
0.0
  0
LINE
  5
171
330
1D
100
AcDbEntity
  8
0
100
AcDbLine
 10
140.302505272238
 20
1193.26134404876
 30
0.0
 11
154.612544470596
 21
1190.7376324707
 31
0.0
  0
LINE
  5
172
330
1D
100
AcDbEntity
  8
0
100
AcDbLine
 10
140.217765324429
 20
1193.27654676634
 30
0.0
 11
154.612602204569
 21
1190.73795995681
 31
0.0
  0
LINE
  5
173
330
1D
100
AcDbEntity
  8
0
100
AcDbLine
 10
114.74359422208
 20
1218.07416188906
 30
0.0
 11
115.27345
 21
1217.9805
 31
0.0
  0
LINE
  5
174
330
1D
100
AcDbEntity
  8
0
100
AcDbLine
 10
114.74359422208
 20
1218.07416188906
 30
0.0
 11
115.27345
 21
1217.9805
 31
0.0
  0
LINE
  5
175
330
1D
100
AcDbEntity
  8
0
100
AcDbLine
 10
114.52995
 20
1218.1205
 30
0.0
 11
114.91105
 21
1218.0505
 31
0.0
  0
LINE
  5
176
330
1D
100
AcDbEntity
  8
0
100
AcDbLine
 10
114.957014166643
 20
1218.04065911062
 30
0.0
 11
116.09085
 21
1217.8405
 31
0.0
  0
LINE
  5
177
330
1D
100
AcDbEntity
  8
0
100
AcDbLine
 10
114.957014166643
 20
1218.04065911062
 30
0.0
 11
116.09085
 21
1217.8405
 31
0.0
  0
LINE
  5
178
330
1D
100
AcDbEntity
  8
0
100
AcDbLine
 10
114.793555559446
 20
1218.07208124072
 30
0.0
 11
116.21985
 21
1217.8205
 31
0.0
  0
LINE
  5
179
330
1D
100
AcDbEntity
  8
0
100
AcDbLine
 10
114.793555559446
 20
1218.07208124072
 30
0.0
 11
116.21985
 21
1217.8205
 31
0.0
  0
LINE
  5
17A
330
1D
100
AcDbEntity
  8
0
100
AcDbLine
 10
114.91105
 20
1218.0505
 30
0.0
 11
115.27345
 21
1217.9805
 31
0.0
  0
LINE
  5
17B
330
1D
100
AcDbEntity
  8
0
100
AcDbLine
 10
116.26425
 20
1217.8105
 30
0.0
 11
134.73565
 21
1213.8805
 31
0.0
  0
LINE
  5
17C
330
1D
100
AcDbEntity
  8
0
100
AcDbLine
 10
134.73565
 20
1213.8805
 30
0.0
 11
145.77285
 21
1211.2505
 31
0.0
  0
LINE
  5
17D
330
1D
100
AcDbEntity
  8
0
100
AcDbLine
 10
122.394905282067
 20
1196.41967911222
 30
0.0
 11
136.644578749938
 21
1193.90669244854
 31
0.0
  0
LINE
  5
17E
330
1D
100
AcDbEntity
  8
0
100
AcDbLine
 10
115.89295
 20
1217.8805
 30
0.0
 11
116.09085
 21
1217.8405
 31
0.0
  0
LINE
  5
17F
330
1D
100
AcDbEntity
  8
0
100
AcDbLine
 10
115.196786573033
 20
1217.99530805709
 30
0.0
 11
115.27345
 21
1217.9805
 31
0.0
  0
LINE
  5
180
330
1D
100
AcDbEntity
  8
0
100
AcDbLine
 10
122.394878026793
 20
1196.41952451132
 30
0.0
 11
136.644538014138
 21
1193.90646138166
 31
0.0
  0
LINE
  5
181
330
1D
100
AcDbEntity
  8
0
100
AcDbLine
 10
175.95125
 20
1184.9505
 30
0.0
 11
176.297568086278
 21
1186.91493026193
 31
0.0
  0
LINE
  5
182
330
1D
100
AcDbEntity
  8
0
100
AcDbLine
 10
175.95125
 20
1184.9505
 30
0.0
 11
176.297568086278
 21
1186.91493026193
 31
0.0
  0
LINE
  5
183
330
1D
100
AcDbEntity
  8
0
100
AcDbLine
 10
175.39385
 20
1185.0405
 30
0.0
 11
175.95125
 21
1184.9505
 31
0.0
  0
LINE
  5
184
330
1D
100
AcDbEntity
  8
0
100
AcDbLine
 10
175.39385
 20
1185.0405
 30
0.0
 11
175.74115
 21
1187.0105
 31
0.0
  0
LINE
  5
185
330
1D
100
AcDbEntity
  8
0
100
AcDbLine
 10
175.74115
 20
1187.0105
 30
0.0
 11
175.912487233425
 21
1186.98283521527
 31
0.0
  0
LINE
  5
186
330
1D
100
AcDbEntity
  8
0
100
AcDbLine
 10
175.74115
 20
1187.0105
 30
0.0
 11
175.912487233425
 21
1186.98283521527
 31
0.0
  0
LINE
  5
187
330
1D
100
AcDbEntity
  8
0
100
AcDbLine
 10
172.79095
 20
1185.5005
 30
0.0
 11
174.09295
 21
1185.2705
 31
0.0
  0
LINE
  5
188
330
1D
100
AcDbEntity
  8
0
100
AcDbLine
 10
172.79095
 20
1185.5005
 30
0.0
 11
173.13825
 21
1187.4705
 31
0.0
  0
LINE
  5
189
330
1D
100
AcDbEntity
  8
0
100
AcDbLine
 10
174.44025
 20
1187.2405
 30
0.0
 11
174.911067715515
 21
1187.1594250019
 31
0.0
  0
LINE
  5
18A
330
1D
100
AcDbEntity
  8
0
100
AcDbLine
 10
174.44025
 20
1187.2405
 30
0.0
 11
174.911067715515
 21
1187.1594250019
 31
0.0
  0
LINE
  5
18B
330
1D
100
AcDbEntity
  8
0
100
AcDbLine
 10
174.44025
 20
1187.2405
 30
0.0
 11
175.74115
 21
1187.0105
 31
0.0
  0
LINE
  5
18C
330
1D
100
AcDbEntity
  8
0
100
AcDbLine
 10
172.23355
 20
1185.6005
 30
0.0
 11
172.79095
 21
1185.5005
 31
0.0
  0
LINE
  5
18D
330
1D
100
AcDbEntity
  8
0
100
AcDbLine
 10
172.23355
 20
1185.6005
 30
0.0
 11
172.580550927054
 21
1187.56880355974
 31
0.0
  0
LINE
  5
18E
330
1D
100
AcDbEntity
  8
0
100
AcDbLine
 10
172.23355
 20
1185.6005
 30
0.0
 11
172.580821678667
 21
1187.57033935207
 31
0.0
  0
LINE
  5
18F
330
1D
100
AcDbEntity
  8
0
100
AcDbLine
 10
174.09295
 20
1185.2705
 30
0.0
 11
175.39385
 21
1185.0405
 31
0.0
  0
LINE
  5
190
330
1D
100
AcDbEntity
  8
0
100
AcDbLine
 10
174.09295
 20
1185.2705
 30
0.0
 11
174.44025
 21
1187.2405
 31
0.0
  0
LINE
  5
191
330
1D
100
AcDbEntity
  8
0
100
AcDbLine
 10
176.297284595898
 20
1186.91332221111
 30
0.0
 11
185.04545
 21
1185.3705
 31
0.0
  0
LINE
  5
192
330
1D
100
AcDbEntity
  8
0
100
AcDbLine
 10
172.634894723684
 20
1187.56080413999
 30
0.0
 11
173.13825
 21
1187.4705
 31
0.0
  0
LINE
  5
193
330
1D
100
AcDbEntity
  8
0
100
AcDbLine
 10
172.634894723684
 20
1187.56080413999
 30
0.0
 11
173.13825
 21
1187.4705
 31
0.0
  0
LINE
  5
194
330
1D
100
AcDbEntity
  8
0
100
AcDbLine
 10
154.82315
 20
1188.6705
 30
0.0
 11
156.12505
 21
1188.4405
 31
0.0
  0
LINE
  5
195
330
1D
100
AcDbEntity
  8
0
100
AcDbLine
 10
154.82315
 20
1188.6705
 30
0.0
 11
155.170445735674
 21
1190.64047581134
 31
0.0
  0
LINE
  5
196
330
1D
100
AcDbEntity
  8
0
100
AcDbLine
 10
157.42605
 20
1188.2105
 30
0.0
 11
157.98345
 21
1188.1105
 31
0.0
  0
LINE
  5
197
330
1D
100
AcDbEntity
  8
0
100
AcDbLine
 10
157.42605
 20
1188.2105
 30
0.0
 11
157.77335
 21
1190.1805
 31
0.0
  0
LINE
  5
198
330
1D
100
AcDbEntity
  8
0
100
AcDbLine
 10
156.12505
 20
1188.4405
 30
0.0
 11
157.42605
 21
1188.2105
 31
0.0
  0
LINE
  5
199
330
1D
100
AcDbEntity
  8
0
100
AcDbLine
 10
156.12505
 20
1188.4405
 30
0.0
 11
156.47235
 21
1190.4105
 31
0.0
  0
LINE
  5
19A
330
1D
100
AcDbEntity
  8
0
100
AcDbLine
 10
157.98345
 20
1188.1105
 30
0.0
 11
158.33075
 21
1190.0805
 31
0.0
  0
LINE
  5
19B
330
1D
100
AcDbEntity
  8
0
100
AcDbLine
 10
154.26575
 20
1188.7705
 30
0.0
 11
154.82315
 21
1188.6705
 31
0.0
  0
LINE
  5
19C
330
1D
100
AcDbEntity
  8
0
100
AcDbLine
 10
154.26575
 20
1188.7705
 30
0.0
 11
154.612544470596
 21
1190.7376324707
 31
0.0
  0
LINE
  5
19D
330
1D
100
AcDbEntity
  8
0
100
AcDbLine
 10
154.26575
 20
1188.7705
 30
0.0
 11
154.6127536385
 21
1190.73881893995
 31
0.0
  0
LINE
  5
19E
330
1D
100
AcDbEntity
  8
0
100
AcDbLine
 10
173.010990448138
 20
1187.49333092068
 30
0.0
 11
175.832245183876
 21
1186.99579141272
 31
0.0
  0
LINE
  5
19F
330
1D
100
AcDbEntity
  8
0
100
AcDbLine
 10
173.316386472054
 20
1187.43903195962
 30
0.0
 11
174.44025
 21
1187.2405
 31
0.0
  0
LINE
  5
1A0
330
1D
100
AcDbEntity
  8
0
100
AcDbLine
 10
173.13825
 20
1187.4705
 30
0.0
 11
174.44025
 21
1187.2405
 31
0.0
  0
LINE
  5
1A1
330
1D
100
AcDbEntity
  8
0
100
AcDbLine
 10
173.316386472044
 20
1187.43903195962
 30
0.0
 11
174.44025
 21
1187.2405
 31
0.0
  0
LINE
  5
1A2
330
1D
100
AcDbEntity
  8
0
100
AcDbLine
 10
173.316386472042
 20
1187.43903195962
 30
0.0
 11
175.80169408025
 21
1187.00072431428
 31
0.0
  0
LINE
  5
1A3
330
1D
100
AcDbEntity
  8
0
100
AcDbLine
 10
173.316386472048
 20
1187.43903195962
 30
0.0
 11
175.80169408025
 21
1187.00072431428
 31
0.0
  0
LINE
  5
1A4
330
1D
100
AcDbEntity
  8
0
100
AcDbLine
 10
173.010990448139
 20
1187.49333092068
 30
0.0
 11
175.832245183876
 21
1186.99579141272
 31
0.0
  0
LINE
  5
1A5
330
1D
100
AcDbEntity
  8
0
100
AcDbLine
 10
174.146690404259
 20
1187.29259996052
 30
0.0
 11
174.519096656559
 21
1187.22692257434
 31
0.0
  0
LINE
  5
1A6
330
1D
100
AcDbEntity
  8
0
100
AcDbLine
 10
177.613042061357
 20
1186.68325087352
 30
0.0
 11
182.380816200605
 21
1185.84252059898
 31
0.0
  0
LINE
  5
1A7
330
1D
100
AcDbEntity
  8
0
100
AcDbLine
 10
177.613042061354
 20
1186.68325087352
 30
0.0
 11
182.380816200605
 21
1185.84252059898
 31
0.0
  0
LINE
  5
1A8
330
1D
100
AcDbEntity
  8
0
100
AcDbLine
 10
179.22635
 20
1186.4005
 30
0.0
 11
181.01085
 21
1186.0905
 31
0.0
  0
LINE
  5
1A9
330
1D
100
AcDbEntity
  8
0
100
AcDbLine
 10
176.297362844165
 20
1186.91376606105
 30
0.0
 11
182.72345
 21
1185.7805
 31
0.0
  0
LINE
  5
1AA
330
1D
100
AcDbEntity
  8
0
100
AcDbLine
 10
177.34345
 20
1186.7305
 30
0.0
 11
179.22635
 21
1186.4005
 31
0.0
  0
LINE
  5
1AB
330
1D
100
AcDbEntity
  8
0
100
AcDbLine
 10
183.031212405042
 20
1185.72783232652
 30
0.0
 11
184.766740792601
 21
1185.42179617314
 31
0.0
  0
LINE
  5
1AC
330
1D
100
AcDbEntity
  8
0
100
AcDbLine
 10
183.031212405042
 20
1185.72783232652
 30
0.0
 11
184.766740792601
 21
1185.42179617314
 31
0.0
  0
LINE
  5
1AD
330
1D
100
AcDbEntity
  8
0
100
AcDbLine
 10
180.544304226368
 20
1186.17154745857
 30
0.0
 11
181.26292392592
 21
1186.04487176396
 31
0.0
  0
LINE
  5
1AE
330
1D
100
AcDbEntity
  8
0
100
AcDbLine
 10
180.544304226368
 20
1186.17154745857
 30
0.0
 11
181.262923925919
 21
1186.04487176396
 31
0.0
  0
LINE
  5
1AF
330
1D
100
AcDbEntity
  8
0
100
AcDbLine
 10
182.72345
 20
1185.7805
 30
0.0
 11
184.06745
 21
1185.5505
 31
0.0
  0
LINE
  5
1B0
330
1D
100
AcDbEntity
  8
0
100
AcDbLine
 10
185.04545
 20
1185.3705
 30
0.0
 11
185.68145
 21
1185.2605
 31
0.0
  0
LINE
  5
2D7
330
1D
100
AcDbEntity
  8
0
100
AcDbLine
 10
475.48445
 20
91.669155
 30
0.0
 11
475.48645
 21
91.326656
 31
0.0
  0
LINE
  5
2D8
330
1D
100
AcDbEntity
  8
0
100
AcDbLine
 10
474.89945
 20
91.138486
 30
0.0
 11
475.48645
 21
91.326656
 31
0.0
  0
LINE
  5
307
330
1D
100
AcDbEntity
  8
0
100
AcDbLine
 10
346.85645
 20
151.1305
 30
0.0
 11
347.35545
 21
153.1305
 31
0.0
  0
LINE
  5
32E
330
1D
100
AcDbEntity
  8
0
100
AcDbLine
 10
450.80645
 20
153.1305
 30
0.0
 11
450.80645
 21
1093.5005
 31
0.0
  0
LINE
  5
32F
330
1D
100
AcDbEntity
  8
0
100
AcDbLine
 10
472.82945
 20
153.1305
 30
0.0
 11
472.82945
 21
1193.536511260284
 31
0.0
  0
LINE
  5
330
330
1D
100
AcDbEntity
  8
0
100
AcDbLine
 10
472.82945
 20
153.1305
 30
0.0
 11
472.82945
 21
1193.536511260284
 31
0.0
  0
LINE
  5
336
330
1D
100
AcDbEntity
  8
0
100
AcDbLine
 10
474.83245
 20
1050.4825
 30
0.0
 11
475.33245
 21
1050.6165
 31
0.0
  0
LINE
  5
339
330
1D
100
AcDbEntity
  8
0
100
AcDbLine
 10
475.33245
 20
1050.6165
 30
0.0
 11
475.69845
 21
1050.9825
 31
0.0
  0
LINE
  5
33A
330
1D
100
AcDbEntity
  8
0
100
AcDbLine
 10
473.070286734695
 20
1050.4825
 30
0.0
 11
474.83245
 21
1050.4825
 31
0.0
  0
LINE
  5
33B
330
1D
100
AcDbEntity
  8
0
100
AcDbLine
 10
472.82945
 20
1050.47441712329
 30
0.0
 11
473.070286734657
 21
1050.4825
 31
0.0
  0
LINE
  5
340
330
1D
100
AcDbEntity
  8
0
100
AcDbLine
 10
475.69845
 20
1050.9825
 30
0.0
 11
475.83345
 21
1051.4825
 31
0.0
  0
LINE
  5
34A
330
1D
100
AcDbEntity
  8
0
100
AcDbLine
 10
450.80645
 20
1093.5005
 30
0.0
 11
450.90545
 21
1093.5005
 31
0.0
  0
LINE
  5
35D
330
1D
100
AcDbEntity
  8
0
100
AcDbLine
 10
450.08145
 20
1160.5905
 30
0.0
 11
450.80645
 21
1093.5005
 31
0.0
  0
LINE
  5
363
330
1D
100
AcDbEntity
  8
0
100
AcDbLine
 10
447.19851587862
 20
1169.73786752424
 30
0.0
 11
450.08145
 21
1160.5905
 31
0.0
  0
LINE
  5
381
330
1D
100
AcDbEntity
  8
0
100
AcDbLine
 10
185.90245
 20
1185.2205
 30
0.0
 11
187.25745
 21
1185.6605
 31
0.0
  0
LINE
  5
382
330
1D
100
AcDbEntity
  8
0
100
AcDbLine
 10
185.39845
 20
1185.9905
 30
0.0
 11
186.38945
 21
1185.8105
 31
0.0
  0
LINE
  5
383
330
1D
100
AcDbEntity
  8
0
100
AcDbLine
 10
186.38945
 20
1185.8105
 30
0.0
 11
187.03445
 21
1185.7005
 31
0.0
  0
LINE
  5
384
330
1D
100
AcDbEntity
  8
0
100
AcDbLine
 10
435.704128935698
 20
1186.09469512195
 30
0.0
 11
443.23145
 21
1178.4505
 31
0.0
  0
LINE
  5
385
330
1D
100
AcDbEntity
  8
0
100
AcDbLine
 10
187.03445
 20
1185.7005
 30
0.0
 11
187.25745
 21
1185.6605
 31
0.0
  0
LINE
  5
386
330
1D
100
AcDbEntity
  8
0
100
AcDbLine
 10
187.25745
 20
1185.6605
 30
0.0
 11
189.22545
 21
1196.8205
 31
0.0
  0
LINE
  5
387
330
1D
100
AcDbEntity
  8
0
100
AcDbLine
 10
184.03445
 20
1186.2305
 30
0.0
 11
185.39845
 21
1185.9905
 31
0.0
  0
LINE
  5
38B
330
1D
100
AcDbEntity
  8
0
100
AcDbLine
 10
182.30055
 20
1186.5305
 30
0.0
 11
184.03445
 21
1186.2305
 31
0.0
  0
LINE
  5
38C
330
1D
100
AcDbEntity
  8
0
100
AcDbLine
 10
180.49145
 20
1186.8505
 30
0.0
 11
182.30055
 21
1186.5305
 31
0.0
  0
LINE
  5
395
330
1D
100
AcDbEntity
  8
0
100
AcDbLine
 10
178.58285
 20
1187.1905
 30
0.0
 11
180.49145
 21
1186.8505
 31
0.0
  0
LINE
  5
396
330
1D
100
AcDbEntity
  8
0
100
AcDbLine
 10
176.297284595898
 20
1186.91332221111
 30
0.0
 11
185.04545
 21
1185.3705
 31
0.0
  0
LINE
  5
397
330
1D
100
AcDbEntity
  8
0
100
AcDbLine
 10
157.77335
 20
1190.1805
 30
0.0
 11
158.33075
 21
1190.0805
 31
0.0
  0
LINE
  5
398
330
1D
100
AcDbEntity
  8
0
100
AcDbLine
 10
157.65906859762
 20
1190.20070347621
 30
0.0
 11
172.5806256592
 21
1187.56922746508
 31
0.0
  0
LINE
  5
399
330
1D
100
AcDbEntity
  8
0
100
AcDbLine
 10
156.47235
 20
1190.4105
 30
0.0
 11
157.77335
 21
1190.1805
 31
0.0
  0
LINE
  5
39A
330
1D
100
AcDbEntity
  8
0
100
AcDbLine
 10
155.247094941491
 20
1190.62695953104
 30
0.0
 11
156.47235
 21
1190.4105
 31
0.0
  0
LINE
  5
39B
330
1D
100
AcDbEntity
  8
0
100
AcDbLine
 10
155.24709494149
 20
1190.62695953104
 30
0.0
 11
156.47235
 21
1190.4105
 31
0.0
  0
LINE
  5
39C
330
1D
100
AcDbEntity
  8
0
100
AcDbLine
 10
177.41205
 20
1202.2905
 30
0.0
 11
184.61545
 21
1199.6705
 31
0.0
  0
LINE
  5
39D
330
1D
100
AcDbEntity
  8
0
100
AcDbLine
 10
167.73055
 20
1205.3505
 30
0.0
 11
177.41205
 21
1202.2905
 31
0.0
  0
LINE
  5
39E
330
1D
100
AcDbEntity
  8
0
100
AcDbLine
 10
154.33135
 20
1209.0705
 30
0.0
 11
167.73055
 21
1205.3505
 31
0.0
  0
LINE
  5
39F
330
1D
100
AcDbEntity
  8
0
100
AcDbLine
 10
145.77285
 20
1211.2505
 30
0.0
 11
154.33135
 21
1209.0705
 31
0.0
  0
LINE
  5
3A0
330
1D
100
AcDbEntity
  8
0
100
AcDbLine
 10
157.659068597617
 20
1190.20070347621
 30
0.0
 11
172.5806256592
 21
1187.56922746508
 31
0.0
  0
LINE
  5
3A1
330
1D
100
AcDbEntity
  8
0
100
AcDbLine
 10
187.36645
 20
1197.1505
 30
0.0
 11
188.35745
 21
1196.9705
 31
0.0
  0
LINE
  5
3A2
330
1D
100
AcDbEntity
  8
0
100
AcDbLine
 10
188.35745
 20
1196.9705
 30
0.0
 11
189.00245
 21
1196.8605
 31
0.0
  0
LINE
  5
3A7
330
1D
100
AcDbEntity
  8
0
100
AcDbLine
 10
472.90845
 20
1193.5405
 30
0.0
 11
473.04245
 21
1197.7905
 31
0.0
  0
LINE
  5
3A8
330
1D
100
AcDbEntity
  8
0
100
AcDbLine
 10
472.90844671507
 20
1193.53634019767
 30
0.0
 11
475.60545
 21
1193.5305
 31
0.0
  0
LINE
  5
3A9
330
1D
100
AcDbEntity
  8
0
100
AcDbLine
 10
189.00245
 20
1196.8605
 30
0.0
 11
189.22545
 21
1196.8205
 31
0.0
  0
LINE
  5
3AA
330
1D
100
AcDbEntity
  8
0
100
AcDbLine
 10
188.72145
 20
1197.5905
 30
0.0
 11
189.22545
 21
1196.8205
 31
0.0
  0
LINE
  5
3AB
330
1D
100
AcDbEntity
  8
0
100
AcDbLine
 10
186.00245
 20
1197.3905
 30
0.0
 11
187.36645
 21
1197.1505
 31
0.0
  0
LINE
  5
3AC
330
1D
100
AcDbEntity
  8
0
100
AcDbLine
 10
184.26845
 20
1197.7005
 30
0.0
 11
186.00245
 21
1197.3905
 31
0.0
  0
LINE
  5
3AF
330
1D
100
AcDbEntity
  8
0
100
AcDbLine
 10
412.46745
 20
1198.1705
 30
0.0
 11
421.378605017637
 21
1196.09528752169
 31
0.0
  0
LINE
  5
3B0
330
1D
100
AcDbEntity
  8
0
100
AcDbLine
 10
463.949936886792
 20
1210.14536462264
 30
0.0
 11
464.61445
 21
1210.0305
 31
0.0
  0
LINE
  5
3B1
330
1D
100
AcDbEntity
  8
0
100
AcDbLine
 10
463.948772911327
 20
1210.14606893901
 30
0.0
 11
464.61445
 21
1210.0305
 31
0.0
  0
LINE
  5
3B2
330
1D
100
AcDbEntity
  8
0
100
AcDbLine
 10
472.88445
 20
1199.8605
 30
0.0
 11
473.02045
 21
1198.5405
 31
0.0
  0
LINE
  5
3B4
330
1D
100
AcDbEntity
  8
0
100
AcDbLine
 10
473.02045
 20
1198.5405
 30
0.0
 11
473.04245
 21
1197.7905
 31
0.0
  0
LINE
  5
3B5
330
1D
100
AcDbEntity
  8
0
100
AcDbLine
 10
472.45545
 20
1203.2105
 30
0.0
 11
472.88445
 21
1199.8605
 31
0.0
  0
LINE
  5
3B7
330
1D
100
AcDbEntity
  8
0
100
AcDbLine
 10
464.61445
 20
1210.0305
 30
0.0
 11
468.88945
 21
1208.3005
 31
0.0
  0
LINE
  5
3B8
330
1D
100
AcDbEntity
  8
0
100
AcDbLine
 10
468.88945
 20
1208.3005
 30
0.0
 11
472.45545
 21
1203.2105
 31
0.0
  0
LINE
  5
3B9
330
1D
100
AcDbEntity
  8
0
100
AcDbLine
 10
463.950080394182
 20
1210.14527778696
 30
0.0
 11
464.61445
 21
1210.0305
 31
0.0
  0
LINE
  5
3BA
330
1D
100
AcDbEntity
  8
0
100
AcDbLine
 10
463.944723235421
 20
1210.14851937984
 30
0.0
 11
464.61445
 21
1210.0305
 31
0.0
  0
LINE
  5
3BB
330
1D
100
AcDbEntity
  8
0
100
AcDbLine
 10
463.944723235421
 20
1210.14851937984
 30
0.0
 11
464.61445
 21
1210.0305
 31
0.0
  0
LINE
  5
3BD
330
1D
100
AcDbEntity
  8
0
100
AcDbLine
 10
463.94145
 20
1210.1505
 30
0.0
 11
464.61445
 21
1210.0305
 31
0.0
  0
LINE
  5
3CB
330
1D
100
AcDbEntity
  8
0
100
AcDbLine
 10
184.61545
 20
1199.6705
 30
0.0
 11
188.72145
 21
1197.5905
 31
0.0
  0
LINE
  5
3CC
330
1D
100
AcDbEntity
  8
0
100
AcDbLine
 10
182.45945
 20
1198.0105
 30
0.0
 11
184.26845
 21
1197.7005
 31
0.0
  0
LINE
  5
3CD
330
1D
100
AcDbEntity
  8
0
100
AcDbLine
 10
180.55085
 20
1198.3505
 30
0.0
 11
182.45945
 21
1198.0105
 31
0.0
  0
LINE
  5
3CE
330
1D
100
AcDbEntity
  8
0
100
AcDbLine
 10
157.873735719066
 20
1190.16249036256
 30
0.0
 11
172.580550927054
 21
1187.56880355974
 31
0.0
  0
LINE
  5
3CF
330
1D
100
AcDbEntity
  8
0
100
AcDbLine
 10
140.302505272239
 20
1193.26134404876
 30
0.0
 11
154.612544470596
 21
1190.7376324707
 31
0.0
  0
LINE
  5
3D0
330
1D
100
AcDbEntity
  8
0
100
AcDbLine
 10
115.238169365945
 20
1240.80310119395
 30
0.0
 11
116.60315
 21
1240.7005
 31
0.0
  0
LINE
  5
3D1
330
1D
100
AcDbEntity
  8
0
100
AcDbLine
 10
116.60315
 20
1240.7005
 30
0.0
 11
121.37375
 21
1245.8605
 31
0.0
  0
LINE
  5
3D3
330
1D
100
AcDbEntity
  8
0
100
AcDbLine
 10
113.71565
 20
1241.0105
 30
0.0
 11
116.60315
 21
1240.7005
 31
0.0
  0
LINE
  5
3D6
330
1D
100
AcDbEntity
  8
0
100
AcDbLine
 10
133.68025
 20
1247.1405
 30
0.0
 11
412.46745
 21
1198.1705
 31
0.0
  0
LINE
  5
3D7
330
1D
100
AcDbEntity
  8
0
100
AcDbLine
 10
121.37375
 20
1245.8605
 30
0.0
 11
133.68025
 21
1247.1405
 31
0.0
  0
LINE
  5
3D9
330
1D
100
AcDbEntity
  8
0
100
AcDbLine
 10
123.58015
 20
1269.1205
 30
0.0
 11
137.97765
 21
1267.5905
 31
0.0
  0
LINE
  5
3DA
330
1D
100
AcDbEntity
  8
0
100
AcDbLine
 10
114.69525
 20
1269.1305
 30
0.0
 11
123.58015
 21
1269.1205
 31
0.0
  0
LINE
  5
3DE
330
1D
100
AcDbEntity
  8
0
100
AcDbLine
 10
113.07365
 20
1228.5305
 30
0.0
 11
115.245775430395
 21
1240.84622679362
 31
0.0
  0
LINE
  5
3DF
330
1D
100
AcDbEntity
  8
0
100
AcDbLine
 10
113.21155
 20
1228.5005
 30
0.0
 11
113.49195
 21
1228.0205
 31
0.0
  0
LINE
  5
3E0
330
1D
100
AcDbEntity
  8
0
100
AcDbLine
 10
112.96015
 20
1228.1105
 30
0.0
 11
113.49195
 21
1228.0205
 31
0.0
  0
LINE
  5
408
330
1D
100
AcDbEntity
  8
0
100
AcDbLine
 10
108.71575
 20
1241.3105
 30
0.0
 11
109.596995281511
 21
1241.6559391389
 31
0.0
  0
LINE
  5
409
330
1D
100
AcDbEntity
  8
0
100
AcDbLine
 10
93.33255
 20
1260.8405
 30
0.0
 11
99.583743901791
 21
1264.33549985111
 31
0.0
  0
LINE
  5
40A
330
1D
100
AcDbEntity
  8
0
100
AcDbLine
 10
137.97765
 20
1267.5905
 30
0.0
 11
463.94145
 21
1210.1505
 31
0.0
  0
LINE
  5
40B
330
1D
100
AcDbEntity
  8
0
100
AcDbLine
 10
447.19851587862
 20
1169.73786752424
 30
0.0
 11
443.23145
 21
1178.4505
 31
0.0
  0
LINE
  5
40C
330
1D
100
AcDbEntity
  8
0
100
AcDbLine
 10
435.704128935698
 20
1186.09469512195
 30
0.0
 11
430.155739659714
 21
1191.908215015301
 31
0.0
  0
LINE
  5
40D
330
1D
100
AcDbEntity
  8
0
100
AcDbLine
 10
430.155739659714
 20
1191.908215015301
 30
0.0
 11
421.378605017637
 21
1196.09528752169
 31
0.0
  0
LINE
  5
40E
330
1D
100
AcDbEntity
  8
0
100
AcDbLine
 10
475.60545
 20
1193.5305
 30
0.0
 11
475.83345
 21
1051.4825
 31
0.0
  0
LINE
  5
54A
330
1D
100
AcDbEntity
  8
0
100
AcDbLine
 10
407.98365
 20
89.949365118347
 30
0.0
 11
407.98365
 21
91.135470525381
 31
0.0
  0
LINE
  5
54B
330
1D
100
AcDbEntity
  8
0
100
AcDbLine
 10
408.14935
 20
89.9478
 30
0.0
 11
409.74935
 21
89.9326
 31
0.0
  0
LINE
  5
54C
330
1D
100
AcDbEntity
  8
0
100
AcDbLine
 10
407.56525
 20
59.952
 30
0.0
 11
407.86525
 21
59.9491
 31
0.0
  0
LINE
  5
54D
330
1D
100
AcDbEntity
  8
0
100
AcDbLine
 10
407.98365
 20
91.135470525381
 30
0.0
 11
407.98365
 21
89.949365118347
 31
0.0
  0
LINE
  5
54E
330
1D
100
AcDbEntity
  8
0
100
AcDbLine
 10
406.84945
 20
89.9601
 30
0.0
 11
407.24945
 21
89.9563
 31
0.0
  0
LINE
  5
54F
330
1D
100
AcDbEntity
  8
0
100
AcDbLine
 10
407.24945
 20
89.9563
 30
0.0
 11
407.98365
 21
89.949365118347
 31
0.0
  0
LINE
  5
550
330
1D
100
AcDbEntity
  8
0
100
AcDbLine
 10
407.24945
 20
89.9563
 30
0.0
 11
408.14935
 21
89.9478
 31
0.0
  0
LINE
  5
551
330
1D
100
AcDbEntity
  8
0
100
AcDbLine
 10
405.83055
 20
87.9696
 30
0.0
 11
407.56525
 21
59.952
 31
0.0
  0
LINE
  5
552
330
1D
100
AcDbEntity
  8
0
100
AcDbLine
 10
405.83055
 20
87.9696
 30
0.0
 11
406.84945
 21
89.9601
 31
0.0
  0
LINE
  5
553
330
1D
100
AcDbEntity
  8
0
100
AcDbLine
 10
407.86525
 20
59.9491
 30
0.0
 11
408.76525
 21
59.9406
 31
0.0
  0
LINE
  5
554
330
1D
100
AcDbEntity
  8
0
100
AcDbLine
 10
408.53735
 20
4.2025
 30
0.0
 11
408.81855
 21
2.2125
 31
0.0
  0
LINE
  5
555
330
1D
100
AcDbEntity
  8
0
100
AcDbLine
 10
408.53735
 20
4.2025
 30
0.0
 11
409.065249524537
 21
59.937749800931
 31
0.0
  0
LINE
  5
556
330
1D
100
AcDbEntity
  8
0
100
AcDbLine
 10
408.53735
 20
4.2025
 30
0.0
 11
408.85015
 21
5.5485
 31
0.0
  0
LINE
  5
557
330
1D
100
AcDbEntity
  8
0
100
AcDbLine
 10
408.85015
 20
5.5485
 30
0.0
 11
409.56145
 21
6.7415
 31
0.0
  0
LINE
  5
558
330
1D
100
AcDbEntity
  8
0
100
AcDbLine
 10
408.81855
 20
2.2125
 30
0.0
 11
409.50785
 21
1.0815
 31
0.0
  0
LINE
  5
559
330
1D
100
AcDbEntity
  8
0
100
AcDbLine
 10
409.56145
 20
6.7415
 30
0.0
 11
410.77275
 21
7.9295
 31
0.0
  0
LINE
  5
55A
330
1D
100
AcDbEntity
  8
0
100
AcDbLine
 10
409.50785
 20
1.0815
 30
0.0
 11
410.70135
 21
0.3955
 31
0.0
  0
LINE
  5
55B
330
1D
100
AcDbEntity
  8
0
100
AcDbLine
 10
409.74935
 20
89.9326
 30
0.0
 11
411.84925
 21
89.9127
 31
0.0
  0
LINE
  5
55C
330
1D
100
AcDbEntity
  8
0
100
AcDbLine
 10
410.16515
 20
59.9273
 30
0.0
 11
412.06505
 21
59.9093
 31
0.0
  0
LINE
  5
55D
330
1D
100
AcDbEntity
  8
0
100
AcDbLine
 10
408.76525
 20
59.9406
 30
0.0
 11
409.065249524537
 21
59.937749800931
 31
0.0
  0
LINE
  5
55E
330
1D
100
AcDbEntity
  8
0
100
AcDbLine
 10
408.76525
 20
59.9406
 30
0.0
 11
410.16515
 21
59.9273
 31
0.0
  0
LINE
  5
55F
330
1D
100
AcDbEntity
  8
0
100
AcDbLine
 10
410.77275
 20
7.9295
 30
0.0
 11
412.38265
 21
8.9635
 31
0.0
  0
LINE
  5
560
330
1D
100
AcDbEntity
  8
0
100
AcDbLine
 10
410.70135
 20
0.3955
 30
0.0
 11
412.29775
 21
0.0055
 31
0.0
  0
LINE
  5
561
330
1D
100
AcDbEntity
  8
0
100
AcDbLine
 10
346.85645
 20
151.1305
 30
0.0
 11
347.35545
 21
153.1305
 31
0.0
  0
LINE
  5
562
330
1D
100
AcDbEntity
  8
0
100
AcDbLine
 10
346.85645
 20
151.1305
 30
0.0
 11
347.35545
 21
153.1305
 31
0.0
  0
LINE
  5
563
330
1D
100
AcDbEntity
  8
0
100
AcDbLine
 10
347.35545
 20
153.1305
 30
0.0
 11
347.84445
 21
153.1305
 31
0.0
  0
LINE
  5
564
330
1D
100
AcDbEntity
  8
0
100
AcDbLine
 10
411.84925
 20
89.9127
 30
0.0
 11
414.24915
 21
89.89
 31
0.0
  0
LINE
  5
565
330
1D
100
AcDbEntity
  8
0
100
AcDbLine
 10
412.38265
 20
8.9635
 30
0.0
 11
414.18925
 21
9.6585
 31
0.0
  0
LINE
  5
566
330
1D
100
AcDbEntity
  8
0
100
AcDbLine
 10
412.29775
 20
0.0055
 30
0.0
 11
414.09695
 21
-0.0865
 31
0.0
  0
LINE
  5
567
330
1D
100
AcDbEntity
  8
0
100
AcDbLine
 10
414.09695
 20
-0.0865
 30
0.0
 11
415.99665
 21
-0.1305
 31
0.0
  0
LINE
  5
568
330
1D
100
AcDbEntity
  8
0
100
AcDbLine
 10
412.06505
 20
59.9093
 30
0.0
 11
414.26495
 21
59.8885
 31
0.0
  0
LINE
  5
569
330
1D
100
AcDbEntity
  8
0
100
AcDbLine
 10
415.99665
 20
-0.1305
 30
0.0
 11
417.89685
 21
-0.1225
 31
0.0
  0
LINE
  5
56A
330
1D
100
AcDbEntity
  8
0
100
AcDbLine
 10
416.09135
 20
9.8685
 30
0.0
 11
417.98905
 21
9.6225
 31
0.0
  0
LINE
  5
56B
330
1D
100
AcDbEntity
  8
0
100
AcDbLine
 10
414.274610240613
 20
59.888408433738
 30
0.0
 11
414.66495
 21
59.8847
 31
0.0
  0
LINE
  5
56C
330
1D
100
AcDbEntity
  8
0
100
AcDbLine
 10
414.66495
 20
59.8847
 30
0.0
 11
416.56485
 21
59.8667
 31
0.0
  0
LINE
  5
56D
330
1D
100
AcDbEntity
  8
0
100
AcDbLine
 10
414.18925
 20
9.6585
 30
0.0
 11
416.09135
 21
9.8685
 31
0.0
  0
LINE
  5
56E
330
1D
100
AcDbEntity
  8
0
100
AcDbLine
 10
414.24915
 20
89.89
 30
0.0
 11
416.84895
 21
89.8654
 31
0.0
  0
LINE
  5
56F
330
1D
100
AcDbEntity
  8
0
100
AcDbLine
 10
414.26495
 20
59.8885
 30
0.0
 11
416.56485
 21
59.8667
 31
0.0
  0
LINE
  5
570
330
1D
100
AcDbEntity
  8
0
100
AcDbLine
 10
419.69745
 20
-0.0645
 30
0.0
 11
421.30095
 21
0.2955
 31
0.0
  0
LINE
  5
571
330
1D
100
AcDbEntity
  8
0
100
AcDbLine
 10
417.89685
 20
-0.1225
 30
0.0
 11
419.69745
 21
-0.0645
 31
0.0
  0
LINE
  5
572
330
1D
100
AcDbEntity
  8
0
100
AcDbLine
 10
422.50725
 20
0.9585
 30
0.0
 11
423.21785
 21
2.0765
 31
0.0
  0
LINE
  5
573
330
1D
100
AcDbEntity
  8
0
100
AcDbLine
 10
421.30095
 20
0.2955
 30
0.0
 11
422.50725
 21
0.9585
 31
0.0
  0
LINE
  5
574
330
1D
100
AcDbEntity
  8
0
100
AcDbLine
 10
423.21785
 20
2.0765
 30
0.0
 11
423.53665
 21
4.0595
 31
0.0
  0
LINE
  5
575
330
1D
100
AcDbEntity
  8
0
100
AcDbLine
 10
423.24945
 20
5.4125
 30
0.0
 11
423.53665
 21
4.0595
 31
0.0
  0
LINE
  5
576
330
1D
100
AcDbEntity
  8
0
100
AcDbLine
 10
423.53665
 20
4.0595
 30
0.0
 11
424.06455
 21
59.7957
 31
0.0
  0
LINE
  5
577
330
1D
100
AcDbEntity
  8
0
100
AcDbLine
 10
422.56085
 20
6.6185
 30
0.0
 11
423.24945
 21
5.4125
 31
0.0
  0
LINE
  5
578
330
1D
100
AcDbEntity
  8
0
100
AcDbLine
 10
421.37225
 20
7.8285
 30
0.0
 11
422.56085
 21
6.6185
 31
0.0
  0
LINE
  5
579
330
1D
100
AcDbEntity
  8
0
100
AcDbLine
 10
419.78225
 20
8.8935
 30
0.0
 11
421.37225
 21
7.8285
 31
0.0
  0
LINE
  5
57A
330
1D
100
AcDbEntity
  8
0
100
AcDbLine
 10
417.98905
 20
9.6225
 30
0.0
 11
419.78225
 21
8.8935
 31
0.0
  0
LINE
  5
57B
330
1D
100
AcDbEntity
  8
0
100
AcDbLine
 10
425.56445
 20
59.7815
 30
0.0
 11
427.82955
 21
87.7613
 31
0.0
  0
LINE
  5
57C
330
1D
100
AcDbEntity
  8
0
100
AcDbLine
 10
423.76455
 20
59.7985
 30
0.0
 11
424.06455
 21
59.7957
 31
0.0
  0
LINE
  5
57D
330
1D
100
AcDbEntity
  8
0
100
AcDbLine
 10
423.36455
 20
59.802328571429
 30
0.0
 11
424.36455
 21
59.7929
 31
0.0
  0
LINE
  5
57E
330
1D
100
AcDbEntity
  8
0
100
AcDbLine
 10
421.86465
 20
59.8165
 30
0.0
 11
422.228711517118
 21
59.813071468336
 31
0.0
  0
LINE
  5
57F
330
1D
100
AcDbEntity
  8
0
100
AcDbLine
 10
421.082636098489
 20
59.823929596414
 30
0.0
 11
421.86465
 21
59.8165
 31
0.0
  0
LINE
  5
580
330
1D
100
AcDbEntity
  8
0
100
AcDbLine
 10
422.96455
 20
59.8061
 30
0.0
 11
424.36455
 21
59.7929
 31
0.0
  0
LINE
  5
581
330
1D
100
AcDbEntity
  8
0
100
AcDbLine
 10
421.06465
 20
59.8241
 30
0.0
 11
422.96455
 21
59.8061
 31
0.0
  0
LINE
  5
582
330
1D
100
AcDbEntity
  8
0
100
AcDbLine
 10
423.94865
 20
89.7981
 30
0.0
 11
425.54865
 21
89.783
 31
0.0
  0
LINE
  5
583
330
1D
100
AcDbEntity
  8
0
100
AcDbLine
 10
421.84875
 20
89.818
 30
0.0
 11
423.94865
 21
89.7981
 31
0.0
  0
LINE
  5
584
330
1D
100
AcDbEntity
  8
0
100
AcDbLine
 10
419.44885
 20
89.8408
 30
0.0
 11
421.84875
 21
89.818
 31
0.0
  0
LINE
  5
585
330
1D
100
AcDbEntity
  8
0
100
AcDbLine
 10
416.84895
 20
89.8654
 30
0.0
 11
419.44885
 21
89.8408
 31
0.0
  0
LINE
  5
586
330
1D
100
AcDbEntity
  8
0
100
AcDbLine
 10
418.86475
 20
59.8449
 30
0.0
 11
421.06465
 21
59.8241
 31
0.0
  0
LINE
  5
587
330
1D
100
AcDbEntity
  8
0
100
AcDbLine
 10
416.56485
 20
59.8667
 30
0.0
 11
418.86475
 21
59.8449
 31
0.0
  0
LINE
  5
588
330
1D
100
AcDbEntity
  8
0
100
AcDbLine
 10
423.364550000001
 20
59.802328571429
 30
0.0
 11
424.36455
 21
59.7929
 31
0.0
  0
LINE
  5
589
330
1D
100
AcDbEntity
  8
0
100
AcDbLine
 10
423.364550000001
 20
59.802328571429
 30
0.0
 11
423.76455
 21
59.7985
 31
0.0
  0
LINE
  5
58A
330
1D
100
AcDbEntity
  8
0
100
AcDbLine
 10
425.98365
 20
89.778891210134
 30
0.0
 11
425.98365
 21
91.150465
 31
0.0
  0
LINE
  5
58B
330
1D
100
AcDbEntity
  8
0
100
AcDbLine
 10
425.54865
 20
89.783
 30
0.0
 11
426.44855
 21
89.7745
 31
0.0
  0
LINE
  5
58C
330
1D
100
AcDbEntity
  8
0
100
AcDbLine
 10
426.44855
 20
89.7745
 30
0.0
 11
426.84855
 21
89.7707
 31
0.0
  0
LINE
  5
58D
330
1D
100
AcDbEntity
  8
0
100
AcDbLine
 10
426.84855
 20
89.7707
 30
0.0
 11
427.82955
 21
87.7613
 31
0.0
  0
LINE
  5
58E
330
1D
100
AcDbEntity
  8
0
100
AcDbLine
 10
424.36455
 20
59.7929
 30
0.0
 11
425.26445
 21
59.7843
 31
0.0
  0
LINE
  5
58F
330
1D
100
AcDbEntity
  8
0
100
AcDbLine
 10
425.26445
 20
59.7843
 30
0.0
 11
425.56445
 21
59.7815
 31
0.0
  0
LINE
  5
590
330
1D
100
AcDbEntity
  8
0
100
AcDbLine
 10
425.98365
 20
91.150465
 30
0.0
 11
425.98365
 21
89.778891210134
 31
0.0
  0
LINE
  5
591
330
1D
100
AcDbEntity
  8
0
100
AcDbLine
 10
363.68845
 20
112.9594
 30
0.0
 11
365.16545
 21
110.3975
 31
0.0
  0
LINE
  5
592
330
1D
100
AcDbEntity
  8
0
100
AcDbLine
 10
366.97245
 20
107.4332
 30
0.0
 11
368.77845
 21
104.6871
 31
0.0
  0
LINE
  5
593
330
1D
100
AcDbEntity
  8
0
100
AcDbLine
 10
365.16545
 20
110.3975
 30
0.0
 11
366.97245
 21
107.4332
 31
0.0
  0
LINE
  5
594
330
1D
100
AcDbEntity
  8
0
100
AcDbLine
 10
357.82415
 20
124.1631
 30
0.0
 11
359.36045
 21
121.0903
 31
0.0
  0
LINE
  5
595
330
1D
100
AcDbEntity
  8
0
100
AcDbLine
 10
359.36045
 20
121.0903
 30
0.0
 11
360.93145
 21
118.0395
 31
0.0
  0
LINE
  5
596
330
1D
100
AcDbEntity
  8
0
100
AcDbLine
 10
360.93145
 20
118.0395
 30
0.0
 11
362.62445
 21
114.8811
 31
0.0
  0
LINE
  5
597
330
1D
100
AcDbEntity
  8
0
100
AcDbLine
 10
362.62445
 20
114.8811
 30
0.0
 11
363.68845
 21
112.9594
 31
0.0
  0
LINE
  5
598
330
1D
100
AcDbEntity
  8
0
100
AcDbLine
 10
368.77845
 20
104.6871
 30
0.0
 11
370.62145
 21
102.1441
 31
0.0
  0
LINE
  5
599
330
1D
100
AcDbEntity
  8
0
100
AcDbLine
 10
370.62145
 20
102.1441
 30
0.0
 11
373.050615683151
 21
99.384691351922
 31
0.0
  0
LINE
  5
59A
330
1D
100
AcDbEntity
  8
0
100
AcDbLine
 10
373.050615683151
 20
99.384691351922
 30
0.0
 11
373.18645
 21
99.2166
 31
0.0
  0
LINE
  5
59B
330
1D
100
AcDbEntity
  8
0
100
AcDbLine
 10
373.18645
 20
99.2166
 30
0.0
 11
373.84545
 21
98.4818
 31
0.0
  0
LINE
  5
59C
330
1D
100
AcDbEntity
  8
0
100
AcDbLine
 10
373.84545
 20
98.4818
 30
0.0
 11
375.58145
 21
96.9733
 31
0.0
  0
LINE
  5
59D
330
1D
100
AcDbEntity
  8
0
100
AcDbLine
 10
375.58145
 20
96.9733
 30
0.0
 11
377.46145
 21
95.6421
 31
0.0
  0
LINE
  5
59E
330
1D
100
AcDbEntity
  8
0
100
AcDbLine
 10
374.07745
 20
117.3894
 30
0.0
 11
374.60845
 21
114.7147
 31
0.0
  0
LINE
  5
59F
330
1D
100
AcDbEntity
  8
0
100
AcDbLine
 10
374.07745
 20
122.8716
 30
0.0
 11
374.60845
 21
125.5463
 31
0.0
  0
LINE
  5
5A0
330
1D
100
AcDbEntity
  8
0
100
AcDbLine
 10
373.85645
 20
120.1305
 30
0.0
 11
374.07745
 21
117.3894
 31
0.0
  0
LINE
  5
5A1
330
1D
100
AcDbEntity
  8
0
100
AcDbLine
 10
373.85645
 20
120.1305
 30
0.0
 11
374.07745
 21
122.8716
 31
0.0
  0
LINE
  5
5A2
330
1D
100
AcDbEntity
  8
0
100
AcDbLine
 10
374.60845
 20
114.7147
 30
0.0
 11
375.49245
 21
112.1063
 31
0.0
  0
LINE
  5
5A3
330
1D
100
AcDbEntity
  8
0
100
AcDbLine
 10
375.49245
 20
112.1063
 30
0.0
 11
376.66345
 21
109.6747
 31
0.0
  0
LINE
  5
5A4
330
1D
100
AcDbEntity
  8
0
100
AcDbLine
 10
374.60845
 20
125.5463
 30
0.0
 11
375.49245
 21
128.1547
 31
0.0
  0
LINE
  5
5A5
330
1D
100
AcDbEntity
  8
0
100
AcDbLine
 10
375.49245
 20
128.1547
 30
0.0
 11
376.66345
 21
130.5863
 31
0.0
  0
LINE
  5
5A6
330
1D
100
AcDbEntity
  8
0
100
AcDbLine
 10
354.85575
 20
130.3445
 30
0.0
 11
356.32695
 21
127.2438
 31
0.0
  0
LINE
  5
5A7
330
1D
100
AcDbEntity
  8
0
100
AcDbLine
 10
353.41545
 20
133.4451
 30
0.0
 11
354.85575
 21
130.3445
 31
0.0
  0
LINE
  5
5A8
330
1D
100
AcDbEntity
  8
0
100
AcDbLine
 10
356.32695
 20
127.2438
 30
0.0
 11
357.82415
 21
124.1631
 31
0.0
  0
LINE
  5
5A9
330
1D
100
AcDbEntity
  8
0
100
AcDbLine
 10
384.74845
 20
92.4777
 30
0.0
 11
388.24245
 21
91.7378
 31
0.0
  0
LINE
  5
5AA
330
1D
100
AcDbEntity
  8
0
100
AcDbLine
 10
382.07945
 20
103.5073
 30
0.0
 11
384.40045
 21
101.9379
 31
0.0
  0
LINE
  5
5AB
330
1D
100
AcDbEntity
  8
0
100
AcDbLine
 10
384.40045
 20
101.9379
 30
0.0
 11
386.83245
 21
100.7663
 31
0.0
  0
LINE
  5
5AC
330
1D
100
AcDbEntity
  8
0
100
AcDbLine
 10
379.07945
 20
94.6991
 30
0.0
 11
381.83045
 21
93.4375
 31
0.0
  0
LINE
  5
5AD
330
1D
100
AcDbEntity
  8
0
100
AcDbLine
 10
377.46145
 20
95.6421
 30
0.0
 11
379.07945
 21
94.6991
 31
0.0
  0
LINE
  5
5AE
330
1D
100
AcDbEntity
  8
0
100
AcDbLine
 10
381.83045
 20
93.4375
 30
0.0
 11
384.74845
 21
92.4777
 31
0.0
  0
LINE
  5
5AF
330
1D
100
AcDbEntity
  8
0
100
AcDbLine
 10
380.02345
 20
105.2979
 30
0.0
 11
382.07945
 21
103.5073
 31
0.0
  0
LINE
  5
5B0
330
1D
100
AcDbEntity
  8
0
100
AcDbLine
 10
381.648139527865
 20
103.882934499711
 30
0.0
 11
381.864561854105
 21
103.69444917998
 31
0.0
  0
LINE
  5
5B1
330
1D
100
AcDbEntity
  8
0
100
AcDbLine
 10
381.648139527865
 20
103.882934499711
 30
0.0
 11
381.864561854105
 21
103.69444917998
 31
0.0
  0
LINE
  5
5B2
330
1D
100
AcDbEntity
  8
0
100
AcDbLine
 10
378.23345
 20
107.3537
 30
0.0
 11
380.02345
 21
105.2979
 31
0.0
  0
LINE
  5
5B3
330
1D
100
AcDbEntity
  8
0
100
AcDbLine
 10
376.66345
 20
109.6747
 30
0.0
 11
378.23345
 21
107.3537
 31
0.0
  0
LINE
  5
5B4
330
1D
100
AcDbEntity
  8
0
100
AcDbLine
 10
378.23345
 20
132.9073
 30
0.0
 11
380.02345
 21
134.9631
 31
0.0
  0
LINE
  5
5B5
330
1D
100
AcDbEntity
  8
0
100
AcDbLine
 10
376.66345
 20
130.5863
 30
0.0
 11
378.23345
 21
132.9073
 31
0.0
  0
LINE
  5
5B6
330
1D
100
AcDbEntity
  8
0
100
AcDbLine
 10
380.02345
 20
134.9631
 30
0.0
 11
382.07945
 21
136.7537
 31
0.0
  0
LINE
  5
5B7
330
1D
100
AcDbEntity
  8
0
100
AcDbLine
 10
382.07945
 20
136.7537
 30
0.0
 11
384.40045
 21
138.3231
 31
0.0
  0
LINE
  5
5B8
330
1D
100
AcDbEntity
  8
0
100
AcDbLine
 10
350.59505
 20
139.6842
 30
0.0
 11
351.75225
 21
137.0964
 31
0.0
  0
LINE
  5
5B9
330
1D
100
AcDbEntity
  8
0
100
AcDbLine
 10
384.40045
 20
138.3231
 30
0.0
 11
386.83245
 21
139.4947
 31
0.0
  0
LINE
  5
5BA
330
1D
100
AcDbEntity
  8
0
100
AcDbLine
 10
351.75225
 20
137.0964
 30
0.0
 11
353.41545
 21
133.4451
 31
0.0
  0
LINE
  5
5BB
330
1D
100
AcDbEntity
  8
0
100
AcDbLine
 10
399.50745
 20
91.1415
 30
0.0
 11
403.19345
 21
91.1305
 31
0.0
  0
LINE
  5
5BC
330
1D
100
AcDbEntity
  8
0
100
AcDbLine
 10
395.84245
 20
91.1873
 30
0.0
 11
399.50745
 21
91.1415
 31
0.0
  0
LINE
  5
5BD
330
1D
100
AcDbEntity
  8
0
100
AcDbLine
 10
393.17545
 20
91.2719
 30
0.0
 11
395.84245
 21
91.1873
 31
0.0
  0
LINE
  5
5BE
330
1D
100
AcDbEntity
  8
0
100
AcDbLine
 10
403.19345
 20
91.1305
 30
0.0
 11
405.66345
 21
91.1325
 31
0.0
  0
LINE
  5
5BF
330
1D
100
AcDbEntity
  8
0
100
AcDbLine
 10
388.85645
 20
106.1305
 30
0.0
 11
388.85645
 21
134.1305
 31
0.0
  0
LINE
  5
5C0
330
1D
100
AcDbEntity
  8
0
100
AcDbLine
 10
388.85645
 20
106.1305
 30
0.0
 11
389.06845
 21
104.5952
 31
0.0
  0
LINE
  5
5C1
330
1D
100
AcDbEntity
  8
0
100
AcDbLine
 10
389.06845
 20
104.5952
 30
0.0
 11
389.66845
 21
103.1481
 31
0.0
  0
LINE
  5
5C2
330
1D
100
AcDbEntity
  8
0
100
AcDbLine
 10
389.33345
 20
104.6481
 30
0.0
 11
389.89745
 21
103.2717
 31
0.0
  0
LINE
  5
5C3
330
1D
100
AcDbEntity
  8
0
100
AcDbLine
 10
389.12145
 20
106.1305
 30
0.0
 11
389.12145
 21
134.1305
 31
0.0
  0
LINE
  5
5C4
330
1D
100
AcDbEntity
  8
0
100
AcDbLine
 10
389.12145
 20
106.1305
 30
0.0
 11
389.33345
 21
104.6481
 31
0.0
  0
LINE
  5
5C5
330
1D
100
AcDbEntity
  8
0
100
AcDbLine
 10
389.33345
 20
135.6129
 30
0.0
 11
389.89745
 21
136.9893
 31
0.0
  0
LINE
  5
5C6
330
1D
100
AcDbEntity
  8
0
100
AcDbLine
 10
389.06845
 20
135.6658
 30
0.0
 11
389.66845
 21
137.1129
 31
0.0
  0
LINE
  5
5C7
330
1D
100
AcDbEntity
  8
0
100
AcDbLine
 10
389.12145
 20
134.1305
 30
0.0
 11
389.12145
 21
106.1305
 31
0.0
  0
LINE
  5
5C8
330
1D
100
AcDbEntity
  8
0
100
AcDbLine
 10
389.12145
 20
134.1305
 30
0.0
 11
389.33345
 21
135.6129
 31
0.0
  0
LINE
  5
5C9
330
1D
100
AcDbEntity
  8
0
100
AcDbLine
 10
388.85645
 20
134.1305
 30
0.0
 11
388.85645
 21
106.1305
 31
0.0
  0
LINE
  5
5CA
330
1D
100
AcDbEntity
  8
0
100
AcDbLine
 10
388.85645
 20
134.1305
 30
0.0
 11
389.06845
 21
135.6658
 31
0.0
  0
LINE
  5
5CB
330
1D
100
AcDbEntity
  8
0
100
AcDbLine
 10
386.83245
 20
100.7663
 30
0.0
 11
389.44045
 21
99.8821
 31
0.0
  0
LINE
  5
5CC
330
1D
100
AcDbEntity
  8
0
100
AcDbLine
 10
389.44045
 20
99.8821
 30
0.0
 11
389.85645
 21
99.799599813084
 31
0.0
  0
LINE
  5
5CD
330
1D
100
AcDbEntity
  8
0
100
AcDbLine
 10
386.83245
 20
139.4947
 30
0.0
 11
389.44045
 21
140.3789
 31
0.0
  0
LINE
  5
5CE
330
1D
100
AcDbEntity
  8
0
100
AcDbLine
 10
389.66845
 20
137.1129
 30
0.0
 11
390.62145
 21
138.3658
 31
0.0
  0
LINE
  5
5CF
330
1D
100
AcDbEntity
  8
0
100
AcDbLine
 10
389.66845
 20
103.1481
 30
0.0
 11
389.85645
 21
102.900938195173
 31
0.0
  0
LINE
  5
5D0
330
1D
100
AcDbEntity
  8
0
100
AcDbLine
 10
389.44045
 20
140.3789
 30
0.0
 11
392.11545
 21
140.9094
 31
0.0
  0
LINE
  5
5D1
330
1D
100
AcDbEntity
  8
0
100
AcDbLine
 10
388.24245
 20
91.7378
 30
0.0
 11
389.71245
 21
91.5388
 31
0.0
  0
LINE
  5
5D2
330
1D
100
AcDbEntity
  8
0
100
AcDbLine
 10
392.15045
 20
95.1305
 30
0.0
 11
392.95045
 21
95.1305
 31
0.0
  0
LINE
  5
5D3
330
1D
100
AcDbEntity
  8
0
100
AcDbLine
 10
392.95045
 20
95.1305
 30
0.0
 11
393.86845
 21
95.1305
 31
0.0
  0
LINE
  5
5D4
330
1D
100
AcDbEntity
  8
0
100
AcDbLine
 10
393.86845
 20
95.1305
 30
0.0
 11
394.85645
 21
95.1305
 31
0.0
  0
LINE
  5
5D5
330
1D
100
AcDbEntity
  8
0
100
AcDbLine
 10
391.55045
 20
95.1305
 30
0.0
 11
392.15045
 21
95.1305
 31
0.0
  0
LINE
  5
5D6
330
1D
100
AcDbEntity
  8
0
100
AcDbLine
 10
391.17445
 20
95.1305
 30
0.0
 11
391.55045
 21
95.1305
 31
0.0
  0
LINE
  5
5D7
330
1D
100
AcDbEntity
  8
0
100
AcDbLine
 10
391.03245
 20
95.1305
 30
0.0
 11
391.17445
 21
95.1305
 31
0.0
  0
LINE
  5
5D8
330
1D
100
AcDbEntity
  8
0
100
AcDbLine
 10
390.91545
 20
95.2843
 30
0.0
 11
391.03245
 21
95.1305
 31
0.0
  0
LINE
  5
5D9
330
1D
100
AcDbEntity
  8
0
100
AcDbLine
 10
390.85645
 20
95.592
 30
0.0
 11
390.91545
 21
95.2843
 31
0.0
  0
LINE
  5
5DA
330
1D
100
AcDbEntity
  8
0
100
AcDbLine
 10
390.85645
 20
95.592
 30
0.0
 11
390.85645
 21
99.1305
 31
0.0
  0
LINE
  5
5DB
330
1D
100
AcDbEntity
  8
0
100
AcDbLine
 10
391.39745
 20
99.1305
 30
0.0
 11
392.03245
 21
99.1305
 31
0.0
  0
LINE
  5
5DC
330
1D
100
AcDbEntity
  8
0
100
AcDbLine
 10
390.99745
 20
99.1305
 30
0.0
 11
391.39745
 21
99.1305
 31
0.0
  0
LINE
  5
5DD
330
1D
100
AcDbEntity
  8
0
100
AcDbLine
 10
390.85645
 20
99.1305
 30
0.0
 11
390.85645
 21
95.592
 31
0.0
  0
LINE
  5
5DE
330
1D
100
AcDbEntity
  8
0
100
AcDbLine
 10
390.85645
 20
99.1305
 30
0.0
 11
390.99745
 21
99.1305
 31
0.0
  0
LINE
  5
5DF
330
1D
100
AcDbEntity
  8
0
100
AcDbLine
 10
392.03245
 20
99.1305
 30
0.0
 11
392.86845
 21
99.1305
 31
0.0
  0
LINE
  5
5E0
330
1D
100
AcDbEntity
  8
0
100
AcDbLine
 10
392.86845
 20
99.1305
 30
0.0
 11
393.83345
 21
99.1305
 31
0.0
  0
LINE
  5
5E1
330
1D
100
AcDbEntity
  8
0
100
AcDbLine
 10
391.47445
 20
99.1305
 30
0.0
 11
392.47445
 21
99.1305
 31
0.0
  0
LINE
  5
5E2
330
1D
100
AcDbEntity
  8
0
100
AcDbLine
 10
392.47445
 20
99.1305
 30
0.0
 11
393.62145
 21
99.1305
 31
0.0
  0
LINE
  5
5E3
330
1D
100
AcDbEntity
  8
0
100
AcDbLine
 10
393.83345
 20
99.1305
 30
0.0
 11
394.85645
 21
99.1305
 31
0.0
  0
LINE
  5
5E4
330
1D
100
AcDbEntity
  8
0
100
AcDbLine
 10
393.62145
 20
99.1305
 30
0.0
 11
394.85645
 21
99.1305
 31
0.0
  0
LINE
  5
5E5
330
1D
100
AcDbEntity
  8
0
100
AcDbLine
 10
390.72445
 20
99.1305
 30
0.0
 11
390.85645
 21
99.1305
 31
0.0
  0
LINE
  5
5E6
330
1D
100
AcDbEntity
  8
0
100
AcDbLine
 10
390.72445
 20
99.1305
 30
0.0
 11
391.47445
 21
99.1305
 31
0.0
  0
LINE
  5
5E7
330
1D
100
AcDbEntity
  8
0
100
AcDbLine
 10
390.25345
 20
99.1305
 30
0.0
 11
390.72445
 21
99.1305
 31
0.0
  0
LINE
  5
5E8
330
1D
100
AcDbEntity
  8
0
100
AcDbLine
 10
389.93045
 20
99.3228
 30
0.0
 11
390.07745
 21
99.1305
 31
0.0
  0
LINE
  5
5E9
330
1D
100
AcDbEntity
  8
0
100
AcDbLine
 10
390.07745
 20
99.1305
 30
0.0
 11
390.25345
 21
99.1305
 31
0.0
  0
LINE
  5
5EA
330
1D
100
AcDbEntity
  8
0
100
AcDbLine
 10
389.85645
 20
99.7074
 30
0.0
 11
389.93045
 21
99.3228
 31
0.0
  0
LINE
  5
5EB
330
1D
100
AcDbEntity
  8
0
100
AcDbLine
 10
389.85645
 20
99.7074
 30
0.0
 11
389.85645
 21
102.900938195173
 31
0.0
  0
LINE
  5
5EC
330
1D
100
AcDbEntity
  8
0
100
AcDbLine
 10
390.79745
 20
102.0717
 30
0.0
 11
391.99745
 21
101.1717
 31
0.0
  0
LINE
  5
5ED
330
1D
100
AcDbEntity
  8
0
100
AcDbLine
 10
391.99745
 20
101.1717
 30
0.0
 11
393.37445
 21
100.607
 31
0.0
  0
LINE
  5
5EE
330
1D
100
AcDbEntity
  8
0
100
AcDbLine
 10
393.37445
 20
100.607
 30
0.0
 11
394.85645
 21
100.3952
 31
0.0
  0
LINE
  5
5EF
330
1D
100
AcDbEntity
  8
0
100
AcDbLine
 10
389.89745
 20
136.9893
 30
0.0
 11
390.79745
 21
138.1893
 31
0.0
  0
LINE
  5
5F0
330
1D
100
AcDbEntity
  8
0
100
AcDbLine
 10
390.79745
 20
138.1893
 30
0.0
 11
391.99745
 21
139.0893
 31
0.0
  0
LINE
  5
5F1
330
1D
100
AcDbEntity
  8
0
100
AcDbLine
 10
391.99745
 20
139.0893
 30
0.0
 11
393.37445
 21
139.654
 31
0.0
  0
LINE
  5
5F2
330
1D
100
AcDbEntity
  8
0
100
AcDbLine
 10
390.62145
 20
138.3658
 30
0.0
 11
391.87445
 21
139.3187
 31
0.0
  0
LINE
  5
5F3
330
1D
100
AcDbEntity
  8
0
100
AcDbLine
 10
393.37445
 20
139.654
 30
0.0
 11
394.85645
 21
139.8658
 31
0.0
  0
LINE
  5
5F4
330
1D
100
AcDbEntity
  8
0
100
AcDbLine
 10
391.87445
 20
139.3187
 30
0.0
 11
393.32145
 21
139.9187
 31
0.0
  0
LINE
  5
5F5
330
1D
100
AcDbEntity
  8
0
100
AcDbLine
 10
389.89745
 20
103.2717
 30
0.0
 11
390.79745
 21
102.0717
 31
0.0
  0
LINE
  5
5F6
330
1D
100
AcDbEntity
  8
0
100
AcDbLine
 10
389.85645
 20
102.900938195173
 30
0.0
 11
389.85645
 21
99.7074
 31
0.0
  0
LINE
  5
5F7
330
1D
100
AcDbEntity
  8
0
100
AcDbLine
 10
393.32145
 20
139.9187
 30
0.0
 11
394.85645
 21
140.1305
 31
0.0
  0
LINE
  5
5F8
330
1D
100
AcDbEntity
  8
0
100
AcDbLine
 10
389.71245
 20
91.5388
 30
0.0
 11
390.77445
 21
91.4372
 31
0.0
  0
LINE
  5
5F9
330
1D
100
AcDbEntity
  8
0
100
AcDbLine
 10
390.77445
 20
91.4372
 30
0.0
 11
393.17545
 21
91.2719
 31
0.0
  0
LINE
  5
5FA
330
1D
100
AcDbEntity
  8
0
100
AcDbLine
 10
405.66345
 20
91.1325
 30
0.0
 11
408.77845
 21
91.1365
 31
0.0
  0
LINE
  5
5FB
330
1D
100
AcDbEntity
  8
0
100
AcDbLine
 10
408.77845
 20
91.1365
 30
0.0
 11
413.36445
 21
91.1435
 31
0.0
  0
LINE
  5
5FC
330
1D
100
AcDbEntity
  8
0
100
AcDbLine
 10
348.87175
 20
143.5935
 30
0.0
 11
349.73095
 21
141.6345
 31
0.0
  0
LINE
  5
5FD
330
1D
100
AcDbEntity
  8
0
100
AcDbLine
 10
347.31455
 20
149.1305
 30
0.0
 11
348.00165
 21
149.1305
 31
0.0
  0
LINE
  5
5FE
330
1D
100
AcDbEntity
  8
0
100
AcDbLine
 10
346.97045
 20
149.1305
 30
0.0
 11
347.31455
 21
149.1305
 31
0.0
  0
LINE
  5
5FF
330
1D
100
AcDbEntity
  8
0
100
AcDbLine
 10
349.73095
 20
141.6345
 30
0.0
 11
350.59505
 21
139.6842
 31
0.0
  0
LINE
  5
600
330
1D
100
AcDbEntity
  8
0
100
AcDbLine
 10
392.11545
 20
140.9094
 30
0.0
 11
394.85645
 21
141.1305
 31
0.0
  0
LINE
  5
601
330
1D
100
AcDbEntity
  8
0
100
AcDbLine
 10
357.48315
 20
149.1305
 30
0.0
 11
474.89945
 21
149.1305
 31
0.0
  0
LINE
  5
602
330
1D
100
AcDbEntity
  8
0
100
AcDbLine
 10
355.63285
 20
149.1305
 30
0.0
 11
357.48315
 21
149.1305
 31
0.0
  0
LINE
  5
603
330
1D
100
AcDbEntity
  8
0
100
AcDbLine
 10
354.08655
 20
149.1305
 30
0.0
 11
355.63285
 21
149.1305
 31
0.0
  0
LINE
  5
604
330
1D
100
AcDbEntity
  8
0
100
AcDbLine
 10
352.61035
 20
149.1305
 30
0.0
 11
354.08655
 21
149.1305
 31
0.0
  0
LINE
  5
605
330
1D
100
AcDbEntity
  8
0
100
AcDbLine
 10
351.24715
 20
149.1305
 30
0.0
 11
352.61035
 21
149.1305
 31
0.0
  0
LINE
  5
606
330
1D
100
AcDbEntity
  8
0
100
AcDbLine
 10
350.02895
 20
149.1305
 30
0.0
 11
351.24715
 21
149.1305
 31
0.0
  0
LINE
  5
607
330
1D
100
AcDbEntity
  8
0
100
AcDbLine
 10
348.97075
 20
149.1305
 30
0.0
 11
350.02895
 21
149.1305
 31
0.0
  0
LINE
  5
608
330
1D
100
AcDbEntity
  8
0
100
AcDbLine
 10
348.00165
 20
149.1305
 30
0.0
 11
348.97075
 21
149.1305
 31
0.0
  0
LINE
  5
609
330
1D
100
AcDbEntity
  8
0
100
AcDbLine
 10
346.90945
 20
148.1345
 30
0.0
 11
348.87175
 21
143.5935
 31
0.0
  0
LINE
  5
60A
330
1D
100
AcDbEntity
  8
0
100
AcDbLine
 10
346.85645
 20
151.1305
 30
0.0
 11
347.35545
 21
149.1305
 31
0.0
  0
LINE
  5
60B
330
1D
100
AcDbEntity
  8
0
100
AcDbLine
 10
346.85645
 20
151.1305
 30
0.0
 11
347.35545
 21
153.1305
 31
0.0
  0
LINE
  5
60C
330
1D
100
AcDbEntity
  8
0
100
AcDbLine
 10
349.26345
 20
153.1305
 30
0.0
 11
351.47345
 21
153.1305
 31
0.0
  0
LINE
  5
60D
330
1D
100
AcDbEntity
  8
0
100
AcDbLine
 10
347.84445
 20
153.1305
 30
0.0
 11
349.26345
 21
153.1305
 31
0.0
  0
LINE
  5
60E
330
1D
100
AcDbEntity
  8
0
100
AcDbLine
 10
351.47345
 20
153.1305
 30
0.0
 11
354.25845
 21
153.1305
 31
0.0
  0
LINE
  5
60F
330
1D
100
AcDbEntity
  8
0
100
AcDbLine
 10
354.25845
 20
153.1305
 30
0.0
 11
357.34445
 21
153.1305
 31
0.0
  0
LINE
  5
610
330
1D
100
AcDbEntity
  8
0
100
AcDbLine
 10
357.34445
 20
153.1305
 30
0.0
 11
473.59545
 21
153.1305
 31
0.0
  0
LINE
  5
611
330
1D
100
AcDbEntity
  8
0
100
AcDbLine
 10
357.34445
 20
153.1305
 30
0.0
 11
473.59545
 21
153.1305
 31
0.0
  0
LINE
  5
612
330
1D
100
AcDbEntity
  8
0
100
AcDbLine
 10
347.35545
 20
153.1305
 30
0.0
 11
347.84445
 21
153.1305
 31
0.0
  0
LINE
  5
613
330
1D
100
AcDbEntity
  8
0
100
AcDbLine
 10
346.85645
 20
149.1305
 30
0.0
 11
346.90945
 21
148.1345
 31
0.0
  0
LINE
  5
614
330
1D
100
AcDbEntity
  8
0
100
AcDbLine
 10
346.85645
 20
149.1305
 30
0.0
 11
346.97045
 21
149.1305
 31
0.0
  0
LINE
  5
615
330
1D
100
AcDbEntity
  8
0
100
AcDbLine
 10
413.36445
 20
91.1435
 30
0.0
 11
419.03045
 21
91.1495
 31
0.0
  0
LINE
  5
616
330
1D
100
AcDbEntity
  8
0
100
AcDbLine
 10
440.10745
 20
91.1415
 30
0.0
 11
442.95845
 21
91.1395
 31
0.0
  0
LINE
  5
617
330
1D
100
AcDbEntity
  8
0
100
AcDbLine
 10
437.25945
 20
91.1435
 30
0.0
 11
440.10745
 21
91.1415
 31
0.0
  0
LINE
  5
618
330
1D
100
AcDbEntity
  8
0
100
AcDbLine
 10
431.88445
 20
91.1485
 30
0.0
 11
434.41445
 21
91.1465
 31
0.0
  0
LINE
  5
619
330
1D
100
AcDbEntity
  8
0
100
AcDbLine
 10
434.41445
 20
91.1465
 30
0.0
 11
437.25945
 21
91.1435
 31
0.0
  0
LINE
  5
61A
330
1D
100
AcDbEntity
  8
0
100
AcDbLine
 10
448.70245
 20
91.1365
 30
0.0
 11
450.99945
 21
91.1365
 31
0.0
  0
LINE
  5
61B
330
1D
100
AcDbEntity
  8
0
100
AcDbLine
 10
450.99945
 20
91.1365
 30
0.0
 11
453.39545
 21
91.1365
 31
0.0
  0
LINE
  5
61C
330
1D
100
AcDbEntity
  8
0
100
AcDbLine
 10
453.39545
 20
91.1365
 30
0.0
 11
455.78645
 21
91.1365
 31
0.0
  0
LINE
  5
61D
330
1D
100
AcDbEntity
  8
0
100
AcDbLine
 10
455.78645
 20
91.1365
 30
0.0
 11
458.96545
 21
91.1365
 31
0.0
  0
LINE
  5
61E
330
1D
100
AcDbEntity
  8
0
100
AcDbLine
 10
462.24145
 20
91.1375
 30
0.0
 11
464.93345
 21
91.1375
 31
0.0
  0
LINE
  5
61F
330
1D
100
AcDbEntity
  8
0
100
AcDbLine
 10
446.19645
 20
91.1375
 30
0.0
 11
448.70245
 21
91.1365
 31
0.0
  0
LINE
  5
620
330
1D
100
AcDbEntity
  8
0
100
AcDbLine
 10
458.96545
 20
91.1365
 30
0.0
 11
462.24145
 21
91.1375
 31
0.0
  0
LINE
  5
621
330
1D
100
AcDbEntity
  8
0
100
AcDbLine
 10
468.31345
 20
91.1365
 30
0.0
 11
471.07045
 21
91.1355
 31
0.0
  0
LINE
  5
622
330
1D
100
AcDbEntity
  8
0
100
AcDbLine
 10
464.93345
 20
91.1375
 30
0.0
 11
468.31345
 21
91.1365
 31
0.0
  0
LINE
  5
623
330
1D
100
AcDbEntity
  8
0
100
AcDbLine
 10
471.07045
 20
91.1355
 30
0.0
 11
474.89945
 21
91.1385
 31
0.0
  0
LINE
  5
624
330
1D
100
AcDbEntity
  8
0
100
AcDbLine
 10
442.95845
 20
91.1395
 30
0.0
 11
446.19645
 21
91.1375
 31
0.0
  0
LINE
  5
625
330
1D
100
AcDbEntity
  8
0
100
AcDbLine
 10
428.71945
 20
91.1505
 30
0.0
 11
431.88445
 21
91.1485
 31
0.0
  0
LINE
  5
626
330
1D
100
AcDbEntity
  8
0
100
AcDbLine
 10
425.86645
 20
91.1505
 30
0.0
 11
428.71945
 21
91.1505
 31
0.0
  0
LINE
  5
627
330
1D
100
AcDbEntity
  8
0
100
AcDbLine
 10
419.03045
 20
91.1495
 30
0.0
 11
422.44645
 21
91.1505
 31
0.0
  0
LINE
  5
628
330
1D
100
AcDbEntity
  8
0
100
AcDbLine
 10
422.44645
 20
91.1505
 30
0.0
 11
425.86645
 21
91.1505
 31
0.0
  0
LINE
  5
629
330
1D
100
AcDbEntity
  8
0
100
AcDbLine
 10
475.48645
 20
91.3267
 30
0.0
 11
475.84745
 21
91.8136
 31
0.0
  0
LINE
  5
62A
330
1D
100
AcDbEntity
  8
0
100
AcDbLine
 10
474.89945
 20
91.1385
 30
0.0
 11
475.48645
 21
91.3267
 31
0.0
  0
LINE
  5
62B
330
1D
100
AcDbEntity
  8
0
100
AcDbLine
 10
475.49545
 20
149.1305
 30
0.0
 11
475.85445
 21
149.1305
 31
0.0
  0
LINE
  5
62C
330
1D
100
AcDbEntity
  8
0
100
AcDbLine
 10
474.89945
 20
149.1305
 30
0.0
 11
475.49545
 21
149.1305
 31
0.0
  0
LINE
  5
62D
330
1D
100
AcDbEntity
  8
0
100
AcDbLine
 10
473.73245
 20
153.1305
 30
0.0
 11
474.65545
 21
153.1305
 31
0.0
  0
LINE
  5
62E
330
1D
100
AcDbEntity
  8
0
100
AcDbLine
 10
473.59545
 20
153.1305
 30
0.0
 11
473.73245
 21
153.1305
 31
0.0
  0
LINE
  5
62F
330
1D
100
AcDbEntity
  8
0
100
AcDbLine
 10
475.04845
 20
153.1305
 30
0.0
 11
475.34145
 21
153.1305
 31
0.0
  0
LINE
  5
630
330
1D
100
AcDbEntity
  8
0
100
AcDbLine
 10
474.65545
 20
153.1305
 30
0.0
 11
475.04845
 21
153.1305
 31
0.0
  0
LINE
  5
631
330
1D
100
AcDbEntity
  8
0
100
AcDbLine
 10
475.84745
 20
91.8136
 30
0.0
 11
475.84745
 21
149.1305
 31
0.0
  0
LINE
  5
632
330
1D
100
AcDbEntity
  8
0
100
AcDbLine
 10
475.84745
 20
149.1305
 30
0.0
 11
475.84745
 21
152.888659858163
 31
0.0
  0
LINE
  5
633
330
1D
100
AcDbEntity
  8
0
100
AcDbLine
 10
475.84745
 20
152.888659858163
 30
0.0
 11
475.701125346827
 21
153.127465630881
 31
0.0
  0
LINE
  5
634
330
1D
100
AcDbEntity
  8
0
100
AcDbLine
 10
475.701125346827
 20
153.127465630881
 30
0.0
 11
475.34145
 21
153.1305
 31
0.0
  0
LINE
  5
635
330
1D
100
AcDbEntity
  8
0
100
AcDbLine
 10
400.59145
 20
134.1305
 30
0.0
 11
400.37945
 21
135.6129
 31
0.0
  0
LINE
  5
636
330
1D
100
AcDbEntity
  8
0
100
AcDbLine
 10
400.85645
 20
134.1305
 30
0.0
 11
400.64445
 21
135.6658
 31
0.0
  0
LINE
  5
637
330
1D
100
AcDbEntity
  8
0
100
AcDbLine
 10
395.84445
 20
95.1305
 30
0.0
 11
394.85645
 21
95.1305
 31
0.0
  0
LINE
  5
638
330
1D
100
AcDbEntity
  8
0
100
AcDbLine
 10
395.87945
 20
99.1305
 30
0.0
 11
394.85645
 21
99.1305
 31
0.0
  0
LINE
  5
639
330
1D
100
AcDbEntity
  8
0
100
AcDbLine
 10
396.09145
 20
99.1305
 30
0.0
 11
394.85645
 21
99.1305
 31
0.0
  0
LINE
  5
63A
330
1D
100
AcDbEntity
  8
0
100
AcDbLine
 10
396.33845
 20
100.607
 30
0.0
 11
394.85645
 21
100.3952
 31
0.0
  0
LINE
  5
63B
330
1D
100
AcDbEntity
  8
0
100
AcDbLine
 10
400.85645
 20
106.1305
 30
0.0
 11
400.85645
 21
134.1305
 31
0.0
  0
LINE
  5
63C
330
1D
100
AcDbEntity
  8
0
100
AcDbLine
 10
400.59145
 20
106.1305
 30
0.0
 11
400.59145
 21
134.1305
 31
0.0
  0
LINE
  5
63D
330
1D
100
AcDbEntity
  8
0
100
AcDbLine
 10
400.59145
 20
134.1305
 30
0.0
 11
400.59145
 21
106.1305
 31
0.0
  0
LINE
  5
63E
330
1D
100
AcDbEntity
  8
0
100
AcDbLine
 10
400.85645
 20
134.1305
 30
0.0
 11
400.85645
 21
106.1305
 31
0.0
  0
LINE
  5
63F
330
1D
100
AcDbEntity
  8
0
100
AcDbLine
 10
402.88045
 20
100.7663
 30
0.0
 11
400.27245
 21
99.8821
 31
0.0
  0
LINE
  5
640
330
1D
100
AcDbEntity
  8
0
100
AcDbLine
 10
405.31245
 20
101.9379
 30
0.0
 11
402.88045
 21
100.7663
 31
0.0
  0
LINE
  5
641
330
1D
100
AcDbEntity
  8
0
100
AcDbLine
 10
399.85645
 20
99.7074
 30
0.0
 11
399.85645
 21
102.900938195173
 31
0.0
  0
LINE
  5
642
330
1D
100
AcDbEntity
  8
0
100
AcDbLine
 10
397.71545
 20
101.1717
 30
0.0
 11
396.33845
 21
100.607
 31
0.0
  0
LINE
  5
643
330
1D
100
AcDbEntity
  8
0
100
AcDbLine
 10
399.85645
 20
102.900938195173
 30
0.0
 11
399.85645
 21
99.7074
 31
0.0
  0
LINE
  5
644
330
1D
100
AcDbEntity
  8
0
100
AcDbLine
 10
398.53845
 20
95.1305
 30
0.0
 11
398.16245
 21
95.1305
 31
0.0
  0
LINE
  5
645
330
1D
100
AcDbEntity
  8
0
100
AcDbLine
 10
398.31545
 20
99.1305
 30
0.0
 11
397.68045
 21
99.1305
 31
0.0
  0
LINE
  5
646
330
1D
100
AcDbEntity
  8
0
100
AcDbLine
 10
398.23845
 20
99.1305
 30
0.0
 11
397.23845
 21
99.1305
 31
0.0
  0
LINE
  5
647
330
1D
100
AcDbEntity
  8
0
100
AcDbLine
 10
400.27245
 20
99.8821
 30
0.0
 11
399.85645
 21
99.799599813084
 31
0.0
  0
LINE
  5
648
330
1D
100
AcDbEntity
  8
0
100
AcDbLine
 10
398.68045
 20
95.1305
 30
0.0
 11
398.53845
 21
95.1305
 31
0.0
  0
LINE
  5
649
330
1D
100
AcDbEntity
  8
0
100
AcDbLine
 10
398.79745
 20
95.2843
 30
0.0
 11
398.68045
 21
95.1305
 31
0.0
  0
LINE
  5
64A
330
1D
100
AcDbEntity
  8
0
100
AcDbLine
 10
398.85645
 20
95.592
 30
0.0
 11
398.79745
 21
95.2843
 31
0.0
  0
LINE
  5
64B
330
1D
100
AcDbEntity
  8
0
100
AcDbLine
 10
398.85645
 20
95.592
 30
0.0
 11
398.85645
 21
99.1305
 31
0.0
  0
LINE
  5
64C
330
1D
100
AcDbEntity
  8
0
100
AcDbLine
 10
398.71545
 20
99.1305
 30
0.0
 11
398.31545
 21
99.1305
 31
0.0
  0
LINE
  5
64D
330
1D
100
AcDbEntity
  8
0
100
AcDbLine
 10
398.85645
 20
99.1305
 30
0.0
 11
398.85645
 21
95.592
 31
0.0
  0
LINE
  5
64E
330
1D
100
AcDbEntity
  8
0
100
AcDbLine
 10
398.85645
 20
99.1305
 30
0.0
 11
398.71545
 21
99.1305
 31
0.0
  0
LINE
  5
64F
330
1D
100
AcDbEntity
  8
0
100
AcDbLine
 10
398.98845
 20
99.1305
 30
0.0
 11
398.85645
 21
99.1305
 31
0.0
  0
LINE
  5
650
330
1D
100
AcDbEntity
  8
0
100
AcDbLine
 10
398.98845
 20
99.1305
 30
0.0
 11
398.23845
 21
99.1305
 31
0.0
  0
LINE
  5
651
330
1D
100
AcDbEntity
  8
0
100
AcDbLine
 10
399.45945
 20
99.1305
 30
0.0
 11
398.98845
 21
99.1305
 31
0.0
  0
LINE
  5
652
330
1D
100
AcDbEntity
  8
0
100
AcDbLine
 10
399.78245
 20
99.3228
 30
0.0
 11
399.63545
 21
99.1305
 31
0.0
  0
LINE
  5
653
330
1D
100
AcDbEntity
  8
0
100
AcDbLine
 10
399.63545
 20
99.1305
 30
0.0
 11
399.45945
 21
99.1305
 31
0.0
  0
LINE
  5
654
330
1D
100
AcDbEntity
  8
0
100
AcDbLine
 10
399.85645
 20
99.7074
 30
0.0
 11
399.78245
 21
99.3228
 31
0.0
  0
LINE
  5
655
330
1D
100
AcDbEntity
  8
0
100
AcDbLine
 10
397.56245
 20
95.1305
 30
0.0
 11
396.76245
 21
95.1305
 31
0.0
  0
LINE
  5
656
330
1D
100
AcDbEntity
  8
0
100
AcDbLine
 10
396.76245
 20
95.1305
 30
0.0
 11
395.84445
 21
95.1305
 31
0.0
  0
LINE
  5
657
330
1D
100
AcDbEntity
  8
0
100
AcDbLine
 10
398.16245
 20
95.1305
 30
0.0
 11
397.56245
 21
95.1305
 31
0.0
  0
LINE
  5
658
330
1D
100
AcDbEntity
  8
0
100
AcDbLine
 10
397.68045
 20
99.1305
 30
0.0
 11
396.84445
 21
99.1305
 31
0.0
  0
LINE
  5
659
330
1D
100
AcDbEntity
  8
0
100
AcDbLine
 10
396.84445
 20
99.1305
 30
0.0
 11
395.87945
 21
99.1305
 31
0.0
  0
LINE
  5
65A
330
1D
100
AcDbEntity
  8
0
100
AcDbLine
 10
397.23845
 20
99.1305
 30
0.0
 11
396.09145
 21
99.1305
 31
0.0
  0
LINE
  5
65B
330
1D
100
AcDbEntity
  8
0
100
AcDbLine
 10
400.85645
 20
106.1305
 30
0.0
 11
400.64445
 21
104.5952
 31
0.0
  0
LINE
  5
65C
330
1D
100
AcDbEntity
  8
0
100
AcDbLine
 10
400.64445
 20
104.5952
 30
0.0
 11
400.04445
 21
103.1481
 31
0.0
  0
LINE
  5
65D
330
1D
100
AcDbEntity
  8
0
100
AcDbLine
 10
400.37945
 20
104.6481
 30
0.0
 11
399.81545
 21
103.2717
 31
0.0
  0
LINE
  5
65E
330
1D
100
AcDbEntity
  8
0
100
AcDbLine
 10
400.59145
 20
106.1305
 30
0.0
 11
400.37945
 21
104.6481
 31
0.0
  0
LINE
  5
65F
330
1D
100
AcDbEntity
  8
0
100
AcDbLine
 10
400.04445
 20
103.1481
 30
0.0
 11
399.85645
 21
102.900938195173
 31
0.0
  0
LINE
  5
660
330
1D
100
AcDbEntity
  8
0
100
AcDbLine
 10
398.91545
 20
102.0717
 30
0.0
 11
397.71545
 21
101.1717
 31
0.0
  0
LINE
  5
661
330
1D
100
AcDbEntity
  8
0
100
AcDbLine
 10
399.81545
 20
103.2717
 30
0.0
 11
398.91545
 21
102.0717
 31
0.0
  0
LINE
  5
662
330
1D
100
AcDbEntity
  8
0
100
AcDbLine
 10
396.33845
 20
139.654
 30
0.0
 11
394.85645
 21
139.8658
 31
0.0
  0
LINE
  5
663
330
1D
100
AcDbEntity
  8
0
100
AcDbLine
 10
396.39145
 20
139.9187
 30
0.0
 11
394.85645
 21
140.1305
 31
0.0
  0
LINE
  5
664
330
1D
100
AcDbEntity
  8
0
100
AcDbLine
 10
397.59745
 20
140.9094
 30
0.0
 11
394.85645
 21
141.1305
 31
0.0
  0
LINE
  5
665
330
1D
100
AcDbEntity
  8
0
100
AcDbLine
 10
405.31245
 20
138.3231
 30
0.0
 11
402.88045
 21
139.4947
 31
0.0
  0
LINE
  5
666
330
1D
100
AcDbEntity
  8
0
100
AcDbLine
 10
400.37945
 20
135.6129
 30
0.0
 11
399.81545
 21
136.9893
 31
0.0
  0
LINE
  5
667
330
1D
100
AcDbEntity
  8
0
100
AcDbLine
 10
400.64445
 20
135.6658
 30
0.0
 11
400.04445
 21
137.1129
 31
0.0
  0
LINE
  5
668
330
1D
100
AcDbEntity
  8
0
100
AcDbLine
 10
402.88045
 20
139.4947
 30
0.0
 11
400.27245
 21
140.3789
 31
0.0
  0
LINE
  5
669
330
1D
100
AcDbEntity
  8
0
100
AcDbLine
 10
400.04445
 20
137.1129
 30
0.0
 11
399.09145
 21
138.3658
 31
0.0
  0
LINE
  5
66A
330
1D
100
AcDbEntity
  8
0
100
AcDbLine
 10
400.27245
 20
140.3789
 30
0.0
 11
397.59745
 21
140.9094
 31
0.0
  0
LINE
  5
66B
330
1D
100
AcDbEntity
  8
0
100
AcDbLine
 10
399.81545
 20
136.9893
 30
0.0
 11
398.91545
 21
138.1893
 31
0.0
  0
LINE
  5
66C
330
1D
100
AcDbEntity
  8
0
100
AcDbLine
 10
398.91545
 20
138.1893
 30
0.0
 11
397.71545
 21
139.0893
 31
0.0
  0
LINE
  5
66D
330
1D
100
AcDbEntity
  8
0
100
AcDbLine
 10
397.71545
 20
139.0893
 30
0.0
 11
396.33845
 21
139.654
 31
0.0
  0
LINE
  5
66E
330
1D
100
AcDbEntity
  8
0
100
AcDbLine
 10
399.09145
 20
138.3658
 30
0.0
 11
397.83845
 21
139.3187
 31
0.0
  0
LINE
  5
66F
330
1D
100
AcDbEntity
  8
0
100
AcDbLine
 10
397.83845
 20
139.3187
 30
0.0
 11
396.39145
 21
139.9187
 31
0.0
  0
LINE
  5
670
330
1D
100
AcDbEntity
  8
0
100
AcDbLine
 10
411.47945
 20
132.9073
 30
0.0
 11
409.68945
 21
134.9631
 31
0.0
  0
LINE
  5
671
330
1D
100
AcDbEntity
  8
0
100
AcDbLine
 10
413.04945
 20
109.6747
 30
0.0
 11
411.47945
 21
107.3537
 31
0.0
  0
LINE
  5
672
330
1D
100
AcDbEntity
  8
0
100
AcDbLine
 10
409.68945
 20
105.2979
 30
0.0
 11
407.63345
 21
103.5073
 31
0.0
  0
LINE
  5
673
330
1D
100
AcDbEntity
  8
0
100
AcDbLine
 10
411.47945
 20
107.3537
 30
0.0
 11
409.68945
 21
105.2979
 31
0.0
  0
LINE
  5
674
330
1D
100
AcDbEntity
  8
0
100
AcDbLine
 10
407.63345
 20
103.5073
 30
0.0
 11
405.31245
 21
101.9379
 31
0.0
  0
LINE
  5
675
330
1D
100
AcDbEntity
  8
0
100
AcDbLine
 10
408.064760472135
 20
103.882934499711
 30
0.0
 11
407.848338145895
 21
103.69444917998
 31
0.0
  0
LINE
  5
676
330
1D
100
AcDbEntity
  8
0
100
AcDbLine
 10
408.064760472135
 20
103.882934499711
 30
0.0
 11
407.848338145895
 21
103.69444917998
 31
0.0
  0
LINE
  5
677
330
1D
100
AcDbEntity
  8
0
100
AcDbLine
 10
414.22045
 20
112.1063
 30
0.0
 11
413.04945
 21
109.6747
 31
0.0
  0
LINE
  5
678
330
1D
100
AcDbEntity
  8
0
100
AcDbLine
 10
414.22045
 20
128.1547
 30
0.0
 11
413.04945
 21
130.5863
 31
0.0
  0
LINE
  5
679
330
1D
100
AcDbEntity
  8
0
100
AcDbLine
 10
413.04945
 20
130.5863
 30
0.0
 11
411.47945
 21
132.9073
 31
0.0
  0
LINE
  5
67A
330
1D
100
AcDbEntity
  8
0
100
AcDbLine
 10
409.68945
 20
134.9631
 30
0.0
 11
407.63345
 21
136.7537
 31
0.0
  0
LINE
  5
67B
330
1D
100
AcDbEntity
  8
0
100
AcDbLine
 10
407.63345
 20
136.7537
 30
0.0
 11
405.31245
 21
138.3231
 31
0.0
  0
LINE
  5
67C
330
1D
100
AcDbEntity
  8
0
100
AcDbLine
 10
415.85645
 20
120.1305
 30
0.0
 11
415.63545
 21
122.8716
 31
0.0
  0
LINE
  5
67D
330
1D
100
AcDbEntity
  8
0
100
AcDbLine
 10
415.63545
 20
117.3894
 30
0.0
 11
415.10445
 21
114.7147
 31
0.0
  0
LINE
  5
67E
330
1D
100
AcDbEntity
  8
0
100
AcDbLine
 10
415.10445
 20
114.7147
 30
0.0
 11
414.22045
 21
112.1063
 31
0.0
  0
LINE
  5
67F
330
1D
100
AcDbEntity
  8
0
100
AcDbLine
 10
415.85645
 20
120.1305
 30
0.0
 11
415.63545
 21
117.3894
 31
0.0
  0
LINE
  5
680
330
1D
100
AcDbEntity
  8
0
100
AcDbLine
 10
415.63545
 20
122.8716
 30
0.0
 11
415.10445
 21
125.5463
 31
0.0
  0
LINE
  5
681
330
1D
100
AcDbEntity
  8
0
100
AcDbLine
 10
415.10445
 20
125.5463
 30
0.0
 11
414.22045
 21
128.1547
 31
0.0
  0
ENDSEC
  0
SECTION
  2
OBJECTS
  0
DICTIONARY
  5
C
330
0
100
AcDbDictionary
281
     1
  3
ACAD_GROUP
350
D
  3
ACAD_LAYOUT
350
1A
  3
ACAD_MLEADERSTYLE
350
684
  3
ACAD_MLINESTYLE
350
17
  3
ACAD_PLOTSETTINGS
350
19
  3
ACAD_PLOTSTYLENAME
350
E
  3
ACAD_SCALELIST
350
3E6
  3
AcDbVariableDictionary
350
682
  3
DWGPROPS
350
687
  0
DICTIONARY
  5
D
102
{ACAD_REACTORS
330
C
102
}
330
C
100
AcDbDictionary
281
     1
  0
DICTIONARY
  5
1A
102
{ACAD_REACTORS
330
C
102
}
330
C
100
AcDbDictionary
281
     1
  3
Layout1
350
1C
  3
Model
350
1E
  0
DICTIONARY
  5
684
102
{ACAD_REACTORS
330
C
102
}
330
C
100
AcDbDictionary
281
     1
  0
DICTIONARY
  5
17
102
{ACAD_REACTORS
330
C
102
}
330
C
100
AcDbDictionary
281
     1
  3
Standard
350
18
  0
DICTIONARY
  5
19
102
{ACAD_REACTORS
330
C
102
}
330
C
100
AcDbDictionary
281
     1
  0
ACDBDICTIONARYWDFLT
  5
E
102
{ACAD_REACTORS
330
C
102
}
330
C
100
AcDbDictionary
281
     1
  3
Normal
350
F
100
AcDbDictionaryWithDefault
340
F
  0
DICTIONARY
  5
3E6
102
{ACAD_REACTORS
330
C
102
}
330
C
100
AcDbDictionary
281
     1
  3
A0
350
3E7
  3
A1
350
3E8
  3
A2
350
3E9
  3
A3
350
3EA
  3
A4
350
3EB
  3
A5
350
3EC
  3
A6
350
3ED
  3
A7
350
3EE
  3
A8
350
3EF
  3
A9
350
3F0
  3
B0
350
3F1
  3
B1
350
3F2
  3
B2
350
3F3
  3
B3
350
3F4
  3
B4
350
3F5
  3
B5
350
3F6
  3
B6
350
3F7
  3
B7
350
3F8
  3
B8
350
3F9
  3
B9
350
3FA
  3
C0
350
3FB
  3
C1
350
3FC
  3
C2
350
3FD
  3
C3
350
3FE
  3
C4
350
3FF
  3
C5
350
400
  3
C6
350
401
  3
C7
350
402
  3
C8
350
403
  3
C9
350
404
  3
D0
350
405
  3
D1
350
406
  3
D2
350
407
  0
DICTIONARY
  5
682
102
{ACAD_REACTORS
330
C
102
}
330
C
100
AcDbDictionary
281
     1
  3
CANNOSCALE
350
685
  0
XRECORD
  5
687
102
{ACAD_REACTORS
330
C
102
}
330
C
100
AcDbXrecord
280
     1
  1
DWGPROPS COOKIE
  2

  3

  4

  6

  7

  8
MARTIN
  9

300
=
301
=
302
=
303
=
304
=
305
=
306
=
307
=
308
=
309
=
 40
0.0
 41
2455824.874625104
 42
2455824.877199247
  1

 90
        0
  0
LAYOUT
  5
1C
102
{ACAD_REACTORS
330
1A
102
}
330
1A
100
AcDbPlotSettings
  1

  2
none_device
  4

  6

 40
0.0
 41
0.0
 42
0.0
 43
0.0
 44
0.0
 45
0.0
 46
0.0
 47
0.0
 48
0.0
 49
0.0
140
0.0
141
0.0
142
1.0
143
1.0
 70
   688
 72
     0
 73
     0
 74
     5
  7

 75
    16
147
1.0
148
0.0
149
0.0
100
AcDbLayout
  1
Layout1
 70
     1
 71
     1
 10
0.0
 20
0.0
 11
12.0
 21
9.0
 12
0.0
 22
0.0
 32
0.0
 14
1.000000000000E+20
 24
1.000000000000E+20
 34
1.000000000000E+20
 15
-1.000000000000E+20
 25
-1.000000000000E+20
 35
-1.000000000000E+20
146
0.0
 13
0.0
 23
0.0
 33
0.0
 16
1.0
 26
0.0
 36
0.0
 17
0.0
 27
1.0
 37
0.0
 76
     0
330
1B
  0
LAYOUT
  5
1E
102
{ACAD_REACTORS
330
1A
102
}
330
1A
100
AcDbPlotSettings
  1

  2
none_device
  4

  6

 40
0.0
 41
0.0
 42
0.0
 43
0.0
 44
0.0
 45
0.0
 46
0.0
 47
0.0
 48
0.0
 49
0.0
140
0.0
141
0.0
142
1.0
143
1.0
 70
  1712
 72
     0
 73
     0
 74
     0
  7

 75
     0
147
1.0
148
0.0
149
0.0
100
AcDbLayout
  1
Model
 70
     1
 71
     0
 10
0.0
 20
0.0
 11
12.0
 21
9.0
 12
0.0
 22
0.0
 32
0.0
 14
0.14355
 24
-0.1305
 34
0.0
 15
475.85445
 25
1269.1305
 35
0.0
146
0.0
 13
0.0
 23
0.0
 33
0.0
 16
1.0
 26
0.0
 36
0.0
 17
0.0
 27
1.0
 37
0.0
 76
     0
330
1D
331
3E1
  0
MLINESTYLE
  5
18
102
{ACAD_REACTORS
330
17
102
}
330
17
100
AcDbMlineStyle
  2
Standard
 70
     0
  3

 62
   256
 51
90.0
 52
90.0
 71
     2
 49
0.5
 62
   256
  6
BYLAYER
 49
-0.5
 62
   256
  6
BYLAYER
  0
ACDBPLACEHOLDER
  5
F
102
{ACAD_REACTORS
330
E
102
}
330
E
  0
SCALE
  5
3E7
102
{ACAD_REACTORS
330
3E6
102
}
330
3E6
100
AcDbScale
 70
     0
300
1:1
140
1.0
141
1.0
290
     1
  0
SCALE
  5
3E8
102
{ACAD_REACTORS
330
3E6
102
}
330
3E6
100
AcDbScale
 70
     0
300
1:2
140
1.0
141
2.0
290
     0
  0
SCALE
  5
3E9
102
{ACAD_REACTORS
330
3E6
102
}
330
3E6
100
AcDbScale
 70
     0
300
1:4
140
1.0
141
4.0
290
     0
  0
SCALE
  5
3EA
102
{ACAD_REACTORS
330
3E6
102
}
330
3E6
100
AcDbScale
 70
     0
300
1:5
140
1.0
141
5.0
290
     0
  0
SCALE
  5
3EB
102
{ACAD_REACTORS
330
3E6
102
}
330
3E6
100
AcDbScale
 70
     0
300
1:8
140
1.0
141
8.0
290
     0
  0
SCALE
  5
3EC
102
{ACAD_REACTORS
330
3E6
102
}
330
3E6
100
AcDbScale
 70
     0
300
1:10
140
1.0
141
10.0
290
     0
  0
SCALE
  5
3ED
102
{ACAD_REACTORS
330
3E6
102
}
330
3E6
100
AcDbScale
 70
     0
300
1:16
140
1.0
141
16.0
290
     0
  0
SCALE
  5
3EE
102
{ACAD_REACTORS
330
3E6
102
}
330
3E6
100
AcDbScale
 70
     0
300
1:20
140
1.0
141
20.0
290
     0
  0
SCALE
  5
3EF
102
{ACAD_REACTORS
330
3E6
102
}
330
3E6
100
AcDbScale
 70
     0
300
1:30
140
1.0
141
30.0
290
     0
  0
SCALE
  5
3F0
102
{ACAD_REACTORS
330
3E6
102
}
330
3E6
100
AcDbScale
 70
     0
300
1:40
140
1.0
141
40.0
290
     0
  0
SCALE
  5
3F1
102
{ACAD_REACTORS
330
3E6
102
}
330
3E6
100
AcDbScale
 70
     0
300
1:50
140
1.0
141
50.0
290
     0
  0
SCALE
  5
3F2
102
{ACAD_REACTORS
330
3E6
102
}
330
3E6
100
AcDbScale
 70
     0
300
1:100
140
1.0
141
100.0
290
     0
  0
SCALE
  5
3F3
102
{ACAD_REACTORS
330
3E6
102
}
330
3E6
100
AcDbScale
 70
     0
300
2:1
140
2.0
141
1.0
290
     0
  0
SCALE
  5
3F4
102
{ACAD_REACTORS
330
3E6
102
}
330
3E6
100
AcDbScale
 70
     0
300
4:1
140
4.0
141
1.0
290
     0
  0
SCALE
  5
3F5
102
{ACAD_REACTORS
330
3E6
102
}
330
3E6
100
AcDbScale
 70
     0
300
8:1
140
8.0
141
1.0
290
     0
  0
SCALE
  5
3F6
102
{ACAD_REACTORS
330
3E6
102
}
330
3E6
100
AcDbScale
 70
     0
300
10:1
140
10.0
141
1.0
290
     0
  0
SCALE
  5
3F7
102
{ACAD_REACTORS
330
3E6
102
}
330
3E6
100
AcDbScale
 70
     0
300
100:1
140
100.0
141
1.0
290
     0
  0
SCALE
  5
3F8
102
{ACAD_REACTORS
330
3E6
102
}
330
3E6
100
AcDbScale
 70
     0
300
1/128" = 1'-0"
140
0.0078125
141
12.0
290
     0
  0
SCALE
  5
3F9
102
{ACAD_REACTORS
330
3E6
102
}
330
3E6
100
AcDbScale
 70
     0
300
1/64" = 1'-0"
140
0.015625
141
12.0
290
     0
  0
SCALE
  5
3FA
102
{ACAD_REACTORS
330
3E6
102
}
330
3E6
100
AcDbScale
 70
     0
300
1/32" = 1'-0"
140
0.03125
141
12.0
290
     0
  0
SCALE
  5
3FB
102
{ACAD_REACTORS
330
3E6
102
}
330
3E6
100
AcDbScale
 70
     0
300
1/16" = 1'-0"
140
0.0625
141
12.0
290
     0
  0
SCALE
  5
3FC
102
{ACAD_REACTORS
330
3E6
102
}
330
3E6
100
AcDbScale
 70
     0
300
3/32" = 1'-0"
140
0.09375
141
12.0
290
     0
  0
SCALE
  5
3FD
102
{ACAD_REACTORS
330
3E6
102
}
330
3E6
100
AcDbScale
 70
     0
300
1/8" = 1'-0"
140
0.125
141
12.0
290
     0
  0
SCALE
  5
3FE
102
{ACAD_REACTORS
330
3E6
102
}
330
3E6
100
AcDbScale
 70
     0
300
3/16" = 1'-0"
140
0.1875
141
12.0
290
     0
  0
SCALE
  5
3FF
102
{ACAD_REACTORS
330
3E6
102
}
330
3E6
100
AcDbScale
 70
     0
300
1/4" = 1'-0"
140
0.25
141
12.0
290
     0
  0
SCALE
  5
400
102
{ACAD_REACTORS
330
3E6
102
}
330
3E6
100
AcDbScale
 70
     0
300
3/8" = 1'-0"
140
0.375
141
12.0
290
     0
  0
SCALE
  5
401
102
{ACAD_REACTORS
330
3E6
102
}
330
3E6
100
AcDbScale
 70
     0
300
1/2" = 1'-0"
140
0.5
141
12.0
290
     0
  0
SCALE
  5
402
102
{ACAD_REACTORS
330
3E6
102
}
330
3E6
100
AcDbScale
 70
     0
300
3/4" = 1'-0"
140
0.75
141
12.0
290
     0
  0
SCALE
  5
403
102
{ACAD_REACTORS
330
3E6
102
}
330
3E6
100
AcDbScale
 70
     0
300
1" = 1'-0"
140
1.0
141
12.0
290
     0
  0
SCALE
  5
404
102
{ACAD_REACTORS
330
3E6
102
}
330
3E6
100
AcDbScale
 70
     0
300
1-1/2" = 1'-0"
140
1.5
141
12.0
290
     0
  0
SCALE
  5
405
102
{ACAD_REACTORS
330
3E6
102
}
330
3E6
100
AcDbScale
 70
     0
300
3" = 1'-0"
140
3.0
141
12.0
290
     0
  0
SCALE
  5
406
102
{ACAD_REACTORS
330
3E6
102
}
330
3E6
100
AcDbScale
 70
     0
300
6" = 1'-0"
140
6.0
141
12.0
290
     0
  0
SCALE
  5
407
102
{ACAD_REACTORS
330
3E6
102
}
330
3E6
100
AcDbScale
 70
     0
300
1'-0" = 1'-0"
140
12.0
141
12.0
290
     0
  0
DICTIONARYVAR
  5
685
102
{ACAD_REACTORS
330
682
102
}
330
682
100
DictionaryVariables
280
     0
  1
1:1
  0
ENDSEC
  0
SECTION
  2
THUMBNAILIMAGE
 90
    16364
310
28000000B40000005500000001000800000000000000000000000000000000000000000000000000FFFFFF000000FF0000FFFF0000FF0000FFFF0000FF000000FF00FF000000000080808000C0C0C0000000FF007F7FFF000000A5005252A50000007F003F3F7F0000004C0026264C000000260013132600003FFF007F9FFF
310
000029A5005267A500001F7F003F4F7F0000134C00262F4C000009260013172600007FFF007FBFFF000052A500527CA500003F7F003F5F7F0000264C0026394C0000132600131C260000BFFF007FDFFF00007CA5005291A500005F7F003F6F7F0000394C0026424C00001C26001321260000FFFF007FFFFF0000A5A50052A5
310
A500007F7F003F7F7F00004C4C00264C4C00002626001326260000FFBF007FFFDF0000A57C0052A59100007F5F003F7F6F00004C3900264C420000261C001326210000FF7F007FFFBF0000A5520052A57C00007F3F003F7F5F00004C2600264C39000026130013261C0000FF3F007FFF9F0000A5290052A56700007F1F003F
310
7F4F00004C1300264C2F00002609001326170000FF00007FFF7F0000A5000052A55200007F00003F7F3F00004C0000264C260000260000132613003FFF00009FFF7F0029A5000067A552001F7F00004F7F3F00134C00002F4C260009260000172613007FFF0000BFFF7F0052A500007CA552003F7F00005F7F3F00264C0000
310
394C2600132600001C261300BFFF0000DFFF7F007CA5000091A552005F7F00006F7F3F00394C0000424C26001C26000021261300FFFF0000FFFF7F00A5A50000A5A552007F7F00007F7F3F004C4C00004C4C26002626000026261300FFBF0000FFDF7F00A57C0000A59152007F5F00007F6F3F004C3900004C422600261C00
310
0026211300FF7F0000FFBF7F00A5520000A57C52007F3F00007F5F3F004C2600004C39260026130000261C1300FF3F0000FF9F7F00A5290000A56752007F1F00007F4F3F004C1300004C2F26002609000026171300FF000000FF7F7F00A5000000A55252007F0000007F3F3F004C0000004C2626002600000026131300FF00
310
3F00FF7F9F00A5002900A55267007F001F007F3F4F004C0013004C262F002600090026131700FF007F00FF7FBF00A5005200A5527C007F003F007F3F5F004C0026004C2639002600130026131C00FF00BF00FF7FDF00A5007C00A55291007F005F007F3F6F004C0039004C26420026001C0026132100FF00FF00FF7FFF00A5
310
00A500A552A5007F007F007F3F7F004C004C004C264C002600260026132600BF00FF00DF7FFF007C00A5009152A5005F007F006F3F7F0039004C0042264C001C002600211326007F00FF00BF7FFF005200A5007C52A5003F007F005F3F7F0026004C0039264C00130026001C1326003F00FF009F7FFF002900A5006752A500
310
1F007F004F3F7F0013004C002F264C000900260017132600000000002D2D2D005B5B5B0089898900B7B7B700B3B3B30000000000000000000000000000000000000000000000000000000000000000000000000000000000000000000000000000000000000000000000000000000000000000000000000000000000000000
310
00000000000000000000000000000000000000000000070700000000000000000000000000000000000000000000000000000000000000000000000000000000000000000000000000000000000000000000000000000000000000000000000000000000000000000000000000000000000000000000000000000000000000
310
00000000000000000000000000000000000000000000000000000000000000000000000000000000000000000000000000000000000000000000000000000000000000000000000000000007070000000000000000000000000000000000000000000000000000000000000000000000000000000000000000000000000000
310
00000000000000000000000000000000000000000000000000000000000000000000000000000000000000000000000000000000000000000000000000000000000000000000000000000000000000000000000000000000000000000000000000000000000000000000000000000000000000000000000000000000000000
310
00070700000000000000000000000000000000000000000000000000000000000000000000000000000000000000000000000000000000000000000000000000000000000000000000000000000000000000000000000000000000000000000000000000000000000000000000000000000000000000000000000000000000
310
00000000000000000000000000000000000000000000000000000000000000000000000000000000000000000000000000000000000007070000000000000000000000000000000000000000000000000000000000000000000000000000000000000000000000000000000000000000000000000000000000000000000000
310
00000000000000000000000000000000000000000000000000000000000000000000000000000000000000000000000000000000000000000000000000000000000000000000000000000000000000000000000000000000000000000000000000000000000000000000000707000000000000000000000000000000000000
310
00000000000000000000000000000000000000000000000000000000000000000000000000000000000000000000000000000000000000000000000000000000000000000000000000000000000000000000000000000000000000000000000000000000000000000000000000000000000000000000000000000000000000
310
00000000000000000000000000000000000000000000000000000000000000000007070000000000000000000000000000000000000000000000000000000000000000000000000000000000000000000000000000000000000000000000000000000000000000000000000000000000000000000000000000000000000000
310
00000000000000000000000000000000000000000000000000000000000000000000000000000000000000000000000000000000000000000000000000000000000000000000000000000000000000000000000007070707070707070000000000000000000000000000000000000000000000000000000000000000000000
310
00000000000000000000000000000000000000000000000000000000000000000000000000000000000000000000000000000000000000000000000000000000000000000000000000000000000000000000000000000000000000000000000000000000000000000000000000000000000000000000000000000000000000
310
00000000000000000007070707070000000700000000000000000000000000000000000000000000000000000000000000000000000000000000000000000000000000000000000000000000000000000000000000000000000000000000000000000000000000000000000000000000000000000000000000000000000000
310
00000000000000000000000000000000000000000000000000000000000000000000000000000000000000000000000000000000000000000000000000000707070707000000070000000000000000000000000000000000000000000000000000000000000000000000000000000000000000000000000000000000000000
310
00000000000000000000000000000000000000000000000000000000000000000000000000000000000000000000000000000000000000000000000000000000000000000000000000000000000000000000000000000000000000000000000000000000000000000000000000000000000007070707070000000007000000
310
00000000000000000000000000000000000000000000000000000000000000000000000000000000000000000000000000000000000000000000000000000000000000000000000000000000000000000000000000000000000000000000000000000000000000000000000000000000000000000000000000000000000000
310
00000000000000000000000000000000000000000000000000000000000000000000000000000000070707070707070707070000000000000000000000000000000000000000000000000000000000000000000000000000000000000000000000000000000000000000000000000000000000000000000000000000000000
310
00000000000000000000000000000000000000000000000000000000000000000000000000000000000000000000000000000000000000000000000000000000000000000000000000000000000000000000000000000000000000000000000000000000070700000000000000000000000000000000000000000000000000
310
00000000000000000000000000000000000000000000000000000000000000000000000000000000000000000000000000000000000000000000000000000000000000000000000000000000000000000000000000000000000000000000000000000000000000000000000000000000000000000000000000000000000000
310
00000000000000000000000000000000000000000000000000000707000000000000000000000000000000000000000000000000000000000000000000000000000000000000000000000000000000000000000000000000000000000000000000000000000000000000000000000000000000000000000000000000000000
310
00000000000000000000000000000000000000000000000000000000000000000000000000000000000000000000000000000000000000000000000000000000000000000000000000000000000000070700000000000000000000000000000000000000000000000000000000000000000000000000000000000000000000
310
00000000000000000000000000000000000000000000000000000000000000000000000000000000000000000000000000000000000000000000000000000000000000000000000000000000000000000000000000000000000000000000000000000000000000000000000000000000000000000000000000000000000000
310
00000000000707000000000000000000000000000000000000000000000000000000000000000000000000000000000000000000000000000000000000000000000000000000000000000000000000000000000000000000000000000000000000000000000000000000000000000000000000000000000000000000000000
310
00000000000000000000000000000000000000000000000000000000000000000000000000000000000000000000000000000000000000000000070700000000000000000000000000000000000000000000000000000000000000000000000000000000000000000000000000000000000000000000000000000000000000
310
00000000000000000000000000000000000000000000000000000000000000000000000000000000000000000000000000000000000000000000000000000000000000000000000000000000000000000000000000000000000000000000000000000000000000000000000000000007070000000000000000000000000000
310
00000000000000000000000000000000000000000000000000000000000000000000000000000000000000000000000000000000000000000000000000000000000000000000000000000000000000000000000000000000000000000000000000000000000000000000000000000000000000000000000000000000000000
310
00000000000000000000000000000000000000000000000000000000000000000000000000070700000000000000000000000000000000000000000000000000000000000000000000000000000000000000000000000000000000000000000000000000000000000000000000000000000000000000000000000000000000
310
00000000000000000000000000000000000000000000000000000000000000000000000000000000000000000000000000000000000000000000000000000000000000000000000000000000000000000000000000000000000007070000000000000000000000000000000000000000000000000000000000000000000000
310
00000000000000000000000000000000000000000000000000000000000000000000000000000000000000000000000000000000000000000000000000000000000000000000000000000000000000000000000000000000000000000000000000000000000000000000000000000000000000000000000000000000000000
310
00000000000000000000000000000000070700000000000000000000000000000000000000000000000000000000000000000000000000000000000000000000000000000000000000000000000000000000000000000000000000000000000000000000000000000000000000000000000000000000000000000000000000
310
00000000000000000000000000000000000000000000000000000000000000000000000000000000000000000000000000000000000000000000000000000000000000000007070000000000000000000000000000000000000000000000000000000000000000000000000000000000000000000000000000000000000000
310
00000000000000000000000000000000000000000000000000000000000000000000000000000000000000000000000000000000000000000000000000000000000000000000000000000000000000000000000000000000000000000000000000000000000000000000000000000000000000000000000000000707000000
310
00000000000000000000000000000000000000000000000000000000000000000000000000000000000000000000000000000000000000000000000000000000000000000000000000000000000000000000000000000000000000000000000000000000000000000000000000000000000000000000000000000000000000
310
00000000000000000000000000000000000000000000000000000000000000000000000000000000000000000000000007070000000000000000000000000000000000000000000000000000000000000000000000000000000000000000000000000000000000000000000000000000000000000000000000000000000000
310
00000000000000000000000000000000000000000000000000000000000000000000000000000000000000000000000000000000000000000000000000000000000000000000000000000000000000000000000000000000000000000000000000000000000707000000000000000000000000000000000000000000000000
310
00000000000000000000000000000000000000000000000000000000000000000000000000000000000000000000000000000000000000000000000000000000000000000000000000000000000000000000000000000000000000000000000000000000000000000000000000000000000000000000000000000000000000
310
00000000000000000000000000000000000000000000000000000007070000000000000000000000000000000000000000000000000000000000000000000000000000000000000000000000000000000000000000000000000000000000000000000000000000000000000000000000000000000000000000000000000000
310
00000000000000000000000000000000000000000000000000000000000000000000000000000000000000000000000000000000000000000000000000000000000000000000000000000000000000000707000000000000000000000000000000000000000000000000000000000000000000000000000000000000000000
310
00000000000000000000000000000000000000000000000000000000000000000000000000000000000000000000000000000000000000000000000000000000000000000000000000000000000000000000000000000000000000000000000000000000000000000000000000000000000000000000000000000000000000
310
00000000000007070000000000000000000000000000000000000000000000000000000000000000000000000000000000000000000000000000000000000000000000000000000000000000000000000000000000000000000000000000000000000000000000000000000000000000000000000000000000000000000000
310
00000000000000000000000000000000000000000000000000000000000000000000000000000000000000000000000000000000000000000000000707000000000000000000000000000000000000000000000000000000000000000000000000000000000000000000000000000000000000000000000000000000000000
310
00000000000000000000000000000000000000000000000000000000000000000000000000000000000000000000000000000000000000000000000000000000000000000000000000000000000000000000000000000000000000000000000000000000000000000000000000000000070700000000000000000000000000
310
00000000000000000000000000000000000000000000000000000000000000000000000000000000000000000000000000000000000000000000000000000000000000000000000000000000000000000000000000000000000000000000000000000000000000000000000000000000000000000000000000000000000000
310
00000000000000000000000000000000000000000000000000000000000000000000000000000707000000000000000000000000000000000000000000000000000000000000000000000000000000000000000000000000000000000000000000000000000000000000000000000000000000000000000000000000000000
310
00000000000000000000000000000000000000000000000000000000000000000000000000000000000000000000000000000000000000000000000000000000000000000000000000000000000000000000000000000000000000070700000000000000000000000000000000000000000000000000000000000000000000
310
00000000000000000000000000000000000000000000000000000000000000000000000000000000000000000000000000000000000000000000000000000000000000000000000000000000000000000000000000000000000000000000000000000000000000000000000000000000000000000000000000000000000000
310
00000000000000000000000000000000000707000000000000000000000000000000000000000000000000000000000000000000000000000000000000000000000000000000000000000000000000000000000000000000000000000000000000000000000000000000000000000000000000000000000000000000000000
310
00000000000000000000000000000000000000000000000000000000000000000000000000000000000000000000000000000000000000000000000000000000000000000000070700000000000000000000000000000000000000000000000000000000000000000000000000000000000000000000000000000000000000
310
00000000000000000000000000000000000000000000000000000000000000000000000000000000000000000000000000000000000000000000000000000000000000000000000000000000000000000000000000000000000000000000000000000000000000000000000000000000000000000000000000000007070000
310
00000000000000000000000000000000000000000000000000000000000000000000000000000000000000000000000000000000000000000000000000000000000000000000000000000000000000000000000000000000000000000000000000000000000000000000000000000000000000000000000000000000000000
310
00000000000000000000000000000000000000000000000000000000000000000000000000000000000000000000000000070700000000000000000000000000000000000000000000000000000000000000000000000000000000000000000000000000000000000000000000000000000000000000000000000000000000
310
00000000000000000000000000000000000000000000000000000000000000000000000000000000000000000000000000000000000000000000000000000000000000000000000000000000000000000000000000000000000000000000000000000000000007070000000000000000000000000000000000000000000000
310
00000000000000000000000000000000000000000000000000000000000000000000000000000000000000000000000000000000000000000000000000000000000000000000000000000000000000000000000000000000000000000000000000000000000000000000000000000000000000000000000000000000000000
310
00000000000000000000000000000000000000000000000000000000070700000000000000000000000000000000000000000000000000000000000000000000000000000000000000000000000000000000000000000000000000000000000000000000000000000000000000000000000000000000000000000000000000
310
00000000000000000000000000000000000000000000000000000000000000000000000000000000000000000000000000000000000000000000000000000000000000000000000000000000000000000007070000000000000000000000000000000000000000000000000000000000000000000000000000000000000000
310
00000000000000000000000000000000000000000000000000000000000000000000000000000000000000000000000000000000000000000000000000000000000000000000000000000000000000000000000000000000000000000000000000000000000000000000000000000000000000000000000000000000000000
310
00000000000000070700000000000000000000000000000000000000000000000000000000000000000000000000000000000000000000000000000000000000000000000000000000000000000000000000000000000000000000000000000000000000000000000000000000000000000000000000000000000000000000
310
00000000000000000000000000000000000000000000000000000000000000000000000000000000000000000000000000000000000000000000000007070000000000000000000000000000000000000000000000000000000000000000000000000000000000000000000000000000000000000000000000000000000000
310
00000000000000000000000000000000000000000000000000000000000000000000000000000000000000000000000000000000000000000000000000000000000000000000000000000000000000000000000000000000000000000000000000000000000000000000000000000000000707000000000000000000000000
310
00000000000000000000000000000000000000000000000000000000000000000000000000000000000000000000000000000000000000000000000000000000000000000000000000000000000000000000000000000000000000000000000000000000000000000000000000000000000000000000000000000000000000
310
00000000000000000000000000000000000000000000000000000000000000000000000000000007070000000000000000000000000000000000000000000000000000000000000000000000000000000000000000000000000000000000000000000000000000000000000000000000000000000000000000000000000000
310
00000000000000000000000000000000000000000000000000000000000000000000000000000000000000000000000000000000000000000000000000000000000000000000000000000000000000000000000000000000000000000707000000000000000000000000000000000000000000000000000000000000000000
310
00000000000000000000000000000000000000000000000000000000000000000000000000000000000000000000000000000000000000000000000000000000000000000000000000000000000000000000000000000000000000000000000000000000000000000000000000000000000000000000000000000000000000
310
00000000000000000000000000000000000007070000000000000000000000000000000000000000000000000000000000000000000000000000000000000000000000000000000000000000000000000000000000000000000000000000000000000000000000000000000000000000000000000000000000000000000000
310
00000000000000000000000000000000000000000000000000000000000000000000000000000000000000000000000000000000000000000000000000000000000000000000000707000000000000000000000000000000000000000000000000000000000000000000000000000000000000000000000000000000000000
310
00000000000000000000000000000000000000000000000000000000000000000000000000000000000000000000000000000000000000000000000000000000000000000000000000000000000000000000000000000000000000000000000000000000000000000000000000000000000000000000000000000000070700
310
00000000000000000000000000000000000000000000000000000000000000000000000000000000000000000000000000000000000000000000000000000000000000000000000000000000000000000000000000000000000000000000000000000000000000000000000000000000000000000000000000000000000000
310
00000000000000000000000000000000000000000000000000000000000000000000000000000000000000000000000000000707000000000000000000000000000000000000000000000000000000000000000000000000000000000000000000000000000000000000000000000000000000000000000000000000000000
310
00000000000000000000000000000000000000000000000000000000000000000000000000000000000000000000000000000000000000000000000000000000000000000000000000000000000000000000000000000000000000000000000000000000000000070700000000000000000000000000000000000000000000
310
00000000000000000000000000000000000000000000000000000000000000000000000000000000000000000000000000000000000000000000000000000000000000000000000000000000000000000000000000000000000000000000000000000000000000000000000000000000000000000000000000000000000000
310
00000000000000000000000000000000000000000000000000000000000707000000000000000000000000000000000000000000000000000000000000000000000000000000000000000000000000000000000000000000000000000000000000000000000000000000000000000000000000000000000000000000000000
310
00000000000000000000000000000000000000000000000000000000000000000000000000000000000000000000000000000000000000000000000000000000000000000000000000000000000000000000070700000000000000000000000000000000000000000000000000000000000000000000000000000000000000
310
00000000000000000000000000000000000000000000000000000000000000000000000000000000000000000000000000000000000000000000000000000000000000000000000000000000000000000000000000000000000000000000000000000000000000000000000000000000000000000000000000000000000000
310
00000000000000000707000000000000000000000000000000000000000000000000000000000000000000000000000000000000000000000000000000000000000000000000000000000000000000000000000000000000000000000000000000000000000000000000000000000000000000000000000000000000000000
310
00000000000000000000000000000000000000000000000000000000000000000000000000000000000000000000000000000000000000000000000000070700000000000000000000000000000000000000000000000000000000000000000000000000000000000000000000000000000000000000000000000000000000
310
00000000000000000000000000000000000000000000000000000000000000000000000000000000000000000000000000000000000000000000000000000000000000000000000000000000000000000000000000000000000000000000000000000000000000000000000000000000000007070000000000000000000000
310
00000000000000000000000000000000000000000000000000000000000000000000000000000000000000000000000000000000000000000000000000000000000000000000000000000000000000000000000000000000000000000000000000000000000000000000000000000000000000000000000000000000000000
310
00000000000000000000000000000000000000000000000000000000000000000000000000000000070700000000000000000000000000000000000000000000000000000000000000000000000000000000000000000000000000000000000000000000000000000000000000000000000000000000000000000000000000
310
00000000000000000000000000000000000000000000000000000000000000000000000000000000000000000000000000000000000000000000000000000000000000000000000000000000000000000000000000000000000000000007070000000000000000000000000000000000000000000000000000000000000000
310
00000000000000000000000000000000000000000000000000000000000000000000000000000000000000000000000000000000000000000000000000000000000000000000000000000000000000000000000000000000000000000000000000000000000000000000000000000000000000000000000000000000000000
310
00000000000000000000000000000000000000070700000000000000000000000000000000000000000000000000000000000000000000000000000000000000000000000000000000000000000000000000000000000000000000000000000000000000000000000000000000000000000000000000000000000000000000
310
00000000000000000000000000000000000000000000000000000000000000000000000000000000000000000000000000000000000000000000000000000000000000000000000007070000000000000000000000000000000000000000000000000000000000000000000000000000000000000000000000000000000000
310
00000000000000000000000000000000000000000000000000000000000000000000000000000000000000000000000000000000000000000000000000000000000000000000000000000000000000000000000000000000000000000000000000000000000000000000000000000000000000000000000000000000000707
310
00000000000000000000000000000000000000000000000000000000000000000000000000000000000000000000000000000000000000000000000000000000000000000000000000000000000000000000000000000000000000000000000000000000000000000000000000000000000000000000000000000000000000
310
00000000000000000000000000000000000000000000000000000000000000000000000000000000000000000000000000000007070000000000000000000000000000000000000000000000000000000000000000000000000000000000000000000000000000000000000000000000000000000000000000000000000000
310
00000000000000000000000000000000000000000000000000000000000000000000000000000000000000000000000000000000000000000000000000000000000000000000000000000000000000000000000000000000000000000000000000000000000000000707000000000000000000000000000000000000000000
310
00000000000000000000000000000000000000000000000000000000000000000000000000000000000000000000000000000000000000000000000000000000000000000000000000000000000000000000000000000000000000000000000000000000000000000000000000000000000000000000000000000000000000
310
00000000000000000000000000000000000000000000000000000000000007070000000000000000000000000000000000000000000000000000000000000000000000000000000000000000000000000000000000000000000000000000000000000000000000000000000000000000000000000000000000000000000000
310
00000000000000000000000000000000000000000000000000000000000000000000000000000000000000000000000000000000000000000000000000000000000000000000000000000000000000000000000707000000000000000000000000000000000000000000000000000000000000000000000000000000000000
310
00000000000000000000000000000000000000000000000000000000000000000000000000000000000000000000000000000000000000000000000000000000000000000000000000000000000000000000000000000000000000000000000000000000000000000000000000000000000000000000000000000000000000
310
00000000000000000007070000000000000000000000000000000000000000000000000000000000000000000000000000000000000000000000000000000000000000000000000000000000000000000000000000000000000000000000000000000000000000000000000000000000000000000000000000000000000000
310
00000000000000000000000000000000000000000000000000000000000000000000000000000000000000000000000000000000000000000000000000000707000000000000000000000000000000000000000000000000000000000000000000000000000000000000000000000000000000000000000000000000000000
310
00000000000000000000000000000000000000000000000000000000000000000000000000000000000000000000000000000000000000000000000000000000000000000000000000000000000000000000000000000000000000000000000000000000000000000000000000000000000000070700000000000000000000
310
00000000000000000000000000000000000000000000000000000000000000000000000000000000000000000000000000000000000000000000000000000000000000000000000000000000000000000000000000000000000000000000000000000000000000000000000000000000000000000000000000000000000000
310
00000000000000000000000000000000000000000000000000000000000000000000000000000000000707000000000000000000000000000000000000000000000000000000000000000000000000000000000000000000000000000000000000000000000000000000000000000000000000000000000000000000000000
310
00000000000000000000000000000000000000000000000000000000000000000000000000000000000000000000000000000000000000000000000000000000000000000000000000000000000000000000000000000000000000000000070700000000000000000000000000000000000000000000000000000000000000
310
00000000000000000000000000000000000000000000000000000000000000000000000000000000000000000000000000000000000000000000000000000000000000000000000000000000000000000000000000000000000000000000000000000000000000000000000000000000000000000000000000000000000000
310
00000000000000000000000000000000000000000707000000000000000000000000000000000000000000000000000000000000000000000000000000000000000000000000000000000000000000000000000000000000000000000000000000000000000000000000000000000000000000000000000000000000000000
310
00000000000000000000000000000000000000000000000000000000000000000000000000000000000000000000000000000000000000000000000000000000000000000000000000070700000000000000000000000000000000000000000000000000000000000000000000000000000000000000000000000000000000
310
00000000000000000000000000000000000000000000000000000000000000000000000000000000000000000000000000000000000000000000000000000000000000000000000000000000000000000000000000000000000000000000000000000000000000000000000000000000000000000000000000000000000007
310
07070000000000000000000000000000000000000000000000000000000000000000000000000000000000000000000000000000000000000000000000000000000000000000000000000000000000000000000000000000000000000000000000000000000000000000000000000000000000000000000000000000000000
310
00000000000000000000000000000000000000000000000000000000000000000000000000000000000000000000000000000000070707000000000000000000000000000000000000000000000000000000000000000000000000000000000000000000000000000000000000000000000000000000000000000000000000
310
00000000000000000000000000000000000000000000000000000000000000000000000000000000000000000000000000000000000000000000000000000000000000000000000000000000000000000000000000000000000000000000000000000000000000000007070700000000000000000000000000000000000000
310
00000000000000000000000000000000000000000000000000000000000000000000000000000000000000000000000000000000000000000000000000000000000000000000000000000000000000000000000000000000000000000000000000000000000000000000000000000000000000000000000000000000000000
310
00000000000000000000000000000000000000000000000000000000000000070707000000000000000000000000000000000000000000000000000000000000000000000000000000000000000000000000000000000000000000000000000000000000000000000000000000000000000000000000000000000000000000
310
00000000000000000000000000000000000000000000000000000000000000000000000000000000000000000000000000000000000000000000000000000000000000000000000000000000000000000000000007070700000000000000000000000000000000000000000000000000000000000000000000000000000000
310
00000000000000000000000000000000000000000000000000000000000000000000000000000000000000000000000000000000000000000000000000000000000000000000000000000000000000000000000000000000000000000000000000000000000000000000000000000000000000000000000000000000000000
310
00000000000000000000070707000000000000000000000000000000000000000000000000000000000000000000000000000000000000000000000000000000000000000000000000000000000000000000000000000000000000000000000000000000000000000000000000000000000000000000000000000000000000
310
00000000000000000000000000000000000000000000000000000000000000000000000000000000000000000000000000000000000000000000000000000007070700000000000000000000000000000000000000000000000000000000000000000000000000000000000000000000000000000000000000000000000000
310
00000000000000000000000000000000000000000000000000000000000000000000000000000000000000000000000000000000000000000000000000000000000000000000000000000000000000000000000000000000000000000000000000000000000000000000000000000000000000000707070000000000000000
310
00000000000000000000000000000000000000000000000000000000000000000000000000000000000000000000000000000000000000000000000000000000000000000000000000000000000000000000000000000000000000000000000000000000000000000000000000000000000000000000000000000000000000
310
00000000000000000000000000000000000000000000000000000000000000000000000000000000000007070700000000000000000000000000000000000000000000000000000000000000000000000000000000000000000000000000000000000000000000000000000000000000000000000000000000000000000000
310
00000000000000000000000000000000000000000000000000000000000000000000000000000000000000000000000000000000000000000000000000000000000000000000000007070707070707000000000000000000000000000000070007070000000000000000000000000000000000000000000000000000000000
310
00000000000000000000000000000000000000000000000000000000000000000000000000000000000000000000000000000000000000000000000000000000000000000000000000000000000000000000000000000000000000000000000000000000000000000000000000000000000000000000000007070707070707
310
07070707000000000000000000000000070707000707070000000000000000000000000000000000000000000000000000000000000000000000000000000000000000000000000000000000000000000000000000000000000000000000000000000000000000000000000000000000000000000000000000000000000000
310
00000000000000000000000000000000000000000000000000000000000000000000000000000000000000000707070707070707070700000000000000000007070707070707070707000000000000000000000000000000000000000000000000000000000000000000000000000000000000000000000000000000000000
310
00000000000000000000000000000000000000000000000000000000000000000000000000000000000000000000000000000000000000000000000000000000000000000000000000000000000000000000000000000000000000000000000000000707070000070707000000000707070707070707070700000000000000
310
00000000000000000000000000000000000000000000000000000000000000000000000000000000000000000000000000000000000000000000000000000000000000000000000000000000000000000000000000000000000000000000000000000000000000000000000000000000000000000000000000000000000000
310
00000000000000000000000000000000000000000000000000000000000700070707070707070707070000000000000000000000000000000000000000000000000000000000000000000000000000000000000000000000000000000000000000000000000000000000000000000000000000000000000000000000000000
310
00000000000000000000000000000000000000000000000000000000000000000000000000000000000000000000000000000000000000000000000000000000000000000000000000000000000000000000000707070707000000000000000000000000000000000000000000000000000000000000000000000000000000
310
00000000000000000000000000000000000000000000000000000000000000000000000000000000000000000000000000000000000000000000000000000000000000000000000000000000000000000000000000000000000000000000000000000000000000000000000000000000000000000000000000000000000000
310
000000000000000000000000000000000000000000000000000000000000000000000000000000000000000000000000000000000000000000000000000000000000000000000000000000000000000000000000000000000000000000000000000000000000000000000000
  0
ENDSEC
  0
EOF
