  0
SECTION
  2
HEADER
  9
$ACADVER
  1
AC1014
  9
$ACADMAINTVER
 70
     9
  9
$DWGCODEPAGE
  3
ANSI_1252
  9
$INSBASE
 10
0.0
 20
0.0
 30
0.0
  9
$EXTMIN
 10
-0.0000000000000083
 20
-0.1385
 30
0.0
  9
$EXTMAX
 10
150.0
 20
319.1385
 30
0.0
  9
$LIMMIN
 10
0.0
 20
0.0
  9
$LIMMAX
 10
12.0
 20
9.0
  9
$ORTHOMODE
 70
     0
  9
$REGENMODE
 70
     1
  9
$FILLMODE
 70
     1
  9
$QTEXTMODE
 70
     0
  9
$MIRRTEXT
 70
     1
  9
$DRAGMODE
 70
     2
  9
$LTSCALE
 40
1.0
  9
$OSMODE
 70
    37
  9
$ATTMODE
 70
     1
  9
$TEXTSIZE
 40
0.2
  9
$TRACEWID
 40
0.05
  9
$TEXTSTYLE
  7
STANDARD
  9
$CLAYER
  8
0
  9
$CELTYPE
  6
CONTINUOUS
  9
$CECOLOR
 62
   256
  9
$CELTSCALE
 40
1.0
  9
$DELOBJ
 70
     1
  9
$DISPSILH
 70
     0
  9
$DIMSCALE
 40
1.0
  9
$DIMASZ
 40
0.18
  9
$DIMEXO
 40
0.0625
  9
$DIMDLI
 40
0.38
  9
$DIMRND
 40
0.0
  9
$DIMDLE
 40
0.0
  9
$DIMEXE
 40
0.18
  9
$DIMTP
 40
0.0
  9
$DIMTM
 40
0.0
  9
$DIMTXT
 40
0.18
  9
$DIMCEN
 40
0.09
  9
$DIMTSZ
 40
0.0
  9
$DIMTOL
 70
     0
  9
$DIMLIM
 70
     0
  9
$DIMTIH
 70
     1
  9
$DIMTOH
 70
     1
  9
$DIMSE1
 70
     0
  9
$DIMSE2
 70
     0
  9
$DIMTAD
 70
     0
  9
$DIMZIN
 70
     0
  9
$DIMBLK
  1

  9
$DIMASO
 70
     1
  9
$DIMSHO
 70
     1
  9
$DIMPOST
  1

  9
$DIMAPOST
  1

  9
$DIMALT
 70
     0
  9
$DIMALTD
 70
     2
  9
$DIMALTF
 40
25.4
  9
$DIMLFAC
 40
1.0
  9
$DIMTOFL
 70
     0
  9
$DIMTVP
 40
0.0
  9
$DIMTIX
 70
     0
  9
$DIMSOXD
 70
     0
  9
$DIMSAH
 70
     0
  9
$DIMBLK1
  1

  9
$DIMBLK2
  1

  9
$DIMSTYLE
  2
STANDARD
  9
$DIMCLRD
 70
     0
  9
$DIMCLRE
 70
     0
  9
$DIMCLRT
 70
     0
  9
$DIMTFAC
 40
1.0
  9
$DIMGAP
 40
0.09
  9
$DIMJUST
 70
     0
  9
$DIMSD1
 70
     0
  9
$DIMSD2
 70
     0
  9
$DIMTOLJ
 70
     1
  9
$DIMTZIN
 70
     0
  9
$DIMALTZ
 70
     0
  9
$DIMALTTZ
 70
     0
  9
$DIMFIT
 70
     3
  9
$DIMUPT
 70
     0
  9
$DIMUNIT
 70
     2
  9
$DIMDEC
 70
     4
  9
$DIMTDEC
 70
     4
  9
$DIMALTU
 70
     2
  9
$DIMALTTD
 70
     2
  9
$DIMTXSTY
  7
STANDARD
  9
$DIMAUNIT
 70
     0
  9
$LUNITS
 70
     2
  9
$LUPREC
 70
     4
  9
$SKETCHINC
 40
0.1
  9
$FILLETRAD
 40
0.0
  9
$AUNITS
 70
     0
  9
$AUPREC
 70
     0
  9
$MENU
  1
.
  9
$ELEVATION
 40
0.0
  9
$PELEVATION
 40
0.0
  9
$THICKNESS
 40
0.0
  9
$LIMCHECK
 70
     0
  9
$BLIPMODE
 70
     0
  9
$CHAMFERA
 40
0.0
  9
$CHAMFERB
 40
0.0
  9
$CHAMFERC
 40
0.0
  9
$CHAMFERD
 40
0.0
  9
$SKPOLY
 70
     0
  9
$TDCREATE
 40
2455239.928314884
  9
$TDUPDATE
 40
2455239.934389282
  9
$TDINDWG
 40
0.0047895023
  9
$TDUSRTIMER
 40
0.0047895023
  9
$USRTIMER
 70
     1
  9
$ANGBASE
 50
0.0
  9
$ANGDIR
 70
     0
  9
$PDMODE
 70
     0
  9
$PDSIZE
 40
0.0
  9
$PLINEWID
 40
0.0
  9
$COORDS
 70
     1
  9
$SPLFRAME
 70
     0
  9
$SPLINETYPE
 70
     6
  9
$SPLINESEGS
 70
     8
  9
$ATTDIA
 70
     0
  9
$ATTREQ
 70
     1
  9
$HANDLING
 70
 22529
  9
$HANDSEED
  5
148
  9
$SURFTAB1
 70
     6
  9
$SURFTAB2
 70
     6
  9
$SURFTYPE
 70
     6
  9
$SURFU
 70
     6
  9
$SURFV
 70
     6
  9
$UCSNAME
  2

  9
$UCSORG
 10
0.0
 20
0.0
 30
0.0
  9
$UCSXDIR
 10
1.0
 20
0.0
 30
0.0
  9
$UCSYDIR
 10
0.0
 20
1.0
 30
0.0
  9
$PUCSNAME
  2

  9
$PUCSORG
 10
0.0
 20
0.0
 30
0.0
  9
$PUCSXDIR
 10
1.0
 20
0.0
 30
0.0
  9
$PUCSYDIR
 10
0.0
 20
1.0
 30
0.0
  9
$USERI1
 70
     0
  9
$USERI2
 70
     0
  9
$USERI3
 70
     0
  9
$USERI4
 70
     0
  9
$USERI5
 70
     0
  9
$USERR1
 40
0.0
  9
$USERR2
 40
0.0
  9
$USERR3
 40
0.0
  9
$USERR4
 40
0.0
  9
$USERR5
 40
0.0
  9
$WORLDVIEW
 70
     1
  9
$SHADEDGE
 70
     3
  9
$SHADEDIF
 70
    70
  9
$TILEMODE
 70
     1
  9
$MAXACTVP
 70
    64
  9
$PINSBASE
 10
0.0
 20
0.0
 30
0.0
  9
$PLIMCHECK
 70
     0
  9
$PEXTMIN
 10
1.000000000000000E+20
 20
1.000000000000000E+20
 30
1.000000000000000E+20
  9
$PEXTMAX
 10
-1.000000000000000E+20
 20
-1.000000000000000E+20
 30
-1.000000000000000E+20
  9
$PLIMMIN
 10
0.0
 20
0.0
  9
$PLIMMAX
 10
12.0
 20
9.0
  9
$UNITMODE
 70
     0
  9
$VISRETAIN
 70
     1
  9
$PLINEGEN
 70
     0
  9
$PSLTSCALE
 70
     1
  9
$TREEDEPTH
 70
  3020
  9
$PICKSTYLE
 70
     1
  9
$CMLSTYLE
  2
STANDARD
  9
$CMLJUST
 70
     0
  9
$CMLSCALE
 40
1.0
  9
$PROXYGRAPHICS
 70
     1
  9
$MEASUREMENT
 70
     0
  0
ENDSEC
  0
SECTION
  2
CLASSES
  0
CLASS
  1
ACDBDICTIONARYWDFLT
  2
AcDbDictionaryWithDefault
  3
AutoCAD 2000
 90
        0
280
     0
281
     0
  0
CLASS
  1
ACDBPLACEHOLDER
  2
AcDbPlaceHolder
  3
AutoCAD 2000
 90
        0
280
     0
281
     0
  0
CLASS
  1
LAYOUT
  2
AcDbLayout
  3
AutoCAD 2000
 90
        0
280
     0
281
     0
  0
CLASS
  1
DICTIONARYVAR
  2
AcDbDictionaryVar
  3
AutoCAD 2000
 90
        0
280
     0
281
     0
  0
CLASS
  1
LONG_TRANSACTION
  2
AcDbLongTransaction
  3
AutoCAD 2000
 90
        0
280
     0
281
     0
  0
CLASS
  1
LWPOLYLINE
  2
AcDbPolyline
  3
AutoCAD 2000
 90
        0
280
     0
281
     1
  0
CLASS
  1
HATCH
  2
AcDbHatch
  3
AutoCAD 2000
 90
        0
280
     0
281
     1
  0
CLASS
  1
XRECORD
  2
AcDbXrecord
  3
AutoCAD 2000
 90
        0
280
     0
281
     0
  0
ENDSEC
  0
SECTION
  2
TABLES
  0
TABLE
  2
VPORT
  5
8
330
0
100
AcDbSymbolTable
 70
     3
  0
VPORT
  5
123
330
8
100
AcDbSymbolTableRecord
100
AcDbViewportTableRecord
  2
*ACTIVE
 70
     0
 10
0.0
 20
0.0
 11
1.0
 21
1.0
 12
75.0
 22
159.5
 13
0.0
 23
0.0
 14
1.0
 24
1.0
 15
0.0
 25
0.0
 16
0.0
 26
0.0
 36
1.0
 17
0.0
 27
0.0
 37
0.0
 40
321.3729102844639
 41
2.041621029572836
 42
50.0
 43
0.0
 44
0.0
 50
0.0
 51
0.0
 71
     0
 72
   100
 73
     1
 74
     3
 75
     0
 76
     0
 77
     0
 78
     0
  0
ENDTAB
  0
TABLE
  2
LTYPE
  5
5
330
0
100
AcDbSymbolTable
 70
     1
  0
LTYPE
  5
13
330
5
100
AcDbSymbolTableRecord
100
AcDbLinetypeTableRecord
  2
BYBLOCK
 70
     0
  3

 72
    65
 73
     0
 40
0.0
  0
LTYPE
  5
14
330
5
100
AcDbSymbolTableRecord
100
AcDbLinetypeTableRecord
  2
BYLAYER
 70
     0
  3

 72
    65
 73
     0
 40
0.0
  0
LTYPE
  5
15
330
5
100
AcDbSymbolTableRecord
100
AcDbLinetypeTableRecord
  2
CONTINUOUS
 70
     0
  3
Solid line
 72
    65
 73
     0
 40
0.0
  0
ENDTAB
  0
TABLE
  2
LAYER
  5
2
330
0
100
AcDbSymbolTable
 70
     1
  0
LAYER
  5
10
330
2
100
AcDbSymbolTableRecord
100
AcDbLayerTableRecord
  2
0
 70
     0
 62
     7
  6
CONTINUOUS
  0
ENDTAB
  0
TABLE
  2
STYLE
  5
3
330
0
100
AcDbSymbolTable
 70
     1
  0
STYLE
  5
11
330
3
100
AcDbSymbolTableRecord
100
AcDbTextStyleTableRecord
  2
STANDARD
 70
     0
 40
0.0
 41
1.0
 50
0.0
 71
     0
 42
0.2
  3
txt
  4

  0
ENDTAB
  0
TABLE
  2
VIEW
  5
6
330
0
100
AcDbSymbolTable
 70
     0
  0
ENDTAB
  0
TABLE
  2
UCS
  5
7
330
0
100
AcDbSymbolTable
 70
     0
  0
ENDTAB
  0
TABLE
  2
APPID
  5
9
330
0
100
AcDbSymbolTable
 70
     1
  0
APPID
  5
12
330
9
100
AcDbSymbolTableRecord
100
AcDbRegAppTableRecord
  2
ACAD
 70
     0
  0
ENDTAB
  0
TABLE
  2
DIMSTYLE
  5
A
330
0
100
AcDbSymbolTable
 70
     1
  0
DIMSTYLE
105
118
330
A
100
AcDbSymbolTableRecord
100
AcDbDimStyleTableRecord
  2
STANDARD
 70
     0
  3

  4

  5

  6

  7

 40
1.0
 41
0.18
 42
0.0625
 43
0.38
 44
0.18
 45
0.0
 46
0.0
 47
0.0
 48
0.0
140
0.18
141
0.09
142
0.0
143
25.4
144
1.0
145
0.0
146
1.0
147
0.09
 71
     0
 72
     0
 73
     1
 74
     1
 75
     0
 76
     0
 77
     0
 78
     0
170
     0
171
     2
172
     0
173
     0
174
     0
175
     0
176
     0
177
     0
178
     0
270
     2
271
     4
272
     4
273
     2
274
     2
340
11
275
     0
280
     0
281
     0
282
     0
283
     1
284
     0
285
     0
286
     0
287
     3
288
     0
  0
ENDTAB
  0
TABLE
  2
BLOCK_RECORD
  5
1
330
0
100
AcDbSymbolTable
 70
     0
  0
BLOCK_RECORD
  5
1E
102
{ACAD_XDICTIONARY
360
146
102
}
330
1
100
AcDbSymbolTableRecord
100
AcDbBlockTableRecord
  2
*MODEL_SPACE
  0
BLOCK_RECORD
  5
1A
102
{ACAD_XDICTIONARY
360
144
102
}
330
1
100
AcDbSymbolTableRecord
100
AcDbBlockTableRecord
  2
*PAPER_SPACE
  0
ENDTAB
  0
ENDSEC
  0
SECTION
  2
BLOCKS
  0
BLOCK
  5
1F
330
1E
100
AcDbEntity
  8
0
100
AcDbBlockBegin
  2
*MODEL_SPACE
 70
     0
 10
0.0
 20
0.0
 30
0.0
  3
*MODEL_SPACE
  1

  0
ENDBLK
  5
20
330
1E
100
AcDbEntity
  8
0
100
AcDbBlockEnd
  0
BLOCK
  5
1B
330
1A
100
AcDbEntity
 67
     1
  8
0
100
AcDbBlockBegin
  2
*PAPER_SPACE
 70
     0
 10
0.0
 20
0.0
 30
0.0
  3
*PAPER_SPACE
  1

  0
ENDBLK
  5
1C
330
1A
100
AcDbEntity
 67
     1
  8
0
100
AcDbBlockEnd
  0
ENDSEC
  0
SECTION
  2
ENTITIES
  0
LINE
  5
22
330
1E
100
AcDbEntity
  8
0
100
AcDbLine
 10
22.6
 20
18.74149999999989
 30
0.0
 11
29.9
 21
13.19849999999999
 31
0.0
  0
LINE
  5
23
330
1E
100
AcDbEntity
  8
0
100
AcDbLine
 10
29.9
 20
13.19849999999999
 30
0.0
 11
38.1
 21
8.435500000000018
 31
0.0
  0
LINE
  5
25
330
1E
100
AcDbEntity
  8
0
100
AcDbLine
 10
16.2
 20
25.0635
 30
0.0
 11
22.6
 21
18.74149999999989
 31
0.0
  0
LINE
  5
27
330
1E
100
AcDbEntity
  8
0
100
AcDbLine
 10
10.7
 20
32.1645
 30
0.0
 11
16.2
 21
25.0635
 31
0.0
  0
LINE
  5
28
330
1E
100
AcDbEntity
  8
0
100
AcDbLine
 10
10.0
 20
33.11849999999999
 30
0.0
 11
10.7
 21
32.1645
 31
0.0
  0
LINE
  5
29
330
1E
100
AcDbEntity
  8
0
100
AcDbLine
 10
5.89999999999999
 20
40.6525
 30
0.0
 11
10.0
 21
33.11849999999999
 31
0.0
  0
LINE
  5
2A
330
1E
100
AcDbEntity
  8
0
100
AcDbLine
 10
2.69999999999999
 20
48.7065
 30
0.0
 11
5.89999999999999
 21
40.6525
 31
0.0
  0
LINE
  5
2B
330
1E
100
AcDbEntity
  8
0
100
AcDbLine
 10
0.799999999999995
 20
56.9335
 30
0.0
 11
2.69999999999999
 21
48.7065
 31
0.0
  0
LINE
  5
2C
330
1E
100
AcDbEntity
  8
0
100
AcDbLine
 10
16.2
 20
105.7787
 30
0.0
 11
22.6
 21
112.1007
 31
0.0
  0
LINE
  5
2D
330
1E
100
AcDbEntity
  8
0
100
AcDbLine
 10
10.7
 20
98.6776
 30
0.0
 11
16.2
 21
105.7787
 31
0.0
  0
LINE
  5
2E
330
1E
100
AcDbEntity
  8
0
100
AcDbLine
 10
10.0
 20
97.72399999999999
 30
0.0
 11
10.7
 21
98.6776
 31
0.0
  0
LINE
  5
2F
330
1E
100
AcDbEntity
  8
0
100
AcDbLine
 10
5.89999999999999
 20
90.18959999999999
 30
0.0
 11
10.0
 21
97.72399999999999
 31
0.0
  0
LINE
  5
30
330
1E
100
AcDbEntity
  8
0
100
AcDbLine
 10
2.69999999999999
 20
82.1357
 30
0.0
 11
5.89999999999999
 21
90.18959999999999
 31
0.0
  0
LINE
  5
31
330
1E
100
AcDbEntity
  8
0
100
AcDbLine
 10
0.799999999999995
 20
73.9085
 30
0.0
 11
2.69999999999999
 21
82.1357
 31
0.0
  0
LINE
  5
32
330
1E
100
AcDbEntity
  8
0
100
AcDbLine
 10
-0.0000000000000083
 20
65.4205
 30
0.0
 11
0.799999999999995
 21
73.9085
 31
0.0
  0
LINE
  5
33
330
1E
100
AcDbEntity
  8
0
100
AcDbLine
 10
-0.0000000000000083
 20
65.4205
 30
0.0
 11
0.799999999999995
 21
56.9335
 31
0.0
  0
LINE
  5
34
330
1E
100
AcDbEntity
  8
0
100
AcDbLine
 10
22.6
 20
112.1007
 30
0.0
 11
29.9
 21
117.6436999999999
 31
0.0
  0
LINE
  5
35
330
1E
100
AcDbEntity
  8
0
100
AcDbLine
 10
38.1
 20
8.435500000000018
 30
0.0
 11
46.7
 21
4.88449999999998
 31
0.0
  0
LINE
  5
36
330
1E
100
AcDbEntity
  8
0
100
AcDbLine
 10
46.7
 20
4.88449999999998
 30
0.0
 11
55.89999999999999
 21
2.20049999999995
 31
0.0
  0
LINE
  5
37
330
1E
100
AcDbEntity
  8
0
100
AcDbLine
 10
29.9
 20
117.6436999999999
 30
0.0
 11
38.1
 21
122.4067
 31
0.0
  0
LINE
  5
38
330
1E
100
AcDbEntity
  8
0
100
AcDbLine
 10
38.1
 20
122.4067
 30
0.0
 11
46.7
 21
125.9576999999999
 31
0.0
  0
LINE
  5
39
330
1E
100
AcDbEntity
  8
0
100
AcDbLine
 10
55.89999999999999
 20
2.20049999999995
 30
0.0
 11
65.4
 21
0.468500000000011
 31
0.0
  0
LINE
  5
3A
330
1E
100
AcDbEntity
  8
0
100
AcDbLine
 10
46.7
 20
125.9576999999999
 30
0.0
 11
55.89999999999999
 21
128.6416999999999
 31
0.0
  0
LINE
  5
3B
330
1E
100
AcDbEntity
  8
0
100
AcDbLine
 10
55.89999999999999
 20
128.6416999999999
 30
0.0
 11
61.0
 21
129.5715105263159
 31
0.0
  0
LINE
  5
3C
330
1E
100
AcDbEntity
  8
0
100
AcDbLine
 10
58.0
 20
179.1385
 30
0.0
 11
58.0
 21
184.6776399999999
 31
0.0
  0
LINE
  5
3D
330
1E
100
AcDbEntity
  8
0
100
AcDbLine
 10
58.0
 20
179.1385
 30
0.0
 11
60.0
 21
179.1385
 31
0.0
  0
LINE
  5
3E
330
1E
100
AcDbEntity
  8
0
100
AcDbLine
 10
58.0
 20
196.1384999999999
 30
0.0
 11
58.0
 21
197.2384999999999
 31
0.0
  0
LINE
  5
3F
330
1E
100
AcDbEntity
  8
0
100
AcDbLine
 10
58.0
 20
197.2384999999999
 30
0.0
 11
58.0
 21
199.9385
 31
0.0
  0
LINE
  5
40
330
1E
100
AcDbEntity
  8
0
100
AcDbLine
 10
58.0
 20
197.2384999999999
 30
0.0
 11
58.0
 21
196.1384999999999
 31
0.0
  0
LINE
  5
41
330
1E
100
AcDbEntity
  8
0
100
AcDbLine
 10
58.0
 20
199.9385
 30
0.0
 11
58.0
 21
206.7384999999999
 31
0.0
  0
LINE
  5
42
330
1E
100
AcDbEntity
  8
0
100
AcDbLine
 10
58.0
 20
199.9385
 30
0.0
 11
58.0
 21
197.2384999999999
 31
0.0
  0
LINE
  5
43
330
1E
100
AcDbEntity
  8
0
100
AcDbLine
 10
58.0
 20
184.6776399999999
 30
0.0
 11
58.0
 21
192.6384999999999
 31
0.0
  0
LINE
  5
44
330
1E
100
AcDbEntity
  8
0
100
AcDbLine
 10
58.0
 20
184.6776399999999
 30
0.0
 11
58.0
 21
179.1385
 31
0.0
  0
LINE
  5
45
330
1E
100
AcDbEntity
  8
0
100
AcDbLine
 10
58.0
 20
192.6384999999999
 30
0.0
 11
58.0
 21
203.0384999999999
 31
0.0
  0
LINE
  5
46
330
1E
100
AcDbEntity
  8
0
100
AcDbLine
 10
58.0
 20
192.6384999999999
 30
0.0
 11
58.0
 21
184.6776399999999
 31
0.0
  0
LINE
  5
47
330
1E
100
AcDbEntity
  8
0
100
AcDbLine
 10
58.0
 20
206.7384999999999
 30
0.0
 11
58.0
 21
215.9384999999999
 31
0.0
  0
LINE
  5
48
330
1E
100
AcDbEntity
  8
0
100
AcDbLine
 10
58.0
 20
206.7384999999999
 30
0.0
 11
58.0
 21
199.9385
 31
0.0
  0
LINE
  5
49
330
1E
100
AcDbEntity
  8
0
100
AcDbLine
 10
58.0
 20
215.9384999999999
 30
0.0
 11
58.0
 21
229.5385
 31
0.0
  0
LINE
  5
4A
330
1E
100
AcDbEntity
  8
0
100
AcDbLine
 10
58.0
 20
215.9384999999999
 30
0.0
 11
58.0
 21
206.7384999999999
 31
0.0
  0
LINE
  5
4B
330
1E
100
AcDbEntity
  8
0
100
AcDbLine
 10
58.0
 20
203.0384999999999
 30
0.0
 11
58.0
 21
215.5384999999999
 31
0.0
  0
LINE
  5
4C
330
1E
100
AcDbEntity
  8
0
100
AcDbLine
 10
58.0
 20
203.0384999999999
 30
0.0
 11
58.0
 21
192.6384999999999
 31
0.0
  0
LINE
  5
4D
330
1E
100
AcDbEntity
  8
0
100
AcDbLine
 10
58.0
 20
215.5384999999999
 30
0.0
 11
58.0
 21
229.5385
 31
0.0
  0
LINE
  5
4E
330
1E
100
AcDbEntity
  8
0
100
AcDbLine
 10
58.0
 20
215.5384999999999
 30
0.0
 11
58.0
 21
203.0384999999999
 31
0.0
  0
LINE
  5
4F
330
1E
100
AcDbEntity
  8
0
100
AcDbLine
 10
58.0
 20
240.7385
 30
0.0
 11
58.0
 21
229.5385
 31
0.0
  0
LINE
  5
50
330
1E
100
AcDbEntity
  8
0
100
AcDbLine
 10
58.0
 20
240.7385
 30
0.0
 11
58.0
 21
253.5385
 31
0.0
  0
LINE
  5
51
330
1E
100
AcDbEntity
  8
0
100
AcDbLine
 10
58.0
 20
229.5385
 30
0.0
 11
58.0
 21
240.7385
 31
0.0
  0
LINE
  5
52
330
1E
100
AcDbEntity
  8
0
100
AcDbLine
 10
58.0
 20
229.5385
 30
0.0
 11
58.0
 21
215.5384999999999
 31
0.0
  0
LINE
  5
53
330
1E
100
AcDbEntity
  8
0
100
AcDbLine
 10
58.0
 20
229.5385
 30
0.0
 11
58.0
 21
215.9384999999999
 31
0.0
  0
LINE
  5
54
330
1E
100
AcDbEntity
  8
0
100
AcDbLine
 10
58.0
 20
229.5385
 30
0.0
 11
58.0
 21
240.7385
 31
0.0
  0
LINE
  5
55
330
1E
100
AcDbEntity
  8
0
100
AcDbLine
 10
58.0
 20
240.7385
 30
0.0
 11
58.0
 21
253.5385
 31
0.0
  0
LINE
  5
56
330
1E
100
AcDbEntity
  8
0
100
AcDbLine
 10
58.0
 20
240.7385
 30
0.0
 11
58.0
 21
229.5385
 31
0.0
  0
LINE
  5
57
330
1E
100
AcDbEntity
  8
0
100
AcDbLine
 10
58.0
 20
253.5385
 30
0.0
 11
58.0
 21
267.1385
 31
0.0
  0
LINE
  5
58
330
1E
100
AcDbEntity
  8
0
100
AcDbLine
 10
58.0
 20
253.5385
 30
0.0
 11
58.0
 21
240.7385
 31
0.0
  0
LINE
  5
59
330
1E
100
AcDbEntity
  8
0
100
AcDbLine
 10
58.0
 20
253.5385
 30
0.0
 11
58.0
 21
240.7385
 31
0.0
  0
LINE
  5
5A
330
1E
100
AcDbEntity
  8
0
100
AcDbLine
 10
58.0
 20
267.1385
 30
0.0
 11
58.0
 21
286.1385
 31
0.0
  0
LINE
  5
5B
330
1E
100
AcDbEntity
  8
0
100
AcDbLine
 10
58.0
 20
267.1385
 30
0.0
 11
58.0
 21
253.5385
 31
0.0
  0
LINE
  5
5C
330
1E
100
AcDbEntity
  8
0
100
AcDbLine
 10
58.0
 20
286.1385
 30
0.0
 11
58.0
 21
301.1385
 31
0.0
  0
LINE
  5
5D
330
1E
100
AcDbEntity
  8
0
100
AcDbLine
 10
58.0
 20
286.1385
 30
0.0
 11
58.0
 21
267.1385
 31
0.0
  0
LINE
  5
5E
330
1E
100
AcDbEntity
  8
0
100
AcDbLine
 10
60.0
 20
179.1385
 30
0.0
 11
60.0
 21
184.6384999999999
 31
0.0
  0
LINE
  5
5F
330
1E
100
AcDbEntity
  8
0
100
AcDbLine
 10
61.0
 20
129.2062
 30
0.0
 11
61.0
 21
137.2327
 31
0.0
  0
LINE
  5
60
330
1E
100
AcDbEntity
  8
0
100
AcDbLine
 10
61.0
 20
186.6385
 30
0.0
 11
61.0
 21
183.6384999999999
 31
0.0
  0
LINE
  5
61
330
1E
100
AcDbEntity
  8
0
100
AcDbLine
 10
61.0
 20
183.6384999999999
 30
0.0
 11
61.5
 21
186.75619
 31
0.0
  0
LINE
  5
62
330
1E
100
AcDbEntity
  8
0
100
AcDbLine
 10
61.0
 20
183.6384999999999
 30
0.0
 11
61.1373218431736
 21
182.885312577167
 31
0.0
  0
LINE
  5
63
330
1E
100
AcDbEntity
  8
0
100
AcDbLine
 10
61.0
 20
183.6384999999999
 30
0.0
 11
61.0
 21
186.6385
 31
0.0
  0
LINE
  5
64
330
1E
100
AcDbEntity
  8
0
100
AcDbLine
 10
61.0
 20
182.03172
 30
0.0
 11
61.0
 21
177.0337199999999
 31
0.0
  0
LINE
  5
65
330
1E
100
AcDbEntity
  8
0
100
AcDbLine
 10
61.0
 20
182.03172
 30
0.0
 11
61.5
 21
185.1397199999999
 31
0.0
  0
LINE
  5
66
330
1E
100
AcDbEntity
  8
0
100
AcDbLine
 10
61.0
 20
177.0337199999999
 30
0.0
 11
61.0
 21
172.2647199999999
 31
0.0
  0
LINE
  5
67
330
1E
100
AcDbEntity
  8
0
100
AcDbLine
 10
61.0
 20
177.0337199999999
 30
0.0
 11
61.0
 21
182.03172
 31
0.0
  0
LINE
  5
68
330
1E
100
AcDbEntity
  8
0
100
AcDbLine
 10
61.0
 20
172.2647199999999
 30
0.0
 11
61.0
 21
165.8446999999999
 31
0.0
  0
LINE
  5
69
330
1E
100
AcDbEntity
  8
0
100
AcDbLine
 10
61.0
 20
172.2647199999999
 30
0.0
 11
61.0
 21
177.0337199999999
 31
0.0
  0
LINE
  5
6A
330
1E
100
AcDbEntity
  8
0
100
AcDbLine
 10
61.0
 20
165.8446999999999
 30
0.0
 11
61.0
 21
160.2877
 31
0.0
  0
LINE
  5
6B
330
1E
100
AcDbEntity
  8
0
100
AcDbLine
 10
61.0
 20
165.8446999999999
 30
0.0
 11
61.0
 21
172.2647199999999
 31
0.0
  0
LINE
  5
6C
330
1E
100
AcDbEntity
  8
0
100
AcDbLine
 10
61.0
 20
160.2877
 30
0.0
 11
61.0
 21
154.9257
 31
0.0
  0
LINE
  5
6D
330
1E
100
AcDbEntity
  8
0
100
AcDbLine
 10
61.0
 20
160.2877
 30
0.0
 11
61.0
 21
165.8446999999999
 31
0.0
  0
LINE
  5
6E
330
1E
100
AcDbEntity
  8
0
100
AcDbLine
 10
61.0
 20
154.9257
 30
0.0
 11
61.0
 21
149.7976999999999
 31
0.0
  0
LINE
  5
6F
330
1E
100
AcDbEntity
  8
0
100
AcDbLine
 10
61.0
 20
154.9257
 30
0.0
 11
61.0
 21
160.2877
 31
0.0
  0
LINE
  5
70
330
1E
100
AcDbEntity
  8
0
100
AcDbLine
 10
61.0
 20
149.7976999999999
 30
0.0
 11
61.0
 21
144.7657
 31
0.0
  0
LINE
  5
71
330
1E
100
AcDbEntity
  8
0
100
AcDbLine
 10
61.0
 20
149.7976999999999
 30
0.0
 11
61.0
 21
154.9257
 31
0.0
  0
LINE
  5
72
330
1E
100
AcDbEntity
  8
0
100
AcDbLine
 10
61.5
 20
186.75619
 30
0.0
 11
62.9
 21
189.7007
 31
0.0
  0
LINE
  5
73
330
1E
100
AcDbEntity
  8
0
100
AcDbLine
 10
61.5
 20
185.1397199999999
 30
0.0
 11
62.9
 21
188.0627199999999
 31
0.0
  0
LINE
  5
74
330
1E
100
AcDbEntity
  8
0
100
AcDbLine
 10
62.9
 20
189.7007
 30
0.0
 11
65.09999999999999
 21
192.2122
 31
0.0
  0
LINE
  5
75
330
1E
100
AcDbEntity
  8
0
100
AcDbLine
 10
62.9
 20
188.0627199999999
 30
0.0
 11
65.09999999999999
 21
190.5747
 31
0.0
  0
LINE
  5
76
330
1E
100
AcDbEntity
  8
0
100
AcDbLine
 10
61.0
 20
144.7657
 30
0.0
 11
61.0
 21
137.2327
 31
0.0
  0
LINE
  5
77
330
1E
100
AcDbEntity
  8
0
100
AcDbLine
 10
61.0
 20
144.7657
 30
0.0
 11
61.0
 21
149.7976999999999
 31
0.0
  0
LINE
  5
78
330
1E
100
AcDbEntity
  8
0
100
AcDbLine
 10
61.0
 20
137.2327
 30
0.0
 11
61.0
 21
129.2062
 31
0.0
  0
LINE
  5
79
330
1E
100
AcDbEntity
  8
0
100
AcDbLine
 10
61.0
 20
137.2327
 30
0.0
 11
61.0
 21
144.7657
 31
0.0
  0
LINE
  5
7A
330
1E
100
AcDbEntity
  8
0
100
AcDbLine
 10
65.4
 20
0.468500000000011
 30
0.0
 11
75.0
 21
-0.1385
 31
0.0
  0
LINE
  5
7B
330
1E
100
AcDbEntity
  8
0
100
AcDbLine
 10
65.09999999999999
 20
192.2122
 30
0.0
 11
68.0
 21
194.1174
 31
0.0
  0
LINE
  5
7C
330
1E
100
AcDbEntity
  8
0
100
AcDbLine
 10
68.0
 20
192.4776999999999
 30
0.0
 11
68.79999999999999
 21
192.9096999999999
 31
0.0
  0
LINE
  5
7D
330
1E
100
AcDbEntity
  8
0
100
AcDbLine
 10
65.09999999999999
 20
190.5747
 30
0.0
 11
68.0
 21
192.4776999999999
 31
0.0
  0
LINE
  5
7F
330
1E
100
AcDbEntity
  8
0
100
AcDbLine
 10
60.0
 20
184.6384999999999
 30
0.0
 11
61.4180361220368
 21
187.4745722440739
 31
0.0
  0
LINE
  5
80
330
1E
100
AcDbEntity
  8
0
100
AcDbLine
 10
60.0
 20
184.6384999999999
 30
0.0
 11
61.0
 21
186.6385
 31
0.0
  0
LINE
  5
81
330
1E
100
AcDbEntity
  8
0
100
AcDbLine
 10
63.39999999999999
 20
283.0385
 30
0.0
 11
64.59999999999999
 21
280.1385
 31
0.0
  0
LINE
  5
82
330
1E
100
AcDbEntity
  8
0
100
AcDbLine
 10
68.0
 20
194.1174
 30
0.0
 11
71.4
 21
195.3298
 31
0.0
  0
LINE
  5
83
330
1E
100
AcDbEntity
  8
0
100
AcDbLine
 10
68.79999999999999
 20
192.9096999999999
 30
0.0
 11
71.79999999999999
 21
193.9287
 31
0.0
  0
LINE
  5
84
330
1E
100
AcDbEntity
  8
0
100
AcDbLine
 10
69.0
 20
275.7384999999999
 30
0.0
 11
71.90000000000001
 21
274.5385
 31
0.0
  0
LINE
  5
85
330
1E
100
AcDbEntity
  8
0
100
AcDbLine
 10
66.5
 20
277.6385
 30
0.0
 11
69.0
 21
275.7384999999999
 31
0.0
  0
LINE
  5
86
330
1E
100
AcDbEntity
  8
0
100
AcDbLine
 10
64.59999999999999
 20
280.1385
 30
0.0
 11
66.5
 21
277.6385
 31
0.0
  0
LINE
  5
87
330
1E
100
AcDbEntity
  8
0
100
AcDbLine
 10
66.0
 20
293.9806052631579
 30
0.0
 11
66.0
 21
319.1385
 31
0.0
  0
LINE
  5
88
330
1E
100
AcDbEntity
  8
0
100
AcDbLine
 10
66.0
 20
303.1385
 30
0.0
 11
66.0
 21
319.1385
 31
0.0
  0
LINE
  5
89
330
1E
100
AcDbEntity
  8
0
100
AcDbLine
 10
69.0
 20
296.5384999999999
 30
0.0
 11
71.90000000000001
 21
297.7384999999999
 31
0.0
  0
LINE
  5
8A
330
1E
100
AcDbEntity
  8
0
100
AcDbLine
 10
66.5
 20
294.6385
 30
0.0
 11
69.0
 21
296.5384999999999
 31
0.0
  0
LINE
  5
8B
330
1E
100
AcDbEntity
  8
0
100
AcDbLine
 10
64.59999999999999
 20
292.1385
 30
0.0
 11
66.0
 21
293.9806052631579
 31
0.0
  0
LINE
  5
8C
330
1E
100
AcDbEntity
  8
0
100
AcDbLine
 10
64.59999999999999
 20
292.1385
 30
0.0
 11
66.5
 21
294.6385
 31
0.0
  0
LINE
  5
8D
330
1E
100
AcDbEntity
  8
0
100
AcDbLine
 10
63.39999999999999
 20
289.2384999999999
 30
0.0
 11
64.59999999999999
 21
292.1385
 31
0.0
  0
LINE
  5
8E
330
1E
100
AcDbEntity
  8
0
100
AcDbLine
 10
63.0
 20
286.1385
 30
0.0
 11
63.39999999999999
 21
289.2384999999999
 31
0.0
  0
LINE
  5
8F
330
1E
100
AcDbEntity
  8
0
100
AcDbLine
 10
63.0
 20
286.1385
 30
0.0
 11
63.39999999999999
 21
283.0385
 31
0.0
  0
LINE
  5
91
330
1E
100
AcDbEntity
  8
0
100
AcDbLine
 10
58.0
 20
301.1385
 30
0.0
 11
60.0
 21
303.1385
 31
0.0
  0
LINE
  5
92
330
1E
100
AcDbEntity
  8
0
100
AcDbLine
 10
58.0
 20
301.1385
 30
0.0
 11
58.0
 21
286.1385
 31
0.0
  0
LINE
  5
93
330
1E
100
AcDbEntity
  8
0
100
AcDbLine
 10
66.0
 20
319.1385
 30
0.0
 11
66.0
 21
293.9806052631579
 31
0.0
  0
LINE
  5
94
330
1E
100
AcDbEntity
  8
0
100
AcDbLine
 10
66.0
 20
319.1385
 30
0.0
 11
66.29999999999999
 21
319.1385
 31
0.0
  0
LINE
  5
95
330
1E
100
AcDbEntity
  8
0
100
AcDbLine
 10
66.29999999999999
 20
319.1385
 30
0.0
 11
67.2
 21
319.1385
 31
0.0
  0
LINE
  5
96
330
1E
100
AcDbEntity
  8
0
100
AcDbLine
 10
67.2
 20
319.1385
 30
0.0
 11
68.59999999999999
 21
319.1385
 31
0.0
  0
LINE
  5
97
330
1E
100
AcDbEntity
  8
0
100
AcDbLine
 10
68.59999999999999
 20
319.1385
 30
0.0
 11
70.5
 21
319.1385
 31
0.0
  0
LINE
  5
98
330
1E
100
AcDbEntity
  8
0
100
AcDbLine
 10
66.0
 20
319.1385
 30
0.0
 11
66.0
 21
303.1385
 31
0.0
  0
LINE
  5
99
330
1E
100
AcDbEntity
  8
0
100
AcDbLine
 10
60.0
 20
303.1385
 30
0.0
 11
66.0
 21
303.1385
 31
0.0
  0
LINE
  5
9C
330
1E
100
AcDbEntity
  8
0
100
AcDbLine
 10
75.0
 20
-0.1385
 30
0.0
 11
84.59999999999999
 21
0.468500000000011
 31
0.0
  0
LINE
  5
9D
330
1E
100
AcDbEntity
  8
0
100
AcDbLine
 10
89.0
 20
129.2062
 30
0.0
 11
89.0
 21
137.2327
 31
0.0
  0
LINE
  5
9E
330
1E
100
AcDbEntity
  8
0
100
AcDbLine
 10
84.59999999999999
 20
0.468500000000011
 30
0.0
 11
94.1
 21
2.20049999999995
 31
0.0
  0
LINE
  5
9F
330
1E
100
AcDbEntity
  8
0
100
AcDbLine
 10
89.0
 20
177.0337199999999
 30
0.0
 11
89.0
 21
172.2647199999999
 31
0.0
  0
LINE
  5
A0
330
1E
100
AcDbEntity
  8
0
100
AcDbLine
 10
89.0
 20
177.0337199999999
 30
0.0
 11
89.0
 21
182.03172
 31
0.0
  0
LINE
  5
A1
330
1E
100
AcDbEntity
  8
0
100
AcDbLine
 10
89.0
 20
172.2647199999999
 30
0.0
 11
89.0
 21
165.8446999999999
 31
0.0
  0
LINE
  5
A2
330
1E
100
AcDbEntity
  8
0
100
AcDbLine
 10
89.0
 20
172.2647199999999
 30
0.0
 11
89.0
 21
177.0337199999999
 31
0.0
  0
LINE
  5
A3
330
1E
100
AcDbEntity
  8
0
100
AcDbLine
 10
89.0
 20
165.8446999999999
 30
0.0
 11
89.0
 21
160.2877
 31
0.0
  0
LINE
  5
A4
330
1E
100
AcDbEntity
  8
0
100
AcDbLine
 10
89.0
 20
165.8446999999999
 30
0.0
 11
89.0
 21
172.2647199999999
 31
0.0
  0
LINE
  5
A5
330
1E
100
AcDbEntity
  8
0
100
AcDbLine
 10
89.0
 20
160.2877
 30
0.0
 11
89.0
 21
154.9257
 31
0.0
  0
LINE
  5
A6
330
1E
100
AcDbEntity
  8
0
100
AcDbLine
 10
89.0
 20
160.2877
 30
0.0
 11
89.0
 21
165.8446999999999
 31
0.0
  0
LINE
  5
A7
330
1E
100
AcDbEntity
  8
0
100
AcDbLine
 10
89.0
 20
154.9257
 30
0.0
 11
89.0
 21
149.7976999999999
 31
0.0
  0
LINE
  5
A8
330
1E
100
AcDbEntity
  8
0
100
AcDbLine
 10
89.0
 20
154.9257
 30
0.0
 11
89.0
 21
160.2877
 31
0.0
  0
LINE
  5
A9
330
1E
100
AcDbEntity
  8
0
100
AcDbLine
 10
89.0
 20
149.7976999999999
 30
0.0
 11
89.0
 21
144.7657
 31
0.0
  0
LINE
  5
AA
330
1E
100
AcDbEntity
  8
0
100
AcDbLine
 10
89.0
 20
149.7976999999999
 30
0.0
 11
89.0
 21
154.9257
 31
0.0
  0
LINE
  5
AB
330
1E
100
AcDbEntity
  8
0
100
AcDbLine
 10
89.0
 20
144.7657
 30
0.0
 11
89.0
 21
137.2327
 31
0.0
  0
LINE
  5
AC
330
1E
100
AcDbEntity
  8
0
100
AcDbLine
 10
89.0
 20
144.7657
 30
0.0
 11
89.0
 21
149.7976999999999
 31
0.0
  0
LINE
  5
AD
330
1E
100
AcDbEntity
  8
0
100
AcDbLine
 10
89.0
 20
137.2327
 30
0.0
 11
89.0
 21
129.2062
 31
0.0
  0
LINE
  5
AE
330
1E
100
AcDbEntity
  8
0
100
AcDbLine
 10
89.0
 20
137.2327
 30
0.0
 11
89.0
 21
144.7657
 31
0.0
  0
LINE
  5
AF
330
1E
100
AcDbEntity
  8
0
100
AcDbLine
 10
89.0
 20
129.5715105263159
 30
0.0
 11
94.1
 21
128.6416999999999
 31
0.0
  0
LINE
  5
B0
330
1E
100
AcDbEntity
  8
0
100
AcDbLine
 10
92.0
 20
179.1385
 30
0.0
 11
92.0
 21
184.6776399999999
 31
0.0
  0
LINE
  5
B1
330
1E
100
AcDbEntity
  8
0
100
AcDbLine
 10
88.86267815682641
 20
182.885312577167
 30
0.0
 11
89.0
 21
183.6384999999999
 31
0.0
  0
LINE
  5
B2
330
1E
100
AcDbEntity
  8
0
100
AcDbLine
 10
89.0
 20
183.6384999999999
 30
0.0
 11
89.0
 21
186.6385
 31
0.0
  0
LINE
  5
B3
330
1E
100
AcDbEntity
  8
0
100
AcDbLine
 10
89.0
 20
182.03172
 30
0.0
 11
89.0
 21
177.0337199999999
 31
0.0
  0
LINE
  5
B4
330
1E
100
AcDbEntity
  8
0
100
AcDbLine
 10
88.49999999999999
 20
185.1397199999999
 30
0.0
 11
89.0
 21
182.03172
 31
0.0
  0
LINE
  5
B5
330
1E
100
AcDbEntity
  8
0
100
AcDbLine
 10
84.9
 20
192.2122
 30
0.0
 11
87.09999999999999
 21
189.7007
 31
0.0
  0
LINE
  5
B6
330
1E
100
AcDbEntity
  8
0
100
AcDbLine
 10
84.9
 20
190.5747
 30
0.0
 11
87.09999999999999
 21
188.0627199999999
 31
0.0
  0
LINE
  5
B7
330
1E
100
AcDbEntity
  8
0
100
AcDbLine
 10
82.0
 20
192.4776999999999
 30
0.0
 11
84.9
 21
190.5747
 31
0.0
  0
LINE
  5
B8
330
1E
100
AcDbEntity
  8
0
100
AcDbLine
 10
88.49999999999999
 20
186.75619
 30
0.0
 11
89.0
 21
183.6384999999999
 31
0.0
  0
LINE
  5
B9
330
1E
100
AcDbEntity
  8
0
100
AcDbLine
 10
87.09999999999999
 20
189.7007
 30
0.0
 11
88.49999999999999
 21
186.75619
 31
0.0
  0
LINE
  5
BA
330
1E
100
AcDbEntity
  8
0
100
AcDbLine
 10
87.09999999999999
 20
188.0627199999999
 30
0.0
 11
88.49999999999999
 21
185.1397199999999
 31
0.0
  0
LINE
  5
BB
330
1E
100
AcDbEntity
  8
0
100
AcDbLine
 10
88.5819638779632
 20
187.4745722440739
 30
0.0
 11
90.0
 21
184.6384999999999
 31
0.0
  0
LINE
  5
BD
330
1E
100
AcDbEntity
  8
0
100
AcDbLine
 10
89.0
 20
186.6385
 30
0.0
 11
90.0
 21
184.6384999999999
 31
0.0
  0
LINE
  5
BE
330
1E
100
AcDbEntity
  8
0
100
AcDbLine
 10
89.0
 20
186.6385
 30
0.0
 11
89.0
 21
183.6384999999999
 31
0.0
  0
LINE
  5
BF
330
1E
100
AcDbEntity
  8
0
100
AcDbLine
 10
90.0
 20
184.6384999999999
 30
0.0
 11
90.0
 21
179.1385
 31
0.0
  0
LINE
  5
C0
330
1E
100
AcDbEntity
  8
0
100
AcDbLine
 10
90.0
 20
179.1385
 30
0.0
 11
90.0
 21
184.6384999999999
 31
0.0
  0
LINE
  5
C1
330
1E
100
AcDbEntity
  8
0
100
AcDbLine
 10
90.0
 20
179.1385
 30
0.0
 11
92.0
 21
179.1385
 31
0.0
  0
LINE
  5
C2
330
1E
100
AcDbEntity
  8
0
100
AcDbLine
 10
120.1
 20
13.19849999999999
 30
0.0
 11
127.4
 21
18.74149999999989
 31
0.0
  0
LINE
  5
C3
330
1E
100
AcDbEntity
  8
0
100
AcDbLine
 10
111.8999999999999
 20
8.435500000000018
 30
0.0
 11
120.1
 21
13.19849999999999
 31
0.0
  0
LINE
  5
C4
330
1E
100
AcDbEntity
  8
0
100
AcDbLine
 10
103.2999999999999
 20
4.88449999999998
 30
0.0
 11
111.8999999999999
 21
8.435500000000018
 31
0.0
  0
LINE
  5
C5
330
1E
100
AcDbEntity
  8
0
100
AcDbLine
 10
94.1
 20
2.20049999999995
 30
0.0
 11
103.2999999999999
 21
4.88449999999998
 31
0.0
  0
LINE
  5
C7
330
1E
100
AcDbEntity
  8
0
100
AcDbLine
 10
127.4
 20
18.74149999999989
 30
0.0
 11
133.8
 21
25.0635
 31
0.0
  0
LINE
  5
C9
330
1E
100
AcDbEntity
  8
0
100
AcDbLine
 10
133.8
 20
25.0635
 30
0.0
 11
139.3
 21
32.1645
 31
0.0
  0
LINE
  5
CA
330
1E
100
AcDbEntity
  8
0
100
AcDbLine
 10
140.0
 20
33.11849999999999
 30
0.0
 11
144.1
 21
40.6525
 31
0.0
  0
LINE
  5
CB
330
1E
100
AcDbEntity
  8
0
100
AcDbLine
 10
139.3
 20
32.1645
 30
0.0
 11
140.0
 21
33.11849999999999
 31
0.0
  0
LINE
  5
CC
330
1E
100
AcDbEntity
  8
0
100
AcDbLine
 10
144.1
 20
40.6525
 30
0.0
 11
147.3
 21
48.7065
 31
0.0
  0
LINE
  5
CD
330
1E
100
AcDbEntity
  8
0
100
AcDbLine
 10
147.3
 20
48.7065
 30
0.0
 11
149.1999999999999
 21
56.9335
 31
0.0
  0
LINE
  5
CE
330
1E
100
AcDbEntity
  8
0
100
AcDbLine
 10
140.0
 20
97.72399999999999
 30
0.0
 11
144.1
 21
90.18959999999999
 31
0.0
  0
LINE
  5
CF
330
1E
100
AcDbEntity
  8
0
100
AcDbLine
 10
120.1
 20
117.6436999999999
 30
0.0
 11
127.4
 21
112.1007
 31
0.0
  0
LINE
  5
D0
330
1E
100
AcDbEntity
  8
0
100
AcDbLine
 10
111.8999999999999
 20
122.4067
 30
0.0
 11
120.1
 21
117.6436999999999
 31
0.0
  0
LINE
  5
D1
330
1E
100
AcDbEntity
  8
0
100
AcDbLine
 10
103.2999999999999
 20
125.9576999999999
 30
0.0
 11
111.8999999999999
 21
122.4067
 31
0.0
  0
LINE
  5
D2
330
1E
100
AcDbEntity
  8
0
100
AcDbLine
 10
94.1
 20
128.6416999999999
 30
0.0
 11
103.2999999999999
 21
125.9576999999999
 31
0.0
  0
LINE
  5
D3
330
1E
100
AcDbEntity
  8
0
100
AcDbLine
 10
127.4
 20
112.1007
 30
0.0
 11
133.8
 21
105.7787
 31
0.0
  0
LINE
  5
D4
330
1E
100
AcDbEntity
  8
0
100
AcDbLine
 10
133.8
 20
105.7787
 30
0.0
 11
139.3
 21
98.6776
 31
0.0
  0
LINE
  5
D5
330
1E
100
AcDbEntity
  8
0
100
AcDbLine
 10
139.3
 20
98.6776
 30
0.0
 11
140.0
 21
97.72399999999999
 31
0.0
  0
LINE
  5
D6
330
1E
100
AcDbEntity
  8
0
100
AcDbLine
 10
144.1
 20
90.18959999999999
 30
0.0
 11
147.3
 21
82.1357
 31
0.0
  0
LINE
  5
D7
330
1E
100
AcDbEntity
  8
0
100
AcDbLine
 10
147.3
 20
82.1357
 30
0.0
 11
149.1999999999999
 21
73.9085
 31
0.0
  0
LINE
  5
D8
330
1E
100
AcDbEntity
  8
0
100
AcDbLine
 10
149.1999999999999
 20
73.9085
 30
0.0
 11
150.0
 21
65.4205
 31
0.0
  0
LINE
  5
D9
330
1E
100
AcDbEntity
  8
0
100
AcDbLine
 10
149.1999999999999
 20
56.9335
 30
0.0
 11
150.0
 21
65.4205
 31
0.0
  0
LINE
  5
DA
330
1E
100
AcDbEntity
  8
0
100
AcDbLine
 10
92.0
 20
184.6776399999999
 30
0.0
 11
92.0
 21
179.1385
 31
0.0
  0
LINE
  5
DB
330
1E
100
AcDbEntity
  8
0
100
AcDbLine
 10
92.0
 20
184.6776399999999
 30
0.0
 11
92.0
 21
192.6384999999999
 31
0.0
  0
LINE
  5
DC
330
1E
100
AcDbEntity
  8
0
100
AcDbLine
 10
81.2
 20
192.9096999999999
 30
0.0
 11
82.0
 21
192.4776999999999
 31
0.0
  0
LINE
  5
DD
330
1E
100
AcDbEntity
  8
0
100
AcDbLine
 10
92.0
 20
192.6384999999999
 30
0.0
 11
92.0
 21
184.6776399999999
 31
0.0
  0
LINE
  5
DE
330
1E
100
AcDbEntity
  8
0
100
AcDbLine
 10
92.0
 20
192.6384999999999
 30
0.0
 11
92.0
 21
203.0384999999999
 31
0.0
  0
LINE
  5
DF
330
1E
100
AcDbEntity
  8
0
100
AcDbLine
 10
80.7
 20
193.123
 30
0.0
 11
80.8256564683209
 21
193.036852019594
 31
0.0
  0
LINE
  5
E0
330
1E
100
AcDbEntity
  8
0
100
AcDbLine
 10
71.4
 20
195.3298
 30
0.0
 11
75.0
 21
195.7629
 31
0.0
  0
LINE
  5
E1
330
1E
100
AcDbEntity
  8
0
100
AcDbLine
 10
71.79999999999999
 20
193.9287
 30
0.0
 11
75.0
 21
194.3026999999999
 31
0.0
  0
LINE
  5
E2
330
1E
100
AcDbEntity
  8
0
100
AcDbLine
 10
70.5
 20
319.1385
 30
0.0
 11
72.7
 21
319.1385
 31
0.0
  0
LINE
  5
E3
330
1E
100
AcDbEntity
  8
0
100
AcDbLine
 10
71.90000000000001
 20
274.5385
 30
0.0
 11
75.0
 21
274.1385
 31
0.0
  0
LINE
  5
E4
330
1E
100
AcDbEntity
  8
0
100
AcDbLine
 10
71.90000000000001
 20
297.7384999999999
 30
0.0
 11
75.0
 21
298.1385
 31
0.0
  0
LINE
  5
E6
330
1E
100
AcDbEntity
  8
0
100
AcDbLine
 10
78.2
 20
193.9287
 30
0.0
 11
81.2
 21
192.9096999999999
 31
0.0
  0
LINE
  5
E7
330
1E
100
AcDbEntity
  8
0
100
AcDbLine
 10
75.0
 20
195.7629
 30
0.0
 11
78.59999999999999
 21
195.3298
 31
0.0
  0
LINE
  5
E8
330
1E
100
AcDbEntity
  8
0
100
AcDbLine
 10
75.0
 20
194.3026999999999
 30
0.0
 11
78.2
 21
193.9287
 31
0.0
  0
LINE
  5
EA
330
1E
100
AcDbEntity
  8
0
100
AcDbLine
 10
72.7
 20
319.1385
 30
0.0
 11
75.0
 21
319.1385
 31
0.0
  0
LINE
  5
EB
330
1E
100
AcDbEntity
  8
0
100
AcDbLine
 10
75.0
 20
319.1385
 30
0.0
 11
77.3
 21
319.1385
 31
0.0
  0
LINE
  5
EC
330
1E
100
AcDbEntity
  8
0
100
AcDbLine
 10
75.0
 20
298.1385
 30
0.0
 11
78.09999999999999
 21
297.7384999999999
 31
0.0
  0
LINE
  5
ED
330
1E
100
AcDbEntity
  8
0
100
AcDbLine
 10
75.0
 20
274.1385
 30
0.0
 11
78.09999999999999
 21
274.5385
 31
0.0
  0
LINE
  5
EE
330
1E
100
AcDbEntity
  8
0
100
AcDbLine
 10
82.0
 20
194.1174
 30
0.0
 11
84.9
 21
192.2122
 31
0.0
  0
LINE
  5
EF
330
1E
100
AcDbEntity
  8
0
100
AcDbLine
 10
78.59999999999999
 20
195.3298
 30
0.0
 11
82.0
 21
194.1174
 31
0.0
  0
LINE
  5
F1
330
1E
100
AcDbEntity
  8
0
100
AcDbLine
 10
92.0
 20
203.0384999999999
 30
0.0
 11
92.0
 21
192.6384999999999
 31
0.0
  0
LINE
  5
F2
330
1E
100
AcDbEntity
  8
0
100
AcDbLine
 10
92.0
 20
203.0384999999999
 30
0.0
 11
92.0
 21
215.5384999999999
 31
0.0
  0
LINE
  5
F3
330
1E
100
AcDbEntity
  8
0
100
AcDbLine
 10
92.0
 20
215.5384999999999
 30
0.0
 11
92.0
 21
203.0384999999999
 31
0.0
  0
LINE
  5
F4
330
1E
100
AcDbEntity
  8
0
100
AcDbLine
 10
92.0
 20
215.5384999999999
 30
0.0
 11
92.0
 21
229.5385
 31
0.0
  0
LINE
  5
F5
330
1E
100
AcDbEntity
  8
0
100
AcDbLine
 10
92.0
 20
229.5385
 30
0.0
 11
92.0
 21
215.5384999999999
 31
0.0
  0
LINE
  5
F6
330
1E
100
AcDbEntity
  8
0
100
AcDbLine
 10
92.0
 20
229.5385
 30
0.0
 11
92.0
 21
240.7385
 31
0.0
  0
LINE
  5
F7
330
1E
100
AcDbEntity
  8
0
100
AcDbLine
 10
92.0
 20
240.7385
 30
0.0
 11
92.0
 21
229.5385
 31
0.0
  0
LINE
  5
F8
330
1E
100
AcDbEntity
  8
0
100
AcDbLine
 10
92.0
 20
240.7385
 30
0.0
 11
92.0
 21
253.5385
 31
0.0
  0
LINE
  5
F9
330
1E
100
AcDbEntity
  8
0
100
AcDbLine
 10
78.09999999999999
 20
274.5385
 30
0.0
 11
81.0
 21
275.7384999999999
 31
0.0
  0
LINE
  5
FA
330
1E
100
AcDbEntity
  8
0
100
AcDbLine
 10
81.0
 20
275.7384999999999
 30
0.0
 11
83.49999999999999
 21
277.6385
 31
0.0
  0
LINE
  5
FB
330
1E
100
AcDbEntity
  8
0
100
AcDbLine
 10
83.49999999999999
 20
277.6385
 30
0.0
 11
85.4
 21
280.1385
 31
0.0
  0
LINE
  5
FC
330
1E
100
AcDbEntity
  8
0
100
AcDbLine
 10
85.4
 20
280.1385
 30
0.0
 11
86.6
 21
283.0385
 31
0.0
  0
LINE
  5
FD
330
1E
100
AcDbEntity
  8
0
100
AcDbLine
 10
86.6
 20
283.0385
 30
0.0
 11
87.0
 21
286.1385
 31
0.0
  0
LINE
  5
FE
330
1E
100
AcDbEntity
  8
0
100
AcDbLine
 10
92.0
 20
253.5385
 30
0.0
 11
92.0
 21
240.7385
 31
0.0
  0
LINE
  5
FF
330
1E
100
AcDbEntity
  8
0
100
AcDbLine
 10
92.0
 20
253.5385
 30
0.0
 11
92.0
 21
267.1385
 31
0.0
  0
LINE
  5
100
330
1E
100
AcDbEntity
  8
0
100
AcDbLine
 10
92.0
 20
267.1385
 30
0.0
 11
92.0
 21
253.5385
 31
0.0
  0
LINE
  5
101
330
1E
100
AcDbEntity
  8
0
100
AcDbLine
 10
92.0
 20
267.1385
 30
0.0
 11
92.0
 21
286.1385
 31
0.0
  0
LINE
  5
102
330
1E
100
AcDbEntity
  8
0
100
AcDbLine
 10
78.09999999999999
 20
297.7384999999999
 30
0.0
 11
81.0
 21
296.5384999999999
 31
0.0
  0
LINE
  5
103
330
1E
100
AcDbEntity
  8
0
100
AcDbLine
 10
81.0
 20
296.5384999999999
 30
0.0
 11
83.49999999999999
 21
294.6385
 31
0.0
  0
LINE
  5
104
330
1E
100
AcDbEntity
  8
0
100
AcDbLine
 10
84.0
 20
293.9806052631579
 30
0.0
 11
84.0
 21
319.1385
 31
0.0
  0
LINE
  5
105
330
1E
100
AcDbEntity
  8
0
100
AcDbLine
 10
83.49999999999999
 20
294.6385
 30
0.0
 11
85.4
 21
292.1385
 31
0.0
  0
LINE
  5
106
330
1E
100
AcDbEntity
  8
0
100
AcDbLine
 10
85.4
 20
292.1385
 30
0.0
 11
86.6
 21
289.2384999999999
 31
0.0
  0
LINE
  5
107
330
1E
100
AcDbEntity
  8
0
100
AcDbLine
 10
86.6
 20
289.2384999999999
 30
0.0
 11
87.0
 21
286.1385
 31
0.0
  0
LINE
  5
108
330
1E
100
AcDbEntity
  8
0
100
AcDbLine
 10
84.0
 20
319.1385
 30
0.0
 11
84.0
 21
293.9806052631579
 31
0.0
  0
LINE
  5
109
330
1E
100
AcDbEntity
  8
0
100
AcDbLine
 10
83.7
 20
319.1385
 30
0.0
 11
84.0
 21
319.1385
 31
0.0
  0
LINE
  5
10A
330
1E
100
AcDbEntity
  8
0
100
AcDbLine
 10
82.79999999999999
 20
319.1385
 30
0.0
 11
83.7
 21
319.1385
 31
0.0
  0
LINE
  5
10B
330
1E
100
AcDbEntity
  8
0
100
AcDbLine
 10
81.4
 20
319.1385
 30
0.0
 11
82.79999999999999
 21
319.1385
 31
0.0
  0
LINE
  5
10C
330
1E
100
AcDbEntity
  8
0
100
AcDbLine
 10
79.5
 20
319.1385
 30
0.0
 11
81.4
 21
319.1385
 31
0.0
  0
LINE
  5
10D
330
1E
100
AcDbEntity
  8
0
100
AcDbLine
 10
77.3
 20
319.1385
 30
0.0
 11
79.5
 21
319.1385
 31
0.0
  0
LINE
  5
10E
330
1E
100
AcDbEntity
  8
0
100
AcDbLine
 10
84.0
 20
303.1385
 30
0.0
 11
90.0
 21
303.1385
 31
0.0
  0
LINE
  5
10F
330
1E
100
AcDbEntity
  8
0
100
AcDbLine
 10
92.0
 20
301.1385
 30
0.0
 11
92.0
 21
286.1385
 31
0.0
  0
LINE
  5
110
330
1E
100
AcDbEntity
  8
0
100
AcDbLine
 10
90.0
 20
303.1385
 30
0.0
 11
92.0
 21
301.1385
 31
0.0
  0
LINE
  5
111
330
1E
100
AcDbEntity
  8
0
100
AcDbLine
 10
92.0
 20
286.1385
 30
0.0
 11
92.0
 21
267.1385
 31
0.0
  0
LINE
  5
112
330
1E
100
AcDbEntity
  8
0
100
AcDbLine
 10
92.0
 20
286.1385
 30
0.0
 11
92.0
 21
301.1385
 31
0.0
  0
LINE
  5
117
330
1E
100
AcDbEntity
  8
0
100
AcDbLine
 10
69.1743435316791
 20
193.036852019594
 30
0.0
 11
69.29999999999999
 21
193.123
 31
0.0
  0
ENDSEC
  0
SECTION
  2
OBJECTS
  0
DICTIONARY
  5
C
330
0
100
AcDbDictionary
  3
ACAD_GROUP
350
D
  3
ACAD_LAYOUT
350
19
  3
ACAD_MLINESTYLE
350
16
  3
ACAD_PLOTSETTINGS
350
18
  3
ACAD_PLOTSTYLENAME
350
E
  3
ACDBHEADERROUNDTRIPXREC
350
124
  3
ACDBVARIABLEDICTIONARY
350
11D
  0
DICTIONARY
  5
146
330
1E
100
AcDbDictionary
280
     1
  3
ACAD_LAYOUTSELFREF
360
147
  0
DICTIONARY
  5
144
330
1A
100
AcDbDictionary
280
     1
  3
ACAD_LAYOUTSELFREF
360
145
  0
DICTIONARY
  5
D
102
{ACAD_REACTORS
330
C
102
}
330
C
100
AcDbDictionary
  0
DICTIONARY
  5
19
102
{ACAD_REACTORS
330
C
102
}
330
C
100
AcDbDictionary
  0
DICTIONARY
  5
16
102
{ACAD_REACTORS
330
C
102
}
330
C
100
AcDbDictionary
  3
STANDARD
350
17
  0
DICTIONARY
  5
18
102
{ACAD_REACTORS
330
C
102
}
330
C
100
AcDbDictionary
  0
ACDBDICTIONARYWDFLT
  5
E
102
{ACAD_REACTORS
330
C
102
}
330
C
100
AcDbDictionary
281
     1
  3
Normal
350
F
100
AcDbDictionaryWithDefault
340
F
  0
DICTIONARY
  5
124
102
{ACAD_REACTORS
330
C
102
}
330
C
100
AcDbDictionary
  3
CEPSNTYPE
350
12E
  3
FINGERPRINTGUID
350
12F
  3
HYPERLINKBASE
350
127
  3
INSUNITS
350
12D
  3
LAYOUTDICT
350
129
  3
LWETCUNION
350
12C
  3
PLOTSETDICT
350
12A
  3
PLOTSTYLNAMDICT
350
12B
  3
PSVPSCALE
350
131
  3
PUCSBASE
350
134
  3
PUCSORGBACK
350
13A
  3
PUCSORGBOTTOM
350
136
  3
PUCSORGFRONT
350
139
  3
PUCSORGLEFT
350
137
  3
PUCSORGRIGHT
350
138
  3
PUCSORGTOP
350
135
  3
PUCSORTHOREF
350
132
  3
PUCSORTHOVIEW
350
133
  3
STYLESHEET
350
128
  3
TSTACKALIGN
350
125
  3
TSTACKSIZE
350
126
  3
UCSBASE
350
13D
  3
UCSORGBACK
350
143
  3
UCSORGBOTTOM
350
13F
  3
UCSORGFRONT
350
142
  3
UCSORGLEFT
350
140
  3
UCSORGRIGHT
350
141
  3
UCSORGTOP
350
13E
  3
UCSORTHOREF
350
13B
  3
UCSORTHOVIEW
350
13C
  3
VERSIONGUID
350
130
  0
DICTIONARY
  5
11D
102
{ACAD_REACTORS
330
C
102
}
330
C
100
AcDbDictionary
  3
DIMASSOC
350
11E
  0
XRECORD
  5
147
102
{ACAD_REACTORS
330
146
102
}
330
146
100
AcDbXrecord
340
1E
  0
XRECORD
  5
145
102
{ACAD_REACTORS
330
144
102
}
330
144
100
AcDbXrecord
340
1A
  0
MLINESTYLE
  5
17
102
{ACAD_REACTORS
330
16
102
}
330
16
100
AcDbMlineStyle
  2
STANDARD
 70
     0
  3

 62
   256
 51
90.0
 52
90.0
 71
     2
 49
0.5
 62
   256
  6
BYLAYER
 49
-0.5
 62
   256
  6
BYLAYER
  0
ACDBPLACEHOLDER
  5
F
102
{ACAD_REACTORS
330
E
102
}
330
E
100
AcDbPlaceHolder
280
     0
  0
XRECORD
  5
12E
102
{ACAD_REACTORS
330
124
102
}
330
124
100
AcDbXrecord
 90
        0
  0
XRECORD
  5
12F
102
{ACAD_REACTORS
330
124
102
}
330
124
100
AcDbXrecord
  1
{69E60455-B2C9-4BCB-AEAF-C6C13AE7A1D9}
  0
XRECORD
  5
127
102
{ACAD_REACTORS
330
124
102
}
330
124
100
AcDbXrecord
  1

  0
XRECORD
  5
12D
102
{ACAD_REACTORS
330
124
102
}
330
124
100
AcDbXrecord
 90
        0
  0
XRECORD
  5
129
102
{ACAD_REACTORS
330
124
102
}
330
124
100
AcDbXrecord
340
19
  0
XRECORD
  5
12C
102
{ACAD_REACTORS
330
124
102
}
330
124
100
AcDbXrecord
 90
    10781
  0
XRECORD
  5
12A
102
{ACAD_REACTORS
330
124
102
}
330
124
100
AcDbXrecord
340
18
  0
XRECORD
  5
12B
102
{ACAD_REACTORS
330
124
102
}
330
124
100
AcDbXrecord
340
E
  0
XRECORD
  5
131
102
{ACAD_REACTORS
330
124
102
}
330
124
100
AcDbXrecord
 40
0.0
  0
XRECORD
  5
134
102
{ACAD_REACTORS
330
124
102
}
330
124
100
AcDbXrecord
340
0
  0
XRECORD
  5
13A
102
{ACAD_REACTORS
330
124
102
}
330
124
100
AcDbXrecord
 10
0.0
 20
0.0
 30
0.0
  0
XRECORD
  5
136
102
{ACAD_REACTORS
330
124
102
}
330
124
100
AcDbXrecord
 10
0.0
 20
0.0
 30
0.0
  0
XRECORD
  5
139
102
{ACAD_REACTORS
330
124
102
}
330
124
100
AcDbXrecord
 10
0.0
 20
0.0
 30
0.0
  0
XRECORD
  5
137
102
{ACAD_REACTORS
330
124
102
}
330
124
100
AcDbXrecord
 10
0.0
 20
0.0
 30
0.0
  0
XRECORD
  5
138
102
{ACAD_REACTORS
330
124
102
}
330
124
100
AcDbXrecord
 10
0.0
 20
0.0
 30
0.0
  0
XRECORD
  5
135
102
{ACAD_REACTORS
330
124
102
}
330
124
100
AcDbXrecord
 10
0.0
 20
0.0
 30
0.0
  0
XRECORD
  5
132
102
{ACAD_REACTORS
330
124
102
}
330
124
100
AcDbXrecord
340
0
  0
XRECORD
  5
133
102
{ACAD_REACTORS
330
124
102
}
330
124
100
AcDbXrecord
 70
     0
  0
XRECORD
  5
128
102
{ACAD_REACTORS
330
124
102
}
330
124
100
AcDbXrecord
  1

  0
XRECORD
  5
125
102
{ACAD_REACTORS
330
124
102
}
330
124
100
AcDbXrecord
 90
        1
  0
XRECORD
  5
126
102
{ACAD_REACTORS
330
124
102
}
330
124
100
AcDbXrecord
 90
       70
  0
XRECORD
  5
13D
102
{ACAD_REACTORS
330
124
102
}
330
124
100
AcDbXrecord
340
0
  0
XRECORD
  5
143
102
{ACAD_REACTORS
330
124
102
}
330
124
100
AcDbXrecord
 10
0.0
 20
0.0
 30
0.0
  0
XRECORD
  5
13F
102
{ACAD_REACTORS
330
124
102
}
330
124
100
AcDbXrecord
 10
0.0
 20
0.0
 30
0.0
  0
XRECORD
  5
142
102
{ACAD_REACTORS
330
124
102
}
330
124
100
AcDbXrecord
 10
0.0
 20
0.0
 30
0.0
  0
XRECORD
  5
140
102
{ACAD_REACTORS
330
124
102
}
330
124
100
AcDbXrecord
 10
0.0
 20
0.0
 30
0.0
  0
XRECORD
  5
141
102
{ACAD_REACTORS
330
124
102
}
330
124
100
AcDbXrecord
 10
0.0
 20
0.0
 30
0.0
  0
XRECORD
  5
13E
102
{ACAD_REACTORS
330
124
102
}
330
124
100
AcDbXrecord
 10
0.0
 20
0.0
 30
0.0
  0
XRECORD
  5
13B
102
{ACAD_REACTORS
330
124
102
}
330
124
100
AcDbXrecord
340
0
  0
XRECORD
  5
13C
102
{ACAD_REACTORS
330
124
102
}
330
124
100
AcDbXrecord
 70
     1
  0
XRECORD
  5
130
102
{ACAD_REACTORS
330
124
102
}
330
124
100
AcDbXrecord
  1
{82B191A1-6C35-45E8-8401-FD8D2A8F9084}
  0
DICTIONARYVAR
  5
11E
102
{ACAD_REACTORS
330
11D
102
}
330
11D
100
DictionaryVariables
280
     0
  1
1
  0
ENDSEC
  0
EOF
