  0
SECTION
  2
HEADER
  9
$ACADVER
  1
AC1014
  9
$ACADMAINTVER
 70
     9
  9
$DWGCODEPAGE
  3
ANSI_1252
  9
$INSBASE
 10
0.0
 20
0.0
 30
0.0
  9
$EXTMIN
 10
0.150000000000015
 20
-0.0000000000000128
 30
0.0
  9
$EXTMAX
 10
160.85
 20
130.0
 30
0.0
  9
$LIMMIN
 10
0.0
 20
0.0
  9
$LIMMAX
 10
12.0
 20
9.0
  9
$ORTHOMODE
 70
     0
  9
$REGENMODE
 70
     1
  9
$FILLMODE
 70
     1
  9
$QTEXTMODE
 70
     0
  9
$MIRRTEXT
 70
     1
  9
$DRAGMODE
 70
     2
  9
$LTSCALE
 40
1.0
  9
$OSMODE
 70
    37
  9
$ATTMODE
 70
     1
  9
$TEXTSIZE
 40
0.2
  9
$TRACEWID
 40
0.05
  9
$TEXTSTYLE
  7
STANDARD
  9
$CLAYER
  8
0
  9
$CELTYPE
  6
CONTINUOUS
  9
$CECOLOR
 62
   256
  9
$CELTSCALE
 40
1.0
  9
$DELOBJ
 70
     1
  9
$DISPSILH
 70
     0
  9
$DIMSCALE
 40
1.0
  9
$DIMASZ
 40
0.18
  9
$DIMEXO
 40
0.0625
  9
$DIMDLI
 40
0.38
  9
$DIMRND
 40
0.0
  9
$DIMDLE
 40
0.0
  9
$DIMEXE
 40
0.18
  9
$DIMTP
 40
0.0
  9
$DIMTM
 40
0.0
  9
$DIMTXT
 40
0.18
  9
$DIMCEN
 40
0.09
  9
$DIMTSZ
 40
0.0
  9
$DIMTOL
 70
     0
  9
$DIMLIM
 70
     0
  9
$DIMTIH
 70
     1
  9
$DIMTOH
 70
     1
  9
$DIMSE1
 70
     0
  9
$DIMSE2
 70
     0
  9
$DIMTAD
 70
     0
  9
$DIMZIN
 70
     0
  9
$DIMBLK
  1

  9
$DIMASO
 70
     1
  9
$DIMSHO
 70
     1
  9
$DIMPOST
  1

  9
$DIMAPOST
  1

  9
$DIMALT
 70
     0
  9
$DIMALTD
 70
     2
  9
$DIMALTF
 40
25.4
  9
$DIMLFAC
 40
1.0
  9
$DIMTOFL
 70
     0
  9
$DIMTVP
 40
0.0
  9
$DIMTIX
 70
     0
  9
$DIMSOXD
 70
     0
  9
$DIMSAH
 70
     0
  9
$DIMBLK1
  1

  9
$DIMBLK2
  1

  9
$DIMSTYLE
  2
STANDARD
  9
$DIMCLRD
 70
     0
  9
$DIMCLRE
 70
     0
  9
$DIMCLRT
 70
     0
  9
$DIMTFAC
 40
1.0
  9
$DIMGAP
 40
0.09
  9
$DIMJUST
 70
     0
  9
$DIMSD1
 70
     0
  9
$DIMSD2
 70
     0
  9
$DIMTOLJ
 70
     1
  9
$DIMTZIN
 70
     0
  9
$DIMALTZ
 70
     0
  9
$DIMALTTZ
 70
     0
  9
$DIMFIT
 70
     3
  9
$DIMUPT
 70
     0
  9
$DIMUNIT
 70
     2
  9
$DIMDEC
 70
     4
  9
$DIMTDEC
 70
     4
  9
$DIMALTU
 70
     2
  9
$DIMALTTD
 70
     2
  9
$DIMTXSTY
  7
STANDARD
  9
$DIMAUNIT
 70
     0
  9
$LUNITS
 70
     2
  9
$LUPREC
 70
     4
  9
$SKETCHINC
 40
0.1
  9
$FILLETRAD
 40
0.0
  9
$AUNITS
 70
     0
  9
$AUPREC
 70
     0
  9
$MENU
  1
.
  9
$ELEVATION
 40
0.0
  9
$PELEVATION
 40
0.0
  9
$THICKNESS
 40
0.0
  9
$LIMCHECK
 70
     0
  9
$BLIPMODE
 70
     0
  9
$CHAMFERA
 40
0.0
  9
$CHAMFERB
 40
0.0
  9
$CHAMFERC
 40
0.0
  9
$CHAMFERD
 40
0.0
  9
$SKPOLY
 70
     0
  9
$TDCREATE
 40
2454696.784141886
  9
$TDUPDATE
 40
2454696.784997280
  9
$TDINDWG
 40
0.0008555787
  9
$TDUSRTIMER
 40
0.0008555787
  9
$USRTIMER
 70
     1
  9
$ANGBASE
 50
0.0
  9
$ANGDIR
 70
     0
  9
$PDMODE
 70
     0
  9
$PDSIZE
 40
0.0
  9
$PLINEWID
 40
0.0
  9
$COORDS
 70
     1
  9
$SPLFRAME
 70
     0
  9
$SPLINETYPE
 70
     6
  9
$SPLINESEGS
 70
     8
  9
$ATTDIA
 70
     0
  9
$ATTREQ
 70
     1
  9
$HANDLING
 70
 22529
  9
$HANDSEED
  5
12C
  9
$SURFTAB1
 70
     6
  9
$SURFTAB2
 70
     6
  9
$SURFTYPE
 70
     6
  9
$SURFU
 70
     6
  9
$SURFV
 70
     6
  9
$UCSNAME
  2

  9
$UCSORG
 10
0.0
 20
0.0
 30
0.0
  9
$UCSXDIR
 10
1.0
 20
0.0
 30
0.0
  9
$UCSYDIR
 10
0.0
 20
1.0
 30
0.0
  9
$PUCSNAME
  2

  9
$PUCSORG
 10
0.0
 20
0.0
 30
0.0
  9
$PUCSXDIR
 10
1.0
 20
0.0
 30
0.0
  9
$PUCSYDIR
 10
0.0
 20
1.0
 30
0.0
  9
$USERI1
 70
     0
  9
$USERI2
 70
     0
  9
$USERI3
 70
     0
  9
$USERI4
 70
     0
  9
$USERI5
 70
     0
  9
$USERR1
 40
0.0
  9
$USERR2
 40
0.0
  9
$USERR3
 40
0.0
  9
$USERR4
 40
0.0
  9
$USERR5
 40
0.0
  9
$WORLDVIEW
 70
     1
  9
$SHADEDGE
 70
     3
  9
$SHADEDIF
 70
    70
  9
$TILEMODE
 70
     1
  9
$MAXACTVP
 70
    64
  9
$PINSBASE
 10
0.0
 20
0.0
 30
0.0
  9
$PLIMCHECK
 70
     0
  9
$PEXTMIN
 10
1.000000000000000E+20
 20
1.000000000000000E+20
 30
1.000000000000000E+20
  9
$PEXTMAX
 10
-1.000000000000000E+20
 20
-1.000000000000000E+20
 30
-1.000000000000000E+20
  9
$PLIMMIN
 10
0.0
 20
0.0
  9
$PLIMMAX
 10
12.0
 20
9.0
  9
$UNITMODE
 70
     0
  9
$VISRETAIN
 70
     1
  9
$PLINEGEN
 70
     0
  9
$PSLTSCALE
 70
     1
  9
$TREEDEPTH
 70
  3020
  9
$PICKSTYLE
 70
     1
  9
$CMLSTYLE
  2
STANDARD
  9
$CMLJUST
 70
     0
  9
$CMLSCALE
 40
1.0
  9
$PROXYGRAPHICS
 70
     1
  9
$MEASUREMENT
 70
     0
  0
ENDSEC
  0
SECTION
  2
CLASSES
  0
CLASS
  1
ACDBDICTIONARYWDFLT
  2
AcDbDictionaryWithDefault
  3
AutoCAD 2000
 90
        0
280
     0
281
     0
  0
CLASS
  1
ACDBPLACEHOLDER
  2
AcDbPlaceHolder
  3
AutoCAD 2000
 90
        0
280
     0
281
     0
  0
CLASS
  1
LAYOUT
  2
AcDbLayout
  3
AutoCAD 2000
 90
        0
280
     0
281
     0
  0
CLASS
  1
DICTIONARYVAR
  2
AcDbDictionaryVar
  3
AutoCAD 2000
 90
        0
280
     0
281
     0
  0
CLASS
  1
LONG_TRANSACTION
  2
AcDbLongTransaction
  3
AutoCAD 2000
 90
        0
280
     0
281
     0
  0
CLASS
  1
LWPOLYLINE
  2
AcDbPolyline
  3
AutoCAD 2000
 90
        0
280
     0
281
     1
  0
CLASS
  1
HATCH
  2
AcDbHatch
  3
AutoCAD 2000
 90
        0
280
     0
281
     1
  0
CLASS
  1
XRECORD
  2
AcDbXrecord
  3
AutoCAD 2000
 90
        0
280
     0
281
     0
  0
ENDSEC
  0
SECTION
  2
TABLES
  0
TABLE
  2
VPORT
  5
8
330
0
100
AcDbSymbolTable
 70
     2
  0
VPORT
  5
107
330
8
100
AcDbSymbolTableRecord
100
AcDbViewportTableRecord
  2
*ACTIVE
 70
     0
 10
0.0
 20
0.0
 11
1.0
 21
1.0
 12
80.50000000000002
 22
64.99999999999999
 13
0.0
 23
0.0
 14
1.0
 24
1.0
 15
0.0
 25
0.0
 16
0.0
 26
0.0
 36
1.0
 17
0.0
 27
0.0
 37
0.0
 40
130.9974424552429
 41
2.078104993597951
 42
50.0
 43
0.0
 44
0.0
 50
0.0
 51
0.0
 71
     0
 72
   100
 73
     1
 74
     3
 75
     0
 76
     0
 77
     0
 78
     0
  0
ENDTAB
  0
TABLE
  2
LTYPE
  5
5
330
0
100
AcDbSymbolTable
 70
     1
  0
LTYPE
  5
13
330
5
100
AcDbSymbolTableRecord
100
AcDbLinetypeTableRecord
  2
BYBLOCK
 70
     0
  3

 72
    65
 73
     0
 40
0.0
  0
LTYPE
  5
14
330
5
100
AcDbSymbolTableRecord
100
AcDbLinetypeTableRecord
  2
BYLAYER
 70
     0
  3

 72
    65
 73
     0
 40
0.0
  0
LTYPE
  5
15
330
5
100
AcDbSymbolTableRecord
100
AcDbLinetypeTableRecord
  2
CONTINUOUS
 70
     0
  3
Solid line
 72
    65
 73
     0
 40
0.0
  0
ENDTAB
  0
TABLE
  2
LAYER
  5
2
330
0
100
AcDbSymbolTable
 70
     1
  0
LAYER
  5
10
330
2
100
AcDbSymbolTableRecord
100
AcDbLayerTableRecord
  2
0
 70
     0
 62
     7
  6
CONTINUOUS
  0
ENDTAB
  0
TABLE
  2
STYLE
  5
3
330
0
100
AcDbSymbolTable
 70
     1
  0
STYLE
  5
11
330
3
100
AcDbSymbolTableRecord
100
AcDbTextStyleTableRecord
  2
STANDARD
 70
     0
 40
0.0
 41
1.0
 50
0.0
 71
     0
 42
0.2
  3
txt
  4

  0
ENDTAB
  0
TABLE
  2
VIEW
  5
6
330
0
100
AcDbSymbolTable
 70
     0
  0
ENDTAB
  0
TABLE
  2
UCS
  5
7
330
0
100
AcDbSymbolTable
 70
     0
  0
ENDTAB
  0
TABLE
  2
APPID
  5
9
330
0
100
AcDbSymbolTable
 70
     1
  0
APPID
  5
12
330
9
100
AcDbSymbolTableRecord
100
AcDbRegAppTableRecord
  2
ACAD
 70
     0
  0
ENDTAB
  0
TABLE
  2
DIMSTYLE
  5
A
330
0
100
AcDbSymbolTable
 70
     1
  0
DIMSTYLE
105
100
330
A
100
AcDbSymbolTableRecord
100
AcDbDimStyleTableRecord
  2
STANDARD
 70
     0
  3

  4

  5

  6

  7

 40
1.0
 41
0.18
 42
0.0625
 43
0.38
 44
0.18
 45
0.0
 46
0.0
 47
0.0
 48
0.0
140
0.18
141
0.09
142
0.0
143
25.4
144
1.0
145
0.0
146
1.0
147
0.09
 71
     0
 72
     0
 73
     1
 74
     1
 75
     0
 76
     0
 77
     0
 78
     0
170
     0
171
     2
172
     0
173
     0
174
     0
175
     0
176
     0
177
     0
178
     0
270
     2
271
     4
272
     4
273
     2
274
     2
340
11
275
     0
280
     0
281
     0
282
     0
283
     1
284
     0
285
     0
286
     0
287
     3
288
     0
  0
ENDTAB
  0
TABLE
  2
BLOCK_RECORD
  5
1
330
0
100
AcDbSymbolTable
 70
     0
  0
BLOCK_RECORD
  5
1E
102
{ACAD_XDICTIONARY
360
12A
102
}
330
1
100
AcDbSymbolTableRecord
100
AcDbBlockTableRecord
  2
*MODEL_SPACE
  0
BLOCK_RECORD
  5
1A
102
{ACAD_XDICTIONARY
360
128
102
}
330
1
100
AcDbSymbolTableRecord
100
AcDbBlockTableRecord
  2
*PAPER_SPACE
  0
ENDTAB
  0
ENDSEC
  0
SECTION
  2
BLOCKS
  0
BLOCK
  5
1F
330
1E
100
AcDbEntity
  8
0
100
AcDbBlockBegin
  2
*MODEL_SPACE
 70
     0
 10
0.0
 20
0.0
 30
0.0
  3
*MODEL_SPACE
  1

  0
ENDBLK
  5
20
330
1E
100
AcDbEntity
  8
0
100
AcDbBlockEnd
  0
BLOCK
  5
1B
330
1A
100
AcDbEntity
 67
     1
  8
0
100
AcDbBlockBegin
  2
*PAPER_SPACE
 70
     0
 10
0.0
 20
0.0
 30
0.0
  3
*PAPER_SPACE
  1

  0
ENDBLK
  5
1C
330
1A
100
AcDbEntity
 67
     1
  8
0
100
AcDbBlockEnd
  0
ENDSEC
  0
SECTION
  2
ENTITIES
  0
LINE
  5
22
330
1E
100
AcDbEntity
  8
0
100
AcDbLine
 10
4.150000000000009
 20
58.1
 30
0.0
 11
5.12036553419758
 21
57.55306669890679
 31
0.0
  0
LINE
  5
23
330
1E
100
AcDbEntity
  8
0
100
AcDbLine
 10
0.650000000000015
 20
66.7
 30
0.0
 11
1.650000000000019
 21
67.40000000000001
 31
0.0
  0
LINE
  5
24
330
1E
100
AcDbEntity
  8
0
100
AcDbLine
 10
0.150000000000015
 20
66.0
 30
0.0
 11
0.650000000000015
 21
63.6
 31
0.0
  0
LINE
  5
25
330
1E
100
AcDbEntity
  8
0
100
AcDbLine
 10
0.150000000000015
 20
66.0
 30
0.0
 11
0.650000000000015
 21
66.7
 31
0.0
  0
LINE
  5
26
330
1E
100
AcDbEntity
  8
0
100
AcDbLine
 10
0.650000000000015
 20
63.6
 30
0.0
 11
1.65000000000001
 21
61.29999999999999
 31
0.0
  0
LINE
  5
28
330
1E
100
AcDbEntity
  8
0
100
AcDbLine
 10
1.650000000000019
 20
67.40000000000001
 30
0.0
 11
4.150000000000009
 21
68.4
 31
0.0
  0
LINE
  5
29
330
1E
100
AcDbEntity
  8
0
100
AcDbLine
 10
4.150000000000009
 20
68.4
 30
0.0
 11
9.650000000000009
 21
69.29999999999999
 31
0.0
  0
LINE
  5
2A
330
1E
100
AcDbEntity
  8
0
100
AcDbLine
 10
1.65000000000001
 20
61.29999999999999
 30
0.0
 11
4.150000000000009
 21
58.1
 31
0.0
  0
LINE
  5
2B
330
1E
100
AcDbEntity
  8
0
100
AcDbLine
 10
4.150000000000009
 20
58.1
 30
0.0
 11
5.12036553419758
 21
57.55306669890679
 31
0.0
  0
LINE
  5
2C
330
1E
100
AcDbEntity
  8
0
100
AcDbLine
 10
13.1719
 20
51.5251
 30
0.0
 11
16.15
 21
51.0
 31
0.0
  0
LINE
  5
2D
330
1E
100
AcDbEntity
  8
0
100
AcDbLine
 10
19.1281
 20
50.47489999999999
 30
0.0
 11
21.8698
 21
49.9915
 31
0.0
  0
LINE
  5
2E
330
1E
100
AcDbEntity
  8
0
100
AcDbLine
 10
16.15
 20
51.0
 30
0.0
 11
19.1281
 21
50.47489999999999
 31
0.0
  0
LINE
  5
2F
330
1E
100
AcDbEntity
  8
0
100
AcDbLine
 10
24.2806
 20
49.5664
 30
0.0
 11
26.1241
 21
49.2413
 31
0.0
  0
LINE
  5
30
330
1E
100
AcDbEntity
  8
0
100
AcDbLine
 10
21.8698
 20
49.9915
 30
0.0
 11
24.2806
 21
49.5664
 31
0.0
  0
LINE
  5
31
330
1E
100
AcDbEntity
  8
0
100
AcDbLine
 10
27.2586
 20
49.0412
 30
0.0
 11
27.6841
 21
48.9662
 31
0.0
  0
LINE
  5
32
330
1E
100
AcDbEntity
  8
0
100
AcDbLine
 10
26.1241
 20
49.2413
 30
0.0
 11
27.2586
 21
49.0412
 31
0.0
  0
LINE
  5
33
330
1E
100
AcDbEntity
  8
0
100
AcDbLine
 10
137.85
 20
-0.0000000000000123
 30
0.0
 11
141.8499999999999
 21
-0.0000000000000126
 31
0.0
  0
LINE
  5
34
330
1E
100
AcDbEntity
  8
0
100
AcDbLine
 10
93.25000000000001
 20
14.0
 30
0.0
 11
95.15
 21
-0.0000000000000097
 31
0.0
  0
LINE
  5
35
330
1E
100
AcDbEntity
  8
0
100
AcDbLine
 10
93.25000000000001
 20
14.0
 30
0.0
 11
95.15
 21
-0.000000000000009
 31
0.0
  0
LINE
  5
36
330
1E
100
AcDbEntity
  8
0
100
AcDbLine
 10
113.7499999999999
 20
-0.0000000000000109
 30
0.0
 11
120.15
 21
-0.0000000000000113
 31
0.0
  0
LINE
  5
37
330
1E
100
AcDbEntity
  8
0
100
AcDbLine
 10
102.55
 20
-0.0000000000000102
 30
0.0
 11
107.75
 21
-0.0000000000000105
 31
0.0
  0
LINE
  5
38
330
1E
100
AcDbEntity
  8
0
100
AcDbLine
 10
107.75
 20
-0.0000000000000105
 30
0.0
 11
113.7499999999999
 21
-0.0000000000000109
 31
0.0
  0
LINE
  5
39
330
1E
100
AcDbEntity
  8
0
100
AcDbLine
 10
98.55
 20
-0.0000000000000099
 30
0.0
 11
102.55
 21
-0.0000000000000102
 31
0.0
  0
LINE
  5
3A
330
1E
100
AcDbEntity
  8
0
100
AcDbLine
 10
96.05
 20
-0.0000000000000098
 30
0.0
 11
98.55
 21
-0.0000000000000099
 31
0.0
  0
LINE
  5
3B
330
1E
100
AcDbEntity
  8
0
100
AcDbLine
 10
95.15
 20
-0.0000000000000097
 30
0.0
 11
96.05
 21
-0.0000000000000098
 31
0.0
  0
LINE
  5
3C
330
1E
100
AcDbEntity
  8
0
100
AcDbLine
 10
71.05
 20
48.5
 30
0.0
 11
80.15
 21
41.9
 31
0.0
  0
LINE
  5
3D
330
1E
100
AcDbEntity
  8
0
100
AcDbLine
 10
80.15
 20
41.9
 30
0.0
 11
88.15000000000001
 21
32.1
 31
0.0
  0
LINE
  5
3E
330
1E
100
AcDbEntity
  8
0
100
AcDbLine
 10
88.15000000000001
 20
32.1
 30
0.0
 11
92.05
 21
22.2
 31
0.0
  0
LINE
  5
3F
330
1E
100
AcDbEntity
  8
0
100
AcDbLine
 10
92.05
 20
22.2
 30
0.0
 11
93.25000000000001
 21
14.0
 31
0.0
  0
LINE
  5
40
330
1E
100
AcDbEntity
  8
0
100
AcDbLine
 10
126.65
 20
-0.0000000000000117
 30
0.0
 11
132.65
 21
-0.000000000000012
 31
0.0
  0
LINE
  5
41
330
1E
100
AcDbEntity
  8
0
100
AcDbLine
 10
141.518
 20
48.4144
 30
0.0
 11
142.2609999999999
 21
49.3979
 31
0.0
  0
LINE
  5
47
330
1E
100
AcDbEntity
  8
0
100
AcDbLine
 10
139.604415986865
 20
45.13336691878279
 30
0.0
 11
141.518
 21
48.4144
 31
0.0
  0
LINE
  5
48
330
1E
100
AcDbEntity
  8
0
100
AcDbLine
 10
139.604415986865
 20
45.13336691878279
 30
0.0
 11
145.15
 21
-0.0000000000000128
 31
0.0
  0
LINE
  5
49
330
1E
100
AcDbEntity
  8
0
100
AcDbLine
 10
140.6185624090159
 20
36.8796207899883
 30
0.0
 11
145.8479999999999
 21
45.9144
 31
0.0
  0
LINE
  5
4A
330
1E
100
AcDbEntity
  8
0
100
AcDbLine
 10
139.604415986865
 20
45.13336691878279
 30
0.0
 11
145.15
 21
-0.0000000000000128
 31
0.0
  0
LINE
  5
4B
330
1E
100
AcDbEntity
  8
0
100
AcDbLine
 10
120.15
 20
-0.0000000000000113
 30
0.0
 11
126.65
 21
-0.0000000000000117
 31
0.0
  0
LINE
  5
4C
330
1E
100
AcDbEntity
  8
0
100
AcDbLine
 10
132.65
 20
-0.000000000000012
 30
0.0
 11
137.85
 21
-0.0000000000000123
 31
0.0
  0
LINE
  5
51
330
1E
100
AcDbEntity
  8
0
100
AcDbLine
 10
160.847
 20
46.1061
 30
0.0
 11
160.8479999999999
 21
45.91429999999999
 31
0.0
  0
LINE
  5
52
330
1E
100
AcDbEntity
  8
0
100
AcDbLine
 10
160.847
 20
46.1061
 30
0.0
 11
160.847
 21
46.6494
 31
0.0
  0
LINE
  5
53
330
1E
100
AcDbEntity
  8
0
100
AcDbLine
 10
145.8479999999999
 20
45.9144
 30
0.0
 11
160.8479999999999
 21
45.91429999999999
 31
0.0
  0
LINE
  5
54
330
1E
100
AcDbEntity
  8
0
100
AcDbLine
 10
160.8479999999999
 20
45.91429999999999
 30
0.0
 11
160.8489999999999
 21
46.103
 31
0.0
  0
LINE
  5
55
330
1E
100
AcDbEntity
  8
0
100
AcDbLine
 10
160.8489999999999
 20
46.103
 30
0.0
 11
160.85
 21
46.6437
 31
0.0
  0
LINE
  5
56
330
1E
100
AcDbEntity
  8
0
100
AcDbLine
 10
160.847
 20
46.6494
 30
0.0
 11
160.847
 21
46.1061
 31
0.0
  0
LINE
  5
57
330
1E
100
AcDbEntity
  8
0
100
AcDbLine
 10
160.85
 20
46.6437
 30
0.0
 11
160.85
 21
47.45389999999999
 31
0.0
  0
LINE
  5
58
330
1E
100
AcDbEntity
  8
0
100
AcDbLine
 10
160.846
 20
47.4612
 30
0.0
 11
160.847
 21
46.6494
 31
0.0
  0
LINE
  5
59
330
1E
100
AcDbEntity
  8
0
100
AcDbLine
 10
160.846
 20
47.4612
 30
0.0
 11
160.846
 21
48.4183
 31
0.0
  0
LINE
  5
5A
330
1E
100
AcDbEntity
  8
0
100
AcDbLine
 10
160.85
 20
47.45389999999999
 30
0.0
 11
160.85
 21
48.41029999999999
 31
0.0
  0
LINE
  5
5B
330
1E
100
AcDbEntity
  8
0
100
AcDbLine
 10
160.85
 20
47.45389999999999
 30
0.0
 11
160.85
 21
46.6437
 31
0.0
  0
LINE
  5
5D
330
1E
100
AcDbEntity
  8
0
100
AcDbLine
 10
160.846
 20
48.4183
 30
0.0
 11
160.846
 21
47.4612
 31
0.0
  0
LINE
  5
5E
330
1E
100
AcDbEntity
  8
0
100
AcDbLine
 10
160.846
 20
48.4183
 30
0.0
 11
160.846
 21
49.3747
 31
0.0
  0
LINE
  5
5F
330
1E
100
AcDbEntity
  8
0
100
AcDbLine
 10
160.85
 20
48.41029999999999
 30
0.0
 11
160.85
 21
49.3674
 31
0.0
  0
LINE
  5
60
330
1E
100
AcDbEntity
  8
0
100
AcDbLine
 10
160.85
 20
48.41029999999999
 30
0.0
 11
160.85
 21
47.45389999999999
 31
0.0
  0
LINE
  5
65
330
1E
100
AcDbEntity
  8
0
100
AcDbLine
 10
141.8499999999999
 20
-0.0000000000000126
 30
0.0
 11
144.25
 21
-0.0000000000000127
 31
0.0
  0
LINE
  5
66
330
1E
100
AcDbEntity
  8
0
100
AcDbLine
 10
144.25
 20
-0.0000000000000127
 30
0.0
 11
145.15
 21
-0.0000000000000128
 31
0.0
  0
LINE
  5
67
330
1E
100
AcDbEntity
  8
0
100
AcDbLine
 10
27.6841
 20
48.9662
 30
0.0
 11
28.0328
 21
49.2855
 31
0.0
  0
LINE
  5
68
330
1E
100
AcDbEntity
  8
0
100
AcDbLine
 10
160.846
 20
49.3747
 30
0.0
 11
160.846
 21
48.4183
 31
0.0
  0
LINE
  5
69
330
1E
100
AcDbEntity
  8
0
100
AcDbLine
 10
160.846
 20
49.3747
 30
0.0
 11
160.847
 21
50.18489999999999
 31
0.0
  0
LINE
  5
6A
330
1E
100
AcDbEntity
  8
0
100
AcDbLine
 10
160.85
 20
49.3674
 30
0.0
 11
160.85
 21
50.1792
 31
0.0
  0
LINE
  5
6B
330
1E
100
AcDbEntity
  8
0
100
AcDbLine
 10
160.85
 20
49.3674
 30
0.0
 11
160.85
 21
48.41029999999999
 31
0.0
  0
LINE
  5
6C
330
1E
100
AcDbEntity
  8
0
100
AcDbLine
 10
142.2609999999999
 20
49.3979
 30
0.0
 11
143.025
 21
50.04100000000001
 31
0.0
  0
LINE
  5
6D
330
1E
100
AcDbEntity
  8
0
100
AcDbLine
 10
28.0328
 20
49.2855
 30
0.0
 11
28.5752241403851
 21
52.361681609359
 31
0.0
  0
LINE
  5
6E
330
1E
100
AcDbEntity
  8
0
100
AcDbLine
 10
27.6074
 20
49.3605
 30
0.0
 11
28.0328
 21
49.2855
 31
0.0
  0
LINE
  5
6F
330
1E
100
AcDbEntity
  8
0
100
AcDbLine
 10
160.847
 20
50.18489999999999
 30
0.0
 11
160.847
 21
50.7256
 31
0.0
  0
LINE
  5
70
330
1E
100
AcDbEntity
  8
0
100
AcDbLine
 10
160.85
 20
50.1792
 30
0.0
 11
160.85
 21
49.3674
 31
0.0
  0
LINE
  5
71
330
1E
100
AcDbEntity
  8
0
100
AcDbLine
 10
143.025
 20
50.04100000000001
 30
0.0
 11
143.901
 21
50.5197
 31
0.0
  0
LINE
  5
72
330
1E
100
AcDbEntity
  8
0
100
AcDbLine
 10
26.47289999999999
 20
49.5606
 30
0.0
 11
27.6074
 21
49.3605
 31
0.0
  0
LINE
  5
73
330
1E
100
AcDbEntity
  8
0
100
AcDbLine
 10
24.58199999999999
 20
49.89399999999999
 30
0.0
 11
26.47289999999999
 21
49.5606
 31
0.0
  0
LINE
  5
74
330
1E
100
AcDbEntity
  8
0
100
AcDbLine
 10
160.847
 20
50.7256
 30
0.0
 11
160.847
 21
50.18489999999999
 31
0.0
  0
LINE
  5
75
330
1E
100
AcDbEntity
  8
0
100
AcDbLine
 10
160.847
 20
50.7256
 30
0.0
 11
160.8479999999999
 21
50.91429999999999
 31
0.0
  0
LINE
  5
76
330
1E
100
AcDbEntity
  8
0
100
AcDbLine
 10
160.8489999999999
 20
50.7225
 30
0.0
 11
160.85
 21
50.1792
 31
0.0
  0
LINE
  5
77
330
1E
100
AcDbEntity
  8
0
100
AcDbLine
 10
160.8479999999999
 20
50.91429999999999
 30
0.0
 11
160.8489999999999
 21
50.7225
 31
0.0
  0
LINE
  5
78
330
1E
100
AcDbEntity
  8
0
100
AcDbLine
 10
145.8479999999999
 20
50.91429999999999
 30
0.0
 11
160.8479999999999
 21
50.91429999999999
 31
0.0
  0
LINE
  5
79
330
1E
100
AcDbEntity
  8
0
100
AcDbLine
 10
144.855
 20
50.8147
 30
0.0
 11
145.8479999999999
 21
50.91429999999999
 31
0.0
  0
LINE
  5
7A
330
1E
100
AcDbEntity
  8
0
100
AcDbLine
 10
143.901
 20
50.5197
 30
0.0
 11
144.855
 21
50.8147
 31
0.0
  0
LINE
  5
7B
330
1E
100
AcDbEntity
  8
0
100
AcDbLine
 10
22.07669999999999
 20
50.3358
 30
0.0
 11
24.58199999999999
 21
49.89399999999999
 31
0.0
  0
LINE
  5
7C
330
1E
100
AcDbEntity
  8
0
100
AcDbLine
 10
19.2404
 20
50.8359
 30
0.0
 11
22.07669999999999
 21
50.3358
 31
0.0
  0
LINE
  5
7D
330
1E
100
AcDbEntity
  8
0
100
AcDbLine
 10
16.21509999999999
 20
51.3693
 30
0.0
 11
19.2404
 21
50.8359
 31
0.0
  0
LINE
  5
7E
330
1E
100
AcDbEntity
  8
0
100
AcDbLine
 10
13.1898
 20
51.9027
 30
0.0
 11
16.21509999999999
 21
51.3693
 31
0.0
  0
LINE
  5
7F
330
1E
100
AcDbEntity
  8
0
100
AcDbLine
 10
6.175900000000009
 20
52.7587
 30
0.0
 11
8.019400000000018
 21
52.4336
 31
0.0
  0
LINE
  5
80
330
1E
100
AcDbEntity
  8
0
100
AcDbLine
 10
7.848200000000009
 20
52.8446
 30
0.0
 11
10.35349999999999
 21
52.4029
 31
0.0
  0
LINE
  5
81
330
1E
100
AcDbEntity
  8
0
100
AcDbLine
 10
4.822860000000009
 20
53.37810000000001
 30
0.0
 11
5.957400000000009
 21
53.178
 31
0.0
  0
LINE
  5
82
330
1E
100
AcDbEntity
  8
0
100
AcDbLine
 10
5.957400000000009
 20
53.178
 30
0.0
 11
7.848200000000009
 21
52.8446
 31
0.0
  0
LINE
  5
83
330
1E
100
AcDbEntity
  8
0
100
AcDbLine
 10
4.61593000000002
 20
53.0338
 30
0.0
 11
5.041370000000009
 21
52.9588
 31
0.0
  0
LINE
  5
84
330
1E
100
AcDbEntity
  8
0
100
AcDbLine
 10
5.041370000000009
 20
52.9588
 30
0.0
 11
6.175900000000009
 21
52.7587
 31
0.0
  0
LINE
  5
85
330
1E
100
AcDbEntity
  8
0
100
AcDbLine
 10
28.5752241403851
 20
52.361681609359
 30
0.0
 11
32.14999999999999
 21
52.6
 31
0.0
  0
LINE
  5
86
330
1E
100
AcDbEntity
  8
0
100
AcDbLine
 10
32.14999999999999
 20
52.6
 30
0.0
 11
42.14999999999999
 21
53.7
 31
0.0
  0
LINE
  5
89
330
1E
100
AcDbEntity
  8
0
100
AcDbLine
 10
9.650000000000009
 20
69.29999999999999
 30
0.0
 11
16.15
 21
70.0
 31
0.0
  0
LINE
  5
8C
330
1E
100
AcDbEntity
  8
0
100
AcDbLine
 10
16.15
 20
70.0
 30
0.0
 11
23.14999999999999
 21
70.3
 31
0.0
  0
LINE
  5
8D
330
1E
100
AcDbEntity
  8
0
100
AcDbLine
 10
23.14999999999999
 20
70.3
 30
0.0
 11
32.14999999999999
 21
70.8
 31
0.0
  0
LINE
  5
90
330
1E
100
AcDbEntity
  8
0
100
AcDbLine
 10
32.14999999999999
 20
70.8
 30
0.0
 11
42.14999999999999
 21
71.09999999999999
 31
0.0
  0
LINE
  5
91
330
1E
100
AcDbEntity
  8
0
100
AcDbLine
 10
42.14999999999999
 20
71.09999999999999
 30
0.0
 11
48.15
 21
71.2
 31
0.0
  0
LINE
  5
92
330
1E
100
AcDbEntity
  8
0
100
AcDbLine
 10
48.15
 20
71.2
 30
0.0
 11
62.14999999999999
 21
71.4
 31
0.0
  0
LINE
  5
93
330
1E
100
AcDbEntity
  8
0
100
AcDbLine
 10
42.14999999999999
 20
53.7
 30
0.0
 11
48.15
 21
54.0
 31
0.0
  0
LINE
  5
94
330
1E
100
AcDbEntity
  8
0
100
AcDbLine
 10
81.15
 20
70.7
 30
0.0
 11
83.84999999999999
 21
71.0
 31
0.0
  0
LINE
  5
95
330
1E
100
AcDbEntity
  8
0
100
AcDbLine
 10
62.14999999999999
 20
71.4
 30
0.0
 11
81.15
 21
70.7
 31
0.0
  0
LINE
  5
96
330
1E
100
AcDbEntity
  8
0
100
AcDbLine
 10
83.84999999999999
 20
71.0
 30
0.0
 11
85.35
 21
72.8
 31
0.0
  0
LINE
  5
98
330
1E
100
AcDbEntity
  8
0
100
AcDbLine
 10
48.15
 20
54.0
 30
0.0
 11
58.35
 21
53.0
 31
0.0
  0
LINE
  5
99
330
1E
100
AcDbEntity
  8
0
100
AcDbLine
 10
58.35
 20
53.0
 30
0.0
 11
71.05
 21
48.5
 31
0.0
  0
LINE
  5
9A
330
1E
100
AcDbEntity
  8
0
100
AcDbLine
 10
86.10277482163271
 20
78.8422803375511
 30
0.0
 11
93.15000000000001
 21
79.5
 31
0.0
  0
LINE
  5
9B
330
1E
100
AcDbEntity
  8
0
100
AcDbLine
 10
93.15000000000001
 20
79.5
 30
0.0
 11
98.15000000000001
 21
80.0
 31
0.0
  0
LINE
  5
9C
330
1E
100
AcDbEntity
  8
0
100
AcDbLine
 10
98.15000000000001
 20
80.0
 30
0.0
 11
103.8499999999999
 21
80.5
 31
0.0
  0
LINE
  5
9D
330
1E
100
AcDbEntity
  8
0
100
AcDbLine
 10
103.8499999999999
 20
80.5
 30
0.0
 11
109.95
 21
81.0
 31
0.0
  0
LINE
  5
9E
330
1E
100
AcDbEntity
  8
0
100
AcDbLine
 10
109.95
 20
81.0
 30
0.0
 11
116.25
 21
81.5
 31
0.0
  0
LINE
  5
9F
330
1E
100
AcDbEntity
  8
0
100
AcDbLine
 10
110.15
 20
80.0
 30
0.0
 11
116.5499999999999
 21
80.6
 31
0.0
  0
LINE
  5
A0
330
1E
100
AcDbEntity
  8
0
100
AcDbLine
 10
116.5499999999999
 20
80.6
 30
0.0
 11
122.55
 21
81.09999999999999
 31
0.0
  0
LINE
  5
A1
330
1E
100
AcDbEntity
  8
0
100
AcDbLine
 10
116.25
 20
81.5
 30
0.0
 11
121.95
 21
82.0
 31
0.0
  0
LINE
  5
A2
330
1E
100
AcDbEntity
  8
0
100
AcDbLine
 10
122.55
 20
81.09999999999999
 30
0.0
 11
127.75
 21
81.5
 31
0.0
  0
LINE
  5
A3
330
1E
100
AcDbEntity
  8
0
100
AcDbLine
 10
127.75
 20
81.5
 30
0.0
 11
131.75
 21
81.90000000000001
 31
0.0
  0
LINE
  5
A4
330
1E
100
AcDbEntity
  8
0
100
AcDbLine
 10
121.95
 20
82.0
 30
0.0
 11
126.95
 21
82.5
 31
0.0
  0
LINE
  5
A5
330
1E
100
AcDbEntity
  8
0
100
AcDbLine
 10
131.75
 20
81.90000000000001
 30
0.0
 11
134.15
 21
82.09999999999999
 31
0.0
  0
LINE
  5
A6
330
1E
100
AcDbEntity
  8
0
100
AcDbLine
 10
92.55
 20
78.5
 30
0.0
 11
110.15
 21
80.0
 31
0.0
  0
LINE
  5
A7
330
1E
100
AcDbEntity
  8
0
100
AcDbLine
 10
88.55
 20
78.09999999999999
 30
0.0
 11
92.55
 21
78.5
 31
0.0
  0
LINE
  5
A8
330
1E
100
AcDbEntity
  8
0
100
AcDbLine
 10
86.15
 20
77.9
 30
0.0
 11
88.55
 21
78.09999999999999
 31
0.0
  0
LINE
  5
A9
330
1E
100
AcDbEntity
  8
0
100
AcDbLine
 10
85.35
 20
72.8
 30
0.0
 11
85.54999999999999
 21
74.5
 31
0.0
  0
LINE
  5
AA
330
1E
100
AcDbEntity
  8
0
100
AcDbLine
 10
85.25
 20
77.8
 30
0.0
 11
85.54999999999999
 21
74.5
 31
0.0
  0
LINE
  5
AB
330
1E
100
AcDbEntity
  8
0
100
AcDbLine
 10
85.25
 20
77.8
 30
0.0
 11
86.10277482163271
 21
78.8422803375511
 31
0.0
  0
LINE
  5
AC
330
1E
100
AcDbEntity
  8
0
100
AcDbLine
 10
85.25
 20
77.8
 30
0.0
 11
86.15
 21
77.9
 31
0.0
  0
LINE
  5
AD
330
1E
100
AcDbEntity
  8
0
100
AcDbLine
 10
85.44999999999999
 20
82.0
 30
0.0
 11
87.94999999999999
 21
82.2
 31
0.0
  0
LINE
  5
AE
330
1E
100
AcDbEntity
  8
0
100
AcDbLine
 10
84.55
 20
81.90000000000001
 30
0.0
 11
85.44999999999999
 21
82.0
 31
0.0
  0
LINE
  5
AF
330
1E
100
AcDbEntity
  8
0
100
AcDbLine
 10
87.94999999999999
 20
82.2
 30
0.0
 11
91.95
 21
82.59999999999999
 31
0.0
  0
LINE
  5
B0
330
1E
100
AcDbEntity
  8
0
100
AcDbLine
 10
91.95
 20
82.59999999999999
 30
0.0
 11
97.05
 21
83.0
 31
0.0
  0
LINE
  5
B1
330
1E
100
AcDbEntity
  8
0
100
AcDbLine
 10
126.839847680209
 20
82.4902806776655
 30
0.0
 11
126.95
 21
82.5
 31
0.0
  0
LINE
  5
B2
330
1E
100
AcDbEntity
  8
0
100
AcDbLine
 10
126.95
 20
82.5
 30
0.0
 11
130.75
 21
82.79999999999999
 31
0.0
  0
LINE
  5
B3
330
1E
100
AcDbEntity
  8
0
100
AcDbLine
 10
130.75
 20
82.79999999999999
 30
0.0
 11
133.15
 21
83.0
 31
0.0
  0
LINE
  5
B4
330
1E
100
AcDbEntity
  8
0
100
AcDbLine
 10
133.15
 20
83.0
 30
0.0
 11
133.9499999999999
 21
83.1
 31
0.0
  0
LINE
  5
B5
330
1E
100
AcDbEntity
  8
0
100
AcDbLine
 10
97.05
 20
83.0
 30
0.0
 11
103.0499999999999
 21
83.49999999999999
 31
0.0
  0
LINE
  5
B6
330
1E
100
AcDbEntity
  8
0
100
AcDbLine
 10
85.8238985970552
 20
82.0299118877644
 30
0.0
 11
86.10277482163271
 21
78.8422803375511
 31
0.0
  0
LINE
  5
B7
330
1E
100
AcDbEntity
  8
0
100
AcDbLine
 10
134.15
 20
82.09999999999999
 30
0.0
 11
135.05
 21
82.2
 31
0.0
  0
LINE
  5
BE
330
1E
100
AcDbEntity
  8
0
100
AcDbLine
 10
103.0499999999999
 20
83.49999999999999
 30
0.0
 11
109.45
 21
84.1
 31
0.0
  0
LINE
  5
BF
330
1E
100
AcDbEntity
  8
0
100
AcDbLine
 10
109.45
 20
84.1
 30
0.0
 11
115.716
 21
86.6249
 31
0.0
  0
LINE
  5
C0
330
1E
100
AcDbEntity
  8
0
100
AcDbLine
 10
115.716
 20
86.6249
 30
0.0
 11
121.446
 21
88.96639999999999
 31
0.0
  0
LINE
  5
C1
330
1E
100
AcDbEntity
  8
0
100
AcDbLine
 10
121.446
 20
88.96639999999999
 30
0.0
 11
126.288
 21
90.90419999999999
 31
0.0
  0
LINE
  5
C2
330
1E
100
AcDbEntity
  8
0
100
AcDbLine
 10
83.10231702378141
 20
93.75290436778959
 30
0.0
 11
84.55
 21
81.90000000000001
 31
0.0
  0
LINE
  5
CA
330
1E
100
AcDbEntity
  8
0
100
AcDbLine
 10
126.288
 20
90.90419999999999
 30
0.0
 11
130.242
 21
92.4383
 31
0.0
  0
LINE
  5
CB
330
1E
100
AcDbEntity
  8
0
100
AcDbLine
 10
130.242
 20
92.4383
 30
0.0
 11
132.5819999999999
 21
93.16489999999999
 31
0.0
  0
LINE
  5
CD
330
1E
100
AcDbEntity
  8
0
100
AcDbLine
 10
20.85
 20
118.9
 30
0.0
 11
27.14999999999999
 21
118.2
 31
0.0
  0
LINE
  5
CE
330
1E
100
AcDbEntity
  8
0
100
AcDbLine
 10
27.14999999999999
 20
118.2
 30
0.0
 11
38.14999999999999
 21
119.3
 31
0.0
  0
LINE
  5
CF
330
1E
100
AcDbEntity
  8
0
100
AcDbLine
 10
38.14999999999999
 20
119.3
 30
0.0
 11
52.14999999999999
 21
120.0
 31
0.0
  0
LINE
  5
D0
330
1E
100
AcDbEntity
  8
0
100
AcDbLine
 10
11.95
 20
125.0
 30
0.0
 11
11.95
 21
125.0999999999999
 31
0.0
  0
LINE
  5
D1
330
1E
100
AcDbEntity
  8
0
100
AcDbLine
 10
11.65
 20
124.0
 30
0.0
 11
11.95
 21
125.0999999999999
 31
0.0
  0
LINE
  5
D2
330
1E
100
AcDbEntity
  8
0
100
AcDbLine
 10
11.65
 20
124.0
 30
0.0
 11
11.95
 21
123.0999999999999
 31
0.0
  0
LINE
  5
D3
330
1E
100
AcDbEntity
  8
0
100
AcDbLine
 10
11.95
 20
123.0999999999999
 30
0.0
 11
12.85
 21
122.0
 31
0.0
  0
LINE
  5
D4
330
1E
100
AcDbEntity
  8
0
100
AcDbLine
 10
11.95
 20
125.0999999999999
 30
0.0
 11
12.85
 21
125.8
 31
0.0
  0
LINE
  5
D5
330
1E
100
AcDbEntity
  8
0
100
AcDbLine
 10
11.95
 20
125.0999999999999
 30
0.0
 11
11.95
 21
125.0
 31
0.0
  0
LINE
  5
D7
330
1E
100
AcDbEntity
  8
0
100
AcDbLine
 10
12.85
 20
122.0
 30
0.0
 11
15.84999999999999
 21
120.5
 31
0.0
  0
LINE
  5
D8
330
1E
100
AcDbEntity
  8
0
100
AcDbLine
 10
12.85
 20
125.8
 30
0.0
 11
15.84999999999999
 21
126.8
 31
0.0
  0
LINE
  5
DA
330
1E
100
AcDbEntity
  8
0
100
AcDbLine
 10
15.84999999999999
 20
120.5
 30
0.0
 11
20.85
 21
118.9
 31
0.0
  0
LINE
  5
DB
330
1E
100
AcDbEntity
  8
0
100
AcDbLine
 10
15.84999999999999
 20
126.8
 30
0.0
 11
20.85
 21
127.8
 31
0.0
  0
LINE
  5
DE
330
1E
100
AcDbEntity
  8
0
100
AcDbLine
 10
20.85
 20
127.8
 30
0.0
 11
27.14999999999999
 21
128.6999999999999
 31
0.0
  0
LINE
  5
DF
330
1E
100
AcDbEntity
  8
0
100
AcDbLine
 10
27.14999999999999
 20
128.6999999999999
 30
0.0
 11
38.14999999999999
 21
129.4
 31
0.0
  0
LINE
  5
E1
330
1E
100
AcDbEntity
  8
0
100
AcDbLine
 10
38.14999999999999
 20
129.4
 30
0.0
 11
52.14999999999999
 21
130.0
 31
0.0
  0
LINE
  5
E2
330
1E
100
AcDbEntity
  8
0
100
AcDbLine
 10
52.14999999999999
 20
120.0
 30
0.0
 11
60.85
 21
119.0
 31
0.0
  0
LINE
  5
E4
330
1E
100
AcDbEntity
  8
0
100
AcDbLine
 10
52.14999999999999
 20
130.0
 30
0.0
 11
60.85
 21
129.6999999999999
 31
0.0
  0
LINE
  5
E5
330
1E
100
AcDbEntity
  8
0
100
AcDbLine
 10
60.85
 20
119.0
 30
0.0
 11
69.25
 21
115.7999999999999
 31
0.0
  0
LINE
  5
E7
330
1E
100
AcDbEntity
  8
0
100
AcDbLine
 10
60.85
 20
129.6999999999999
 30
0.0
 11
72.75
 21
128.9
 31
0.0
  0
LINE
  5
E8
330
1E
100
AcDbEntity
  8
0
100
AcDbLine
 10
69.25
 20
115.7999999999999
 30
0.0
 11
75.75
 21
110.8
 31
0.0
  0
LINE
  5
E9
330
1E
100
AcDbEntity
  8
0
100
AcDbLine
 10
72.75
 20
128.9
 30
0.0
 11
85.25
 21
127.2999999999999
 31
0.0
  0
LINE
  5
EA
330
1E
100
AcDbEntity
  8
0
100
AcDbLine
 10
75.75
 20
110.8
 30
0.0
 11
81.15
 21
102.4999999999999
 31
0.0
  0
LINE
  5
EB
330
1E
100
AcDbEntity
  8
0
100
AcDbLine
 10
85.25
 20
127.2999999999999
 30
0.0
 11
101.65
 21
122.9
 31
0.0
  0
LINE
  5
EC
330
1E
100
AcDbEntity
  8
0
100
AcDbLine
 10
81.15
 20
102.4999999999999
 30
0.0
 11
82.34999999999999
 21
98.50000000000001
 31
0.0
  0
LINE
  5
ED
330
1E
100
AcDbEntity
  8
0
100
AcDbLine
 10
101.65
 20
122.9
 30
0.0
 11
118.05
 21
115.5999999999999
 31
0.0
  0
LINE
  5
EE
330
1E
100
AcDbEntity
  8
0
100
AcDbLine
 10
82.34999999999999
 20
98.50000000000001
 30
0.0
 11
82.65
 21
97.1
 31
0.0
  0
LINE
  5
EF
330
1E
100
AcDbEntity
  8
0
100
AcDbLine
 10
118.05
 20
115.5999999999999
 30
0.0
 11
130.05
 21
105.4999999999999
 31
0.0
  0
LINE
  5
F0
330
1E
100
AcDbEntity
  8
0
100
AcDbLine
 10
82.65
 20
97.1
 30
0.0
 11
82.94999999999999
 21
95.0
 31
0.0
  0
LINE
  5
F1
330
1E
100
AcDbEntity
  8
0
100
AcDbLine
 10
130.05
 20
105.4999999999999
 30
0.0
 11
133.15
 21
95.0
 31
0.0
  0
LINE
  5
F2
330
1E
100
AcDbEntity
  8
0
100
AcDbLine
 10
82.94999999999999
 20
95.0
 30
0.0
 11
83.10231702378141
 21
93.75290436778959
 31
0.0
  0
LINE
  5
F3
330
1E
100
AcDbEntity
  8
0
100
AcDbLine
 10
132.5819999999999
 20
93.16489999999999
 30
0.0
 11
133.389
 21
93.48789999999999
 31
0.0
  0
LINE
  5
F4
330
1E
100
AcDbEntity
  8
0
100
AcDbLine
 10
133.15
 20
95.0
 30
0.0
 11
133.389
 21
93.48789999999999
 31
0.0
  0
LINE
  5
F5
330
1E
100
AcDbEntity
  8
0
100
AcDbLine
 10
131.894645541225
 20
92.9514676283137
 30
0.0
 11
132.781
 21
90.3035
 31
0.0
  0
LINE
  5
F6
330
1E
100
AcDbEntity
  8
0
100
AcDbLine
 10
132.781
 20
90.3035
 30
0.0
 11
133.597
 21
86.7209
 31
0.0
  0
LINE
  5
F7
330
1E
100
AcDbEntity
  8
0
100
AcDbLine
 10
133.597
 20
86.7209
 30
0.0
 11
133.914034906647
 21
83.09550436333079
 31
0.0
  0
LINE
  5
F8
330
1E
100
AcDbEntity
  8
0
100
AcDbLine
 10
133.9499999999999
 20
83.1
 30
0.0
 11
135.05
 21
82.2
 31
0.0
  0
LINE
  5
F9
330
1E
100
AcDbEntity
  8
0
100
AcDbLine
 10
135.05
 20
82.2
 30
0.0
 11
139.604415986865
 21
45.13336691878279
 31
0.0
  0
LINE
  5
FA
330
1E
100
AcDbEntity
  8
0
100
AcDbLine
 10
10.35349999999999
 20
52.4029
 30
0.0
 11
13.1898
 21
51.9027
 31
0.0
  0
LINE
  5
FB
330
1E
100
AcDbEntity
  8
0
100
AcDbLine
 10
8.019400000000018
 20
52.4336
 30
0.0
 11
10.4302
 21
52.00849999999999
 31
0.0
  0
LINE
  5
FC
330
1E
100
AcDbEntity
  8
0
100
AcDbLine
 10
10.4302
 20
52.00849999999999
 30
0.0
 11
13.1719
 21
51.5251
 31
0.0
  0
LINE
  5
FD
330
1E
100
AcDbEntity
  8
0
100
AcDbLine
 10
4.397430000000009
 20
53.4531
 30
0.0
 11
5.12036553419758
 21
57.55306669890679
 31
0.0
  0
LINE
  5
FE
330
1E
100
AcDbEntity
  8
0
100
AcDbLine
 10
4.397430000000009
 20
53.4531
 30
0.0
 11
4.61593000000002
 21
53.0338
 31
0.0
  0
LINE
  5
FF
330
1E
100
AcDbEntity
  8
0
100
AcDbLine
 10
4.397430000000009
 20
53.4531
 30
0.0
 11
4.822860000000009
 21
53.37810000000001
 31
0.0
  0
LINE
  5
104
330
1E
100
AcDbEntity
  8
0
100
AcDbLine
 10
28.5752241403851
 20
52.361681609359
 30
0.0
 11
5.12036553419758
 21
57.55306669890679
 31
0.0
  0
ENDSEC
  0
SECTION
  2
OBJECTS
  0
DICTIONARY
  5
C
330
0
100
AcDbDictionary
  3
ACAD_GROUP
350
D
  3
ACAD_LAYOUT
350
19
  3
ACAD_MLINESTYLE
350
16
  3
ACAD_PLOTSETTINGS
350
18
  3
ACAD_PLOTSTYLENAME
350
E
  3
ACDBHEADERROUNDTRIPXREC
350
108
  3
ACDBVARIABLEDICTIONARY
350
105
  0
DICTIONARY
  5
12A
330
1E
100
AcDbDictionary
280
     1
  3
ACAD_LAYOUTSELFREF
360
12B
  0
DICTIONARY
  5
128
330
1A
100
AcDbDictionary
280
     1
  3
ACAD_LAYOUTSELFREF
360
129
  0
DICTIONARY
  5
D
102
{ACAD_REACTORS
330
C
102
}
330
C
100
AcDbDictionary
  0
DICTIONARY
  5
19
102
{ACAD_REACTORS
330
C
102
}
330
C
100
AcDbDictionary
  0
DICTIONARY
  5
16
102
{ACAD_REACTORS
330
C
102
}
330
C
100
AcDbDictionary
  3
STANDARD
350
17
  0
DICTIONARY
  5
18
102
{ACAD_REACTORS
330
C
102
}
330
C
100
AcDbDictionary
  0
ACDBDICTIONARYWDFLT
  5
E
102
{ACAD_REACTORS
330
C
102
}
330
C
100
AcDbDictionary
281
     1
  3
Normal
350
F
100
AcDbDictionaryWithDefault
340
F
  0
DICTIONARY
  5
108
102
{ACAD_REACTORS
330
C
102
}
330
C
100
AcDbDictionary
  3
CEPSNTYPE
350
112
  3
FINGERPRINTGUID
350
113
  3
HYPERLINKBASE
350
10B
  3
INSUNITS
350
111
  3
LAYOUTDICT
350
10D
  3
LWETCUNION
350
110
  3
PLOTSETDICT
350
10E
  3
PLOTSTYLNAMDICT
350
10F
  3
PSVPSCALE
350
115
  3
PUCSBASE
350
118
  3
PUCSORGBACK
350
11E
  3
PUCSORGBOTTOM
350
11A
  3
PUCSORGFRONT
350
11D
  3
PUCSORGLEFT
350
11B
  3
PUCSORGRIGHT
350
11C
  3
PUCSORGTOP
350
119
  3
PUCSORTHOREF
350
116
  3
PUCSORTHOVIEW
350
117
  3
STYLESHEET
350
10C
  3
TSTACKALIGN
350
109
  3
TSTACKSIZE
350
10A
  3
UCSBASE
350
121
  3
UCSORGBACK
350
127
  3
UCSORGBOTTOM
350
123
  3
UCSORGFRONT
350
126
  3
UCSORGLEFT
350
124
  3
UCSORGRIGHT
350
125
  3
UCSORGTOP
350
122
  3
UCSORTHOREF
350
11F
  3
UCSORTHOVIEW
350
120
  3
VERSIONGUID
350
114
  0
DICTIONARY
  5
105
102
{ACAD_REACTORS
330
C
102
}
330
C
100
AcDbDictionary
  3
DIMASSOC
350
106
  0
XRECORD
  5
12B
102
{ACAD_REACTORS
330
12A
102
}
330
12A
100
AcDbXrecord
340
1E
  0
XRECORD
  5
129
102
{ACAD_REACTORS
330
128
102
}
330
128
100
AcDbXrecord
340
1A
  0
MLINESTYLE
  5
17
102
{ACAD_REACTORS
330
16
102
}
330
16
100
AcDbMlineStyle
  2
STANDARD
 70
     0
  3

 62
   256
 51
90.0
 52
90.0
 71
     2
 49
0.5
 62
   256
  6
BYLAYER
 49
-0.5
 62
   256
  6
BYLAYER
  0
ACDBPLACEHOLDER
  5
F
102
{ACAD_REACTORS
330
E
102
}
330
E
100
AcDbPlaceHolder
280
     0
  0
XRECORD
  5
112
102
{ACAD_REACTORS
330
108
102
}
330
108
100
AcDbXrecord
 90
        0
  0
XRECORD
  5
113
102
{ACAD_REACTORS
330
108
102
}
330
108
100
AcDbXrecord
  1
{B7939179-FADC-4C3D-87ED-F324AB7673B1}
  0
XRECORD
  5
10B
102
{ACAD_REACTORS
330
108
102
}
330
108
100
AcDbXrecord
  1

  0
XRECORD
  5
111
102
{ACAD_REACTORS
330
108
102
}
330
108
100
AcDbXrecord
 90
        0
  0
XRECORD
  5
10D
102
{ACAD_REACTORS
330
108
102
}
330
108
100
AcDbXrecord
340
19
  0
XRECORD
  5
110
102
{ACAD_REACTORS
330
108
102
}
330
108
100
AcDbXrecord
 90
    10781
  0
XRECORD
  5
10E
102
{ACAD_REACTORS
330
108
102
}
330
108
100
AcDbXrecord
340
18
  0
XRECORD
  5
10F
102
{ACAD_REACTORS
330
108
102
}
330
108
100
AcDbXrecord
340
E
  0
XRECORD
  5
115
102
{ACAD_REACTORS
330
108
102
}
330
108
100
AcDbXrecord
 40
0.0
  0
XRECORD
  5
118
102
{ACAD_REACTORS
330
108
102
}
330
108
100
AcDbXrecord
340
0
  0
XRECORD
  5
11E
102
{ACAD_REACTORS
330
108
102
}
330
108
100
AcDbXrecord
 10
0.0
 20
0.0
 30
0.0
  0
XRECORD
  5
11A
102
{ACAD_REACTORS
330
108
102
}
330
108
100
AcDbXrecord
 10
0.0
 20
0.0
 30
0.0
  0
XRECORD
  5
11D
102
{ACAD_REACTORS
330
108
102
}
330
108
100
AcDbXrecord
 10
0.0
 20
0.0
 30
0.0
  0
XRECORD
  5
11B
102
{ACAD_REACTORS
330
108
102
}
330
108
100
AcDbXrecord
 10
0.0
 20
0.0
 30
0.0
  0
XRECORD
  5
11C
102
{ACAD_REACTORS
330
108
102
}
330
108
100
AcDbXrecord
 10
0.0
 20
0.0
 30
0.0
  0
XRECORD
  5
119
102
{ACAD_REACTORS
330
108
102
}
330
108
100
AcDbXrecord
 10
0.0
 20
0.0
 30
0.0
  0
XRECORD
  5
116
102
{ACAD_REACTORS
330
108
102
}
330
108
100
AcDbXrecord
340
0
  0
XRECORD
  5
117
102
{ACAD_REACTORS
330
108
102
}
330
108
100
AcDbXrecord
 70
     0
  0
XRECORD
  5
10C
102
{ACAD_REACTORS
330
108
102
}
330
108
100
AcDbXrecord
  1

  0
XRECORD
  5
109
102
{ACAD_REACTORS
330
108
102
}
330
108
100
AcDbXrecord
 90
        1
  0
XRECORD
  5
10A
102
{ACAD_REACTORS
330
108
102
}
330
108
100
AcDbXrecord
 90
       70
  0
XRECORD
  5
121
102
{ACAD_REACTORS
330
108
102
}
330
108
100
AcDbXrecord
340
0
  0
XRECORD
  5
127
102
{ACAD_REACTORS
330
108
102
}
330
108
100
AcDbXrecord
 10
0.0
 20
0.0
 30
0.0
  0
XRECORD
  5
123
102
{ACAD_REACTORS
330
108
102
}
330
108
100
AcDbXrecord
 10
0.0
 20
0.0
 30
0.0
  0
XRECORD
  5
126
102
{ACAD_REACTORS
330
108
102
}
330
108
100
AcDbXrecord
 10
0.0
 20
0.0
 30
0.0
  0
XRECORD
  5
124
102
{ACAD_REACTORS
330
108
102
}
330
108
100
AcDbXrecord
 10
0.0
 20
0.0
 30
0.0
  0
XRECORD
  5
125
102
{ACAD_REACTORS
330
108
102
}
330
108
100
AcDbXrecord
 10
0.0
 20
0.0
 30
0.0
  0
XRECORD
  5
122
102
{ACAD_REACTORS
330
108
102
}
330
108
100
AcDbXrecord
 10
0.0
 20
0.0
 30
0.0
  0
XRECORD
  5
11F
102
{ACAD_REACTORS
330
108
102
}
330
108
100
AcDbXrecord
340
0
  0
XRECORD
  5
120
102
{ACAD_REACTORS
330
108
102
}
330
108
100
AcDbXrecord
 70
     1
  0
XRECORD
  5
114
102
{ACAD_REACTORS
330
108
102
}
330
108
100
AcDbXrecord
  1
{4347E901-F945-446F-9251-27FA88B9C6B3}
  0
DICTIONARYVAR
  5
106
102
{ACAD_REACTORS
330
105
102
}
330
105
100
DictionaryVariables
280
     0
  1
1
  0
ENDSEC
  0
EOF
