  0
SECTION
  2
HEADER
  9
$ACADVER
  1
AC1014
  9
$ACADMAINTVER
 70
     9
  9
$DWGCODEPAGE
  3
ANSI_1252
  9
$INSBASE
 10
0.0
 20
0.0
 30
0.0
  9
$EXTMIN
 10
0.188500000000013
 20
-0.0000000000000049
 30
0.0
  9
$EXTMAX
 10
171.8115
 20
320.0
 30
0.0
  9
$LIMMIN
 10
0.0
 20
0.0
  9
$LIMMAX
 10
12.0
 20
9.0
  9
$ORTHOMODE
 70
     0
  9
$REGENMODE
 70
     1
  9
$FILLMODE
 70
     1
  9
$QTEXTMODE
 70
     0
  9
$MIRRTEXT
 70
     1
  9
$DRAGMODE
 70
     2
  9
$LTSCALE
 40
1.0
  9
$OSMODE
 70
    37
  9
$ATTMODE
 70
     1
  9
$TEXTSIZE
 40
0.2
  9
$TRACEWID
 40
0.05
  9
$TEXTSTYLE
  7
STANDARD
  9
$CLAYER
  8
0
  9
$CELTYPE
  6
CONTINUOUS
  9
$CECOLOR
 62
   256
  9
$CELTSCALE
 40
1.0
  9
$DELOBJ
 70
     1
  9
$DISPSILH
 70
     0
  9
$DIMSCALE
 40
1.0
  9
$DIMASZ
 40
0.18
  9
$DIMEXO
 40
0.0625
  9
$DIMDLI
 40
0.38
  9
$DIMRND
 40
0.0
  9
$DIMDLE
 40
0.0
  9
$DIMEXE
 40
0.18
  9
$DIMTP
 40
0.0
  9
$DIMTM
 40
0.0
  9
$DIMTXT
 40
0.18
  9
$DIMCEN
 40
0.09
  9
$DIMTSZ
 40
0.0
  9
$DIMTOL
 70
     0
  9
$DIMLIM
 70
     0
  9
$DIMTIH
 70
     1
  9
$DIMTOH
 70
     1
  9
$DIMSE1
 70
     0
  9
$DIMSE2
 70
     0
  9
$DIMTAD
 70
     0
  9
$DIMZIN
 70
     0
  9
$DIMBLK
  1

  9
$DIMASO
 70
     1
  9
$DIMSHO
 70
     1
  9
$DIMPOST
  1

  9
$DIMAPOST
  1

  9
$DIMALT
 70
     0
  9
$DIMALTD
 70
     2
  9
$DIMALTF
 40
25.4
  9
$DIMLFAC
 40
1.0
  9
$DIMTOFL
 70
     0
  9
$DIMTVP
 40
0.0
  9
$DIMTIX
 70
     0
  9
$DIMSOXD
 70
     0
  9
$DIMSAH
 70
     0
  9
$DIMBLK1
  1

  9
$DIMBLK2
  1

  9
$DIMSTYLE
  2
STANDARD
  9
$DIMCLRD
 70
     0
  9
$DIMCLRE
 70
     0
  9
$DIMCLRT
 70
     0
  9
$DIMTFAC
 40
1.0
  9
$DIMGAP
 40
0.09
  9
$DIMJUST
 70
     0
  9
$DIMSD1
 70
     0
  9
$DIMSD2
 70
     0
  9
$DIMTOLJ
 70
     1
  9
$DIMTZIN
 70
     0
  9
$DIMALTZ
 70
     0
  9
$DIMALTTZ
 70
     0
  9
$DIMFIT
 70
     3
  9
$DIMUPT
 70
     0
  9
$DIMUNIT
 70
     2
  9
$DIMDEC
 70
     4
  9
$DIMTDEC
 70
     4
  9
$DIMALTU
 70
     2
  9
$DIMALTTD
 70
     2
  9
$DIMTXSTY
  7
STANDARD
  9
$DIMAUNIT
 70
     0
  9
$LUNITS
 70
     2
  9
$LUPREC
 70
     4
  9
$SKETCHINC
 40
0.1
  9
$FILLETRAD
 40
0.0
  9
$AUNITS
 70
     0
  9
$AUPREC
 70
     0
  9
$MENU
  1
.
  9
$ELEVATION
 40
0.0
  9
$PELEVATION
 40
0.0
  9
$THICKNESS
 40
0.0
  9
$LIMCHECK
 70
     0
  9
$BLIPMODE
 70
     0
  9
$CHAMFERA
 40
0.0
  9
$CHAMFERB
 40
0.0
  9
$CHAMFERC
 40
0.0
  9
$CHAMFERD
 40
0.0
  9
$SKPOLY
 70
     0
  9
$TDCREATE
 40
2454701.373104374
  9
$TDUPDATE
 40
2454701.375473993
  9
$TDINDWG
 40
0.0023696181
  9
$TDUSRTIMER
 40
0.0023696181
  9
$USRTIMER
 70
     1
  9
$ANGBASE
 50
0.0
  9
$ANGDIR
 70
     0
  9
$PDMODE
 70
     0
  9
$PDSIZE
 40
0.0
  9
$PLINEWID
 40
0.0
  9
$COORDS
 70
     1
  9
$SPLFRAME
 70
     0
  9
$SPLINETYPE
 70
     6
  9
$SPLINESEGS
 70
     8
  9
$ATTDIA
 70
     0
  9
$ATTREQ
 70
     1
  9
$HANDLING
 70
 22529
  9
$HANDSEED
  5
238
  9
$SURFTAB1
 70
     6
  9
$SURFTAB2
 70
     6
  9
$SURFTYPE
 70
     6
  9
$SURFU
 70
     6
  9
$SURFV
 70
     6
  9
$UCSNAME
  2

  9
$UCSORG
 10
0.0
 20
0.0
 30
0.0
  9
$UCSXDIR
 10
1.0
 20
0.0
 30
0.0
  9
$UCSYDIR
 10
0.0
 20
1.0
 30
0.0
  9
$PUCSNAME
  2

  9
$PUCSORG
 10
0.0
 20
0.0
 30
0.0
  9
$PUCSXDIR
 10
1.0
 20
0.0
 30
0.0
  9
$PUCSYDIR
 10
0.0
 20
1.0
 30
0.0
  9
$USERI1
 70
     0
  9
$USERI2
 70
     0
  9
$USERI3
 70
     0
  9
$USERI4
 70
     0
  9
$USERI5
 70
     0
  9
$USERR1
 40
0.0
  9
$USERR2
 40
0.0
  9
$USERR3
 40
0.0
  9
$USERR4
 40
0.0
  9
$USERR5
 40
0.0
  9
$WORLDVIEW
 70
     1
  9
$SHADEDGE
 70
     3
  9
$SHADEDIF
 70
    70
  9
$TILEMODE
 70
     1
  9
$MAXACTVP
 70
    64
  9
$PINSBASE
 10
0.0
 20
0.0
 30
0.0
  9
$PLIMCHECK
 70
     0
  9
$PEXTMIN
 10
1.000000000000000E+20
 20
1.000000000000000E+20
 30
1.000000000000000E+20
  9
$PEXTMAX
 10
-1.000000000000000E+20
 20
-1.000000000000000E+20
 30
-1.000000000000000E+20
  9
$PLIMMIN
 10
0.0
 20
0.0
  9
$PLIMMAX
 10
12.0
 20
9.0
  9
$UNITMODE
 70
     0
  9
$VISRETAIN
 70
     1
  9
$PLINEGEN
 70
     0
  9
$PSLTSCALE
 70
     1
  9
$TREEDEPTH
 70
  3020
  9
$PICKSTYLE
 70
     1
  9
$CMLSTYLE
  2
STANDARD
  9
$CMLJUST
 70
     0
  9
$CMLSCALE
 40
1.0
  9
$PROXYGRAPHICS
 70
     1
  9
$MEASUREMENT
 70
     0
  0
ENDSEC
  0
SECTION
  2
CLASSES
  0
CLASS
  1
ACDBDICTIONARYWDFLT
  2
AcDbDictionaryWithDefault
  3
AutoCAD 2000
 90
        0
280
     0
281
     0
  0
CLASS
  1
ACDBPLACEHOLDER
  2
AcDbPlaceHolder
  3
AutoCAD 2000
 90
        0
280
     0
281
     0
  0
CLASS
  1
LAYOUT
  2
AcDbLayout
  3
AutoCAD 2000
 90
        0
280
     0
281
     0
  0
CLASS
  1
DICTIONARYVAR
  2
AcDbDictionaryVar
  3
AutoCAD 2000
 90
        0
280
     0
281
     0
  0
CLASS
  1
LONG_TRANSACTION
  2
AcDbLongTransaction
  3
AutoCAD 2000
 90
        0
280
     0
281
     0
  0
CLASS
  1
LWPOLYLINE
  2
AcDbPolyline
  3
AutoCAD 2000
 90
        0
280
     0
281
     1
  0
CLASS
  1
HATCH
  2
AcDbHatch
  3
AutoCAD 2000
 90
        0
280
     0
281
     1
  0
CLASS
  1
XRECORD
  2
AcDbXrecord
  3
AutoCAD 2000
 90
        0
280
     0
281
     0
  0
ENDSEC
  0
SECTION
  2
TABLES
  0
TABLE
  2
VPORT
  5
8
330
0
100
AcDbSymbolTable
 70
     6
  0
VPORT
  5
213
330
8
100
AcDbSymbolTableRecord
100
AcDbViewportTableRecord
  2
*ACTIVE
 70
     0
 10
0.0
 20
0.0
 11
1.0
 21
1.0
 12
86.00000000000001
 22
160.0
 13
0.0
 23
0.0
 14
1.0
 24
1.0
 15
0.0
 25
0.0
 16
0.0
 26
0.0
 36
1.0
 17
0.0
 27
0.0
 37
0.0
 40
322.4552429667519
 41
2.078104993597951
 42
50.0
 43
0.0
 44
0.0
 50
0.0
 51
0.0
 71
     0
 72
   100
 73
     1
 74
     3
 75
     0
 76
     0
 77
     0
 78
     0
  0
ENDTAB
  0
TABLE
  2
LTYPE
  5
5
330
0
100
AcDbSymbolTable
 70
     1
  0
LTYPE
  5
13
330
5
100
AcDbSymbolTableRecord
100
AcDbLinetypeTableRecord
  2
BYBLOCK
 70
     0
  3

 72
    65
 73
     0
 40
0.0
  0
LTYPE
  5
14
330
5
100
AcDbSymbolTableRecord
100
AcDbLinetypeTableRecord
  2
BYLAYER
 70
     0
  3

 72
    65
 73
     0
 40
0.0
  0
LTYPE
  5
15
330
5
100
AcDbSymbolTableRecord
100
AcDbLinetypeTableRecord
  2
CONTINUOUS
 70
     0
  3
Solid line
 72
    65
 73
     0
 40
0.0
  0
ENDTAB
  0
TABLE
  2
LAYER
  5
2
330
0
100
AcDbSymbolTable
 70
     1
  0
LAYER
  5
10
330
2
100
AcDbSymbolTableRecord
100
AcDbLayerTableRecord
  2
0
 70
     0
 62
     7
  6
CONTINUOUS
  0
ENDTAB
  0
TABLE
  2
STYLE
  5
3
330
0
100
AcDbSymbolTable
 70
     1
  0
STYLE
  5
11
330
3
100
AcDbSymbolTableRecord
100
AcDbTextStyleTableRecord
  2
STANDARD
 70
     0
 40
0.0
 41
1.0
 50
0.0
 71
     0
 42
0.2
  3
txt
  4

  0
ENDTAB
  0
TABLE
  2
VIEW
  5
6
330
0
100
AcDbSymbolTable
 70
     0
  0
ENDTAB
  0
TABLE
  2
UCS
  5
7
330
0
100
AcDbSymbolTable
 70
     0
  0
ENDTAB
  0
TABLE
  2
APPID
  5
9
330
0
100
AcDbSymbolTable
 70
     1
  0
APPID
  5
12
330
9
100
AcDbSymbolTableRecord
100
AcDbRegAppTableRecord
  2
ACAD
 70
     0
  0
ENDTAB
  0
TABLE
  2
DIMSTYLE
  5
A
330
0
100
AcDbSymbolTable
 70
     1
  0
DIMSTYLE
105
152
330
A
100
AcDbSymbolTableRecord
100
AcDbDimStyleTableRecord
  2
STANDARD
 70
     0
  3

  4

  5

  6

  7

 40
1.0
 41
0.18
 42
0.0625
 43
0.38
 44
0.18
 45
0.0
 46
0.0
 47
0.0
 48
0.0
140
0.18
141
0.09
142
0.0
143
25.4
144
1.0
145
0.0
146
1.0
147
0.09
 71
     0
 72
     0
 73
     1
 74
     1
 75
     0
 76
     0
 77
     0
 78
     0
170
     0
171
     2
172
     0
173
     0
174
     0
175
     0
176
     0
177
     0
178
     0
270
     2
271
     4
272
     4
273
     2
274
     2
340
11
275
     0
280
     0
281
     0
282
     0
283
     1
284
     0
285
     0
286
     0
287
     3
288
     0
  0
ENDTAB
  0
TABLE
  2
BLOCK_RECORD
  5
1
330
0
100
AcDbSymbolTable
 70
     0
  0
BLOCK_RECORD
  5
1E
102
{ACAD_XDICTIONARY
360
236
102
}
330
1
100
AcDbSymbolTableRecord
100
AcDbBlockTableRecord
  2
*MODEL_SPACE
  0
BLOCK_RECORD
  5
1A
102
{ACAD_XDICTIONARY
360
234
102
}
330
1
100
AcDbSymbolTableRecord
100
AcDbBlockTableRecord
  2
*PAPER_SPACE
  0
ENDTAB
  0
ENDSEC
  0
SECTION
  2
BLOCKS
  0
BLOCK
  5
1F
330
1E
100
AcDbEntity
  8
0
100
AcDbBlockBegin
  2
*MODEL_SPACE
 70
     0
 10
0.0
 20
0.0
 30
0.0
  3
*MODEL_SPACE
  1

  0
ENDBLK
  5
20
330
1E
100
AcDbEntity
  8
0
100
AcDbBlockEnd
  0
BLOCK
  5
1B
330
1A
100
AcDbEntity
 67
     1
  8
0
100
AcDbBlockBegin
  2
*PAPER_SPACE
 70
     0
 10
0.0
 20
0.0
 30
0.0
  3
*PAPER_SPACE
  1

  0
ENDBLK
  5
1C
330
1A
100
AcDbEntity
 67
     1
  8
0
100
AcDbBlockEnd
  0
ENDSEC
  0
SECTION
  2
ENTITIES
  0
LINE
  5
22
330
1E
100
AcDbEntity
  8
0
100
AcDbLine
 10
0.188500000000013
 20
275.4999999999999
 30
0.0
 11
0.688500000000013
 21
267.0
 31
0.0
  0
LINE
  5
23
330
1E
100
AcDbEntity
  8
0
100
AcDbLine
 10
0.188500000000013
 20
275.4999999999999
 30
0.0
 11
0.188500000000013
 21
277.0
 31
0.0
  0
LINE
  5
24
330
1E
100
AcDbEntity
  8
0
100
AcDbLine
 10
0.188500000000013
 20
275.4999999999999
 30
0.0
 11
0.688500000000013
 21
267.0
 31
0.0
  0
LINE
  5
25
330
1E
100
AcDbEntity
  8
0
100
AcDbLine
 10
20.1885
 20
251.0
 30
0.0
 11
23.1666
 21
250.4748999999999
 31
0.0
  0
LINE
  5
26
330
1E
100
AcDbEntity
  8
0
100
AcDbLine
 10
25.9083
 20
249.9913999999999
 30
0.0
 11
28.3191
 21
249.5664
 31
0.0
  0
LINE
  5
27
330
1E
100
AcDbEntity
  8
0
100
AcDbLine
 10
23.1666
 20
250.4748999999999
 30
0.0
 11
25.9083
 21
249.9913999999999
 31
0.0
  0
LINE
  5
28
330
1E
100
AcDbEntity
  8
0
100
AcDbLine
 10
30.1626
 20
249.2412999999999
 30
0.0
 11
31.2971
 21
249.0413
 31
0.0
  0
LINE
  5
29
330
1E
100
AcDbEntity
  8
0
100
AcDbLine
 10
28.3191
 20
249.5664
 30
0.0
 11
30.1626
 21
249.2412999999999
 31
0.0
  0
LINE
  5
2A
330
1E
100
AcDbEntity
  8
0
100
AcDbLine
 10
31.7226
 20
248.9662
 30
0.0
 11
32.0713
 21
249.2855
 31
0.0
  0
LINE
  5
2B
330
1E
100
AcDbEntity
  8
0
100
AcDbLine
 10
31.2971
 20
249.0413
 30
0.0
 11
31.7226
 21
248.9662
 31
0.0
  0
LINE
  5
2C
330
1E
100
AcDbEntity
  8
0
100
AcDbLine
 10
104.0885
 20
0.0
 30
0.0
 11
103.1885
 21
254.0
 31
0.0
  0
LINE
  5
2D
330
1E
100
AcDbEntity
  8
0
100
AcDbLine
 10
103.1885
 20
-0.0000000000000018
 30
0.0
 11
104.0885
 21
-0.0000000000000019
 31
0.0
  0
LINE
  5
2E
330
1E
100
AcDbEntity
  8
0
100
AcDbLine
 10
104.0885
 20
0.0
 30
0.0
 11
103.1885
 21
254.0
 31
0.0
  0
LINE
  5
2F
330
1E
100
AcDbEntity
  8
0
100
AcDbLine
 10
104.0885
 20
-0.0000000000000019
 30
0.0
 11
106.4885
 21
-0.000000000000002
 31
0.0
  0
LINE
  5
30
330
1E
100
AcDbEntity
  8
0
100
AcDbLine
 10
106.4885
 20
-0.000000000000002
 30
0.0
 11
110.4885
 21
-0.0000000000000023
 31
0.0
  0
LINE
  5
31
330
1E
100
AcDbEntity
  8
0
100
AcDbLine
 10
32.0713
 20
249.2855
 30
0.0
 11
32.9026356860263
 21
254.0
 31
0.0
  0
LINE
  5
32
330
1E
100
AcDbEntity
  8
0
100
AcDbLine
 10
31.6459
 20
249.3605
 30
0.0
 11
32.0713
 21
249.2855
 31
0.0
  0
LINE
  5
33
330
1E
100
AcDbEntity
  8
0
100
AcDbLine
 10
30.5114
 20
249.5605999999999
 30
0.0
 11
31.6459
 21
249.3605
 31
0.0
  0
LINE
  5
34
330
1E
100
AcDbEntity
  8
0
100
AcDbLine
 10
28.62049999999999
 20
249.894
 30
0.0
 11
30.5114
 21
249.5605999999999
 31
0.0
  0
LINE
  5
35
330
1E
100
AcDbEntity
  8
0
100
AcDbLine
 10
26.1152
 20
250.3357
 30
0.0
 11
28.62049999999999
 21
249.894
 31
0.0
  0
LINE
  5
36
330
1E
100
AcDbEntity
  8
0
100
AcDbLine
 10
23.2789
 20
250.8359
 30
0.0
 11
26.1152
 21
250.3357
 31
0.0
  0
LINE
  5
37
330
1E
100
AcDbEntity
  8
0
100
AcDbLine
 10
20.2536
 20
251.3692999999999
 30
0.0
 11
23.2789
 21
250.8359
 31
0.0
  0
LINE
  5
38
330
1E
100
AcDbEntity
  8
0
100
AcDbLine
 10
10.21439999999999
 20
252.7587
 30
0.0
 11
12.0579
 21
252.4336
 31
0.0
  0
LINE
  5
39
330
1E
100
AcDbEntity
  8
0
100
AcDbLine
 10
8.65443000000001
 20
253.0337999999999
 30
0.0
 11
9.07987000000001
 21
252.9586999999999
 31
0.0
  0
LINE
  5
3A
330
1E
100
AcDbEntity
  8
0
100
AcDbLine
 10
9.07987000000001
 20
252.9586999999999
 30
0.0
 11
10.21439999999999
 21
252.7587
 31
0.0
  0
LINE
  5
3B
330
1E
100
AcDbEntity
  8
0
100
AcDbLine
 10
8.86136000000001
 20
253.3781
 30
0.0
 11
9.995860000000009
 21
253.1779999999999
 31
0.0
  0
LINE
  5
3C
330
1E
100
AcDbEntity
  8
0
100
AcDbLine
 10
9.995860000000009
 20
253.1779999999999
 30
0.0
 11
11.88669999999999
 21
252.8446
 31
0.0
  0
LINE
  5
3D
330
1E
100
AcDbEntity
  8
0
100
AcDbLine
 10
11.88669999999999
 20
252.8446
 30
0.0
 11
14.392
 21
252.4029
 31
0.0
  0
LINE
  5
3E
330
1E
100
AcDbEntity
  8
0
100
AcDbLine
 10
32.68041944488759
 20
254.0
 30
0.0
 11
103.1885
 21
254.0
 31
0.0
  0
LINE
  5
3F
330
1E
100
AcDbEntity
  8
0
100
AcDbLine
 10
32.6804194448875
 20
254.0
 30
0.0
 11
103.1885
 21
254.0
 31
0.0
  0
LINE
  5
40
330
1E
100
AcDbEntity
  8
0
100
AcDbLine
 10
14.4687
 20
252.0086
 30
0.0
 11
17.2104
 21
251.5251
 31
0.0
  0
LINE
  5
41
330
1E
100
AcDbEntity
  8
0
100
AcDbLine
 10
14.392
 20
252.4029
 30
0.0
 11
17.2283
 21
251.9026999999999
 31
0.0
  0
LINE
  5
42
330
1E
100
AcDbEntity
  8
0
100
AcDbLine
 10
17.2283
 20
251.9026999999999
 30
0.0
 11
20.2536
 21
251.3692999999999
 31
0.0
  0
LINE
  5
43
330
1E
100
AcDbEntity
  8
0
100
AcDbLine
 10
12.0579
 20
252.4336
 30
0.0
 11
14.4687
 21
252.0086
 31
0.0
  0
LINE
  5
44
330
1E
100
AcDbEntity
  8
0
100
AcDbLine
 10
17.2104
 20
251.5251
 30
0.0
 11
20.1885
 21
251.0
 31
0.0
  0
LINE
  5
45
330
1E
100
AcDbEntity
  8
0
100
AcDbLine
 10
8.435930000000009
 20
253.4531
 30
0.0
 11
8.75919334543358
 21
255.2864458530959
 31
0.0
  0
LINE
  5
46
330
1E
100
AcDbEntity
  8
0
100
AcDbLine
 10
8.435930000000009
 20
253.4531
 30
0.0
 11
8.65443000000001
 21
253.0337999999999
 31
0.0
  0
LINE
  5
47
330
1E
100
AcDbEntity
  8
0
100
AcDbLine
 10
8.435930000000009
 20
253.4531
 30
0.0
 11
8.86136000000001
 21
253.3781
 31
0.0
  0
LINE
  5
48
330
1E
100
AcDbEntity
  8
0
100
AcDbLine
 10
7.688500000000009
 20
255.6
 30
0.0
 11
8.755677639783231
 21
255.2665069875676
 31
0.0
  0
LINE
  5
49
330
1E
100
AcDbEntity
  8
0
100
AcDbLine
 10
5.188500000000009
 20
257.0
 30
0.0
 11
7.688500000000009
 21
255.6
 31
0.0
  0
LINE
  5
4A
330
1E
100
AcDbEntity
  8
0
100
AcDbLine
 10
3.188500000000009
 20
259.0
 30
0.0
 11
5.188500000000009
 21
257.0
 31
0.0
  0
LINE
  5
4B
330
1E
100
AcDbEntity
  8
0
100
AcDbLine
 10
1.68850000000001
 20
262.0
 30
0.0
 11
3.188500000000009
 21
259.0
 31
0.0
  0
LINE
  5
4C
330
1E
100
AcDbEntity
  8
0
100
AcDbLine
 10
0.188500000000013
 20
277.0
 30
0.0
 11
1.188500000000009
 21
278.0
 31
0.0
  0
LINE
  5
4D
330
1E
100
AcDbEntity
  8
0
100
AcDbLine
 10
0.188500000000013
 20
277.0
 30
0.0
 11
0.7677610000000131
 21
277.0
 31
0.0
  0
LINE
  5
4E
330
1E
100
AcDbEntity
  8
0
100
AcDbLine
 10
0.7677610000000131
 20
277.0
 30
0.0
 11
2.466070000000009
 21
277.0
 31
0.0
  0
LINE
  5
4F
330
1E
100
AcDbEntity
  8
0
100
AcDbLine
 10
5.167690000000009
 20
277.0
 30
0.0
 11
8.68850000000001
 21
277.0
 31
0.0
  0
LINE
  5
50
330
1E
100
AcDbEntity
  8
0
100
AcDbLine
 10
2.466070000000009
 20
277.0
 30
0.0
 11
5.167690000000009
 21
277.0
 31
0.0
  0
LINE
  5
51
330
1E
100
AcDbEntity
  8
0
100
AcDbLine
 10
2.466070000000009
 20
277.0
 30
0.0
 11
5.167690000000009
 21
277.0
 31
0.0
  0
LINE
  5
54
330
1E
100
AcDbEntity
  8
0
100
AcDbLine
 10
17.1885
 20
277.0
 30
0.0
 11
109.9885
 21
277.0
 31
0.0
  0
LINE
  5
55
330
1E
100
AcDbEntity
  8
0
100
AcDbLine
 10
17.1885
 20
277.0
 30
0.0
 11
109.9885
 21
277.0
 31
0.0
  0
LINE
  5
56
330
1E
100
AcDbEntity
  8
0
100
AcDbLine
 10
12.7886
 20
277.0
 30
0.0
 11
17.1885
 21
277.0
 31
0.0
  0
LINE
  5
57
330
1E
100
AcDbEntity
  8
0
100
AcDbLine
 10
8.68850000000001
 20
277.0
 30
0.0
 11
12.7886
 21
277.0
 31
0.0
  0
LINE
  5
58
330
1E
100
AcDbEntity
  8
0
100
AcDbLine
 10
1.188500000000009
 20
278.0
 30
0.0
 11
1.73369000000001
 21
278.0
 31
0.0
  0
LINE
  5
59
330
1E
100
AcDbEntity
  8
0
100
AcDbLine
 10
1.73369000000001
 20
278.0
 30
0.0
 11
3.332090000000009
 21
278.0
 31
0.0
  0
LINE
  5
5A
330
1E
100
AcDbEntity
  8
0
100
AcDbLine
 10
5.874790000000009
 20
278.0
 30
0.0
 11
9.18850000000001
 21
278.0
 31
0.0
  0
LINE
  5
5B
330
1E
100
AcDbEntity
  8
0
100
AcDbLine
 10
3.332090000000009
 20
278.0
 30
0.0
 11
5.874790000000009
 21
278.0
 31
0.0
  0
LINE
  5
5C
330
1E
100
AcDbEntity
  8
0
100
AcDbLine
 10
17.1885
 20
278.0
 30
0.0
 11
116.2884999999999
 21
278.0
 31
0.0
  0
LINE
  5
5D
330
1E
100
AcDbEntity
  8
0
100
AcDbLine
 10
104.1885
 20
278.0
 30
0.0
 11
104.1885
 21
280.0
 31
0.0
  0
LINE
  5
5E
330
1E
100
AcDbEntity
  8
0
100
AcDbLine
 10
17.1885
 20
278.0
 30
0.0
 11
116.2884999999999
 21
278.0
 31
0.0
  0
LINE
  5
6E
330
1E
100
AcDbEntity
  8
0
100
AcDbLine
 10
57.2885
 20
312.0
 30
0.0
 11
58.3885
 21
312.0
 31
0.0
  0
LINE
  5
6F
330
1E
100
AcDbEntity
  8
0
100
AcDbLine
 10
56.3885
 20
312.0
 30
0.0
 11
57.2885
 21
312.0
 31
0.0
  0
LINE
  5
70
330
1E
100
AcDbEntity
  8
0
100
AcDbLine
 10
55.7885
 20
312.0
 30
0.0
 11
56.3885
 21
312.0
 31
0.0
  0
LINE
  5
71
330
1E
100
AcDbEntity
  8
0
100
AcDbLine
 10
55.6885
 20
312.0
 30
0.0
 11
55.7885
 21
312.0
 31
0.0
  0
LINE
  5
72
330
1E
100
AcDbEntity
  8
0
100
AcDbLine
 10
97.6885
 20
312.0
 30
0.0
 11
99.1885
 21
312.0
 31
0.0
  0
LINE
  5
73
330
1E
100
AcDbEntity
  8
0
100
AcDbLine
 10
99.1885
 20
312.0
 30
0.0
 11
100.4885
 21
312.0
 31
0.0
  0
LINE
  5
74
330
1E
100
AcDbEntity
  8
0
100
AcDbLine
 10
100.4885
 20
312.0
 30
0.0
 11
101.5884999999999
 21
312.0
 31
0.0
  0
LINE
  5
75
330
1E
100
AcDbEntity
  8
0
100
AcDbLine
 10
101.5884999999999
 20
312.0
 30
0.0
 11
102.4885
 21
312.0
 31
0.0
  0
LINE
  5
76
330
1E
100
AcDbEntity
  8
0
100
AcDbLine
 10
102.4885
 20
312.0
 30
0.0
 11
103.0885
 21
312.0
 31
0.0
  0
LINE
  5
77
330
1E
100
AcDbEntity
  8
0
100
AcDbLine
 10
59.68849999999999
 20
312.0
 30
0.0
 11
61.1885
 21
312.0
 31
0.0
  0
LINE
  5
78
330
1E
100
AcDbEntity
  8
0
100
AcDbLine
 10
58.3885
 20
312.0
 30
0.0
 11
59.68849999999999
 21
312.0
 31
0.0
  0
LINE
  5
79
330
1E
100
AcDbEntity
  8
0
100
AcDbLine
 10
61.1885
 20
312.0
 30
0.0
 11
101.1885
 21
312.0
 31
0.0
  0
LINE
  5
7A
330
1E
100
AcDbEntity
  8
0
100
AcDbLine
 10
101.1885
 20
312.0
 30
0.0
 11
103.1885
 21
312.0
 31
0.0
  0
LINE
  5
7B
330
1E
100
AcDbEntity
  8
0
100
AcDbLine
 10
101.1885
 20
312.0
 30
0.0
 11
103.1885
 21
312.0
 31
0.0
  0
LINE
  5
7C
330
1E
100
AcDbEntity
  8
0
100
AcDbLine
 10
57.3885
 20
312.0
 30
0.0
 11
61.1885
 21
312.0
 31
0.0
  0
LINE
  5
7D
330
1E
100
AcDbEntity
  8
0
100
AcDbLine
 10
53.8885
 20
312.0
 30
0.0
 11
57.3885
 21
312.0
 31
0.0
  0
LINE
  5
7E
330
1E
100
AcDbEntity
  8
0
100
AcDbLine
 10
50.8885
 20
312.0
 30
0.0
 11
53.8885
 21
312.0
 31
0.0
  0
LINE
  5
7F
330
1E
100
AcDbEntity
  8
0
100
AcDbLine
 10
48.5885
 20
312.0
 30
0.0
 11
50.8885
 21
312.0
 31
0.0
  0
LINE
  5
80
330
1E
100
AcDbEntity
  8
0
100
AcDbLine
 10
47.18849999999999
 20
312.0
 30
0.0
 11
48.5885
 21
312.0
 31
0.0
  0
LINE
  5
81
330
1E
100
AcDbEntity
  8
0
100
AcDbLine
 10
46.1885
 20
319.5
 30
0.0
 11
46.1885
 21
312.5
 31
0.0
  0
LINE
  5
83
330
1E
100
AcDbEntity
  8
0
100
AcDbLine
 10
46.1885
 20
319.5
 30
0.0
 11
46.68849999999999
 21
320.0
 31
0.0
  0
LINE
  5
8A
330
1E
100
AcDbEntity
  8
0
100
AcDbLine
 10
46.68849999999999
 20
320.0
 30
0.0
 11
47.18849999999999
 21
320.0
 31
0.0
  0
LINE
  5
90
330
1E
100
AcDbEntity
  8
0
100
AcDbLine
 10
61.1885
 20
320.0
 30
0.0
 11
101.1885
 21
320.0
 31
0.0
  0
LINE
  5
91
330
1E
100
AcDbEntity
  8
0
100
AcDbLine
 10
61.1885
 20
320.0
 30
0.0
 11
97.6885
 21
320.0
 31
0.0
  0
LINE
  5
92
330
1E
100
AcDbEntity
  8
0
100
AcDbLine
 10
101.1885
 20
320.0
 30
0.0
 11
104.3884999999999
 21
320.0
 31
0.0
  0
LINE
  5
93
330
1E
100
AcDbEntity
  8
0
100
AcDbLine
 10
57.3885
 20
320.0
 30
0.0
 11
61.1885
 21
320.0
 31
0.0
  0
LINE
  5
94
330
1E
100
AcDbEntity
  8
0
100
AcDbLine
 10
53.8885
 20
320.0
 30
0.0
 11
57.3885
 21
320.0
 31
0.0
  0
LINE
  5
95
330
1E
100
AcDbEntity
  8
0
100
AcDbLine
 10
50.8885
 20
320.0
 30
0.0
 11
53.8885
 21
320.0
 31
0.0
  0
LINE
  5
96
330
1E
100
AcDbEntity
  8
0
100
AcDbLine
 10
48.5885
 20
320.0
 30
0.0
 11
50.8885
 21
320.0
 31
0.0
  0
LINE
  5
97
330
1E
100
AcDbEntity
  8
0
100
AcDbLine
 10
47.18849999999999
 20
320.0
 30
0.0
 11
48.5885
 21
320.0
 31
0.0
  0
LINE
  5
9B
330
1E
100
AcDbEntity
  8
0
100
AcDbLine
 10
46.1885
 20
312.5
 30
0.0
 11
46.68849999999999
 21
312.0
 31
0.0
  0
LINE
  5
9D
330
1E
100
AcDbEntity
  8
0
100
AcDbLine
 10
46.1885
 20
312.5
 30
0.0
 11
46.1885
 21
319.5
 31
0.0
  0
LINE
  5
9E
330
1E
100
AcDbEntity
  8
0
100
AcDbLine
 10
46.68849999999999
 20
312.0
 30
0.0
 11
47.18849999999999
 21
312.0
 31
0.0
  0
LINE
  5
C6
330
1E
100
AcDbEntity
  8
0
100
AcDbLine
 10
103.1885
 20
292.085
 30
0.0
 11
103.1885
 21
312.0
 31
0.0
  0
LINE
  5
C7
330
1E
100
AcDbEntity
  8
0
100
AcDbLine
 10
103.1885
 20
292.085
 30
0.0
 11
103.1885
 21
280.0
 31
0.0
  0
LINE
  5
C8
330
1E
100
AcDbEntity
  8
0
100
AcDbLine
 10
103.1885
 20
312.0
 30
0.0
 11
103.1885
 21
292.085
 31
0.0
  0
LINE
  5
CA
330
1E
100
AcDbEntity
  8
0
100
AcDbLine
 10
104.1885
 20
280.0
 30
0.0
 11
104.1885
 21
278.0
 31
0.0
  0
LINE
  5
CC
330
1E
100
AcDbEntity
  8
0
100
AcDbLine
 10
104.0885
 20
280.0
 30
0.0
 11
106.4885
 21
280.0
 31
0.0
  0
LINE
  5
CD
330
1E
100
AcDbEntity
  8
0
100
AcDbLine
 10
104.0885
 20
280.0
 30
0.0
 11
104.1885
 21
280.0
 31
0.0
  0
LINE
  5
CE
330
1E
100
AcDbEntity
  8
0
100
AcDbLine
 10
103.1885
 20
280.0
 30
0.0
 11
104.0885
 21
280.0
 31
0.0
  0
LINE
  5
CF
330
1E
100
AcDbEntity
  8
0
100
AcDbLine
 10
103.1885
 20
280.0
 30
0.0
 11
103.1885
 21
292.085
 31
0.0
  0
LINE
  5
D0
330
1E
100
AcDbEntity
  8
0
100
AcDbLine
 10
103.0885
 20
312.0
 30
0.0
 11
103.1885
 21
312.0
 31
0.0
  0
LINE
  5
D2
330
1E
100
AcDbEntity
  8
0
100
AcDbLine
 10
106.4885
 20
280.0
 30
0.0
 11
110.4885
 21
280.0
 31
0.0
  0
LINE
  5
D3
330
1E
100
AcDbEntity
  8
0
100
AcDbLine
 10
110.4885
 20
280.0
 30
0.0
 11
115.7885
 21
280.0
 31
0.0
  0
LINE
  5
D6
330
1E
100
AcDbEntity
  8
0
100
AcDbLine
 10
104.3884999999999
 20
320.0
 30
0.0
 11
107.6885
 21
320.0
 31
0.0
  0
LINE
  5
D8
330
1E
100
AcDbEntity
  8
0
100
AcDbLine
 10
107.6885
 20
320.0
 30
0.0
 11
110.8884999999999
 21
320.0
 31
0.0
  0
LINE
  5
DF
330
1E
100
AcDbEntity
  8
0
100
AcDbLine
 10
13.0474
 20
278.0
 30
0.0
 11
17.1885
 21
278.0
 31
0.0
  0
LINE
  5
E0
330
1E
100
AcDbEntity
  8
0
100
AcDbLine
 10
9.18850000000001
 20
278.0
 30
0.0
 11
13.0474
 21
278.0
 31
0.0
  0
LINE
  5
E1
330
1E
100
AcDbEntity
  8
0
100
AcDbLine
 10
109.9885
 20
277.0
 30
0.0
 11
110.4885
 21
277.0
 31
0.0
  0
LINE
  5
E3
330
1E
100
AcDbEntity
  8
0
100
AcDbLine
 10
110.8884999999999
 20
320.0
 30
0.0
 11
115.9885
 21
320.0
 31
0.0
  0
LINE
  5
E4
330
1E
100
AcDbEntity
  8
0
100
AcDbLine
 10
110.4885
 20
277.0
 30
0.0
 11
115.7885
 21
277.0
 31
0.0
  0
LINE
  5
E5
330
1E
100
AcDbEntity
  8
0
100
AcDbLine
 10
0.688500000000013
 20
267.0
 30
0.0
 11
1.68850000000001
 21
262.0
 31
0.0
  0
LINE
  5
E6
330
1E
100
AcDbEntity
  8
0
100
AcDbLine
 10
0.188500000000013
 20
277.0
 30
0.0
 11
1.188500000000009
 21
278.0
 31
0.0
  0
LINE
  5
E7
330
1E
100
AcDbEntity
  8
0
100
AcDbLine
 10
0.188500000000013
 20
277.0
 30
0.0
 11
0.7677610000000131
 21
277.0
 31
0.0
  0
LINE
  5
E8
330
1E
100
AcDbEntity
  8
0
100
AcDbLine
 10
110.4885
 20
-0.0000000000000023
 30
0.0
 11
115.7885
 21
-0.0000000000000026
 31
0.0
  0
LINE
  5
E9
330
1E
100
AcDbEntity
  8
0
100
AcDbLine
 10
153.1885
 20
-0.0000000000000049
 30
0.0
 11
153.1885
 21
42.96780184831489
 31
0.0
  0
LINE
  5
EA
330
1E
100
AcDbEntity
  8
0
100
AcDbLine
 10
115.7885
 20
277.0
 30
0.0
 11
121.7885
 21
277.0
 31
0.0
  0
LINE
  5
EB
330
1E
100
AcDbEntity
  8
0
100
AcDbLine
 10
121.7885
 20
277.0
 30
0.0
 11
128.1885
 21
277.0
 31
0.0
  0
LINE
  5
EC
330
1E
100
AcDbEntity
  8
0
100
AcDbLine
 10
121.7885
 20
-0.0000000000000029
 30
0.0
 11
128.1885
 21
-0.0000000000000033
 31
0.0
  0
LINE
  5
ED
330
1E
100
AcDbEntity
  8
0
100
AcDbLine
 10
116.2884999999999
 20
278.0
 30
0.0
 11
121.9885
 21
278.0
 31
0.0
  0
LINE
  5
F1
330
1E
100
AcDbEntity
  8
0
100
AcDbLine
 10
115.7885
 20
280.0
 30
0.0
 11
121.7885
 21
280.0
 31
0.0
  0
LINE
  5
F4
330
1E
100
AcDbEntity
  8
0
100
AcDbLine
 10
121.7885
 20
280.0
 30
0.0
 11
128.1885
 21
280.0
 31
0.0
  0
LINE
  5
F5
330
1E
100
AcDbEntity
  8
0
100
AcDbLine
 10
115.9885
 20
320.0
 30
0.0
 11
121.8884999999999
 21
320.0
 31
0.0
  0
LINE
  5
F6
330
1E
100
AcDbEntity
  8
0
100
AcDbLine
 10
121.8884999999999
 20
320.0
 30
0.0
 11
128.1885
 21
320.0
 31
0.0
  0
LINE
  5
F7
330
1E
100
AcDbEntity
  8
0
100
AcDbLine
 10
121.9885
 20
278.0
 30
0.0
 11
128.1885
 21
278.0
 31
0.0
  0
LINE
  5
F8
330
1E
100
AcDbEntity
  8
0
100
AcDbLine
 10
128.1885
 20
278.0
 30
0.0
 11
134.3884999999999
 21
278.0
 31
0.0
  0
LINE
  5
F9
330
1E
100
AcDbEntity
  8
0
100
AcDbLine
 10
128.1885
 20
277.0
 30
0.0
 11
134.5885
 21
277.0
 31
0.0
  0
LINE
  5
FA
330
1E
100
AcDbEntity
  8
0
100
AcDbLine
 10
128.1885
 20
320.0
 30
0.0
 11
134.4884999999999
 21
320.0
 31
0.0
  0
LINE
  5
FC
330
1E
100
AcDbEntity
  8
0
100
AcDbLine
 10
134.4884999999999
 20
320.0
 30
0.0
 11
140.3885
 21
320.0
 31
0.0
  0
LINE
  5
FD
330
1E
100
AcDbEntity
  8
0
100
AcDbLine
 10
134.5844999999999
 20
281.822
 30
0.0
 11
140.6305
 21
283.4889999999999
 31
0.0
  0
LINE
  5
FE
330
1E
100
AcDbEntity
  8
0
100
AcDbLine
 10
128.1885
 20
280.0
 30
0.0
 11
134.5844999999999
 21
281.822
 31
0.0
  0
LINE
  5
FF
330
1E
100
AcDbEntity
  8
0
100
AcDbLine
 10
134.3884999999999
 20
278.0
 30
0.0
 11
140.0885
 21
278.0
 31
0.0
  0
LINE
  5
100
330
1E
100
AcDbEntity
  8
0
100
AcDbLine
 10
145.8884999999999
 20
277.0
 30
0.0
 11
149.8885
 21
277.0
 31
0.0
  0
LINE
  5
101
330
1E
100
AcDbEntity
  8
0
100
AcDbLine
 10
140.5885
 20
277.0
 30
0.0
 11
145.8884999999999
 21
277.0
 31
0.0
  0
LINE
  5
103
330
1E
100
AcDbEntity
  8
0
100
AcDbLine
 10
145.0885
 20
278.0
 30
0.0
 11
148.9884999999999
 21
278.0
 31
0.0
  0
LINE
  5
104
330
1E
100
AcDbEntity
  8
0
100
AcDbLine
 10
140.6305
 20
283.4889999999999
 30
0.0
 11
145.8675
 21
284.966
 31
0.0
  0
LINE
  5
105
330
1E
100
AcDbEntity
  8
0
100
AcDbLine
 10
140.3885
 20
320.0
 30
0.0
 11
145.4884999999999
 21
320.0
 31
0.0
  0
LINE
  5
107
330
1E
100
AcDbEntity
  8
0
100
AcDbLine
 10
145.4884999999999
 20
320.0
 30
0.0
 11
149.3884999999999
 21
320.0
 31
0.0
  0
LINE
  5
108
330
1E
100
AcDbEntity
  8
0
100
AcDbLine
 10
149.3884999999999
 20
320.0
 30
0.0
 11
151.7884999999999
 21
320.0
 31
0.0
  0
LINE
  5
10A
330
1E
100
AcDbEntity
  8
0
100
AcDbLine
 10
145.8675
 20
284.966
 30
0.0
 11
149.8665
 21
286.061
 31
0.0
  0
LINE
  5
10B
330
1E
100
AcDbEntity
  8
0
100
AcDbLine
 10
149.8665
 20
286.061
 30
0.0
 11
152.2944999999999
 21
286.776
 31
0.0
  0
LINE
  5
10C
330
1E
100
AcDbEntity
  8
0
100
AcDbLine
 10
148.9884999999999
 20
278.0
 30
0.0
 11
151.2884999999999
 21
278.0
 31
0.0
  0
LINE
  5
10D
330
1E
100
AcDbEntity
  8
0
100
AcDbLine
 10
140.0885
 20
278.0
 30
0.0
 11
145.0885
 21
278.0
 31
0.0
  0
LINE
  5
10E
330
1E
100
AcDbEntity
  8
0
100
AcDbLine
 10
134.5885
 20
277.0
 30
0.0
 11
140.5885
 21
277.0
 31
0.0
  0
LINE
  5
10F
330
1E
100
AcDbEntity
  8
0
100
AcDbLine
 10
134.5885
 20
-0.0000000000000037
 30
0.0
 11
140.5885
 21
-0.0000000000000041
 31
0.0
  0
LINE
  5
110
330
1E
100
AcDbEntity
  8
0
100
AcDbLine
 10
140.5885
 20
-0.0000000000000041
 30
0.0
 11
145.8884999999999
 21
-0.0000000000000044
 31
0.0
  0
LINE
  5
111
330
1E
100
AcDbEntity
  8
0
100
AcDbLine
 10
128.1885
 20
-0.0000000000000033
 30
0.0
 11
134.5885
 21
-0.0000000000000037
 31
0.0
  0
LINE
  5
112
330
1E
100
AcDbEntity
  8
0
100
AcDbLine
 10
145.8884999999999
 20
-0.0000000000000044
 30
0.0
 11
149.8885
 21
-0.0000000000000047
 31
0.0
  0
LINE
  5
113
330
1E
100
AcDbEntity
  8
0
100
AcDbLine
 10
153.1885
 20
42.91288857846669
 30
0.0
 11
156.79253789077
 21
49.166630543949
 31
0.0
  0
LINE
  5
115
330
1E
100
AcDbEntity
  8
0
100
AcDbLine
 10
153.1885
 20
52.59519461641989
 30
0.0
 11
153.2224999999999
 21
52.6402
 31
0.0
  0
LINE
  5
117
330
1E
100
AcDbEntity
  8
0
100
AcDbLine
 10
149.8885
 20
277.0
 30
0.0
 11
152.2885
 21
277.0
 31
0.0
  0
LINE
  5
118
330
1E
100
AcDbEntity
  8
0
100
AcDbLine
 10
152.2885
 20
277.0
 30
0.0
 11
153.1885
 21
277.0
 31
0.0
  0
LINE
  5
119
330
1E
100
AcDbEntity
  8
0
100
AcDbLine
 10
153.1885
 20
52.34432514220708
 30
0.0
 11
153.1885
 21
277.0
 31
0.0
  0
LINE
  5
11E
330
1E
100
AcDbEntity
  8
0
100
AcDbLine
 10
171.8085
 20
49.3484
 30
0.0
 11
171.8095
 21
49.15659999999999
 31
0.0
  0
LINE
  5
11F
330
1E
100
AcDbEntity
  8
0
100
AcDbLine
 10
171.8085
 20
49.3484
 30
0.0
 11
171.8085
 21
49.8917
 31
0.0
  0
LINE
  5
120
330
1E
100
AcDbEntity
  8
0
100
AcDbLine
 10
156.8095
 20
49.1567
 30
0.0
 11
171.8095
 21
49.15659999999999
 31
0.0
  0
LINE
  5
121
330
1E
100
AcDbEntity
  8
0
100
AcDbLine
 10
171.8095
 20
49.15659999999999
 30
0.0
 11
171.8104999999999
 21
49.3453
 31
0.0
  0
LINE
  5
122
330
1E
100
AcDbEntity
  8
0
100
AcDbLine
 10
171.8104999999999
 20
49.3453
 30
0.0
 11
171.8115
 21
49.886
 31
0.0
  0
LINE
  5
123
330
1E
100
AcDbEntity
  8
0
100
AcDbLine
 10
171.8085
 20
49.8917
 30
0.0
 11
171.8085
 21
49.3484
 31
0.0
  0
LINE
  5
124
330
1E
100
AcDbEntity
  8
0
100
AcDbLine
 10
171.8115
 20
49.886
 30
0.0
 11
171.8115
 21
50.6962
 31
0.0
  0
LINE
  5
125
330
1E
100
AcDbEntity
  8
0
100
AcDbLine
 10
153.2224999999999
 20
52.6402
 30
0.0
 11
153.9864999999999
 21
53.2833
 31
0.0
  0
LINE
  5
126
330
1E
100
AcDbEntity
  8
0
100
AcDbLine
 10
171.8074999999999
 20
50.7035
 30
0.0
 11
171.8085
 21
49.8917
 31
0.0
  0
LINE
  5
127
330
1E
100
AcDbEntity
  8
0
100
AcDbLine
 10
171.8074999999999
 20
50.7035
 30
0.0
 11
171.8074999999999
 21
51.6606
 31
0.0
  0
LINE
  5
128
330
1E
100
AcDbEntity
  8
0
100
AcDbLine
 10
171.8115
 20
50.6962
 30
0.0
 11
171.8115
 21
51.65259999999999
 31
0.0
  0
LINE
  5
129
330
1E
100
AcDbEntity
  8
0
100
AcDbLine
 10
171.8115
 20
50.6962
 30
0.0
 11
171.8115
 21
49.886
 31
0.0
  0
LINE
  5
12A
330
1E
100
AcDbEntity
  8
0
100
AcDbLine
 10
171.8074999999999
 20
52.617
 30
0.0
 11
171.8074999999999
 21
51.6606
 31
0.0
  0
LINE
  5
12B
330
1E
100
AcDbEntity
  8
0
100
AcDbLine
 10
171.8074999999999
 20
52.617
 30
0.0
 11
171.8085
 21
53.42719999999999
 31
0.0
  0
LINE
  5
12C
330
1E
100
AcDbEntity
  8
0
100
AcDbLine
 10
171.8085
 20
53.42719999999999
 30
0.0
 11
171.8085
 21
53.9679
 31
0.0
  0
LINE
  5
12D
330
1E
100
AcDbEntity
  8
0
100
AcDbLine
 10
171.8115
 20
53.4215
 30
0.0
 11
171.8115
 21
52.6097
 31
0.0
  0
LINE
  5
12E
330
1E
100
AcDbEntity
  8
0
100
AcDbLine
 10
171.8074999999999
 20
51.6606
 30
0.0
 11
171.8074999999999
 21
50.7035
 31
0.0
  0
LINE
  5
12F
330
1E
100
AcDbEntity
  8
0
100
AcDbLine
 10
171.8074999999999
 20
51.6606
 30
0.0
 11
171.8074999999999
 21
52.617
 31
0.0
  0
LINE
  5
130
330
1E
100
AcDbEntity
  8
0
100
AcDbLine
 10
171.8115
 20
51.65259999999999
 30
0.0
 11
171.8115
 21
52.6097
 31
0.0
  0
LINE
  5
131
330
1E
100
AcDbEntity
  8
0
100
AcDbLine
 10
171.8115
 20
51.65259999999999
 30
0.0
 11
171.8115
 21
50.6962
 31
0.0
  0
LINE
  5
132
330
1E
100
AcDbEntity
  8
0
100
AcDbLine
 10
171.8115
 20
52.6097
 30
0.0
 11
171.8115
 21
53.4215
 31
0.0
  0
LINE
  5
133
330
1E
100
AcDbEntity
  8
0
100
AcDbLine
 10
171.8115
 20
52.6097
 30
0.0
 11
171.8115
 21
51.65259999999999
 31
0.0
  0
LINE
  5
134
330
1E
100
AcDbEntity
  8
0
100
AcDbLine
 10
171.8085
 20
53.9679
 30
0.0
 11
171.8085
 21
53.42719999999999
 31
0.0
  0
LINE
  5
135
330
1E
100
AcDbEntity
  8
0
100
AcDbLine
 10
171.8085
 20
53.9679
 30
0.0
 11
171.8095
 21
54.15659999999999
 31
0.0
  0
LINE
  5
136
330
1E
100
AcDbEntity
  8
0
100
AcDbLine
 10
171.8104999999999
 20
53.9648
 30
0.0
 11
171.8115
 21
53.4215
 31
0.0
  0
LINE
  5
137
330
1E
100
AcDbEntity
  8
0
100
AcDbLine
 10
171.8095
 20
54.15659999999999
 30
0.0
 11
171.8104999999999
 21
53.9648
 31
0.0
  0
LINE
  5
138
330
1E
100
AcDbEntity
  8
0
100
AcDbLine
 10
156.8095
 20
54.15659999999999
 30
0.0
 11
171.8095
 21
54.15659999999999
 31
0.0
  0
LINE
  5
139
330
1E
100
AcDbEntity
  8
0
100
AcDbLine
 10
155.8164999999999
 20
54.05699999999999
 30
0.0
 11
156.8095
 21
54.15659999999999
 31
0.0
  0
LINE
  5
13A
330
1E
100
AcDbEntity
  8
0
100
AcDbLine
 10
154.8625
 20
53.762
 30
0.0
 11
155.8164999999999
 21
54.05699999999999
 31
0.0
  0
LINE
  5
13B
330
1E
100
AcDbEntity
  8
0
100
AcDbLine
 10
153.9864999999999
 20
53.2833
 30
0.0
 11
154.8625
 21
53.762
 31
0.0
  0
LINE
  5
13F
330
1E
100
AcDbEntity
  8
0
100
AcDbLine
 10
153.1885
 20
42.96780184831489
 30
0.0
 11
153.1885
 21
0.0
 31
0.0
  0
LINE
  5
140
330
1E
100
AcDbEntity
  8
0
100
AcDbLine
 10
152.1885
 20
280.0
 30
0.0
 11
152.1885
 21
278.0
 31
0.0
  0
LINE
  5
141
330
1E
100
AcDbEntity
  8
0
100
AcDbLine
 10
151.6885
 20
283.4999999999999
 30
0.0
 11
152.1885
 21
280.0
 31
0.0
  0
LINE
  5
142
330
1E
100
AcDbEntity
  8
0
100
AcDbLine
 10
150.9672150666539
 20
286.3851397333839
 30
0.0
 11
152.2944999999999
 21
286.776
 31
0.0
  0
LINE
  5
143
330
1E
100
AcDbEntity
  8
0
100
AcDbLine
 10
150.9672150666539
 20
286.3851397333839
 30
0.0
 11
151.6885
 21
283.4999999999999
 31
0.0
  0
LINE
  5
144
330
1E
100
AcDbEntity
  8
0
100
AcDbLine
 10
151.7884999999999
 20
320.0
 30
0.0
 11
152.6885
 21
320.0
 31
0.0
  0
LINE
  5
146
330
1E
100
AcDbEntity
  8
0
100
AcDbLine
 10
151.2884999999999
 20
278.0
 30
0.0
 11
152.1885
 21
278.0
 31
0.0
  0
LINE
  5
147
330
1E
100
AcDbEntity
  8
0
100
AcDbLine
 10
153.1885
 20
319.5
 30
0.0
 11
153.1885
 21
287.0
 31
0.0
  0
LINE
  5
148
330
1E
100
AcDbEntity
  8
0
100
AcDbLine
 10
152.6885
 20
320.0
 30
0.0
 11
153.1885
 21
319.5
 31
0.0
  0
LINE
  5
149
330
1E
100
AcDbEntity
  8
0
100
AcDbLine
 10
153.1885
 20
287.0
 30
0.0
 11
153.1885
 21
319.5
 31
0.0
  0
LINE
  5
14B
330
1E
100
AcDbEntity
  8
0
100
AcDbLine
 10
152.2944999999999
 20
286.776
 30
0.0
 11
153.1885
 21
287.0
 31
0.0
  0
LINE
  5
14C
330
1E
100
AcDbEntity
  8
0
100
AcDbLine
 10
152.1885
 20
278.0
 30
0.0
 11
153.1885
 21
277.0
 31
0.0
  0
LINE
  5
14D
330
1E
100
AcDbEntity
  8
0
100
AcDbLine
 10
152.1885
 20
278.0
 30
0.0
 11
152.1885
 21
280.0
 31
0.0
  0
LINE
  5
14E
330
1E
100
AcDbEntity
  8
0
100
AcDbLine
 10
153.1885
 20
277.0
 30
0.0
 11
153.1885
 21
210.344325142207
 31
0.0
  0
LINE
  5
14F
330
1E
100
AcDbEntity
  8
0
100
AcDbLine
 10
149.8885
 20
-0.0000000000000047
 30
0.0
 11
152.2885
 21
-0.0000000000000048
 31
0.0
  0
LINE
  5
150
330
1E
100
AcDbEntity
  8
0
100
AcDbLine
 10
152.2885
 20
-0.0000000000000048
 30
0.0
 11
153.1885
 21
-0.0000000000000049
 31
0.0
  0
LINE
  5
151
330
1E
100
AcDbEntity
  8
0
100
AcDbLine
 10
115.7885
 20
-0.0000000000000026
 30
0.0
 11
121.7885
 21
-0.0000000000000029
 31
0.0
  0
LINE
  5
156
330
1E
100
AcDbEntity
  8
0
100
AcDbLine
 10
32.9026356860263
 20
254.0
 30
0.0
 11
8.75919334543358
 21
255.2864458530959
 31
0.0
  0
LINE
  5
157
330
1E
100
AcDbEntity
  8
0
100
AcDbLine
 10
153.1885
 20
42.91288857846669
 30
0.0
 11
153.1885
 21
52.3443251422071
 31
0.0
  0
ENDSEC
  0
SECTION
  2
OBJECTS
  0
DICTIONARY
  5
C
330
0
100
AcDbDictionary
  3
ACAD_GROUP
350
D
  3
ACAD_LAYOUT
350
19
  3
ACAD_MLINESTYLE
350
16
  3
ACAD_PLOTSETTINGS
350
18
  3
ACAD_PLOTSTYLENAME
350
E
  3
ACDBHEADERROUNDTRIPXREC
350
214
  3
ACDBVARIABLEDICTIONARY
350
158
  0
DICTIONARY
  5
236
330
1E
100
AcDbDictionary
280
     1
  3
ACAD_LAYOUTSELFREF
360
237
  0
DICTIONARY
  5
234
330
1A
100
AcDbDictionary
280
     1
  3
ACAD_LAYOUTSELFREF
360
235
  0
DICTIONARY
  5
D
102
{ACAD_REACTORS
330
C
102
}
330
C
100
AcDbDictionary
  0
DICTIONARY
  5
19
102
{ACAD_REACTORS
330
C
102
}
330
C
100
AcDbDictionary
  0
DICTIONARY
  5
16
102
{ACAD_REACTORS
330
C
102
}
330
C
100
AcDbDictionary
  3
STANDARD
350
17
  0
DICTIONARY
  5
18
102
{ACAD_REACTORS
330
C
102
}
330
C
100
AcDbDictionary
  0
ACDBDICTIONARYWDFLT
  5
E
102
{ACAD_REACTORS
330
C
102
}
330
C
100
AcDbDictionary
281
     1
  3
Normal
350
F
100
AcDbDictionaryWithDefault
340
F
  0
DICTIONARY
  5
214
102
{ACAD_REACTORS
330
C
102
}
330
C
100
AcDbDictionary
  3
CEPSNTYPE
350
21E
  3
FINGERPRINTGUID
350
21F
  3
HYPERLINKBASE
350
217
  3
INSUNITS
350
21D
  3
LAYOUTDICT
350
219
  3
LWETCUNION
350
21C
  3
PLOTSETDICT
350
21A
  3
PLOTSTYLNAMDICT
350
21B
  3
PSVPSCALE
350
221
  3
PUCSBASE
350
224
  3
PUCSORGBACK
350
22A
  3
PUCSORGBOTTOM
350
226
  3
PUCSORGFRONT
350
229
  3
PUCSORGLEFT
350
227
  3
PUCSORGRIGHT
350
228
  3
PUCSORGTOP
350
225
  3
PUCSORTHOREF
350
222
  3
PUCSORTHOVIEW
350
223
  3
STYLESHEET
350
218
  3
TSTACKALIGN
350
215
  3
TSTACKSIZE
350
216
  3
UCSBASE
350
22D
  3
UCSORGBACK
350
233
  3
UCSORGBOTTOM
350
22F
  3
UCSORGFRONT
350
232
  3
UCSORGLEFT
350
230
  3
UCSORGRIGHT
350
231
  3
UCSORGTOP
350
22E
  3
UCSORTHOREF
350
22B
  3
UCSORTHOVIEW
350
22C
  3
VERSIONGUID
350
220
  0
DICTIONARY
  5
158
102
{ACAD_REACTORS
330
C
102
}
330
C
100
AcDbDictionary
  3
DIMASSOC
350
159
  0
XRECORD
  5
237
102
{ACAD_REACTORS
330
236
102
}
330
236
100
AcDbXrecord
340
1E
  0
XRECORD
  5
235
102
{ACAD_REACTORS
330
234
102
}
330
234
100
AcDbXrecord
340
1A
  0
MLINESTYLE
  5
17
102
{ACAD_REACTORS
330
16
102
}
330
16
100
AcDbMlineStyle
  2
STANDARD
 70
     0
  3

 62
   256
 51
90.0
 52
90.0
 71
     2
 49
0.5
 62
   256
  6
BYLAYER
 49
-0.5
 62
   256
  6
BYLAYER
  0
ACDBPLACEHOLDER
  5
F
102
{ACAD_REACTORS
330
E
102
}
330
E
100
AcDbPlaceHolder
280
     0
  0
XRECORD
  5
21E
102
{ACAD_REACTORS
330
214
102
}
330
214
100
AcDbXrecord
 90
        0
  0
XRECORD
  5
21F
102
{ACAD_REACTORS
330
214
102
}
330
214
100
AcDbXrecord
  1
{A463FF5F-69D6-4BBE-BB87-38DB7C177CDD}
  0
XRECORD
  5
217
102
{ACAD_REACTORS
330
214
102
}
330
214
100
AcDbXrecord
  1

  0
XRECORD
  5
21D
102
{ACAD_REACTORS
330
214
102
}
330
214
100
AcDbXrecord
 90
        0
  0
XRECORD
  5
219
102
{ACAD_REACTORS
330
214
102
}
330
214
100
AcDbXrecord
340
19
  0
XRECORD
  5
21C
102
{ACAD_REACTORS
330
214
102
}
330
214
100
AcDbXrecord
 90
    10781
  0
XRECORD
  5
21A
102
{ACAD_REACTORS
330
214
102
}
330
214
100
AcDbXrecord
340
18
  0
XRECORD
  5
21B
102
{ACAD_REACTORS
330
214
102
}
330
214
100
AcDbXrecord
340
E
  0
XRECORD
  5
221
102
{ACAD_REACTORS
330
214
102
}
330
214
100
AcDbXrecord
 40
0.0
  0
XRECORD
  5
224
102
{ACAD_REACTORS
330
214
102
}
330
214
100
AcDbXrecord
340
0
  0
XRECORD
  5
22A
102
{ACAD_REACTORS
330
214
102
}
330
214
100
AcDbXrecord
 10
0.0
 20
0.0
 30
0.0
  0
XRECORD
  5
226
102
{ACAD_REACTORS
330
214
102
}
330
214
100
AcDbXrecord
 10
0.0
 20
0.0
 30
0.0
  0
XRECORD
  5
229
102
{ACAD_REACTORS
330
214
102
}
330
214
100
AcDbXrecord
 10
0.0
 20
0.0
 30
0.0
  0
XRECORD
  5
227
102
{ACAD_REACTORS
330
214
102
}
330
214
100
AcDbXrecord
 10
0.0
 20
0.0
 30
0.0
  0
XRECORD
  5
228
102
{ACAD_REACTORS
330
214
102
}
330
214
100
AcDbXrecord
 10
0.0
 20
0.0
 30
0.0
  0
XRECORD
  5
225
102
{ACAD_REACTORS
330
214
102
}
330
214
100
AcDbXrecord
 10
0.0
 20
0.0
 30
0.0
  0
XRECORD
  5
222
102
{ACAD_REACTORS
330
214
102
}
330
214
100
AcDbXrecord
340
0
  0
XRECORD
  5
223
102
{ACAD_REACTORS
330
214
102
}
330
214
100
AcDbXrecord
 70
     0
  0
XRECORD
  5
218
102
{ACAD_REACTORS
330
214
102
}
330
214
100
AcDbXrecord
  1

  0
XRECORD
  5
215
102
{ACAD_REACTORS
330
214
102
}
330
214
100
AcDbXrecord
 90
        1
  0
XRECORD
  5
216
102
{ACAD_REACTORS
330
214
102
}
330
214
100
AcDbXrecord
 90
       70
  0
XRECORD
  5
22D
102
{ACAD_REACTORS
330
214
102
}
330
214
100
AcDbXrecord
340
0
  0
XRECORD
  5
233
102
{ACAD_REACTORS
330
214
102
}
330
214
100
AcDbXrecord
 10
0.0
 20
0.0
 30
0.0
  0
XRECORD
  5
22F
102
{ACAD_REACTORS
330
214
102
}
330
214
100
AcDbXrecord
 10
0.0
 20
0.0
 30
0.0
  0
XRECORD
  5
232
102
{ACAD_REACTORS
330
214
102
}
330
214
100
AcDbXrecord
 10
0.0
 20
0.0
 30
0.0
  0
XRECORD
  5
230
102
{ACAD_REACTORS
330
214
102
}
330
214
100
AcDbXrecord
 10
0.0
 20
0.0
 30
0.0
  0
XRECORD
  5
231
102
{ACAD_REACTORS
330
214
102
}
330
214
100
AcDbXrecord
 10
0.0
 20
0.0
 30
0.0
  0
XRECORD
  5
22E
102
{ACAD_REACTORS
330
214
102
}
330
214
100
AcDbXrecord
 10
0.0
 20
0.0
 30
0.0
  0
XRECORD
  5
22B
102
{ACAD_REACTORS
330
214
102
}
330
214
100
AcDbXrecord
340
0
  0
XRECORD
  5
22C
102
{ACAD_REACTORS
330
214
102
}
330
214
100
AcDbXrecord
 70
     1
  0
XRECORD
  5
220
102
{ACAD_REACTORS
330
214
102
}
330
214
100
AcDbXrecord
  1
{16AF7CEB-B0CB-4B5C-9826-8193A4CF9B35}
  0
DICTIONARYVAR
  5
159
102
{ACAD_REACTORS
330
158
102
}
330
158
100
DictionaryVariables
280
     0
  1
1
  0
ENDSEC
  0
EOF
