  0
SECTION
  2
HEADER
  9
$ACADVER
  1
AC1015
  9
$ACADMAINTVER
 70
    20
  9
$DWGCODEPAGE
  3
ANSI_1252
  9
$INSBASE
 10
-15115.27811655518
 20
-33917.98964417563
 30
0.0
  9
$EXTMIN
 10
-18644.64289464726
 20
-33637.16099022645
 30
0.0
  9
$EXTMAX
 10
-18535.17227398719
 20
-33578.5544733326
 30
0.0
  9
$LIMMIN
 10
0.0
 20
0.0
  9
$LIMMAX
 10
420.0
 20
297.0
  9
$ORTHOMODE
 70
     0
  9
$REGENMODE
 70
     1
  9
$FILLMODE
 70
     1
  9
$QTEXTMODE
 70
     0
  9
$MIRRTEXT
 70
     0
  9
$LTSCALE
 40
1.0
  9
$ATTMODE
 70
     1
  9
$TEXTSIZE
 40
2.5
  9
$TRACEWID
 40
1.0
  9
$TEXTSTYLE
  7
Standard
  9
$CLAYER
  8
0
  9
$CELTYPE
  6
ByLayer
  9
$CECOLOR
 62
   256
  9
$CELTSCALE
 40
1.0
  9
$DISPSILH
 70
     0
  9
$DIMSCALE
 40
1.0
  9
$DIMASZ
 40
20.0
  9
$DIMEXO
 40
1.0
  9
$DIMDLI
 40
0.38
  9
$DIMRND
 40
0.0
  9
$DIMDLE
 40
0.0
  9
$DIMEXE
 40
2.0
  9
$DIMTP
 40
0.0
  9
$DIMTM
 40
0.0
  9
$DIMTXT
 40
1.0
  9
$DIMCEN
 40
0.09
  9
$DIMTSZ
 40
0.0
  9
$DIMTOL
 70
     0
  9
$DIMLIM
 70
     0
  9
$DIMTIH
 70
     0
  9
$DIMTOH
 70
     0
  9
$DIMSE1
 70
     0
  9
$DIMSE2
 70
     0
  9
$DIMTAD
 70
     1
  9
$DIMZIN
 70
     0
  9
$DIMBLK
  1

  9
$DIMASO
 70
     1
  9
$DIMSHO
 70
     1
  9
$DIMPOST
  1

  9
$DIMAPOST
  1

  9
$DIMALT
 70
     0
  9
$DIMALTD
 70
     2
  9
$DIMALTF
 40
25.4
  9
$DIMLFAC
 40
1.0
  9
$DIMTOFL
 70
     0
  9
$DIMTVP
 40
0.0
  9
$DIMTIX
 70
     0
  9
$DIMSOXD
 70
     0
  9
$DIMSAH
 70
     0
  9
$DIMBLK1
  1

  9
$DIMBLK2
  1

  9
$DIMSTYLE
  2
Standard
  9
$DIMCLRD
 70
     0
  9
$DIMCLRE
 70
     0
  9
$DIMCLRT
 70
     0
  9
$DIMTFAC
 40
1.0
  9
$DIMGAP
 40
3.0
  9
$DIMJUST
 70
     0
  9
$DIMSD1
 70
     0
  9
$DIMSD2
 70
     0
  9
$DIMTOLJ
 70
     1
  9
$DIMTZIN
 70
     0
  9
$DIMALTZ
 70
     0
  9
$DIMALTTZ
 70
     0
  9
$DIMUPT
 70
     1
  9
$DIMDEC
 70
     0
  9
$DIMTDEC
 70
     0
  9
$DIMALTU
 70
     2
  9
$DIMALTTD
 70
     2
  9
$DIMTXSTY
  7
\U+6837\U+5F0F 1
  9
$DIMAUNIT
 70
     0
  9
$DIMADEC
 70
     0
  9
$DIMALTRND
 40
0.0
  9
$DIMAZIN
 70
     0
  9
$DIMDSEP
 70
    46
  9
$DIMATFIT
 70
     3
  9
$DIMFRAC
 70
     0
  9
$DIMLDRBLK
  1

  9
$DIMLUNIT
 70
     2
  9
$DIMLWD
 70
    -2
  9
$DIMLWE
 70
    -2
  9
$DIMTMOVE
 70
     1
  9
$LUNITS
 70
     2
  9
$LUPREC
 70
     4
  9
$SKETCHINC
 40
1.0
  9
$FILLETRAD
 40
2.0
  9
$AUNITS
 70
     0
  9
$AUPREC
 70
     0
  9
$MENU
  1
.
  9
$ELEVATION
 40
0.0
  9
$PELEVATION
 40
0.0
  9
$THICKNESS
 40
0.0
  9
$LIMCHECK
 70
     0
  9
$CHAMFERA
 40
0.0
  9
$CHAMFERB
 40
0.0
  9
$CHAMFERC
 40
0.0
  9
$CHAMFERD
 40
0.0
  9
$SKPOLY
 70
     0
  9
$TDCREATE
 40
2454978.968867361
  9
$TDUCREATE
 40
2454979.302200694
  9
$TDUPDATE
 40
2455167.313195718
  9
$TDUUPDATE
 40
2455167.646529051
  9
$TDINDWG
 40
0.6684008565
  9
$TDUSRTIMER
 40
0.6683818750
  9
$USRTIMER
 70
     1
  9
$ANGBASE
 50
0.0
  9
$ANGDIR
 70
     0
  9
$PDMODE
 70
     0
  9
$PDSIZE
 40
0.0
  9
$PLINEWID
 40
0.0
  9
$SPLFRAME
 70
     0
  9
$SPLINETYPE
 70
     6
  9
$SPLINESEGS
 70
     8
  9
$HANDSEED
  5
7A29
  9
$SURFTAB1
 70
     6
  9
$SURFTAB2
 70
     6
  9
$SURFTYPE
 70
     6
  9
$SURFU
 70
     6
  9
$SURFV
 70
     6
  9
$UCSBASE
  2

  9
$UCSNAME
  2

  9
$UCSORG
 10
0.0
 20
0.0
 30
0.0
  9
$UCSXDIR
 10
1.0
 20
0.0
 30
0.0
  9
$UCSYDIR
 10
0.0
 20
1.0
 30
0.0
  9
$UCSORTHOREF
  2

  9
$UCSORTHOVIEW
 70
     0
  9
$UCSORGTOP
 10
0.0
 20
0.0
 30
0.0
  9
$UCSORGBOTTOM
 10
0.0
 20
0.0
 30
0.0
  9
$UCSORGLEFT
 10
0.0
 20
0.0
 30
0.0
  9
$UCSORGRIGHT
 10
0.0
 20
0.0
 30
0.0
  9
$UCSORGFRONT
 10
0.0
 20
0.0
 30
0.0
  9
$UCSORGBACK
 10
0.0
 20
0.0
 30
0.0
  9
$PUCSBASE
  2

  9
$PUCSNAME
  2

  9
$PUCSORG
 10
0.0
 20
0.0
 30
0.0
  9
$PUCSXDIR
 10
1.0
 20
0.0
 30
0.0
  9
$PUCSYDIR
 10
0.0
 20
1.0
 30
0.0
  9
$PUCSORTHOREF
  2

  9
$PUCSORTHOVIEW
 70
     0
  9
$PUCSORGTOP
 10
0.0
 20
0.0
 30
0.0
  9
$PUCSORGBOTTOM
 10
0.0
 20
0.0
 30
0.0
  9
$PUCSORGLEFT
 10
0.0
 20
0.0
 30
0.0
  9
$PUCSORGRIGHT
 10
0.0
 20
0.0
 30
0.0
  9
$PUCSORGFRONT
 10
0.0
 20
0.0
 30
0.0
  9
$PUCSORGBACK
 10
0.0
 20
0.0
 30
0.0
  9
$USERI1
 70
     0
  9
$USERI2
 70
     0
  9
$USERI3
 70
     0
  9
$USERI4
 70
     0
  9
$USERI5
 70
     0
  9
$USERR1
 40
0.0
  9
$USERR2
 40
0.0
  9
$USERR3
 40
0.0
  9
$USERR4
 40
0.0
  9
$USERR5
 40
0.0
  9
$WORLDVIEW
 70
     1
  9
$SHADEDGE
 70
     3
  9
$SHADEDIF
 70
    70
  9
$TILEMODE
 70
     1
  9
$MAXACTVP
 70
    64
  9
$PINSBASE
 10
0.0
 20
0.0
 30
0.0
  9
$PLIMCHECK
 70
     0
  9
$PEXTMIN
 10
29.0650012254715
 20
20.3649996995926
 30
0.0
  9
$PEXTMAX
 10
261.5850110292434
 20
183.2849972963333
 30
0.0
  9
$PLIMMIN
 10
-3.17498779296875
 20
-3.174999952316284
  9
$PLIMMAX
 10
293.8250122070312
 20
206.8250000476837
  9
$UNITMODE
 70
     0
  9
$VISRETAIN
 70
     1
  9
$PLINEGEN
 70
     0
  9
$PSLTSCALE
 70
     1
  9
$TREEDEPTH
 70
  3020
  9
$CMLSTYLE
  2
Standard
  9
$CMLJUST
 70
     0
  9
$CMLSCALE
 40
20.0
  9
$PROXYGRAPHICS
 70
     1
  9
$MEASUREMENT
 70
     1
  9
$CELWEIGHT
370
    -1
  9
$ENDCAPS
280
     0
  9
$JOINSTYLE
280
     0
  9
$LWDISPLAY
290
     0
  9
$INSUNITS
 70
     4
  9
$HYPERLINKBASE
  1

  9
$STYLESHEET
  1
monochrome.ctb
  9
$XEDIT
290
     1
  9
$CEPSNTYPE
380
     0
  9
$PSTYLEMODE
290
     1
  9
$FINGERPRINTGUID
  2
{FDEAD578-A652-11D2-9A35-0060089B3A3F}
  9
$VERSIONGUID
  2
{02DB3E90-FAF3-43BD-88CB-1214F5AF23AA}
  9
$EXTNAMES
290
     1
  9
$PSVPSCALE
 40
0.0
  9
$OLESTARTUP
290
     0
  0
ENDSEC
  0
SECTION
  2
CLASSES
  0
CLASS
  1
ACDBDICTIONARYWDFLT
  2
AcDbDictionaryWithDefault
  3
ObjectDBX Classes
 90
        0
280
     0
281
     0
  0
CLASS
  1
ACDBPLACEHOLDER
  2
AcDbPlaceHolder
  3
ObjectDBX Classes
 90
        0
280
     0
281
     0
  0
CLASS
  1
LAYOUT
  2
AcDbLayout
  3
ObjectDBX Classes
 90
        0
280
     0
281
     0
  0
CLASS
  1
DICTIONARYVAR
  2
AcDbDictionaryVar
  3
ObjectDBX Classes
 90
        0
280
     0
281
     0
  0
CLASS
  1
DIMASSOC
  2
AcDbDimAssoc
  3
"AcDbDimAssoc|Product Desc:     AcDim ARX App For Dimension|Company:          Autodesk, Inc.|WEB Address:      www.autodesk.com"
 90
    32768
280
     0
281
     0
  0
CLASS
  1
MATERIAL
  2
AcDbMaterial
  3
ObjectDBX Classes
 90
     1024
280
     0
281
     0
  0
CLASS
  1
SORTENTSTABLE
  2
AcDbSortentsTable
  3
ObjectDBX Classes
 90
        0
280
     0
281
     0
  0
CLASS
  1
VISUALSTYLE
  2
AcDbVisualStyle
  3
ObjectDBX Classes
 90
     4095
280
     0
281
     0
  0
CLASS
  1
TABLESTYLE
  2
AcDbTableStyle
  3
ObjectDBX Classes
 90
     4095
280
     0
281
     0
  0
ENDSEC
  0
SECTION
  2
TABLES
  0
TABLE
  2
VPORT
  5
1D
102
{ACAD_XDICTIONARY
360
4B8D
102
}
330
0
100
AcDbSymbolTable
 70
     1
  0
VPORT
  5
4B10
330
1D
100
AcDbSymbolTableRecord
100
AcDbViewportTableRecord
  2
*Active
 70
     0
 10
0.0
 20
0.0
 11
1.0
 21
1.0
 12
-18589.61878447481
 22
-33599.13259919531
 13
0.0
 23
0.0
 14
17.32050807568877
 24
5.0
 15
17.32050807568877
 25
5.0
 16
0.0
 26
0.0
 36
1.0
 17
0.0
 27
0.0
 37
0.0
 40
78.89706921997596
 41
1.974704890387858
 42
50.0
 43
0.0
 44
0.0
 50
0.0
 51
0.0
 71
     0
 72
  1000
 73
     1
 74
     3
 75
     0
 76
     0
 77
     0
 78
     2
281
     0
 65
     1
110
0.0
120
0.0
130
0.0
111
1.0
121
0.0
131
0.0
112
0.0
122
1.0
132
0.0
 79
     0
146
0.0
  0
ENDTAB
  0
TABLE
  2
LTYPE
  5
18
330
0
100
AcDbSymbolTable
 70
     1
  0
LTYPE
  5
19
330
18
100
AcDbSymbolTableRecord
100
AcDbLinetypeTableRecord
  2
ByBlock
 70
     0
  3

 72
    65
 73
     0
 40
0.0
  0
LTYPE
  5
1A
330
18
100
AcDbSymbolTableRecord
100
AcDbLinetypeTableRecord
  2
ByLayer
 70
     0
  3

 72
    65
 73
     0
 40
0.0
  0
LTYPE
  5
8
330
18
100
AcDbSymbolTableRecord
100
AcDbLinetypeTableRecord
  2
Continuous
 70
     0
  3
Solid line
 72
    65
 73
     0
 40
0.0
  0
ENDTAB
  0
TABLE
  2
LAYER
  5
10
102
{ACAD_XDICTIONARY
360
11
102
}
330
0
100
AcDbSymbolTable
 70
     1
  0
LAYER
  5
4
330
10
100
AcDbSymbolTableRecord
100
AcDbLayerTableRecord
  2
0
 70
     0
 62
     7
  6
Continuous
370
    -3
390
5
  0
ENDTAB
  0
TABLE
  2
STYLE
  5
14
330
0
100
AcDbSymbolTable
 70
     2
  0
STYLE
  5
15
330
14
100
AcDbSymbolTableRecord
100
AcDbTextStyleTableRecord
  2
Standard
 70
     0
 40
0.0
 41
1.0
 50
0.0
 71
     0
 42
2.5
  3

  4

1001
ACAD
1000
SimSun
1071
    34306
  0
STYLE
  5
377
330
14
100
AcDbSymbolTableRecord
100
AcDbTextStyleTableRecord
  2
\U+6837\U+5F0F 1
 70
     0
 40
20.0
 41
1.0
 50
0.0
 71
     0
 42
20.0
  3

  4

1001
ACAD
1000
SimSun
1071
    34306
1001
AcadStringInfo
1000
MIFCodePage
1070
     5
  0
ENDTAB
  0
TABLE
  2
VIEW
  5
1B
330
0
100
AcDbSymbolTable
 70
     0
  0
ENDTAB
  0
TABLE
  2
UCS
  5
1C
330
0
100
AcDbSymbolTable
 70
     0
  0
ENDTAB
  0
TABLE
  2
APPID
  5
1F
330
0
100
AcDbSymbolTable
 70
     7
  0
APPID
  5
16
330
1F
100
AcDbSymbolTableRecord
100
AcDbRegAppTableRecord
  2
ACAD
 70
     0
  0
APPID
  5
DD8
330
1F
100
AcDbSymbolTableRecord
100
AcDbRegAppTableRecord
  2
GENIUS_GENBH_13
 70
     0
  0
APPID
  5
32D9
330
1F
100
AcDbSymbolTableRecord
100
AcDbRegAppTableRecord
  2
GENIUS_GENODEF_13
 70
     0
  0
APPID
  5
32DA
330
1F
100
AcDbSymbolTableRecord
100
AcDbRegAppTableRecord
  2
GENIUS_GENOBJ-N-HTC_13
 70
     0
  0
APPID
  5
32DB
330
1F
100
AcDbSymbolTableRecord
100
AcDbRegAppTableRecord
  2
GENIUS_GENHATCH_13
 70
     0
  0
APPID
  5
4B27
330
1F
100
AcDbSymbolTableRecord
100
AcDbRegAppTableRecord
  2
AcadStringInfo
 70
     0
  0
APPID
  5
4D53
330
1F
100
AcDbSymbolTableRecord
100
AcDbRegAppTableRecord
  2
ACAD_PSEXT
 70
     0
  0
ENDTAB
  0
TABLE
  2
DIMSTYLE
  5
20
330
0
100
AcDbSymbolTable
 70
     1
100
AcDbDimStyleTable
 71
     1
340
376
  0
DIMSTYLE
105
376
330
20
100
AcDbSymbolTableRecord
100
AcDbDimStyleTableRecord
  2
Standard
 70
     0
 41
20.0
 42
1.0
 44
2.0
 73
     0
 74
     0
 77
     1
140
1.0
147
3.0
271
     0
272
     0
279
     1
288
     1
340
377
  0
ENDTAB
  0
TABLE
  2
BLOCK_RECORD
  5
1
330
0
100
AcDbSymbolTable
 70
     0
  0
BLOCK_RECORD
  5
2
102
{ACAD_XDICTIONARY
360
7699
102
}
330
1
100
AcDbSymbolTableRecord
100
AcDbBlockTableRecord
  2
*Model_Space
340
A
  0
BLOCK_RECORD
  5
4F25
330
1
100
AcDbSymbolTableRecord
100
AcDbBlockTableRecord
  2
*Paper_Space
340
4F26
  0
ENDTAB
  0
ENDSEC
  0
SECTION
  2
BLOCKS
  0
BLOCK
  5
3
330
2
100
AcDbEntity
  8
0
100
AcDbBlockBegin
  2
*Model_Space
 70
     0
 10
0.0
 20
0.0
 30
0.0
  3
*Model_Space
  1

  0
ENDBLK
  5
9
330
2
100
AcDbEntity
  8
0
100
AcDbBlockEnd
  0
BLOCK
  5
4F27
330
4F25
100
AcDbEntity
 67
     1
  8
0
100
AcDbBlockBegin
  2
*Paper_Space
 70
     0
 10
0.0
 20
0.0
 30
0.0
  3
*Paper_Space
  1

  0
ENDBLK
  5
4F28
330
4F25
100
AcDbEntity
 67
     1
  8
0
100
AcDbBlockEnd
  0
ENDSEC
  0
SECTION
  2
ENTITIES
  0
LINE
  5
1F27
330
2
100
AcDbEntity
  8
0
100
AcDbLine
 10
-18584.73583621099
 20
-33635.44815924336
 30
0.0
 11
-18610.0961768158
 21
-33635.44815924336
 31
0.0
  0
LINE
  5
1F28
330
2
100
AcDbEntity
  8
0
100
AcDbLine
 10
-18611.06067744053
 20
-33635.44815924336
 30
0.0
 11
-18611.06067744053
 21
-33636.16786843652
 31
0.0
  0
LINE
  5
1F29
330
2
100
AcDbEntity
  8
0
100
AcDbLine
 10
-18582.22136972407
 20
-33635.44815924336
 30
0.0
 11
-18610.0961768158
 21
-33635.44815924336
 31
0.0
  0
ARC
  5
1F2C
330
2
100
AcDbEntity
  8
0
100
AcDbCircle
 10
-18582.22136972407
 20
-33634.46390924336
 30
0.0
 40
0.9842500000000001
100
AcDbArc
 50
270.0
 51
337.0616860994696
  0
ARC
  5
1F2E
330
2
100
AcDbEntity
  8
0
100
AcDbCircle
 10
-18596.12125825761
 20
-33615.93654251942
 30
0.0
 40
48.52202704787781
100
AcDbArc
 50
180.3059575511723
 51
202.9406458460669
  0
ARC
  5
1F2F
330
2
100
AcDbEntity
  8
0
100
AcDbCircle
 10
-18639.899985157
 20
-33634.46390924336
 30
0.0
 40
0.9842500000000001
100
AcDbArc
 50
202.9383139005304
 51
270.0
  0
ARC
  5
1F31
330
2
100
AcDbEntity
  8
0
100
AcDbCircle
 10
-18626.00009662345
 20
-33615.93654251942
 30
0.0
 40
48.52202704787781
100
AcDbArc
 50
337.0518723699223
 51
359.6940424488277
  0
LINE
  5
1F37
330
2
100
AcDbEntity
  8
0
 62
     2
370
     5
100
AcDbLine
 10
-18577.72331443752
 20
-33615.85687186744
 30
0.0
 11
-18577.7240908193
 21
-33615.85661960571
 31
0.0
  0
LINE
  5
1F3A
330
2
100
AcDbEntity
  8
0
100
AcDbLine
 10
-18577.72331443752
 20
-33615.85687186744
 30
0.0
 11
-18577.99663602181
 21
-33615.7680643013
 31
0.0
  0
ARC
  5
1F3D
330
2
100
AcDbEntity
  8
0
100
AcDbCircle
 10
-18577.8327902338
 20
-33616.19386563488
 30
0.0
 40
0.35433
100
AcDbArc
 50
359.8455402540681
 51
71.99999999937794
  0
ARC
  5
1F41
330
2
100
AcDbEntity
  8
0
100
AcDbCircle
 10
-18577.90819034928
 20
-33615.50702956798
 30
0.0
 40
0.27559
100
AcDbArc
 50
224.5377208852139
 51
251.9999999993779
  0
LINE
  5
1F45
330
2
100
AcDbEntity
  8
0
100
AcDbLine
 10
-18644.39804044355
 20
-33615.85687186744
 30
0.0
 11
-18644.39726406177
 21
-33615.85661960571
 31
0.0
  0
LINE
  5
1F48
330
2
100
AcDbEntity
  8
0
100
AcDbLine
 10
-18644.39804044355
 20
-33615.85687186744
 30
0.0
 11
-18644.12471885925
 21
-33615.7680643013
 31
0.0
  0
ARC
  5
1F4B
330
2
100
AcDbEntity
  8
0
100
AcDbCircle
 10
-18644.28856464727
 20
-33616.19386563488
 30
0.0
 40
0.35433
100
AcDbArc
 50
108.000000000622
 51
180.1544597459319
  0
ARC
  5
1F4F
330
2
100
AcDbEntity
  8
0
100
AcDbCircle
 10
-18644.21316453179
 20
-33615.50702956798
 30
0.0
 40
0.27559
100
AcDbArc
 50
288.000000000622
 51
315.4622791147862
  0
ARC
  5
1FC0
330
2
100
AcDbEntity
  8
0
100
AcDbCircle
 10
-18599.46616863259
 20
-33593.32445020096
 30
0.0
 40
6.515735
100
AcDbArc
 50
55.41567787758477
 51
64.36876576804007
  0
ARC
  5
1FC1
330
2
100
AcDbEntity
  8
0
100
AcDbCircle
 10
-18595.11578363259
 20
-33588.28509020095
 30
0.0
 40
0.51181
100
AcDbArc
 50
157.3938525602823
 51
300.9992919786531
  0
ARC
  5
1FC2
330
2
100
AcDbEntity
  8
0
100
AcDbCircle
 10
-18599.46616863259
 20
-33593.32445020096
 30
0.0
 40
6.515735
100
AcDbArc
 50
44.91710737906774
 51
53.47603716334947
  0
ARC
  5
1FC3
330
2
100
AcDbEntity
  8
0
100
AcDbCircle
 10
-18594.05279363259
 20
-33588.91501020095
 30
0.0
 40
0.51181
100
AcDbArc
 50
195.6809241742515
 51
242.6478389385859
  0
ARC
  5
1FC4
330
2
100
AcDbEntity
  8
0
100
AcDbCircle
 10
-18594.05279363259
 20
-33590.17485020095
 30
0.0
 40
0.51181
100
AcDbArc
 50
92.61072349931611
 51
327.7725224210669
  0
ARC
  5
1FC5
330
2
100
AcDbEntity
  8
0
100
AcDbCircle
 10
-18599.46616863259
 20
-33593.32445020095
 30
0.0
 40
6.515735
100
AcDbArc
 50
26.19927269523294
 51
34.18397322567078
  0
CIRCLE
  5
1FC6
330
2
100
AcDbEntity
  8
0
100
AcDbCircle
 10
-18596.17877363209
 20
-33588.91501020095
 30
0.0
 40
0.51181
  0
ARC
  5
1FC7
330
2
100
AcDbEntity
  8
0
100
AcDbCircle
 10
-18608.93465363259
 20
-33591.43469020096
 30
0.0
 40
0.51181
100
AcDbArc
 50
344.1946324387635
 51
99.07244623600206
  0
ARC
  5
1FC8
330
2
100
AcDbEntity
  8
0
100
AcDbCircle
 10
-18611.06063363259
 20
-33593.32445020096
 30
0.0
 40
3.149600000000094
100
AcDbArc
 50
33.76168632062691
 51
49.50539235493203
  0
CIRCLE
  5
1FC9
330
2
100
AcDbEntity
  8
0
100
AcDbCircle
 10
-18606.80867363209
 20
-33591.43469020096
 30
0.0
 40
0.51181
  0
CIRCLE
  5
1FCA
330
2
100
AcDbEntity
  8
0
100
AcDbCircle
 10
-18606.80867363209
 20
-33590.17485020095
 30
0.0
 40
0.51181
  0
CIRCLE
  5
1FCB
330
2
100
AcDbEntity
  8
0
100
AcDbCircle
 10
-18607.87166363208
 20
-33590.80477020095
 30
0.0
 40
0.51181
  0
CIRCLE
  5
1FCC
330
2
100
AcDbEntity
  8
0
100
AcDbCircle
 10
-18608.93465363209
 20
-33590.17485020095
 30
0.0
 40
0.51181
  0
CIRCLE
  5
1FCD
330
2
100
AcDbEntity
  8
0
100
AcDbCircle
 10
-18607.87166363208
 20
-33589.54493020095
 30
0.0
 40
0.51181
  0
CIRCLE
  5
1FCE
330
2
100
AcDbEntity
  8
0
100
AcDbCircle
 10
-18604.68269363209
 20
-33587.65517020096
 30
0.0
 40
0.51181
  0
ARC
  5
1FCF
330
2
100
AcDbEntity
  8
0
100
AcDbCircle
 10
-18600.43073363209
 20
-33975.21345020095
 30
0.0
 40
388.5819
100
AcDbArc
 50
90.56151160190241
 51
90.69156606927885
  0
ARC
  5
1FD0
330
2
100
AcDbEntity
  8
0
100
AcDbCircle
 10
-18604.68269363209
 20
-33586.39533020096
 30
0.0
 40
0.51181
100
AcDbArc
 50
211.1207221396101
 51
330.132355529497
  0
ARC
  5
200A
330
2
100
AcDbEntity
  8
0
100
AcDbCircle
 10
-18611.06063363234
 20
-33975.20719896808
 30
0.0
 40
393.6999748819402
100
AcDbArc
 50
87.2174363072043
 51
92.78256369279569
  0
LINE
  5
200B
330
2
100
AcDbEntity
  8
0
100
AcDbLine
 10
-18629.76138363209
 20
-33578.5544733326
 30
0.0
 11
-18592.35988363209
 21
-33578.5544733326
 31
0.0
  0
ARC
  5
200E
330
2
100
AcDbEntity
  8
0
100
AcDbCircle
 10
-18536.02848120749
 20
-33615.62158252434
 30
0.0
 40
0.7086599547874921
100
AcDbArc
 50
11.30993247194357
 51
90.0
  0
LINE
  5
2012
330
2
100
AcDbEntity
  8
0
100
AcDbLine
 10
-18535.33358295019
 20
-33615.48260287289
 30
0.0
 11
-18535.29003902091
 21
-33615.70032251932
 31
0.0
  0
LINE
  5
201C
330
2
100
AcDbEntity
  8
0
100
AcDbLine
 10
-18564.07909495046
 20
-33614.91292256956
 30
0.0
 11
-18536.02848120749
 21
-33614.91292256956
 31
0.0
  0
LINE
  5
2036
330
2
100
AcDbEntity
  8
0
100
AcDbLine
 10
-18550.05378807897
 20
-33635.44815924316
 30
0.0
 11
-18550.05378807897
 21
-33636.30526381683
 31
0.0
  0
LINE
  5
203C
330
2
100
AcDbEntity
  8
0
100
AcDbLine
 10
-18564.77399320776
 20
-33615.48260287289
 30
0.0
 11
-18564.81753713705
 21
-33615.70032251932
 31
0.0
  0
LINE
  5
203D
330
2
100
AcDbEntity
  8
0
100
AcDbLine
 10
-18564.81753713705
 20
-33615.70032251932
 30
0.0
 11
-18535.2900390209
 21
-33615.70032251931
 31
0.0
  0
CIRCLE
  5
203F
330
2
100
AcDbEntity
  8
0
100
AcDbCircle
 10
-18595.11578363209
 20
-33592.06461020096
 30
0.0
 40
0.51181
  0
CIRCLE
  5
2040
330
2
100
AcDbEntity
  8
0
100
AcDbCircle
 10
-18595.11578363209
 20
-33590.80477020095
 30
0.0
 40
0.51181
  0
CIRCLE
  5
2041
330
2
100
AcDbEntity
  8
0
100
AcDbCircle
 10
-18595.11578363209
 20
-33589.54493020095
 30
0.0
 40
0.51181
  0
CIRCLE
  5
2042
330
2
100
AcDbEntity
  8
0
100
AcDbCircle
 10
-18595.11578363209
 20
-33594.58429020095
 30
0.0
 40
0.51181
  0
CIRCLE
  5
2043
330
2
100
AcDbEntity
  8
0
100
AcDbCircle
 10
-18595.11578363209
 20
-33593.32445020096
 30
0.0
 40
0.51181
  0
CIRCLE
  5
2044
330
2
100
AcDbEntity
  8
0
100
AcDbCircle
 10
-18595.11578363209
 20
-33593.32445020096
 30
0.0
 40
0.51181
  0
ARC
  5
2045
330
2
100
AcDbEntity
  8
0
100
AcDbCircle
 10
-18596.17877363209
 20
-33587.65517020096
 30
0.0
 40
0.51181
100
AcDbArc
 50
156.353143669269
 51
323.4312999753968
  0
ARC
  5
2046
330
2
100
AcDbEntity
  8
0
100
AcDbCircle
 10
-18599.46616863209
 20
-33593.32445020096
 30
0.0
 40
6.515735
100
AcDbArc
 50
55.41567787758477
 51
64.36876576804007
  0
CIRCLE
  5
2047
330
2
100
AcDbEntity
  8
0
100
AcDbCircle
 10
-18596.17877363209
 20
-33590.17485020095
 30
0.0
 40
0.51181
  0
CIRCLE
  5
2048
330
2
100
AcDbEntity
  8
0
100
AcDbCircle
 10
-18596.17877363209
 20
-33591.43469020096
 30
0.0
 40
0.51181
  0
CIRCLE
  5
2049
330
2
100
AcDbEntity
  8
0
100
AcDbCircle
 10
-18597.24176363208
 20
-33588.28509020095
 30
0.0
 40
0.51181
  0
CIRCLE
  5
204A
330
2
100
AcDbEntity
  8
0
100
AcDbCircle
 10
-18597.24176363208
 20
-33589.54493020095
 30
0.0
 40
0.51181
  0
CIRCLE
  5
204B
330
2
100
AcDbEntity
  8
0
100
AcDbCircle
 10
-18597.24176363208
 20
-33592.06461020096
 30
0.0
 40
0.51181
  0
CIRCLE
  5
204C
330
2
100
AcDbEntity
  8
0
100
AcDbCircle
 10
-18597.24176363208
 20
-33590.80477020095
 30
0.0
 40
0.51181
  0
CIRCLE
  5
204D
330
2
100
AcDbEntity
  8
0
100
AcDbCircle
 10
-18596.17877363209
 20
-33593.95437020095
 30
0.0
 40
0.51181
  0
CIRCLE
  5
204E
330
2
100
AcDbEntity
  8
0
100
AcDbCircle
 10
-18597.24176363208
 20
-33594.58429020095
 30
0.0
 40
0.51181
  0
CIRCLE
  5
204F
330
2
100
AcDbEntity
  8
0
100
AcDbCircle
 10
-18597.24176363208
 20
-33593.32445020096
 30
0.0
 40
0.51181
  0
CIRCLE
  5
2050
330
2
100
AcDbEntity
  8
0
100
AcDbCircle
 10
-18596.17877363209
 20
-33592.69453020095
 30
0.0
 40
0.51181
  0
CIRCLE
  5
2051
330
2
100
AcDbEntity
  8
0
100
AcDbCircle
 10
-18597.24176363208
 20
-33593.32445020096
 30
0.0
 40
0.51181
  0
ARC
  5
2052
330
2
100
AcDbEntity
  8
0
100
AcDbCircle
 10
-18597.24176363208
 20
-33587.02525020095
 30
0.0
 40
0.51181
100
AcDbArc
 50
181.4111271044509
 51
319.6900730043828
  0
ARC
  5
2053
330
2
100
AcDbEntity
  8
0
100
AcDbCircle
 10
-18599.46616863209
 20
-33593.32445020096
 30
0.0
 40
6.515735
100
AcDbArc
 50
66.3412522507912
 51
74.75994786010841
  0
ARC
  5
2054
330
2
100
AcDbEntity
  8
0
100
AcDbCircle
 10
-18592.98980363209
 20
-33592.06461020096
 30
0.0
 40
0.51181
100
AcDbArc
 50
112.4319848662126
 51
269.5844192878686
  0
ARC
  5
2055
330
2
100
AcDbEntity
  8
0
100
AcDbCircle
 10
-18592.98980363209
 20
-33590.80477020095
 30
0.0
 40
0.51181
100
AcDbArc
 50
170.2881729727641
 51
232.2296452512222
  0
CIRCLE
  5
2056
330
2
100
AcDbEntity
  8
0
100
AcDbCircle
 10
-18594.05279363208
 20
-33591.43469020096
 30
0.0
 40
0.51181
  0
ARC
  5
2057
330
2
100
AcDbEntity
  8
0
100
AcDbCircle
 10
-18594.05279363208
 20
-33590.17485020095
 30
0.0
 40
0.51181
100
AcDbArc
 50
92.61072349931611
 51
327.7725224210669
  0
ARC
  5
2058
330
2
100
AcDbEntity
  8
0
100
AcDbCircle
 10
-18599.46616863209
 20
-33593.32445020096
 30
0.0
 40
6.515735
100
AcDbArc
 50
6.592417768009094
 51
15.42398638428359
  0
ARC
  5
2059
330
2
100
AcDbEntity
  8
0
100
AcDbCircle
 10
-18599.46616863209
 20
-33593.32445020096
 30
0.0
 40
6.515735
100
AcDbArc
 50
18.94228120925724
 51
23.5755370132894
  0
ARC
  5
205A
330
2
100
AcDbEntity
  8
0
100
AcDbCircle
 10
-18599.46616863209
 20
-33593.32445020096
 30
0.0
 40
6.515735
100
AcDbArc
 50
26.19927269523294
 51
34.18397322567078
  0
ARC
  5
205B
330
2
100
AcDbEntity
  8
0
100
AcDbCircle
 10
-18599.46616863209
 20
-33593.32445020096
 30
0.0
 40
6.515735
100
AcDbArc
 50
355.4979838193614
 51
0.0
  0
ARC
  5
205C
330
2
100
AcDbEntity
  8
0
100
AcDbCircle
 10
-18599.46616863209
 20
-33593.32445020096
 30
0.0
 40
6.515735
100
AcDbArc
 50
355.4979838193614
 51
0.0
  0
CIRCLE
  5
205D
330
2
100
AcDbEntity
  8
0
100
AcDbCircle
 10
-18594.05279363208
 20
-33593.95437020095
 30
0.0
 40
0.51181
  0
ARC
  5
205E
330
2
100
AcDbEntity
  8
0
100
AcDbCircle
 10
-18599.46616863209
 20
-33593.32445020096
 30
0.0
 40
6.515735
100
AcDbArc
 50
344.5760136157164
 51
353.4075822319909
  0
ARC
  5
205F
330
2
100
AcDbEntity
  8
0
100
AcDbCircle
 10
-18592.98980363209
 20
-33594.58429020095
 30
0.0
 40
0.51181
100
AcDbArc
 50
90.41558071213144
 51
247.5680151337874
  0
CIRCLE
  5
2060
330
2
100
AcDbEntity
  8
0
100
AcDbCircle
 10
-18594.05279363208
 20
-33592.69453020095
 30
0.0
 40
0.51181
  0
ARC
  5
2061
330
2
100
AcDbEntity
  8
0
100
AcDbCircle
 10
-18592.98980363209
 20
-33593.32445020096
 30
0.0
 40
0.51181
100
AcDbArc
 50
87.8426933705988
 51
272.1573066294012
  0
ARC
  5
2062
330
2
100
AcDbEntity
  8
0
100
AcDbCircle
 10
-18599.46616863209
 20
-33593.32445020096
 30
0.0
 40
6.515735
100
AcDbArc
 50
0.0
 51
4.502016180638571
  0
ARC
  5
2063
330
2
100
AcDbEntity
  8
0
100
AcDbCircle
 10
-18592.98980363209
 20
-33593.32445020096
 30
0.0
 40
0.51181
100
AcDbArc
 50
87.8426933705988
 51
272.1573066294012
  0
ARC
  5
2064
330
2
100
AcDbEntity
  8
0
100
AcDbCircle
 10
-18599.46616863209
 20
-33593.32445020096
 30
0.0
 40
6.515735
100
AcDbArc
 50
0.0
 51
4.502016180638571
  0
ARC
  5
2065
330
2
100
AcDbEntity
  8
0
100
AcDbCircle
 10
-18599.36774363209
 20
-33587.02525020095
 30
0.0
 40
0.51181
100
AcDbArc
 50
153.1438563735689
 51
21.94574009848443
  0
ARC
  5
2066
330
2
100
AcDbEntity
  8
0
100
AcDbCircle
 10
-18601.49372363208
 20
-33587.02525020095
 30
0.0
 40
0.51181
100
AcDbArc
 50
146.0092365757964
 51
31.16722252416534
  0
ARC
  5
2067
330
2
100
AcDbEntity
  8
0
100
AcDbCircle
 10
-18603.61970363209
 20
-33587.02525020095
 30
0.0
 40
0.51181
100
AcDbArc
 50
139.8881263771497
 51
37.91561067040781
  0
CIRCLE
  5
2068
330
2
100
AcDbEntity
  8
0
100
AcDbCircle
 10
-18601.49372363208
 20
-33593.32445020096
 30
0.0
 40
0.51181
  0
CIRCLE
  5
2069
330
2
100
AcDbEntity
  8
0
100
AcDbCircle
 10
-18601.49372363208
 20
-33590.80477020095
 30
0.0
 40
0.51181
  0
CIRCLE
  5
206A
330
2
100
AcDbEntity
  8
0
100
AcDbCircle
 10
-18601.49372363208
 20
-33592.06461020096
 30
0.0
 40
0.51181
  0
CIRCLE
  5
206B
330
2
100
AcDbEntity
  8
0
100
AcDbCircle
 10
-18601.49372363208
 20
-33589.54493020095
 30
0.0
 40
0.51181
  0
CIRCLE
  5
206C
330
2
100
AcDbEntity
  8
0
100
AcDbCircle
 10
-18601.49372363208
 20
-33588.28509020095
 30
0.0
 40
0.51181
  0
CIRCLE
  5
206D
330
2
100
AcDbEntity
  8
0
100
AcDbCircle
 10
-18601.49372363208
 20
-33594.58429020095
 30
0.0
 40
0.51181
  0
CIRCLE
  5
206E
330
2
100
AcDbEntity
  8
0
100
AcDbCircle
 10
-18601.49372363208
 20
-33593.32445020096
 30
0.0
 40
0.51181
  0
ARC
  5
206F
330
2
100
AcDbEntity
  8
0
100
AcDbCircle
 10
-18611.06063363209
 20
-33975.21345020095
 30
0.0
 40
388.5819
100
AcDbArc
 50
88.52463848617572
 51
88.65182061480783
  0
CIRCLE
  5
2070
330
2
100
AcDbEntity
  8
0
100
AcDbCircle
 10
-18602.55671363209
 20
-33587.65517020096
 30
0.0
 40
0.51181
  0
CIRCLE
  5
2071
330
2
100
AcDbEntity
  8
0
100
AcDbCircle
 10
-18602.55671363209
 20
-33591.43469020096
 30
0.0
 40
0.51181
  0
CIRCLE
  5
2072
330
2
100
AcDbEntity
  8
0
100
AcDbCircle
 10
-18602.55671363209
 20
-33590.17485020095
 30
0.0
 40
0.51181
  0
CIRCLE
  5
2073
330
2
100
AcDbEntity
  8
0
100
AcDbCircle
 10
-18602.55671363209
 20
-33588.91501020095
 30
0.0
 40
0.51181
  0
CIRCLE
  5
2074
330
2
100
AcDbEntity
  8
0
100
AcDbCircle
 10
-18603.61970363209
 20
-33590.80477020095
 30
0.0
 40
0.51181
  0
CIRCLE
  5
2075
330
2
100
AcDbEntity
  8
0
100
AcDbCircle
 10
-18603.61970363209
 20
-33592.06461020096
 30
0.0
 40
0.51181
  0
CIRCLE
  5
2076
330
2
100
AcDbEntity
  8
0
100
AcDbCircle
 10
-18603.61970363209
 20
-33589.54493020095
 30
0.0
 40
0.51181
  0
CIRCLE
  5
2077
330
2
100
AcDbEntity
  8
0
100
AcDbCircle
 10
-18603.61970363209
 20
-33588.28509020095
 30
0.0
 40
0.51181
  0
CIRCLE
  5
2078
330
2
100
AcDbEntity
  8
0
100
AcDbCircle
 10
-18602.55671363209
 20
-33593.95437020095
 30
0.0
 40
0.51181
  0
CIRCLE
  5
2079
330
2
100
AcDbEntity
  8
0
100
AcDbCircle
 10
-18603.61970363209
 20
-33594.58429020095
 30
0.0
 40
0.51181
  0
CIRCLE
  5
207A
330
2
100
AcDbEntity
  8
0
100
AcDbCircle
 10
-18603.61970363209
 20
-33593.32445020096
 30
0.0
 40
0.51181
  0
CIRCLE
  5
207B
330
2
100
AcDbEntity
  8
0
100
AcDbCircle
 10
-18602.55671363209
 20
-33592.69453020095
 30
0.0
 40
0.51181
  0
CIRCLE
  5
207C
330
2
100
AcDbEntity
  8
0
100
AcDbCircle
 10
-18603.61970363209
 20
-33593.32445020096
 30
0.0
 40
0.51181
  0
CIRCLE
  5
207D
330
2
100
AcDbEntity
  8
0
100
AcDbCircle
 10
-18603.61970363209
 20
-33593.32445020096
 30
0.0
 40
0.51181
  0
CIRCLE
  5
207E
330
2
100
AcDbEntity
  8
0
100
AcDbCircle
 10
-18603.61970363209
 20
-33593.32445020096
 30
0.0
 40
0.51181
  0
ARC
  5
207F
330
2
100
AcDbEntity
  8
0
100
AcDbCircle
 10
-18602.55671363209
 20
-33586.39533020096
 30
0.0
 40
0.51181
100
AcDbArc
 50
218.8079910531087
 51
318.686153209799
  0
ARC
  5
2080
330
2
100
AcDbEntity
  8
0
100
AcDbCircle
 10
-18611.06063363209
 20
-33975.21345020095
 30
0.0
 40
388.5819
100
AcDbArc
 50
88.68931375375103
 51
88.80483050990717
  0
ARC
  5
2081
330
2
100
AcDbEntity
  8
0
100
AcDbCircle
 10
-18611.06063363209
 20
-33975.21345020095
 30
0.0
 40
388.5819
100
AcDbArc
 50
88.84323214521756
 51
88.96050490164984
  0
CIRCLE
  5
2082
330
2
100
AcDbEntity
  8
0
100
AcDbCircle
 10
-18599.36774363209
 20
-33588.28509020095
 30
0.0
 40
0.51181
  0
CIRCLE
  5
2083
330
2
100
AcDbEntity
  8
0
100
AcDbCircle
 10
-18599.36774363209
 20
-33589.54493020095
 30
0.0
 40
0.51181
  0
CIRCLE
  5
2084
330
2
100
AcDbEntity
  8
0
100
AcDbCircle
 10
-18599.36774363209
 20
-33592.06461020096
 30
0.0
 40
0.51181
  0
CIRCLE
  5
2085
330
2
100
AcDbEntity
  8
0
100
AcDbCircle
 10
-18599.36774363209
 20
-33590.80477020095
 30
0.0
 40
0.51181
  0
CIRCLE
  5
2086
330
2
100
AcDbEntity
  8
0
100
AcDbCircle
 10
-18599.36774363209
 20
-33594.58429020095
 30
0.0
 40
0.51181
  0
CIRCLE
  5
2087
330
2
100
AcDbEntity
  8
0
100
AcDbCircle
 10
-18599.36774363209
 20
-33593.32445020096
 30
0.0
 40
0.51181
  0
CIRCLE
  5
2088
330
2
100
AcDbEntity
  8
0
100
AcDbCircle
 10
-18599.36774363209
 20
-33593.32445020096
 30
0.0
 40
0.51181
  0
ARC
  5
2089
330
2
100
AcDbEntity
  8
0
100
AcDbCircle
 10
-18599.46616863209
 20
-33593.32445020096
 30
0.0
 40
6.515735
100
AcDbArc
 50
84.95352751253477
 51
85.85513991556876
  0
ARC
  5
208A
330
2
100
AcDbEntity
  8
0
100
AcDbCircle
 10
-18611.06063363209
 20
-33975.21345020095
 30
0.0
 40
388.5819
100
AcDbArc
 50
88.22061532210884
 51
88.3429972255451
  0
ARC
  5
208B
330
2
100
AcDbEntity
  8
0
100
AcDbCircle
 10
-18598.30475363209
 20
-33586.39533020096
 30
0.0
 40
0.51181
100
AcDbArc
 50
255.902000047196
 51
265.0677898734989
  0
CIRCLE
  5
208C
330
2
100
AcDbEntity
  8
0
100
AcDbCircle
 10
-18600.43073363209
 20
-33587.65517020096
 30
0.0
 40
0.51181
  0
CIRCLE
  5
208D
330
2
100
AcDbEntity
  8
0
100
AcDbCircle
 10
-18600.43073363209
 20
-33590.17485020095
 30
0.0
 40
0.51181
  0
CIRCLE
  5
208E
330
2
100
AcDbEntity
  8
0
100
AcDbCircle
 10
-18600.43073363209
 20
-33591.43469020096
 30
0.0
 40
0.51181
  0
CIRCLE
  5
208F
330
2
100
AcDbEntity
  8
0
100
AcDbCircle
 10
-18600.43073363209
 20
-33588.91501020095
 30
0.0
 40
0.51181
  0
CIRCLE
  5
2090
330
2
100
AcDbEntity
  8
0
100
AcDbCircle
 10
-18600.43073363209
 20
-33593.95437020095
 30
0.0
 40
0.51181
  0
CIRCLE
  5
2091
330
2
100
AcDbEntity
  8
0
100
AcDbCircle
 10
-18600.43073363209
 20
-33592.69453020095
 30
0.0
 40
0.51181
  0
ARC
  5
2092
330
2
100
AcDbEntity
  8
0
100
AcDbCircle
 10
-18600.43073363209
 20
-33586.39533020096
 30
0.0
 40
0.51181
100
AcDbArc
 50
226.6517641013412
 51
310.216197013488
  0
ARC
  5
2093
330
2
100
AcDbEntity
  8
0
100
AcDbCircle
 10
-18611.06063363209
 20
-33975.21345020095
 30
0.0
 40
388.5819
100
AcDbArc
 50
88.38369776385825
 51
88.48426334933426
  0
CIRCLE
  5
2094
330
2
100
AcDbEntity
  8
0
100
AcDbCircle
 10
-18598.30475363209
 20
-33587.65517020096
 30
0.0
 40
0.51181
  0
CIRCLE
  5
2095
330
2
100
AcDbEntity
  8
0
100
AcDbCircle
 10
-18598.30475363209
 20
-33588.91501020095
 30
0.0
 40
0.51181
  0
CIRCLE
  5
2096
330
2
100
AcDbEntity
  8
0
100
AcDbCircle
 10
-18598.30475363209
 20
-33591.43469020096
 30
0.0
 40
0.51181
  0
CIRCLE
  5
2097
330
2
100
AcDbEntity
  8
0
100
AcDbCircle
 10
-18598.30475363209
 20
-33590.17485020095
 30
0.0
 40
0.51181
  0
CIRCLE
  5
2098
330
2
100
AcDbEntity
  8
0
100
AcDbCircle
 10
-18598.30475363209
 20
-33593.95437020095
 30
0.0
 40
0.51181
  0
CIRCLE
  5
2099
330
2
100
AcDbEntity
  8
0
100
AcDbCircle
 10
-18598.30475363209
 20
-33592.69453020095
 30
0.0
 40
0.51181
  0
ARC
  5
209A
330
2
100
AcDbEntity
  8
0
100
AcDbCircle
 10
-18599.46616863209
 20
-33593.32445020096
 30
0.0
 40
6.515735
100
AcDbArc
 50
306.5239628366505
 51
315.0828926209322
  0
ARC
  5
209B
330
2
100
AcDbEntity
  8
0
100
AcDbCircle
 10
-18595.11578363209
 20
-33598.36381020096
 30
0.0
 40
0.51181
100
AcDbArc
 50
59.00070802134692
 51
202.6061474397177
  0
CIRCLE
  5
209C
330
2
100
AcDbEntity
  8
0
100
AcDbCircle
 10
-18597.24176363208
 20
-33598.36381020096
 30
0.0
 40
0.51181
  0
ARC
  5
209D
330
2
100
AcDbEntity
  8
0
100
AcDbCircle
 10
-18599.46616863209
 20
-33593.32445020096
 30
0.0
 40
6.515735
100
AcDbArc
 50
285.2400521398916
 51
293.6587477492088
  0
ARC
  5
209E
330
2
100
AcDbEntity
  8
0
100
AcDbCircle
 10
-18599.46616863209
 20
-33593.32445020096
 30
0.0
 40
6.515735
100
AcDbArc
 50
295.6312342319599
 51
304.5843221224152
  0
ARC
  5
209F
330
2
100
AcDbEntity
  8
0
100
AcDbCircle
 10
-18597.24176363208
 20
-33599.62365020096
 30
0.0
 40
0.51181
100
AcDbArc
 50
40.30992699561722
 51
178.5888728955491
  0
ARC
  5
20A0
330
2
100
AcDbEntity
  8
0
100
AcDbCircle
 10
-18596.17877363209
 20
-33598.99373020096
 30
0.0
 40
0.51181
100
AcDbArc
 50
36.56870002460317
 51
203.646856330731
  0
CIRCLE
  5
20A1
330
2
100
AcDbEntity
  8
0
100
AcDbCircle
 10
-18595.11578363209
 20
-33597.10397020095
 30
0.0
 40
0.51181
  0
CIRCLE
  5
20A2
330
2
100
AcDbEntity
  8
0
100
AcDbCircle
 10
-18595.11578363209
 20
-33595.84413020095
 30
0.0
 40
0.51181
  0
CIRCLE
  5
20A3
330
2
100
AcDbEntity
  8
0
100
AcDbCircle
 10
-18597.24176363208
 20
-33597.10397020095
 30
0.0
 40
0.51181
  0
CIRCLE
  5
20A4
330
2
100
AcDbEntity
  8
0
100
AcDbCircle
 10
-18596.17877363209
 20
-33597.73389020095
 30
0.0
 40
0.51181
  0
CIRCLE
  5
20A5
330
2
100
AcDbEntity
  8
0
100
AcDbCircle
 10
-18597.24176363208
 20
-33595.84413020095
 30
0.0
 40
0.51181
  0
CIRCLE
  5
20A6
330
2
100
AcDbEntity
  8
0
100
AcDbCircle
 10
-18596.17877363209
 20
-33596.47405020095
 30
0.0
 40
0.51181
  0
ARC
  5
20A7
330
2
100
AcDbEntity
  8
0
100
AcDbCircle
 10
-18594.05279363208
 20
-33597.73389020095
 30
0.0
 40
0.51181
100
AcDbArc
 50
117.3521610614142
 51
164.3190758257485
  0
ARC
  5
20A8
330
2
100
AcDbEntity
  8
0
100
AcDbCircle
 10
-18599.46616863209
 20
-33593.32445020096
 30
0.0
 40
6.515735
100
AcDbArc
 50
325.8160267743293
 51
333.8007273047671
  0
ARC
  5
20A9
330
2
100
AcDbEntity
  8
0
100
AcDbCircle
 10
-18599.46616863209
 20
-33593.32445020096
 30
0.0
 40
6.515735
100
AcDbArc
 50
336.4244629867106
 51
341.0577187907428
  0
ARC
  5
20AA
330
2
100
AcDbEntity
  8
0
100
AcDbCircle
 10
-18594.05279363208
 20
-33596.47405020095
 30
0.0
 40
0.51181
100
AcDbArc
 50
32.22747757893313
 51
267.3892765006839
  0
ARC
  5
20AB
330
2
100
AcDbEntity
  8
0
100
AcDbCircle
 10
-18592.98980363209
 20
-33595.84413020095
 30
0.0
 40
0.51181
100
AcDbArc
 50
127.7703547487777
 51
189.7118270272359
  0
CIRCLE
  5
20AC
330
2
100
AcDbEntity
  8
0
100
AcDbCircle
 10
-18599.36774363209
 20
-33598.36381020096
 30
0.0
 40
0.51181
  0
CIRCLE
  5
20AD
330
2
100
AcDbEntity
  8
0
100
AcDbCircle
 10
-18601.49372363208
 20
-33598.36381020096
 30
0.0
 40
0.51181
  0
CIRCLE
  5
20AE
330
2
100
AcDbEntity
  8
0
100
AcDbCircle
 10
-18603.61970363209
 20
-33598.36381020096
 30
0.0
 40
0.51181
  0
ARC
  5
20AF
330
2
100
AcDbEntity
  8
0
100
AcDbCircle
 10
-18611.06063363209
 20
-33211.43545020095
 30
0.0
 40
388.5819
100
AcDbArc
 50
271.3481793851922
 51
271.4753615138243
  0
ARC
  5
20B0
330
2
100
AcDbEntity
  8
0
100
AcDbCircle
 10
-18601.49372363208
 20
-33599.62365020096
 30
0.0
 40
0.51181
100
AcDbArc
 50
328.8327774758347
 51
213.9907634242036
  0
ARC
  5
20B1
330
2
100
AcDbEntity
  8
0
100
AcDbCircle
 10
-18611.06063363209
 20
-33211.43545020095
 30
0.0
 40
388.5819
100
AcDbArc
 50
271.0394950983502
 51
271.1567678547825
  0
ARC
  5
20B2
330
2
100
AcDbEntity
  8
0
100
AcDbCircle
 10
-18611.06063363209
 20
-33211.43545020095
 30
0.0
 40
388.5819
100
AcDbArc
 50
271.1951694900928
 51
271.310686246249
  0
ARC
  5
20B3
330
2
100
AcDbEntity
  8
0
100
AcDbCircle
 10
-18602.55671363209
 20
-33600.25357020095
 30
0.0
 40
0.51181
100
AcDbArc
 50
41.31384679020095
 51
141.1920089468913
  0
ARC
  5
20B4
330
2
100
AcDbEntity
  8
0
100
AcDbCircle
 10
-18603.61970363209
 20
-33599.62365020096
 30
0.0
 40
0.51181
100
AcDbArc
 50
322.0843893295922
 51
220.1118736228503
  0
CIRCLE
  5
20B5
330
2
100
AcDbEntity
  8
0
100
AcDbCircle
 10
-18602.55671363209
 20
-33598.99373020096
 30
0.0
 40
0.51181
  0
ARC
  5
20B6
330
2
100
AcDbEntity
  8
0
100
AcDbCircle
 10
-18611.06063363209
 20
-33211.43545020095
 30
0.0
 40
388.5819
100
AcDbArc
 50
271.6570027744549
 51
271.7793846778911
  0
ARC
  5
20B7
330
2
100
AcDbEntity
  8
0
100
AcDbCircle
 10
-18599.46616863209
 20
-33593.32445020096
 30
0.0
 40
6.515735
100
AcDbArc
 50
274.1448600844312
 51
275.0464724874652
  0
ARC
  5
20B8
330
2
100
AcDbEntity
  8
0
100
AcDbCircle
 10
-18599.36774363209
 20
-33599.62365020096
 30
0.0
 40
0.51181
100
AcDbArc
 50
338.0542599015155
 51
206.856143626431
  0
ARC
  5
20B9
330
2
100
AcDbEntity
  8
0
100
AcDbCircle
 10
-18598.30475363209
 20
-33600.25357020095
 30
0.0
 40
0.51181
100
AcDbArc
 50
94.93221012650115
 51
104.097999952804
  0
ARC
  5
20BA
330
2
100
AcDbEntity
  8
0
100
AcDbCircle
 10
-18611.06063363209
 20
-33211.43545020095
 30
0.0
 40
388.5819
100
AcDbArc
 50
271.5157366506657
 51
271.6163022361418
  0
ARC
  5
20BB
330
2
100
AcDbEntity
  8
0
100
AcDbCircle
 10
-18600.43073363209
 20
-33600.25357020095
 30
0.0
 40
0.51181
100
AcDbArc
 50
49.78380298651205
 51
133.3482358986587
  0
CIRCLE
  5
20BC
330
2
100
AcDbEntity
  8
0
100
AcDbCircle
 10
-18600.43073363209
 20
-33598.99373020096
 30
0.0
 40
0.51181
  0
CIRCLE
  5
20BD
330
2
100
AcDbEntity
  8
0
100
AcDbCircle
 10
-18601.49372363208
 20
-33597.10397020095
 30
0.0
 40
0.51181
  0
CIRCLE
  5
20BE
330
2
100
AcDbEntity
  8
0
100
AcDbCircle
 10
-18601.49372363208
 20
-33595.84413020095
 30
0.0
 40
0.51181
  0
CIRCLE
  5
20BF
330
2
100
AcDbEntity
  8
0
100
AcDbCircle
 10
-18603.61970363209
 20
-33597.10397020095
 30
0.0
 40
0.51181
  0
CIRCLE
  5
20C0
330
2
100
AcDbEntity
  8
0
100
AcDbCircle
 10
-18602.55671363209
 20
-33597.73389020095
 30
0.0
 40
0.51181
  0
CIRCLE
  5
20C1
330
2
100
AcDbEntity
  8
0
100
AcDbCircle
 10
-18603.61970363209
 20
-33595.84413020095
 30
0.0
 40
0.51181
  0
CIRCLE
  5
20C2
330
2
100
AcDbEntity
  8
0
100
AcDbCircle
 10
-18602.55671363209
 20
-33596.47405020095
 30
0.0
 40
0.51181
  0
CIRCLE
  5
20C3
330
2
100
AcDbEntity
  8
0
100
AcDbCircle
 10
-18599.36774363209
 20
-33597.10397020095
 30
0.0
 40
0.51181
  0
CIRCLE
  5
20C4
330
2
100
AcDbEntity
  8
0
100
AcDbCircle
 10
-18599.36774363209
 20
-33595.84413020095
 30
0.0
 40
0.51181
  0
CIRCLE
  5
20C5
330
2
100
AcDbEntity
  8
0
100
AcDbCircle
 10
-18600.43073363209
 20
-33597.73389020095
 30
0.0
 40
0.51181
  0
CIRCLE
  5
20C6
330
2
100
AcDbEntity
  8
0
100
AcDbCircle
 10
-18600.43073363209
 20
-33596.47405020095
 30
0.0
 40
0.51181
  0
CIRCLE
  5
20C7
330
2
100
AcDbEntity
  8
0
100
AcDbCircle
 10
-18598.30475363209
 20
-33597.73389020095
 30
0.0
 40
0.51181
  0
CIRCLE
  5
20C8
330
2
100
AcDbEntity
  8
0
100
AcDbCircle
 10
-18598.30475363209
 20
-33598.99373020096
 30
0.0
 40
0.51181
  0
CIRCLE
  5
20C9
330
2
100
AcDbEntity
  8
0
100
AcDbCircle
 10
-18598.30475363209
 20
-33596.47405020095
 30
0.0
 40
0.51181
  0
CIRCLE
  5
20CA
330
2
100
AcDbEntity
  8
0
100
AcDbCircle
 10
-18598.30475363209
 20
-33595.21421020096
 30
0.0
 40
0.51181
  0
CIRCLE
  5
20CB
330
2
100
AcDbEntity
  8
0
100
AcDbCircle
 10
-18602.55671363209
 20
-33595.21421020096
 30
0.0
 40
0.51181
  0
CIRCLE
  5
20CC
330
2
100
AcDbEntity
  8
0
100
AcDbCircle
 10
-18600.43073363209
 20
-33595.21421020096
 30
0.0
 40
0.51181
  0
CIRCLE
  5
20CD
330
2
100
AcDbEntity
  8
0
100
AcDbCircle
 10
-18596.17877363209
 20
-33595.21421020096
 30
0.0
 40
0.51181
  0
CIRCLE
  5
20CE
330
2
100
AcDbEntity
  8
0
100
AcDbCircle
 10
-18594.05279363208
 20
-33595.21421020096
 30
0.0
 40
0.51181
  0
ARC
  5
20CF
330
2
100
AcDbEntity
  8
0
100
AcDbCircle
 10
-18599.46740360684
 20
-33593.31822333259
 30
0.0
 40
10.06026859301136
100
AcDbArc
 50
271.738827914496
 51
88.26117208550396
  0
ARC
  5
20D3
330
2
100
AcDbEntity
  8
0
100
AcDbCircle
 10
-18578.33457795396
 20
-33615.62158252434
 30
0.0
 40
0.7086599547874921
100
AcDbArc
 50
11.30993247194357
 51
90.0
  0
LINE
  5
20D4
330
2
100
AcDbEntity
  8
0
100
AcDbLine
 10
-18577.63967969666
 20
-33615.48260287289
 30
0.0
 11
-18577.59613576737
 21
-33615.70032251932
 31
0.0
  0
ARC
  5
20DE
330
2
100
AcDbEntity
  8
0
100
AcDbCircle
 10
-18607.87166363208
 20
-33587.02525020095
 30
0.0
 40
0.51181
100
AcDbArc
 50
131.512300328252
 51
47.54635002642815
  0
ARC
  5
20DF
330
2
100
AcDbEntity
  8
0
100
AcDbCircle
 10
-18609.99764363208
 20
-33587.02525020095
 30
0.0
 40
0.51181
100
AcDbArc
 50
129.8368079236798
 51
49.8494025878831
  0
ARC
  5
20E0
330
2
100
AcDbEntity
  8
0
100
AcDbCircle
 10
-18605.74568363209
 20
-33587.02525020095
 30
0.0
 40
0.51181
100
AcDbArc
 50
134.9644279090304
 51
43.46671875826578
  0
CIRCLE
  5
20E1
330
2
100
AcDbEntity
  8
0
100
AcDbCircle
 10
-18611.06063363209
 20
-33587.65517020096
 30
0.0
 40
0.51181
  0
ARC
  5
20E2
330
2
100
AcDbEntity
  8
0
100
AcDbCircle
 10
-18611.06063363209
 20
-33593.32445020096
 30
0.0
 40
3.149600000000094
100
AcDbArc
 50
80.67916123113857
 51
99.32083876886144
  0
ARC
  5
20E3
330
2
100
AcDbEntity
  8
0
100
AcDbCircle
 10
-18611.06063363209
 20
-33590.17485020095
 30
0.0
 40
0.51181
100
AcDbArc
 50
355.3395806141586
 51
184.6604193858414
  0
CIRCLE
  5
20E4
330
2
100
AcDbEntity
  8
0
100
AcDbCircle
 10
-18611.06063363209
 20
-33588.91501020095
 30
0.0
 40
0.51181
  0
CIRCLE
  5
20E5
330
2
100
AcDbEntity
  8
0
100
AcDbCircle
 10
-18611.06063363209
 20
-33588.91501020095
 30
0.0
 40
0.51181
  0
ARC
  5
20E6
330
2
100
AcDbEntity
  8
0
100
AcDbCircle
 10
-18611.06063363208
 20
-33975.21345020095
 30
0.0
 40
388.5819
100
AcDbArc
 50
90.0
 51
90.06692669193158
  0
ARC
  5
20E7
330
2
100
AcDbEntity
  8
0
100
AcDbCircle
 10
-18611.06063363209
 20
-33975.21345020095
 30
0.0
 40
388.5819
100
AcDbArc
 50
90.0
 51
90.06692669193158
  0
ARC
  5
20E8
330
2
100
AcDbEntity
  8
0
100
AcDbCircle
 10
-18611.06063363209
 20
-33586.39533020096
 30
0.0
 40
0.51181
100
AcDbArc
 50
207.5198845122261
 51
332.4801154877738
  0
ARC
  5
20E9
330
2
100
AcDbEntity
  8
0
100
AcDbCircle
 10
-18611.06063363209
 20
-33593.32445020096
 30
0.0
 40
3.149600000000094
100
AcDbArc
 50
14.07311328202343
 51
29.04104529039248
  0
ARC
  5
20EA
330
2
100
AcDbEntity
  8
0
100
AcDbCircle
 10
-18607.87166363208
 20
-33592.06461020096
 30
0.0
 40
0.51181
100
AcDbArc
 50
254.8336002527097
 51
148.2805583197053
  0
ARC
  5
20EB
330
2
100
AcDbEntity
  8
0
100
AcDbCircle
 10
-18611.06063363209
 20
-33593.32445020096
 30
0.0
 40
3.149600000000094
100
AcDbArc
 50
330.9589547096075
 51
345.9268867179766
  0
ARC
  5
20EC
330
2
100
AcDbEntity
  8
0
100
AcDbCircle
 10
-18607.87166363208
 20
-33594.58429020095
 30
0.0
 40
0.51181
100
AcDbArc
 50
211.7194416802947
 51
105.1663997472903
  0
ARC
  5
20ED
330
2
100
AcDbEntity
  8
0
100
AcDbCircle
 10
-18607.87166363208
 20
-33593.32445020096
 30
0.0
 40
0.51181
100
AcDbArc
 50
260.9848769656033
 51
99.01512303439664
  0
ARC
  5
20EE
330
2
100
AcDbEntity
  8
0
100
AcDbCircle
 10
-18607.87166363208
 20
-33593.32445020096
 30
0.0
 40
0.51181
100
AcDbArc
 50
260.9848769656033
 51
99.01512303439664
  0
ARC
  5
20EF
330
2
100
AcDbEntity
  8
0
100
AcDbCircle
 10
-18607.87166363208
 20
-33593.32445020096
 30
0.0
 40
0.51181
100
AcDbArc
 50
260.9848769656033
 51
99.01512303439664
  0
ARC
  5
20F0
330
2
100
AcDbEntity
  8
0
100
AcDbCircle
 10
-18607.87166363208
 20
-33593.32445020096
 30
0.0
 40
0.51181
100
AcDbArc
 50
260.9848769656033
 51
99.01512303439664
  0
CIRCLE
  5
20F1
330
2
100
AcDbEntity
  8
0
100
AcDbCircle
 10
-18607.87166363208
 20
-33588.28509020095
 30
0.0
 40
0.51181
  0
ARC
  5
20F2
330
2
100
AcDbEntity
  8
0
100
AcDbCircle
 10
-18611.06063363209
 20
-33975.21345020095
 30
0.0
 40
388.5819
100
AcDbArc
 50
89.47884552049925
 51
89.5798048399668
  0
CIRCLE
  5
20F3
330
2
100
AcDbEntity
  8
0
100
AcDbCircle
 10
-18608.93465363209
 20
-33587.65517020096
 30
0.0
 40
0.51181
  0
ARC
  5
20F4
330
2
100
AcDbEntity
  8
0
100
AcDbCircle
 10
-18608.93465363209
 20
-33590.17485020095
 30
0.0
 40
0.51181
100
AcDbArc
 50
37.58010537998936
 51
269.2864737343571
  0
CIRCLE
  5
20F5
330
2
100
AcDbEntity
  8
0
100
AcDbCircle
 10
-18608.93465363209
 20
-33588.91501020095
 30
0.0
 40
0.51181
  0
CIRCLE
  5
20F6
330
2
100
AcDbEntity
  8
0
100
AcDbCircle
 10
-18609.99764363208
 20
-33589.54493020095
 30
0.0
 40
0.51181
  0
CIRCLE
  5
20F7
330
2
100
AcDbEntity
  8
0
100
AcDbCircle
 10
-18609.99764363208
 20
-33588.28509020095
 30
0.0
 40
0.51181
  0
CIRCLE
  5
20F8
330
2
100
AcDbEntity
  8
0
100
AcDbCircle
 10
-18609.99764363208
 20
-33589.54493020095
 30
0.0
 40
0.51181
  0
ARC
  5
20F9
330
2
100
AcDbEntity
  8
0
100
AcDbCircle
 10
-18609.99764363208
 20
-33590.80477020095
 30
0.0
 40
0.51181
100
AcDbArc
 50
28.25054466717481
 51
106.0021249503243
  0
ARC
  5
20FA
330
2
100
AcDbEntity
  8
0
100
AcDbCircle
 10
-18611.06063363209
 20
-33593.32445020096
 30
0.0
 40
3.149600000000094
100
AcDbArc
 50
61.27252798135107
 51
72.98014163908501
  0
ARC
  5
20FB
330
2
100
AcDbEntity
  8
0
100
AcDbCircle
 10
-18608.93465363209
 20
-33586.39533020096
 30
0.0
 40
0.51181
100
AcDbArc
 50
207.9423072826807
 51
331.4311351492578
  0
ARC
  5
20FC
330
2
100
AcDbEntity
  8
0
100
AcDbCircle
 10
-18611.06063363209
 20
-33975.21345020095
 30
0.0
 40
388.5819
100
AcDbArc
 50
89.62024776840761
 51
89.75319466624744
  0
ARC
  5
20FD
330
2
100
AcDbEntity
  8
0
100
AcDbCircle
 10
-18611.06063363209
 20
-33975.21345020095
 30
0.0
 40
388.5819
100
AcDbArc
 50
89.79460327232009
 51
89.89160724036967
  0
ARC
  5
20FE
330
2
100
AcDbEntity
  8
0
100
AcDbCircle
 10
-18611.06063363209
 20
-33975.21345020095
 30
0.0
 40
388.5819
100
AcDbArc
 50
89.93307330806841
 51
90.0
  0
ARC
  5
20FF
330
2
100
AcDbEntity
  8
0
100
AcDbCircle
 10
-18611.06063363209
 20
-33975.21345020095
 30
0.0
 40
388.5819
100
AcDbArc
 50
89.93307330806841
 51
90.0
  0
CIRCLE
  5
2100
330
2
100
AcDbEntity
  8
0
100
AcDbCircle
 10
-18606.80867363209
 20
-33587.65517020096
 30
0.0
 40
0.51181
  0
CIRCLE
  5
2101
330
2
100
AcDbEntity
  8
0
100
AcDbCircle
 10
-18605.74568363209
 20
-33592.06461020096
 30
0.0
 40
0.51181
  0
CIRCLE
  5
2102
330
2
100
AcDbEntity
  8
0
100
AcDbCircle
 10
-18606.80867363209
 20
-33593.95437020095
 30
0.0
 40
0.51181
  0
CIRCLE
  5
2103
330
2
100
AcDbEntity
  8
0
100
AcDbCircle
 10
-18605.74568363209
 20
-33594.58429020095
 30
0.0
 40
0.51181
  0
CIRCLE
  5
2104
330
2
100
AcDbEntity
  8
0
100
AcDbCircle
 10
-18605.74568363209
 20
-33593.32445020096
 30
0.0
 40
0.51181
  0
CIRCLE
  5
2105
330
2
100
AcDbEntity
  8
0
100
AcDbCircle
 10
-18605.74568363209
 20
-33593.32445020096
 30
0.0
 40
0.51181
  0
CIRCLE
  5
2106
330
2
100
AcDbEntity
  8
0
100
AcDbCircle
 10
-18606.80867363209
 20
-33592.69453020095
 30
0.0
 40
0.51181
  0
ARC
  5
2107
330
2
100
AcDbEntity
  8
0
100
AcDbCircle
 10
-18611.06063363209
 20
-33593.32445020096
 30
0.0
 40
3.149600000000094
100
AcDbArc
 50
350.7645080422445
 51
9.235491957755471
  0
ARC
  5
2108
330
2
100
AcDbEntity
  8
0
100
AcDbCircle
 10
-18611.06063363209
 20
-33593.32445020096
 30
0.0
 40
3.149600000000094
100
AcDbArc
 50
350.7645080422445
 51
9.235491957755471
  0
CIRCLE
  5
2109
330
2
100
AcDbEntity
  8
0
100
AcDbCircle
 10
-18605.74568363209
 20
-33593.32445020096
 30
0.0
 40
0.51181
  0
CIRCLE
  5
210A
330
2
100
AcDbEntity
  8
0
100
AcDbCircle
 10
-18605.74568363209
 20
-33593.32445020096
 30
0.0
 40
0.51181
  0
CIRCLE
  5
210B
330
2
100
AcDbEntity
  8
0
100
AcDbCircle
 10
-18605.74568363209
 20
-33589.54493020095
 30
0.0
 40
0.51181
  0
CIRCLE
  5
210C
330
2
100
AcDbEntity
  8
0
100
AcDbCircle
 10
-18605.74568363209
 20
-33588.28509020095
 30
0.0
 40
0.51181
  0
CIRCLE
  5
210D
330
2
100
AcDbEntity
  8
0
100
AcDbCircle
 10
-18606.80867363209
 20
-33588.91501020095
 30
0.0
 40
0.51181
  0
ARC
  5
210E
330
2
100
AcDbEntity
  8
0
100
AcDbCircle
 10
-18606.80867363209
 20
-33586.39533020096
 30
0.0
 40
0.51181
100
AcDbArc
 50
209.867644470503
 51
328.8792778603899
  0
ARC
  5
210F
330
2
100
AcDbEntity
  8
0
100
AcDbCircle
 10
-18611.06063363209
 20
-33975.21345020095
 30
0.0
 40
388.5819
100
AcDbArc
 50
89.16151824565444
 51
89.269628418914
  0
ARC
  5
2110
330
2
100
AcDbEntity
  8
0
100
AcDbCircle
 10
-18611.06063363209
 20
-33975.21345020095
 30
0.0
 40
388.5819
100
AcDbArc
 50
89.30843393072116
 51
89.43848839809758
  0
CIRCLE
  5
2111
330
2
100
AcDbEntity
  8
0
100
AcDbCircle
 10
-18605.74568363209
 20
-33590.80477020095
 30
0.0
 40
0.51181
  0
ARC
  5
2112
330
2
100
AcDbEntity
  8
0
100
AcDbCircle
 10
-18614.24960363209
 20
-33587.02525020095
 30
0.0
 40
0.51181
100
AcDbArc
 50
132.4536499735718
 51
48.48769967174797
  0
ARC
  5
2113
330
2
100
AcDbEntity
  8
0
100
AcDbCircle
 10
-18616.37558363209
 20
-33587.02525020095
 30
0.0
 40
0.51181
100
AcDbArc
 50
136.5332812417342
 51
45.03557209096963
  0
CIRCLE
  5
2114
330
2
100
AcDbEntity
  8
0
100
AcDbCircle
 10
-18615.31259363209
 20
-33587.65517020096
 30
0.0
 40
0.51181
  0
CIRCLE
  5
2115
330
2
100
AcDbEntity
  8
0
100
AcDbCircle
 10
-18615.31259363209
 20
-33593.95437020095
 30
0.0
 40
0.51181
  0
CIRCLE
  5
2116
330
2
100
AcDbEntity
  8
0
100
AcDbCircle
 10
-18615.31259363209
 20
-33590.17485020095
 30
0.0
 40
0.51181
  0
CIRCLE
  5
2117
330
2
100
AcDbEntity
  8
0
100
AcDbCircle
 10
-18615.31259363209
 20
-33591.43469020096
 30
0.0
 40
0.51181
  0
CIRCLE
  5
2118
330
2
100
AcDbEntity
  8
0
100
AcDbCircle
 10
-18615.31259363209
 20
-33592.69453020095
 30
0.0
 40
0.51181
  0
CIRCLE
  5
2119
330
2
100
AcDbEntity
  8
0
100
AcDbCircle
 10
-18615.31259363209
 20
-33588.91501020095
 30
0.0
 40
0.51181
  0
CIRCLE
  5
211A
330
2
100
AcDbEntity
  8
0
100
AcDbCircle
 10
-18617.43857363208
 20
-33587.65517020096
 30
0.0
 40
0.51181
  0
CIRCLE
  5
211B
330
2
100
AcDbEntity
  8
0
100
AcDbCircle
 10
-18617.43857363208
 20
-33593.95437020095
 30
0.0
 40
0.51181
  0
CIRCLE
  5
211C
330
2
100
AcDbEntity
  8
0
100
AcDbCircle
 10
-18617.43857363208
 20
-33590.17485020095
 30
0.0
 40
0.51181
  0
CIRCLE
  5
211D
330
2
100
AcDbEntity
  8
0
100
AcDbCircle
 10
-18617.43857363208
 20
-33591.43469020096
 30
0.0
 40
0.51181
  0
CIRCLE
  5
211E
330
2
100
AcDbEntity
  8
0
100
AcDbCircle
 10
-18617.43857363208
 20
-33592.69453020095
 30
0.0
 40
0.51181
  0
CIRCLE
  5
211F
330
2
100
AcDbEntity
  8
0
100
AcDbCircle
 10
-18617.43857363208
 20
-33588.91501020095
 30
0.0
 40
0.51181
  0
CIRCLE
  5
2120
330
2
100
AcDbEntity
  8
0
100
AcDbCircle
 10
-18616.37558363209
 20
-33594.58429020095
 30
0.0
 40
0.51181
  0
CIRCLE
  5
2121
330
2
100
AcDbEntity
  8
0
100
AcDbCircle
 10
-18616.37558363209
 20
-33593.32445020096
 30
0.0
 40
0.51181
  0
CIRCLE
  5
2122
330
2
100
AcDbEntity
  8
0
100
AcDbCircle
 10
-18616.37558363209
 20
-33590.80477020095
 30
0.0
 40
0.51181
  0
CIRCLE
  5
2123
330
2
100
AcDbEntity
  8
0
100
AcDbCircle
 10
-18616.37558363209
 20
-33592.06461020096
 30
0.0
 40
0.51181
  0
CIRCLE
  5
2124
330
2
100
AcDbEntity
  8
0
100
AcDbCircle
 10
-18616.37558363209
 20
-33593.32445020096
 30
0.0
 40
0.51181
  0
CIRCLE
  5
2125
330
2
100
AcDbEntity
  8
0
100
AcDbCircle
 10
-18616.37558363209
 20
-33589.54493020095
 30
0.0
 40
0.51181
  0
CIRCLE
  5
2126
330
2
100
AcDbEntity
  8
0
100
AcDbCircle
 10
-18616.37558363209
 20
-33588.28509020095
 30
0.0
 40
0.51181
  0
ARC
  5
2127
330
2
100
AcDbEntity
  8
0
100
AcDbCircle
 10
-18611.06063363209
 20
-33975.21345020095
 30
0.0
 40
388.5819
100
AcDbArc
 50
90.87745346808615
 51
91.00206940161797
  0
ARC
  5
2128
330
2
100
AcDbEntity
  8
0
100
AcDbCircle
 10
-18617.43857363208
 20
-33586.39533020096
 30
0.0
 40
0.51181
100
AcDbArc
 50
215.2855696732514
 51
326.5939531914868
  0
ARC
  5
2129
330
2
100
AcDbEntity
  8
0
100
AcDbCircle
 10
-18611.06063363209
 20
-33975.21345020095
 30
0.0
 40
388.5819
100
AcDbArc
 50
90.56151160190241
 51
90.69156606927885
  0
ARC
  5
212A
330
2
100
AcDbEntity
  8
0
100
AcDbCircle
 10
-18611.06063363209
 20
-33975.21345020095
 30
0.0
 40
388.5819
100
AcDbArc
 50
90.73037158108601
 51
90.83848175434555
  0
ARC
  5
212B
330
2
100
AcDbEntity
  8
0
100
AcDbCircle
 10
-18615.31259363209
 20
-33586.39533020096
 30
0.0
 40
0.51181
100
AcDbArc
 50
211.1207221396101
 51
330.132355529497
  0
CIRCLE
  5
212C
330
2
100
AcDbEntity
  8
0
100
AcDbCircle
 10
-18613.18661363208
 20
-33587.65517020096
 30
0.0
 40
0.51181
  0
ARC
  5
212D
330
2
100
AcDbEntity
  8
0
100
AcDbCircle
 10
-18614.24960363209
 20
-33594.58429020095
 30
0.0
 40
0.51181
100
AcDbArc
 50
74.8336002527097
 51
328.2805583197053
  0
ARC
  5
212E
330
2
100
AcDbEntity
  8
0
100
AcDbCircle
 10
-18614.24960363209
 20
-33593.32445020096
 30
0.0
 40
0.51181
100
AcDbArc
 50
80.98487696560336
 51
279.0151230343966
  0
CIRCLE
  5
212F
330
2
100
AcDbEntity
  8
0
100
AcDbCircle
 10
-18614.24960363209
 20
-33590.80477020095
 30
0.0
 40
0.51181
  0
ARC
  5
2130
330
2
100
AcDbEntity
  8
0
100
AcDbCircle
 10
-18614.24960363209
 20
-33592.06461020096
 30
0.0
 40
0.51181
100
AcDbArc
 50
31.7194416802947
 51
285.1663997472903
  0
ARC
  5
2131
330
2
100
AcDbEntity
  8
0
100
AcDbCircle
 10
-18614.24960363209
 20
-33593.32445020096
 30
0.0
 40
0.51181
100
AcDbArc
 50
80.98487696560336
 51
279.0151230343966
  0
CIRCLE
  5
2132
330
2
100
AcDbEntity
  8
0
100
AcDbCircle
 10
-18614.24960363209
 20
-33589.54493020095
 30
0.0
 40
0.51181
  0
CIRCLE
  5
2133
330
2
100
AcDbEntity
  8
0
100
AcDbCircle
 10
-18614.24960363209
 20
-33588.28509020095
 30
0.0
 40
0.51181
  0
ARC
  5
2134
330
2
100
AcDbEntity
  8
0
100
AcDbCircle
 10
-18611.06063363209
 20
-33593.32445020096
 30
0.0
 40
3.149600000000094
100
AcDbArc
 50
194.0731132820234
 51
209.0410452903925
  0
ARC
  5
2135
330
2
100
AcDbEntity
  8
0
100
AcDbCircle
 10
-18611.06063363209
 20
-33593.32445020096
 30
0.0
 40
3.149600000000094
100
AcDbArc
 50
170.7645080422445
 51
189.2354919577554
  0
ARC
  5
2136
330
2
100
AcDbEntity
  8
0
100
AcDbCircle
 10
-18611.06063363209
 20
-33593.32445020096
 30
0.0
 40
3.149600000000094
100
AcDbArc
 50
150.9589547096075
 51
165.9268867179766
  0
ARC
  5
2137
330
2
100
AcDbEntity
  8
0
100
AcDbCircle
 10
-18611.06063363209
 20
-33593.32445020096
 30
0.0
 40
3.149600000000094
100
AcDbArc
 50
130.4946076450679
 51
146.238313679373
  0
ARC
  5
2138
330
2
100
AcDbEntity
  8
0
100
AcDbCircle
 10
-18611.06063363209
 20
-33593.32445020096
 30
0.0
 40
3.149600000000094
100
AcDbArc
 50
107.019858360915
 51
118.7274720186489
  0
ARC
  5
2139
330
2
100
AcDbEntity
  8
0
100
AcDbCircle
 10
-18613.18661363208
 20
-33591.43469020096
 30
0.0
 40
0.51181
100
AcDbArc
 50
80.92755376399797
 51
195.8053675612364
  0
ARC
  5
213A
330
2
100
AcDbEntity
  8
0
100
AcDbCircle
 10
-18612.12362363209
 20
-33590.80477020095
 30
0.0
 40
0.51181
100
AcDbArc
 50
73.99787504967571
 51
151.7494553328252
  0
CIRCLE
  5
213B
330
2
100
AcDbEntity
  8
0
100
AcDbCircle
 10
-18613.18661363208
 20
-33590.17485020095
 30
0.0
 40
0.51181
  0
CIRCLE
  5
213C
330
2
100
AcDbEntity
  8
0
100
AcDbCircle
 10
-18613.18661363208
 20
-33588.91501020095
 30
0.0
 40
0.51181
  0
ARC
  5
213D
330
2
100
AcDbEntity
  8
0
100
AcDbCircle
 10
-18611.06063363209
 20
-33975.21345020095
 30
0.0
 40
388.5819
100
AcDbArc
 50
90.42019516003319
 51
90.52115447950074
  0
ARC
  5
213E
330
2
100
AcDbEntity
  8
0
100
AcDbCircle
 10
-18611.06063363209
 20
-33975.21345020095
 30
0.0
 40
388.5819
100
AcDbArc
 50
90.10839275963034
 51
90.2053967276799
  0
ARC
  5
213F
330
2
100
AcDbEntity
  8
0
100
AcDbCircle
 10
-18611.06063363209
 20
-33975.21345020095
 30
0.0
 40
388.5819
100
AcDbArc
 50
90.24680533375256
 51
90.37975223159238
  0
ARC
  5
2140
330
2
100
AcDbEntity
  8
0
100
AcDbCircle
 10
-18613.18661363208
 20
-33586.39533020096
 30
0.0
 40
0.51181
100
AcDbArc
 50
208.5688648507423
 51
332.0576927173194
  0
ARC
  5
2141
330
2
100
AcDbEntity
  8
0
100
AcDbCircle
 10
-18612.12362363209
 20
-33587.02525020095
 30
0.0
 40
0.51181
100
AcDbArc
 50
130.1505974121169
 51
50.16319207632018
  0
CIRCLE
  5
2142
330
2
100
AcDbEntity
  8
0
100
AcDbCircle
 10
-18612.12362363209
 20
-33589.54493020095
 30
0.0
 40
0.51181
  0
CIRCLE
  5
2143
330
2
100
AcDbEntity
  8
0
100
AcDbCircle
 10
-18612.12362363209
 20
-33588.28509020095
 30
0.0
 40
0.51181
  0
CIRCLE
  5
2144
330
2
100
AcDbEntity
  8
0
100
AcDbCircle
 10
-18612.12362363209
 20
-33589.54493020095
 30
0.0
 40
0.51181
  0
CIRCLE
  5
2145
330
2
100
AcDbEntity
  8
0
100
AcDbCircle
 10
-18611.06063363209
 20
-33597.73389020095
 30
0.0
 40
0.51181
  0
CIRCLE
  5
2146
330
2
100
AcDbEntity
  8
0
100
AcDbCircle
 10
-18611.06063363209
 20
-33597.73389020095
 30
0.0
 40
0.51181
  0
CIRCLE
  5
2147
330
2
100
AcDbEntity
  8
0
100
AcDbCircle
 10
-18611.06063363209
 20
-33597.73389020095
 30
0.0
 40
0.51181
  0
CIRCLE
  5
2148
330
2
100
AcDbEntity
  8
0
100
AcDbCircle
 10
-18611.06063363209
 20
-33597.73389020095
 30
0.0
 40
0.51181
  0
ARC
  5
2149
330
2
100
AcDbEntity
  8
0
100
AcDbCircle
 10
-18611.06063363208
 20
-33211.43545020095
 30
0.0
 40
388.5819
100
AcDbArc
 50
269.9330733080684
 51
270.0
  0
ARC
  5
214A
330
2
100
AcDbEntity
  8
0
100
AcDbCircle
 10
-18611.06063363209
 20
-33600.25357020095
 30
0.0
 40
0.51181
100
AcDbArc
 50
27.51988451222614
 51
152.4801154877738
  0
CIRCLE
  5
214B
330
2
100
AcDbEntity
  8
0
100
AcDbCircle
 10
-18611.06063363209
 20
-33598.99373020096
 30
0.0
 40
0.51181
  0
CIRCLE
  5
214C
330
2
100
AcDbEntity
  8
0
100
AcDbCircle
 10
-18611.06063363209
 20
-33598.99373020096
 30
0.0
 40
0.51181
  0
ARC
  5
214D
330
2
100
AcDbEntity
  8
0
100
AcDbCircle
 10
-18611.06063363209
 20
-33600.25357020095
 30
0.0
 40
0.51181
100
AcDbArc
 50
27.51988451222614
 51
152.4801154877738
  0
ARC
  5
214E
330
2
100
AcDbEntity
  8
0
100
AcDbCircle
 10
-18611.06063363209
 20
-33211.43545020095
 30
0.0
 40
388.5819
100
AcDbArc
 50
269.9330733080684
 51
270.0
  0
ARC
  5
214F
330
2
100
AcDbEntity
  8
0
100
AcDbCircle
 10
-18611.06063363209
 20
-33593.32445020096
 30
0.0
 40
3.149600000000094
100
AcDbArc
 50
260.6791612311385
 51
279.3208387688614
  0
ARC
  5
2150
330
2
100
AcDbEntity
  8
0
100
AcDbCircle
 10
-18611.06063363209
 20
-33596.47405020095
 30
0.0
 40
0.51181
100
AcDbArc
 50
175.3395806141586
 51
4.660419385841366
  0
ARC
  5
2151
330
2
100
AcDbEntity
  8
0
100
AcDbCircle
 10
-18611.06063363209
 20
-33596.47405020095
 30
0.0
 40
0.51181
100
AcDbArc
 50
175.3395806141586
 51
4.660419385841366
  0
ARC
  5
2152
330
2
100
AcDbEntity
  8
0
100
AcDbCircle
 10
-18611.06063363209
 20
-33593.32445020096
 30
0.0
 40
3.149600000000094
100
AcDbArc
 50
260.6791612311385
 51
279.3208387688614
  0
CIRCLE
  5
2153
330
2
100
AcDbEntity
  8
0
100
AcDbCircle
 10
-18607.87166363208
 20
-33598.36381020096
 30
0.0
 40
0.51181
  0
CIRCLE
  5
2154
330
2
100
AcDbEntity
  8
0
100
AcDbCircle
 10
-18609.99764363208
 20
-33598.36381020096
 30
0.0
 40
0.51181
  0
CIRCLE
  5
2155
330
2
100
AcDbEntity
  8
0
100
AcDbCircle
 10
-18605.74568363209
 20
-33598.36381020096
 30
0.0
 40
0.51181
  0
ARC
  5
2156
330
2
100
AcDbEntity
  8
0
100
AcDbCircle
 10
-18611.06063363209
 20
-33211.43545020095
 30
0.0
 40
388.5819
100
AcDbArc
 50
270.4201951600332
 51
270.5211544795008
  0
ARC
  5
2157
330
2
100
AcDbEntity
  8
0
100
AcDbCircle
 10
-18607.87166363208
 20
-33599.62365020096
 30
0.0
 40
0.51181
100
AcDbArc
 50
312.4536499735719
 51
228.487699671748
  0
ARC
  5
2158
330
2
100
AcDbEntity
  8
0
100
AcDbCircle
 10
-18611.06063363209
 20
-33211.43545020095
 30
0.0
 40
388.5819
100
AcDbArc
 50
270.1083927596304
 51
270.2053967276799
  0
ARC
  5
2159
330
2
100
AcDbEntity
  8
0
100
AcDbCircle
 10
-18611.06063363209
 20
-33211.43545020095
 30
0.0
 40
388.5819
100
AcDbArc
 50
270.2468053337526
 51
270.3797522315924
  0
ARC
  5
215A
330
2
100
AcDbEntity
  8
0
100
AcDbCircle
 10
-18608.93465363209
 20
-33600.25357020095
 30
0.0
 40
0.51181
100
AcDbArc
 50
28.56886485074225
 51
152.0576927173193
  0
ARC
  5
215B
330
2
100
AcDbEntity
  8
0
100
AcDbCircle
 10
-18609.99764363208
 20
-33599.62365020096
 30
0.0
 40
0.51181
100
AcDbArc
 50
310.1505974121169
 51
230.1631920763202
  0
CIRCLE
  5
215C
330
2
100
AcDbEntity
  8
0
100
AcDbCircle
 10
-18608.93465363209
 20
-33598.99373020096
 30
0.0
 40
0.51181
  0
ARC
  5
215D
330
2
100
AcDbEntity
  8
0
100
AcDbCircle
 10
-18611.06063363209
 20
-33211.43545020095
 30
0.0
 40
388.5819
100
AcDbArc
 50
270.0
 51
270.0669266919316
  0
ARC
  5
215E
330
2
100
AcDbEntity
  8
0
100
AcDbCircle
 10
-18611.06063363209
 20
-33211.43545020095
 30
0.0
 40
388.5819
100
AcDbArc
 50
270.0
 51
270.0669266919316
  0
ARC
  5
215F
330
2
100
AcDbEntity
  8
0
100
AcDbCircle
 10
-18611.06063363209
 20
-33211.43545020095
 30
0.0
 40
388.5819
100
AcDbArc
 50
270.5615116019024
 51
270.6915660692788
  0
ARC
  5
2160
330
2
100
AcDbEntity
  8
0
100
AcDbCircle
 10
-18611.06063363209
 20
-33211.43545020095
 30
0.0
 40
388.5819
100
AcDbArc
 50
270.730371581086
 51
270.8384817543455
  0
ARC
  5
2161
330
2
100
AcDbEntity
  8
0
100
AcDbCircle
 10
-18606.80867363209
 20
-33600.25357020095
 30
0.0
 40
0.51181
100
AcDbArc
 50
31.1207221396101
 51
150.132355529497
  0
ARC
  5
2162
330
2
100
AcDbEntity
  8
0
100
AcDbCircle
 10
-18605.74568363209
 20
-33599.62365020096
 30
0.0
 40
0.51181
100
AcDbArc
 50
316.5332812417342
 51
225.0355720909696
  0
CIRCLE
  5
2163
330
2
100
AcDbEntity
  8
0
100
AcDbCircle
 10
-18606.80867363209
 20
-33598.99373020096
 30
0.0
 40
0.51181
  0
CIRCLE
  5
2164
330
2
100
AcDbEntity
  8
0
100
AcDbCircle
 10
-18607.87166363208
 20
-33597.10397020095
 30
0.0
 40
0.51181
  0
CIRCLE
  5
2165
330
2
100
AcDbEntity
  8
0
100
AcDbCircle
 10
-18607.87166363208
 20
-33595.84413020095
 30
0.0
 40
0.51181
  0
CIRCLE
  5
2166
330
2
100
AcDbEntity
  8
0
100
AcDbCircle
 10
-18609.99764363208
 20
-33597.10397020095
 30
0.0
 40
0.51181
  0
CIRCLE
  5
2167
330
2
100
AcDbEntity
  8
0
100
AcDbCircle
 10
-18609.99764363208
 20
-33597.10397020095
 30
0.0
 40
0.51181
  0
CIRCLE
  5
2168
330
2
100
AcDbEntity
  8
0
100
AcDbCircle
 10
-18608.93465363209
 20
-33597.73389020095
 30
0.0
 40
0.51181
  0
ARC
  5
2169
330
2
100
AcDbEntity
  8
0
100
AcDbCircle
 10
-18611.06063363209
 20
-33593.32445020096
 30
0.0
 40
3.149600000000094
100
AcDbArc
 50
287.019858360915
 51
298.7274720186489
  0
ARC
  5
216A
330
2
100
AcDbEntity
  8
0
100
AcDbCircle
 10
-18609.99764363208
 20
-33595.84413020095
 30
0.0
 40
0.51181
100
AcDbArc
 50
253.9978750496757
 51
331.7494553328252
  0
CIRCLE
  5
216B
330
2
100
AcDbEntity
  8
0
100
AcDbCircle
 10
-18608.93465363209
 20
-33596.47405020095
 30
0.0
 40
0.51181
  0
CIRCLE
  5
216C
330
2
100
AcDbEntity
  8
0
100
AcDbCircle
 10
-18606.80867363209
 20
-33597.73389020095
 30
0.0
 40
0.51181
  0
CIRCLE
  5
216D
330
2
100
AcDbEntity
  8
0
100
AcDbCircle
 10
-18605.74568363209
 20
-33597.10397020095
 30
0.0
 40
0.51181
  0
CIRCLE
  5
216E
330
2
100
AcDbEntity
  8
0
100
AcDbCircle
 10
-18605.74568363209
 20
-33595.84413020095
 30
0.0
 40
0.51181
  0
CIRCLE
  5
216F
330
2
100
AcDbEntity
  8
0
100
AcDbCircle
 10
-18606.80867363209
 20
-33596.47405020095
 30
0.0
 40
0.51181
  0
CIRCLE
  5
2170
330
2
100
AcDbEntity
  8
0
100
AcDbCircle
 10
-18614.24960363209
 20
-33598.36381020096
 30
0.0
 40
0.51181
  0
CIRCLE
  5
2171
330
2
100
AcDbEntity
  8
0
100
AcDbCircle
 10
-18616.37558363209
 20
-33598.36381020096
 30
0.0
 40
0.51181
  0
CIRCLE
  5
2172
330
2
100
AcDbEntity
  8
0
100
AcDbCircle
 10
-18615.31259363209
 20
-33598.99373020096
 30
0.0
 40
0.51181
  0
CIRCLE
  5
2173
330
2
100
AcDbEntity
  8
0
100
AcDbCircle
 10
-18617.43857363208
 20
-33598.99373020096
 30
0.0
 40
0.51181
  0
ARC
  5
2174
330
2
100
AcDbEntity
  8
0
100
AcDbCircle
 10
-18617.43857363208
 20
-33600.25357020095
 30
0.0
 40
0.51181
100
AcDbArc
 50
33.40604680851324
 51
144.7144303267486
  0
ARC
  5
2175
330
2
100
AcDbEntity
  8
0
100
AcDbCircle
 10
-18611.06063363209
 20
-33211.43545020095
 30
0.0
 40
388.5819
100
AcDbArc
 50
268.997930598382
 51
269.1225465319138
  0
ARC
  5
2176
330
2
100
AcDbEntity
  8
0
100
AcDbCircle
 10
-18616.37558363209
 20
-33599.62365020096
 30
0.0
 40
0.51181
100
AcDbArc
 50
314.9644279090304
 51
223.4667187582658
  0
ARC
  5
2177
330
2
100
AcDbEntity
  8
0
100
AcDbCircle
 10
-18615.31259363209
 20
-33600.25357020095
 30
0.0
 40
0.51181
100
AcDbArc
 50
29.86764447050297
 51
148.8792778603899
  0
ARC
  5
2178
330
2
100
AcDbEntity
  8
0
100
AcDbCircle
 10
-18611.06063363209
 20
-33211.43545020095
 30
0.0
 40
388.5819
100
AcDbArc
 50
269.1615182456545
 51
269.269628418914
  0
ARC
  5
2179
330
2
100
AcDbEntity
  8
0
100
AcDbCircle
 10
-18611.06063363209
 20
-33211.43545020095
 30
0.0
 40
388.5819
100
AcDbArc
 50
269.3084339307211
 51
269.4384883980975
  0
ARC
  5
217A
330
2
100
AcDbEntity
  8
0
100
AcDbCircle
 10
-18614.24960363209
 20
-33599.62365020096
 30
0.0
 40
0.51181
100
AcDbArc
 50
311.512300328252
 51
227.5463500264282
  0
ARC
  5
217B
330
2
100
AcDbEntity
  8
0
100
AcDbCircle
 10
-18611.06063363209
 20
-33211.43545020095
 30
0.0
 40
388.5819
100
AcDbArc
 50
269.4788455204992
 51
269.5798048399668
  0
CIRCLE
  5
217C
330
2
100
AcDbEntity
  8
0
100
AcDbCircle
 10
-18613.18661363208
 20
-33598.99373020096
 30
0.0
 40
0.51181
  0
ARC
  5
217D
330
2
100
AcDbEntity
  8
0
100
AcDbCircle
 10
-18613.18661363208
 20
-33600.25357020095
 30
0.0
 40
0.51181
100
AcDbArc
 50
27.94230728268067
 51
151.4311351492577
  0
ARC
  5
217E
330
2
100
AcDbEntity
  8
0
100
AcDbCircle
 10
-18611.06063363209
 20
-33211.43545020095
 30
0.0
 40
388.5819
100
AcDbArc
 50
269.6202477684076
 51
269.7531946662475
  0
ARC
  5
217F
330
2
100
AcDbEntity
  8
0
100
AcDbCircle
 10
-18611.06063363209
 20
-33211.43545020095
 30
0.0
 40
388.5819
100
AcDbArc
 50
269.7946032723201
 51
269.8916072403696
  0
CIRCLE
  5
2180
330
2
100
AcDbEntity
  8
0
100
AcDbCircle
 10
-18615.31259363209
 20
-33597.73389020095
 30
0.0
 40
0.51181
  0
CIRCLE
  5
2181
330
2
100
AcDbEntity
  8
0
100
AcDbCircle
 10
-18615.31259363209
 20
-33596.47405020095
 30
0.0
 40
0.51181
  0
CIRCLE
  5
2182
330
2
100
AcDbEntity
  8
0
100
AcDbCircle
 10
-18616.37558363209
 20
-33597.10397020095
 30
0.0
 40
0.51181
  0
CIRCLE
  5
2183
330
2
100
AcDbEntity
  8
0
100
AcDbCircle
 10
-18617.43857363208
 20
-33597.73389020095
 30
0.0
 40
0.51181
  0
CIRCLE
  5
2184
330
2
100
AcDbEntity
  8
0
100
AcDbCircle
 10
-18617.43857363208
 20
-33596.47405020095
 30
0.0
 40
0.51181
  0
CIRCLE
  5
2185
330
2
100
AcDbEntity
  8
0
100
AcDbCircle
 10
-18616.37558363209
 20
-33595.84413020095
 30
0.0
 40
0.51181
  0
CIRCLE
  5
2186
330
2
100
AcDbEntity
  8
0
100
AcDbCircle
 10
-18614.24960363209
 20
-33595.84413020095
 30
0.0
 40
0.51181
  0
CIRCLE
  5
2187
330
2
100
AcDbEntity
  8
0
100
AcDbCircle
 10
-18614.24960363209
 20
-33597.10397020095
 30
0.0
 40
0.51181
  0
CIRCLE
  5
2188
330
2
100
AcDbEntity
  8
0
100
AcDbCircle
 10
-18613.18661363208
 20
-33597.73389020095
 30
0.0
 40
0.51181
  0
CIRCLE
  5
2189
330
2
100
AcDbEntity
  8
0
100
AcDbCircle
 10
-18613.18661363208
 20
-33596.47405020095
 30
0.0
 40
0.51181
  0
ARC
  5
218A
330
2
100
AcDbEntity
  8
0
100
AcDbCircle
 10
-18612.12362363209
 20
-33595.84413020095
 30
0.0
 40
0.51181
100
AcDbArc
 50
208.2505446671748
 51
286.0021249503243
  0
ARC
  5
218B
330
2
100
AcDbEntity
  8
0
100
AcDbCircle
 10
-18611.06063363209
 20
-33593.32445020096
 30
0.0
 40
3.149600000000094
100
AcDbArc
 50
241.2725279813511
 51
252.980141639085
  0
CIRCLE
  5
218C
330
2
100
AcDbEntity
  8
0
100
AcDbCircle
 10
-18612.12362363209
 20
-33598.36381020096
 30
0.0
 40
0.51181
  0
ARC
  5
218D
330
2
100
AcDbEntity
  8
0
100
AcDbCircle
 10
-18612.12362363209
 20
-33599.62365020096
 30
0.0
 40
0.51181
100
AcDbArc
 50
309.8368079236798
 51
229.8494025878831
  0
CIRCLE
  5
218E
330
2
100
AcDbEntity
  8
0
100
AcDbCircle
 10
-18612.12362363209
 20
-33597.10397020095
 30
0.0
 40
0.51181
  0
CIRCLE
  5
218F
330
2
100
AcDbEntity
  8
0
100
AcDbCircle
 10
-18612.12362363209
 20
-33597.10397020095
 30
0.0
 40
0.51181
  0
CIRCLE
  5
2190
330
2
100
AcDbEntity
  8
0
100
AcDbCircle
 10
-18615.31259363209
 20
-33595.21421020096
 30
0.0
 40
0.51181
  0
CIRCLE
  5
2191
330
2
100
AcDbEntity
  8
0
100
AcDbCircle
 10
-18617.43857363208
 20
-33595.21421020096
 30
0.0
 40
0.51181
  0
ARC
  5
2192
330
2
100
AcDbEntity
  8
0
100
AcDbCircle
 10
-18613.18661363208
 20
-33595.21421020096
 30
0.0
 40
0.51181
100
AcDbArc
 50
164.1946324387635
 51
279.0724462360021
  0
ARC
  5
2193
330
2
100
AcDbEntity
  8
0
100
AcDbCircle
 10
-18611.06063363209
 20
-33593.32445020096
 30
0.0
 40
3.149600000000094
100
AcDbArc
 50
213.7616863206269
 51
229.505392354932
  0
ARC
  5
2194
330
2
100
AcDbEntity
  8
0
100
AcDbCircle
 10
-18611.06063363209
 20
-33593.32445020096
 30
0.0
 40
3.149600000000094
100
AcDbArc
 50
310.4946076450679
 51
326.238313679373
  0
ARC
  5
2195
330
2
100
AcDbEntity
  8
0
100
AcDbCircle
 10
-18608.93465363209
 20
-33595.21421020096
 30
0.0
 40
0.51181
100
AcDbArc
 50
260.9275537639979
 51
15.80536756123645
  0
CIRCLE
  5
2196
330
2
100
AcDbEntity
  8
0
100
AcDbCircle
 10
-18606.80867363209
 20
-33595.21421020096
 30
0.0
 40
0.51181
  0
ARC
  5
2197
330
2
100
AcDbEntity
  8
0
100
AcDbCircle
 10
-18620.62754363208
 20
-33587.02525020095
 30
0.0
 40
0.51181
100
AcDbArc
 50
148.8327774758346
 51
33.99076342420356
  0
ARC
  5
2198
330
2
100
AcDbEntity
  8
0
100
AcDbCircle
 10
-18622.75352363209
 20
-33587.02525020095
 30
0.0
 40
0.51181
100
AcDbArc
 50
158.0542599015155
 51
26.856143626431
  0
CIRCLE
  5
2199
330
2
100
AcDbEntity
  8
0
100
AcDbCircle
 10
-18624.87950363209
 20
-33594.58429020095
 30
0.0
 40
0.51181
  0
CIRCLE
  5
219A
330
2
100
AcDbEntity
  8
0
100
AcDbCircle
 10
-18624.87950363209
 20
-33593.32445020096
 30
0.0
 40
0.51181
  0
CIRCLE
  5
219B
330
2
100
AcDbEntity
  8
0
100
AcDbCircle
 10
-18624.87950363209
 20
-33590.80477020095
 30
0.0
 40
0.51181
  0
CIRCLE
  5
219C
330
2
100
AcDbEntity
  8
0
100
AcDbCircle
 10
-18624.87950363209
 20
-33592.06461020096
 30
0.0
 40
0.51181
  0
CIRCLE
  5
219D
330
2
100
AcDbEntity
  8
0
100
AcDbCircle
 10
-18624.87950363209
 20
-33589.54493020095
 30
0.0
 40
0.51181
  0
CIRCLE
  5
219E
330
2
100
AcDbEntity
  8
0
100
AcDbCircle
 10
-18624.87950363209
 20
-33588.28509020095
 30
0.0
 40
0.51181
  0
ARC
  5
219F
330
2
100
AcDbEntity
  8
0
100
AcDbCircle
 10
-18622.65509863209
 20
-33593.32445020096
 30
0.0
 40
6.515735
100
AcDbArc
 50
105.2400521398916
 51
113.6587477492088
  0
ARC
  5
21A0
330
2
100
AcDbEntity
  8
0
100
AcDbCircle
 10
-18624.87950363209
 20
-33587.02525020095
 30
0.0
 40
0.51181
100
AcDbArc
 50
220.3099269956172
 51
358.5888728955491
  0
CIRCLE
  5
21A1
330
2
100
AcDbEntity
  8
0
100
AcDbCircle
 10
-18621.69053363209
 20
-33587.65517020096
 30
0.0
 40
0.51181
  0
CIRCLE
  5
21A2
330
2
100
AcDbEntity
  8
0
100
AcDbCircle
 10
-18621.69053363209
 20
-33593.95437020095
 30
0.0
 40
0.51181
  0
CIRCLE
  5
21A3
330
2
100
AcDbEntity
  8
0
100
AcDbCircle
 10
-18621.69053363209
 20
-33590.17485020095
 30
0.0
 40
0.51181
  0
CIRCLE
  5
21A4
330
2
100
AcDbEntity
  8
0
100
AcDbCircle
 10
-18621.69053363209
 20
-33591.43469020096
 30
0.0
 40
0.51181
  0
CIRCLE
  5
21A5
330
2
100
AcDbEntity
  8
0
100
AcDbCircle
 10
-18621.69053363209
 20
-33592.69453020095
 30
0.0
 40
0.51181
  0
CIRCLE
  5
21A6
330
2
100
AcDbEntity
  8
0
100
AcDbCircle
 10
-18621.69053363209
 20
-33588.91501020095
 30
0.0
 40
0.51181
  0
ARC
  5
21A7
330
2
100
AcDbEntity
  8
0
100
AcDbCircle
 10
-18611.06063363209
 20
-33975.21345020095
 30
0.0
 40
388.5819
100
AcDbArc
 50
91.51573665066575
 51
91.61630223614174
  0
ARC
  5
21A8
330
2
100
AcDbEntity
  8
0
100
AcDbCircle
 10
-18621.69053363209
 20
-33586.39533020096
 30
0.0
 40
0.51181
100
AcDbArc
 50
229.7838029865121
 51
313.3482358986587
  0
CIRCLE
  5
21A9
330
2
100
AcDbEntity
  8
0
100
AcDbCircle
 10
-18623.81651363209
 20
-33587.65517020096
 30
0.0
 40
0.51181
  0
CIRCLE
  5
21AA
330
2
100
AcDbEntity
  8
0
100
AcDbCircle
 10
-18623.81651363209
 20
-33593.95437020095
 30
0.0
 40
0.51181
  0
CIRCLE
  5
21AB
330
2
100
AcDbEntity
  8
0
100
AcDbCircle
 10
-18623.81651363209
 20
-33590.17485020095
 30
0.0
 40
0.51181
  0
CIRCLE
  5
21AC
330
2
100
AcDbEntity
  8
0
100
AcDbCircle
 10
-18623.81651363209
 20
-33591.43469020096
 30
0.0
 40
0.51181
  0
CIRCLE
  5
21AD
330
2
100
AcDbEntity
  8
0
100
AcDbCircle
 10
-18623.81651363209
 20
-33592.69453020095
 30
0.0
 40
0.51181
  0
CIRCLE
  5
21AE
330
2
100
AcDbEntity
  8
0
100
AcDbCircle
 10
-18623.81651363209
 20
-33588.91501020095
 30
0.0
 40
0.51181
  0
CIRCLE
  5
21AF
330
2
100
AcDbEntity
  8
0
100
AcDbCircle
 10
-18622.75352363209
 20
-33594.58429020095
 30
0.0
 40
0.51181
  0
CIRCLE
  5
21B0
330
2
100
AcDbEntity
  8
0
100
AcDbCircle
 10
-18622.75352363209
 20
-33590.80477020095
 30
0.0
 40
0.51181
  0
CIRCLE
  5
21B1
330
2
100
AcDbEntity
  8
0
100
AcDbCircle
 10
-18622.75352363209
 20
-33592.06461020096
 30
0.0
 40
0.51181
  0
CIRCLE
  5
21B2
330
2
100
AcDbEntity
  8
0
100
AcDbCircle
 10
-18622.75352363209
 20
-33593.32445020096
 30
0.0
 40
0.51181
  0
CIRCLE
  5
21B3
330
2
100
AcDbEntity
  8
0
100
AcDbCircle
 10
-18622.75352363209
 20
-33589.54493020095
 30
0.0
 40
0.51181
  0
CIRCLE
  5
21B4
330
2
100
AcDbEntity
  8
0
100
AcDbCircle
 10
-18622.75352363209
 20
-33588.28509020095
 30
0.0
 40
0.51181
  0
ARC
  5
21B5
330
2
100
AcDbEntity
  8
0
100
AcDbCircle
 10
-18611.06063363209
 20
-33975.21345020095
 30
0.0
 40
388.5819
100
AcDbArc
 50
91.65700277445491
 51
91.77938467789116
  0
ARC
  5
21B6
330
2
100
AcDbEntity
  8
0
100
AcDbCircle
 10
-18623.81651363209
 20
-33586.39533020096
 30
0.0
 40
0.51181
100
AcDbArc
 50
274.9322101265012
 51
284.0979999528041
  0
ARC
  5
21B7
330
2
100
AcDbEntity
  8
0
100
AcDbCircle
 10
-18622.65509863209
 20
-33593.32445020096
 30
0.0
 40
6.515735
100
AcDbArc
 50
94.14486008443125
 51
95.04647248746522
  0
CIRCLE
  5
21B8
330
2
100
AcDbEntity
  8
0
100
AcDbCircle
 10
-18620.62754363208
 20
-33594.58429020095
 30
0.0
 40
0.51181
  0
ARC
  5
21B9
330
2
100
AcDbEntity
  8
0
100
AcDbCircle
 10
-18611.06063363209
 20
-33975.21345020095
 30
0.0
 40
388.5819
100
AcDbArc
 50
91.34817938519217
 51
91.47536151382427
  0
CIRCLE
  5
21BA
330
2
100
AcDbEntity
  8
0
100
AcDbCircle
 10
-18620.62754363208
 20
-33593.32445020096
 30
0.0
 40
0.51181
  0
CIRCLE
  5
21BB
330
2
100
AcDbEntity
  8
0
100
AcDbCircle
 10
-18620.62754363208
 20
-33590.80477020095
 30
0.0
 40
0.51181
  0
CIRCLE
  5
21BC
330
2
100
AcDbEntity
  8
0
100
AcDbCircle
 10
-18620.62754363208
 20
-33592.06461020096
 30
0.0
 40
0.51181
  0
CIRCLE
  5
21BD
330
2
100
AcDbEntity
  8
0
100
AcDbCircle
 10
-18620.62754363208
 20
-33589.54493020095
 30
0.0
 40
0.51181
  0
CIRCLE
  5
21BE
330
2
100
AcDbEntity
  8
0
100
AcDbCircle
 10
-18620.62754363208
 20
-33588.28509020095
 30
0.0
 40
0.51181
  0
CIRCLE
  5
21BF
330
2
100
AcDbEntity
  8
0
100
AcDbCircle
 10
-18619.56455363209
 20
-33587.65517020096
 30
0.0
 40
0.51181
  0
CIRCLE
  5
21C0
330
2
100
AcDbEntity
  8
0
100
AcDbCircle
 10
-18619.56455363209
 20
-33593.95437020095
 30
0.0
 40
0.51181
  0
CIRCLE
  5
21C1
330
2
100
AcDbEntity
  8
0
100
AcDbCircle
 10
-18619.56455363209
 20
-33591.43469020096
 30
0.0
 40
0.51181
  0
CIRCLE
  5
21C2
330
2
100
AcDbEntity
  8
0
100
AcDbCircle
 10
-18619.56455363209
 20
-33590.17485020095
 30
0.0
 40
0.51181
  0
CIRCLE
  5
21C3
330
2
100
AcDbEntity
  8
0
100
AcDbCircle
 10
-18619.56455363209
 20
-33592.69453020095
 30
0.0
 40
0.51181
  0
CIRCLE
  5
21C4
330
2
100
AcDbEntity
  8
0
100
AcDbCircle
 10
-18619.56455363209
 20
-33588.91501020095
 30
0.0
 40
0.51181
  0
ARC
  5
21C5
330
2
100
AcDbEntity
  8
0
100
AcDbCircle
 10
-18611.06063363209
 20
-33975.21345020095
 30
0.0
 40
388.5819
100
AcDbArc
 50
91.19516949009284
 51
91.31068624624898
  0
ARC
  5
21C6
330
2
100
AcDbEntity
  8
0
100
AcDbCircle
 10
-18619.56455363209
 20
-33586.39533020096
 30
0.0
 40
0.51181
100
AcDbArc
 50
221.3138467902009
 51
321.1920089468914
  0
CIRCLE
  5
21C7
330
2
100
AcDbEntity
  8
0
100
AcDbCircle
 10
-18628.06847363209
 20
-33593.95437020095
 30
0.0
 40
0.51181
  0
ARC
  5
21C8
330
2
100
AcDbEntity
  8
0
100
AcDbCircle
 10
-18622.65509863209
 20
-33593.32445020096
 30
0.0
 40
6.515735
100
AcDbArc
 50
145.8160267743292
 51
153.800727304767
  0
ARC
  5
21C9
330
2
100
AcDbEntity
  8
0
100
AcDbCircle
 10
-18628.06847363209
 20
-33590.17485020095
 30
0.0
 40
0.51181
100
AcDbArc
 50
212.2274775789331
 51
87.38927650068388
  0
CIRCLE
  5
21CA
330
2
100
AcDbEntity
  8
0
100
AcDbCircle
 10
-18628.06847363209
 20
-33591.43469020096
 30
0.0
 40
0.51181
  0
CIRCLE
  5
21CB
330
2
100
AcDbEntity
  8
0
100
AcDbCircle
 10
-18628.06847363209
 20
-33592.69453020095
 30
0.0
 40
0.51181
  0
ARC
  5
21CC
330
2
100
AcDbEntity
  8
0
100
AcDbCircle
 10
-18629.13146363209
 20
-33594.58429020095
 30
0.0
 40
0.51181
100
AcDbArc
 50
292.4319848662126
 51
89.58441928786857
  0
ARC
  5
21CD
330
2
100
AcDbEntity
  8
0
100
AcDbCircle
 10
-18622.65509863209
 20
-33593.32445020096
 30
0.0
 40
6.515735
100
AcDbArc
 50
186.592417768009
 51
195.4239863842835
  0
ARC
  5
21CE
330
2
100
AcDbEntity
  8
0
100
AcDbCircle
 10
-18622.65509863209
 20
-33593.32445020096
 30
0.0
 40
6.515735
100
AcDbArc
 50
175.4979838193614
 51
180.0
  0
ARC
  5
21CF
330
2
100
AcDbEntity
  8
0
100
AcDbCircle
 10
-18622.65509863209
 20
-33593.32445020096
 30
0.0
 40
6.515735
100
AcDbArc
 50
180.0
 51
184.5020161806385
  0
ARC
  5
21D0
330
2
100
AcDbEntity
  8
0
100
AcDbCircle
 10
-18622.65509863209
 20
-33593.32445020096
 30
0.0
 40
6.515735
100
AcDbArc
 50
156.4244629867106
 51
161.0577187907427
  0
ARC
  5
21D1
330
2
100
AcDbEntity
  8
0
100
AcDbCircle
 10
-18622.65509863209
 20
-33593.32445020096
 30
0.0
 40
6.515735
100
AcDbArc
 50
164.5760136157164
 51
173.4075822319909
  0
ARC
  5
21D2
330
2
100
AcDbEntity
  8
0
100
AcDbCircle
 10
-18622.65509863209
 20
-33593.32445020096
 30
0.0
 40
6.515735
100
AcDbArc
 50
175.4979838193614
 51
180.0
  0
ARC
  5
21D3
330
2
100
AcDbEntity
  8
0
100
AcDbCircle
 10
-18622.65509863209
 20
-33593.32445020096
 30
0.0
 40
6.515735
100
AcDbArc
 50
180.0
 51
184.5020161806385
  0
ARC
  5
21D4
330
2
100
AcDbEntity
  8
0
100
AcDbCircle
 10
-18629.13146363209
 20
-33590.80477020095
 30
0.0
 40
0.51181
100
AcDbArc
 50
307.7703547487778
 51
9.71182702723588
  0
ARC
  5
21D5
330
2
100
AcDbEntity
  8
0
100
AcDbCircle
 10
-18629.13146363209
 20
-33592.06461020096
 30
0.0
 40
0.51181
100
AcDbArc
 50
270.4155807121314
 51
67.56801513378738
  0
ARC
  5
21D6
330
2
100
AcDbEntity
  8
0
100
AcDbCircle
 10
-18629.13146363209
 20
-33593.32445020096
 30
0.0
 40
0.51181
100
AcDbArc
 50
267.8426933705988
 51
92.15730662940119
  0
ARC
  5
21D7
330
2
100
AcDbEntity
  8
0
100
AcDbCircle
 10
-18622.65509863209
 20
-33593.32445020096
 30
0.0
 40
6.515735
100
AcDbArc
 50
115.6312342319599
 51
124.5843221224152
  0
CIRCLE
  5
21D8
330
2
100
AcDbEntity
  8
0
100
AcDbCircle
 10
-18627.00548363209
 20
-33594.58429020095
 30
0.0
 40
0.51181
  0
ARC
  5
21D9
330
2
100
AcDbEntity
  8
0
100
AcDbCircle
 10
-18622.65509863209
 20
-33593.32445020096
 30
0.0
 40
6.515735
100
AcDbArc
 50
126.5239628366505
 51
135.0828926209322
  0
ARC
  5
21DA
330
2
100
AcDbEntity
  8
0
100
AcDbCircle
 10
-18627.00548363209
 20
-33588.28509020095
 30
0.0
 40
0.51181
100
AcDbArc
 50
239.0007080213469
 51
22.6061474397177
  0
CIRCLE
  5
21DB
330
2
100
AcDbEntity
  8
0
100
AcDbCircle
 10
-18627.00548363209
 20
-33589.54493020095
 30
0.0
 40
0.51181
  0
CIRCLE
  5
21DC
330
2
100
AcDbEntity
  8
0
100
AcDbCircle
 10
-18627.00548363209
 20
-33593.32445020096
 30
0.0
 40
0.51181
  0
CIRCLE
  5
21DD
330
2
100
AcDbEntity
  8
0
100
AcDbCircle
 10
-18627.00548363209
 20
-33590.80477020095
 30
0.0
 40
0.51181
  0
CIRCLE
  5
21DE
330
2
100
AcDbEntity
  8
0
100
AcDbCircle
 10
-18627.00548363209
 20
-33592.06461020096
 30
0.0
 40
0.51181
  0
ARC
  5
21DF
330
2
100
AcDbEntity
  8
0
100
AcDbCircle
 10
-18628.06847363209
 20
-33588.91501020095
 30
0.0
 40
0.51181
100
AcDbArc
 50
297.3521610614142
 51
344.3190758257486
  0
ARC
  5
21E0
330
2
100
AcDbEntity
  8
0
100
AcDbCircle
 10
-18625.94249363209
 20
-33587.65517020096
 30
0.0
 40
0.51181
100
AcDbArc
 50
216.5687000246031
 51
23.64685633073103
  0
CIRCLE
  5
21E1
330
2
100
AcDbEntity
  8
0
100
AcDbCircle
 10
-18625.94249363209
 20
-33593.95437020095
 30
0.0
 40
0.51181
  0
CIRCLE
  5
21E2
330
2
100
AcDbEntity
  8
0
100
AcDbCircle
 10
-18625.94249363209
 20
-33591.43469020096
 30
0.0
 40
0.51181
  0
CIRCLE
  5
21E3
330
2
100
AcDbEntity
  8
0
100
AcDbCircle
 10
-18625.94249363209
 20
-33590.17485020095
 30
0.0
 40
0.51181
  0
CIRCLE
  5
21E4
330
2
100
AcDbEntity
  8
0
100
AcDbCircle
 10
-18625.94249363209
 20
-33592.69453020095
 30
0.0
 40
0.51181
  0
CIRCLE
  5
21E5
330
2
100
AcDbEntity
  8
0
100
AcDbCircle
 10
-18625.94249363209
 20
-33588.91501020095
 30
0.0
 40
0.51181
  0
CIRCLE
  5
21E6
330
2
100
AcDbEntity
  8
0
100
AcDbCircle
 10
-18624.87950363209
 20
-33597.10397020095
 30
0.0
 40
0.51181
  0
CIRCLE
  5
21E7
330
2
100
AcDbEntity
  8
0
100
AcDbCircle
 10
-18624.87950363209
 20
-33598.36381020096
 30
0.0
 40
0.51181
  0
ARC
  5
21E8
330
2
100
AcDbEntity
  8
0
100
AcDbCircle
 10
-18624.87950363209
 20
-33599.62365020096
 30
0.0
 40
0.51181
100
AcDbArc
 50
1.411127104450878
 51
139.6900730043828
  0
ARC
  5
21E9
330
2
100
AcDbEntity
  8
0
100
AcDbCircle
 10
-18622.65509863209
 20
-33593.32445020096
 30
0.0
 40
6.515735
100
AcDbArc
 50
246.3412522507912
 51
254.7599478601084
  0
CIRCLE
  5
21EA
330
2
100
AcDbEntity
  8
0
100
AcDbCircle
 10
-18624.87950363209
 20
-33595.84413020095
 30
0.0
 40
0.51181
  0
CIRCLE
  5
21EB
330
2
100
AcDbEntity
  8
0
100
AcDbCircle
 10
-18620.62754363208
 20
-33598.36381020096
 30
0.0
 40
0.51181
  0
CIRCLE
  5
21EC
330
2
100
AcDbEntity
  8
0
100
AcDbCircle
 10
-18622.75352363209
 20
-33598.36381020096
 30
0.0
 40
0.51181
  0
CIRCLE
  5
21ED
330
2
100
AcDbEntity
  8
0
100
AcDbCircle
 10
-18621.69053363209
 20
-33598.99373020096
 30
0.0
 40
0.51181
  0
ARC
  5
21EE
330
2
100
AcDbEntity
  8
0
100
AcDbCircle
 10
-18621.69053363209
 20
-33600.25357020095
 30
0.0
 40
0.51181
100
AcDbArc
 50
46.65176410134125
 51
130.2161970134879
  0
ARC
  5
21EF
330
2
100
AcDbEntity
  8
0
100
AcDbCircle
 10
-18611.06063363209
 20
-33211.43545020095
 30
0.0
 40
388.5819
100
AcDbArc
 50
268.3836977638582
 51
268.4842633493342
  0
CIRCLE
  5
21F0
330
2
100
AcDbEntity
  8
0
100
AcDbCircle
 10
-18623.81651363209
 20
-33598.99373020096
 30
0.0
 40
0.51181
  0
ARC
  5
21F1
330
2
100
AcDbEntity
  8
0
100
AcDbCircle
 10
-18622.75352363209
 20
-33599.62365020096
 30
0.0
 40
0.51181
100
AcDbArc
 50
333.143856373569
 51
201.9457400984844
  0
ARC
  5
21F2
330
2
100
AcDbEntity
  8
0
100
AcDbCircle
 10
-18622.65509863209
 20
-33593.32445020096
 30
0.0
 40
6.515735
100
AcDbArc
 50
264.9535275125348
 51
265.8551399155688
  0
ARC
  5
21F3
330
2
100
AcDbEntity
  8
0
100
AcDbCircle
 10
-18623.81651363209
 20
-33600.25357020095
 30
0.0
 40
0.51181
100
AcDbArc
 50
75.90200004719597
 51
85.06778987349886
  0
ARC
  5
21F4
330
2
100
AcDbEntity
  8
0
100
AcDbCircle
 10
-18611.06063363209
 20
-33211.43545020095
 30
0.0
 40
388.5819
100
AcDbArc
 50
268.2206153221088
 51
268.3429972255451
  0
ARC
  5
21F5
330
2
100
AcDbEntity
  8
0
100
AcDbCircle
 10
-18620.62754363208
 20
-33599.62365020096
 30
0.0
 40
0.51181
100
AcDbArc
 50
326.0092365757964
 51
211.1672225241653
  0
ARC
  5
21F6
330
2
100
AcDbEntity
  8
0
100
AcDbCircle
 10
-18611.06063363209
 20
-33211.43545020095
 30
0.0
 40
388.5819
100
AcDbArc
 50
268.5246384861757
 51
268.6518206148079
  0
CIRCLE
  5
21F7
330
2
100
AcDbEntity
  8
0
100
AcDbCircle
 10
-18619.56455363209
 20
-33598.99373020096
 30
0.0
 40
0.51181
  0
ARC
  5
21F8
330
2
100
AcDbEntity
  8
0
100
AcDbCircle
 10
-18619.56455363209
 20
-33600.25357020095
 30
0.0
 40
0.51181
100
AcDbArc
 50
38.80799105310865
 51
138.686153209799
  0
ARC
  5
21F9
330
2
100
AcDbEntity
  8
0
100
AcDbCircle
 10
-18611.06063363209
 20
-33211.43545020095
 30
0.0
 40
388.5819
100
AcDbArc
 50
268.689313753751
 51
268.8048305099071
  0
CIRCLE
  5
21FA
330
2
100
AcDbEntity
  8
0
100
AcDbCircle
 10
-18621.69053363209
 20
-33597.73389020095
 30
0.0
 40
0.51181
  0
CIRCLE
  5
21FB
330
2
100
AcDbEntity
  8
0
100
AcDbCircle
 10
-18621.69053363209
 20
-33596.47405020095
 30
0.0
 40
0.51181
  0
CIRCLE
  5
21FC
330
2
100
AcDbEntity
  8
0
100
AcDbCircle
 10
-18622.75352363209
 20
-33597.10397020095
 30
0.0
 40
0.51181
  0
CIRCLE
  5
21FD
330
2
100
AcDbEntity
  8
0
100
AcDbCircle
 10
-18623.81651363209
 20
-33597.73389020095
 30
0.0
 40
0.51181
  0
CIRCLE
  5
21FE
330
2
100
AcDbEntity
  8
0
100
AcDbCircle
 10
-18623.81651363209
 20
-33596.47405020095
 30
0.0
 40
0.51181
  0
CIRCLE
  5
21FF
330
2
100
AcDbEntity
  8
0
100
AcDbCircle
 10
-18622.75352363209
 20
-33595.84413020095
 30
0.0
 40
0.51181
  0
CIRCLE
  5
2200
330
2
100
AcDbEntity
  8
0
100
AcDbCircle
 10
-18620.62754363208
 20
-33595.84413020095
 30
0.0
 40
0.51181
  0
CIRCLE
  5
2201
330
2
100
AcDbEntity
  8
0
100
AcDbCircle
 10
-18620.62754363208
 20
-33597.10397020095
 30
0.0
 40
0.51181
  0
CIRCLE
  5
2202
330
2
100
AcDbEntity
  8
0
100
AcDbCircle
 10
-18619.56455363209
 20
-33597.73389020095
 30
0.0
 40
0.51181
  0
CIRCLE
  5
2203
330
2
100
AcDbEntity
  8
0
100
AcDbCircle
 10
-18619.56455363209
 20
-33596.47405020095
 30
0.0
 40
0.51181
  0
ARC
  5
2204
330
2
100
AcDbEntity
  8
0
100
AcDbCircle
 10
-18627.00548363209
 20
-33598.36381020096
 30
0.0
 40
0.51181
100
AcDbArc
 50
337.3938525602823
 51
120.9992919786531
  0
ARC
  5
2205
330
2
100
AcDbEntity
  8
0
100
AcDbCircle
 10
-18622.65509863209
 20
-33593.32445020096
 30
0.0
 40
6.515735
100
AcDbArc
 50
224.9171073790678
 51
233.4760371633495
  0
ARC
  5
2206
330
2
100
AcDbEntity
  8
0
100
AcDbCircle
 10
-18622.65509863209
 20
-33593.32445020096
 30
0.0
 40
6.515735
100
AcDbArc
 50
235.4156778775847
 51
244.3687657680401
  0
ARC
  5
2207
330
2
100
AcDbEntity
  8
0
100
AcDbCircle
 10
-18628.06847363209
 20
-33596.47405020095
 30
0.0
 40
0.51181
100
AcDbArc
 50
272.6107234993161
 51
147.7725224210669
  0
ARC
  5
2208
330
2
100
AcDbEntity
  8
0
100
AcDbCircle
 10
-18622.65509863209
 20
-33593.32445020096
 30
0.0
 40
6.515735
100
AcDbArc
 50
206.1992726952329
 51
214.1839732256708
  0
ARC
  5
2209
330
2
100
AcDbEntity
  8
0
100
AcDbCircle
 10
-18629.13146363209
 20
-33595.84413020095
 30
0.0
 40
0.51181
100
AcDbArc
 50
350.2881729727641
 51
52.22964525122226
  0
ARC
  5
220A
330
2
100
AcDbEntity
  8
0
100
AcDbCircle
 10
-18622.65509863209
 20
-33593.32445020096
 30
0.0
 40
6.515735
100
AcDbArc
 50
198.9422812092572
 51
203.5755370132894
  0
CIRCLE
  5
220B
330
2
100
AcDbEntity
  8
0
100
AcDbCircle
 10
-18627.00548363209
 20
-33595.84413020095
 30
0.0
 40
0.51181
  0
CIRCLE
  5
220C
330
2
100
AcDbEntity
  8
0
100
AcDbCircle
 10
-18627.00548363209
 20
-33597.10397020095
 30
0.0
 40
0.51181
  0
ARC
  5
220D
330
2
100
AcDbEntity
  8
0
100
AcDbCircle
 10
-18628.06847363209
 20
-33597.73389020095
 30
0.0
 40
0.51181
100
AcDbArc
 50
15.68092417425147
 51
62.64783893858581
  0
ARC
  5
220E
330
2
100
AcDbEntity
  8
0
100
AcDbCircle
 10
-18625.94249363209
 20
-33598.99373020096
 30
0.0
 40
0.51181
100
AcDbArc
 50
336.353143669269
 51
143.4312999753968
  0
CIRCLE
  5
220F
330
2
100
AcDbEntity
  8
0
100
AcDbCircle
 10
-18625.94249363209
 20
-33597.73389020095
 30
0.0
 40
0.51181
  0
CIRCLE
  5
2210
330
2
100
AcDbEntity
  8
0
100
AcDbCircle
 10
-18625.94249363209
 20
-33596.47405020095
 30
0.0
 40
0.51181
  0
CIRCLE
  5
2211
330
2
100
AcDbEntity
  8
0
100
AcDbCircle
 10
-18628.06847363209
 20
-33595.21421020096
 30
0.0
 40
0.51181
  0
CIRCLE
  5
2212
330
2
100
AcDbEntity
  8
0
100
AcDbCircle
 10
-18625.94249363209
 20
-33595.21421020096
 30
0.0
 40
0.51181
  0
CIRCLE
  5
2213
330
2
100
AcDbEntity
  8
0
100
AcDbCircle
 10
-18621.69053363209
 20
-33595.21421020096
 30
0.0
 40
0.51181
  0
CIRCLE
  5
2214
330
2
100
AcDbEntity
  8
0
100
AcDbCircle
 10
-18623.81651363209
 20
-33595.21421020096
 30
0.0
 40
0.51181
  0
CIRCLE
  5
2215
330
2
100
AcDbEntity
  8
0
100
AcDbCircle
 10
-18619.56455363209
 20
-33595.21421020096
 30
0.0
 40
0.51181
  0
CIRCLE
  5
2216
330
2
100
AcDbEntity
  8
0
100
AcDbCircle
 10
-18618.50156363209
 20
-33597.10397020095
 30
0.0
 40
0.51181
  0
CIRCLE
  5
2217
330
2
100
AcDbEntity
  8
0
100
AcDbCircle
 10
-18618.50156363209
 20
-33598.36381020096
 30
0.0
 40
0.51181
  0
ARC
  5
2218
330
2
100
AcDbEntity
  8
0
100
AcDbCircle
 10
-18618.50156363209
 20
-33599.62365020096
 30
0.0
 40
0.51181
100
AcDbArc
 50
319.8881263771497
 51
217.9156106704078
  0
ARC
  5
2219
330
2
100
AcDbEntity
  8
0
100
AcDbCircle
 10
-18611.06063363209
 20
-33211.43545020095
 30
0.0
 40
388.5819
100
AcDbArc
 50
268.8432321452175
 51
268.9605049016498
  0
CIRCLE
  5
221A
330
2
100
AcDbEntity
  8
0
100
AcDbCircle
 10
-18618.50156363209
 20
-33595.84413020095
 30
0.0
 40
0.51181
  0
CIRCLE
  5
221B
330
2
100
AcDbEntity
  8
0
100
AcDbCircle
 10
-18618.50156363209
 20
-33594.58429020095
 30
0.0
 40
0.51181
  0
CIRCLE
  5
221C
330
2
100
AcDbEntity
  8
0
100
AcDbCircle
 10
-18618.50156363209
 20
-33593.32445020096
 30
0.0
 40
0.51181
  0
CIRCLE
  5
221D
330
2
100
AcDbEntity
  8
0
100
AcDbCircle
 10
-18618.50156363209
 20
-33590.80477020095
 30
0.0
 40
0.51181
  0
CIRCLE
  5
221E
330
2
100
AcDbEntity
  8
0
100
AcDbCircle
 10
-18618.50156363209
 20
-33592.06461020096
 30
0.0
 40
0.51181
  0
CIRCLE
  5
221F
330
2
100
AcDbEntity
  8
0
100
AcDbCircle
 10
-18618.50156363209
 20
-33593.32445020096
 30
0.0
 40
0.51181
  0
CIRCLE
  5
2220
330
2
100
AcDbEntity
  8
0
100
AcDbCircle
 10
-18618.50156363209
 20
-33589.54493020095
 30
0.0
 40
0.51181
  0
CIRCLE
  5
2221
330
2
100
AcDbEntity
  8
0
100
AcDbCircle
 10
-18618.50156363209
 20
-33588.28509020095
 30
0.0
 40
0.51181
  0
ARC
  5
2222
330
2
100
AcDbEntity
  8
0
100
AcDbCircle
 10
-18611.06063363209
 20
-33975.21345020095
 30
0.0
 40
388.5819
100
AcDbArc
 50
91.03949509835016
 51
91.15676785478243
  0
ARC
  5
2223
330
2
100
AcDbEntity
  8
0
100
AcDbCircle
 10
-18618.50156363209
 20
-33587.02525020095
 30
0.0
 40
0.51181
100
AcDbArc
 50
142.0843893295922
 51
40.11187362285024
  0
LINE
  5
222B
330
2
100
AcDbEntity
  8
0
100
AcDbLine
 10
-18644.48158756801
 20
-33615.48260287289
 30
0.0
 11
-18644.5251314973
 21
-33615.70032251932
 31
0.0
  0
ARC
  5
222C
330
2
100
AcDbEntity
  8
0
100
AcDbCircle
 10
-18643.78668931072
 20
-33615.62158252434
 30
0.0
 40
0.7086599547874921
100
AcDbArc
 50
90.0
 51
168.6900675280564
  0
LINE
  5
222D
330
2
100
AcDbEntity
  8
0
100
AcDbLine
 10
-18644.5251314973
 20
-33615.70032251932
 30
0.0
 11
-18577.59613576737
 21
-33615.70032251932
 31
0.0
  0
ARC
  5
2239
330
2
100
AcDbEntity
  8
0
100
AcDbCircle
 10
-18622.65386365784
 20
-33593.31822333259
 30
0.0
 40
10.06026859301136
100
AcDbArc
 50
91.73882791449603
 51
268.261172085504
  0
LINE
  5
224F
330
2
100
AcDbEntity
  8
0
100
AcDbLine
 10
-18643.78668931072
 20
-33614.91292256956
 30
0.0
 11
-18578.33457795396
 21
-33614.91292256956
 31
0.0
  0
ARC
  5
2253
330
2
100
AcDbEntity
  8
0
100
AcDbCircle
 10
-18611.06063363234
 20
-33211.42924769711
 30
0.0
 40
393.6999748819402
100
AcDbArc
 50
267.2174363072044
 51
272.7825636927956
  0
ARC
  5
2255
330
2
100
AcDbEntity
  8
0
100
AcDbCircle
 10
-18611.06063363234
 20
-33211.42924769711
 30
0.0
 40
392.1251749824122
100
AcDbArc
 50
268.261172085504
 51
269.072261667521
  0
ARC
  5
2256
330
2
100
AcDbEntity
  8
0
100
AcDbCircle
 10
-18611.06063363234
 20
-33975.20719896808
 30
0.0
 40
392.1251749824122
100
AcDbArc
 50
88.26117208550396
 51
89.07226166752101
  0
LINE
  5
2257
330
2
100
AcDbEntity
  8
0
100
AcDbLine
 10
-18592.35988363209
 20
-33608.08197333259
 30
0.0
 11
-18629.76138363209
 21
-33608.08197333259
 31
0.0
  0
CIRCLE
  5
2258
330
2
100
AcDbEntity
  8
0
100
AcDbCircle
 10
-18604.68269363209
 20
-33597.73389020095
 30
0.0
 40
0.51181
  0
ARC
  5
2259
330
2
100
AcDbEntity
  8
0
100
AcDbCircle
 10
-18611.06063363209
 20
-33211.43545020095
 30
0.0
 40
388.5819
100
AcDbArc
 50
270.8774534680862
 51
271.002069401618
  0
ARC
  5
225A
330
2
100
AcDbEntity
  8
0
100
AcDbCircle
 10
-18604.68269363209
 20
-33600.25357020095
 30
0.0
 40
0.51181
100
AcDbArc
 50
35.28556967325136
 51
146.5939531914868
  0
CIRCLE
  5
225B
330
2
100
AcDbEntity
  8
0
100
AcDbCircle
 10
-18604.68269363209
 20
-33598.99373020096
 30
0.0
 40
0.51181
  0
CIRCLE
  5
225C
330
2
100
AcDbEntity
  8
0
100
AcDbCircle
 10
-18604.68269363209
 20
-33590.17485020095
 30
0.0
 40
0.51181
  0
CIRCLE
  5
225D
330
2
100
AcDbEntity
  8
0
100
AcDbCircle
 10
-18604.68269363209
 20
-33591.43469020096
 30
0.0
 40
0.51181
  0
CIRCLE
  5
225E
330
2
100
AcDbEntity
  8
0
100
AcDbCircle
 10
-18604.68269363209
 20
-33588.91501020095
 30
0.0
 40
0.51181
  0
CIRCLE
  5
225F
330
2
100
AcDbEntity
  8
0
100
AcDbCircle
 10
-18604.68269363209
 20
-33593.95437020095
 30
0.0
 40
0.51181
  0
CIRCLE
  5
2260
330
2
100
AcDbEntity
  8
0
100
AcDbCircle
 10
-18604.68269363209
 20
-33595.21421020096
 30
0.0
 40
0.51181
  0
CIRCLE
  5
2261
330
2
100
AcDbEntity
  8
0
100
AcDbCircle
 10
-18604.68269363209
 20
-33596.47405020095
 30
0.0
 40
0.51181
  0
CIRCLE
  5
2262
330
2
100
AcDbEntity
  8
0
100
AcDbCircle
 10
-18604.68269363209
 20
-33592.69453020095
 30
0.0
 40
0.51181
  0
ARC
  5
2263
330
2
100
AcDbEntity
  8
0
100
AcDbCircle
 10
-18564.07909495046
 20
-33615.62158252434
 30
0.0
 40
0.7086599547874921
100
AcDbArc
 50
90.0
 51
168.6900675280564
  0
ARC
  5
2265
330
2
100
AcDbEntity
  8
0
100
AcDbCircle
 10
-18629.62162746979
 20
-33593.31822333259
 30
0.0
 40
11.3602042535739
100
AcDbArc
 50
92.78256369279569
 51
267.2174363072044
  0
ARC
  5
2266
330
2
100
AcDbEntity
  8
0
100
AcDbCircle
 10
-18592.49963979488
 20
-33593.31822333259
 30
0.0
 40
11.3602042535739
100
AcDbArc
 50
272.7825636927956
 51
87.2174363072043
  0
ARC
  5
2268
330
2
100
AcDbEntity
  8
0
100
AcDbCircle
 10
-18592.35988363209
 20
-33593.31822333259
 30
0.0
 40
14.76374999999994
100
AcDbArc
 50
270.0
 51
90.0
  0
ARC
  5
2269
330
2
100
AcDbEntity
  8
0
100
AcDbCircle
 10
-18629.76138363209
 20
-33593.31822333259
 30
0.0
 40
14.76374999999994
100
AcDbArc
 50
90.0
 51
270.0
  0
ARC
  5
226A
330
2
100
AcDbEntity
  8
0
100
AcDbCircle
 10
-18611.06063363234
 20
-33211.42924769711
 30
0.0
 40
392.1251749824122
100
AcDbArc
 50
270.4923049333209
 51
271.738827914496
  0
ARC
  5
226B
330
2
100
AcDbEntity
  8
0
100
AcDbCircle
 10
-18611.06063363234
 20
-33211.42924769711
 30
0.0
 40
392.1251749824122
100
AcDbArc
 50
269.072261667521
 51
270.4923049333209
  0
ARC
  5
226C
330
2
100
AcDbEntity
  8
0
100
AcDbCircle
 10
-18611.06063363234
 20
-33975.20719896808
 30
0.0
 40
392.1251749824122
100
AcDbArc
 50
90.927738332479
 51
91.73882791449603
  0
ARC
  5
226D
330
2
100
AcDbEntity
  8
0
100
AcDbCircle
 10
-18611.06063363234
 20
-34002.52204291309
 30
0.0
 40
419.4366714198456
100
AcDbArc
 50
89.1326758550233
 51
90.86732414497667
  0
LINE
  5
28B6
330
2
100
AcDbEntity
  8
0
 62
     2
370
     5
100
AcDbLine
 10
-18564.69044608329
 20
-33615.85687186734
 30
0.0
 11
-18564.68966970151
 21
-33615.8566196056
 31
0.0
  0
LINE
  5
28BA
330
2
100
AcDbEntity
  8
0
100
AcDbLine
 10
-18549.08922307897
 20
-33635.44815924316
 30
0.0
 11
-18562.12650234056
 21
-33635.44815924316
 31
0.0
  0
LINE
  5
28BB
330
2
100
AcDbEntity
  8
0
100
AcDbLine
 10
-18564.69046427862
 20
-33615.85687777936
 30
0.0
 11
-18564.42040817806
 21
-33615.76913123319
 31
0.0
  0
ARC
  5
28BE
330
2
100
AcDbEntity
  8
0
100
AcDbCircle
 10
-18469.12896415481
 20
-33615.93654251922
 30
0.0
 40
95.8066829822355
100
AcDbArc
 50
180.1544597459319
 51
191.2675143165574
  0
LINE
  5
28BF
330
2
100
AcDbEntity
  8
0
100
AcDbLine
 10
-18560.95927713705
 20
-33635.44815924318
 30
0.0
 11
-18562.12375152996
 21
-33635.44815924318
 31
0.0
  0
ARC
  5
28C0
330
2
100
AcDbEntity
  8
0
100
AcDbCircle
 10
-18564.58097028701
 20
-33616.19386563478
 30
0.0
 40
0.35433
100
AcDbArc
 50
108.000000000622
 51
180.1544597459319
  0
ARC
  5
28C6
330
2
100
AcDbEntity
  8
0
100
AcDbCircle
 10
-18562.12375152996
 20
-33634.46390924317
 30
0.0
 40
0.9842500000000001
100
AcDbArc
 50
191.2675143165574
 51
270.0
  0
LINE
  5
28C9
330
2
100
AcDbEntity
  8
0
100
AcDbLine
 10
-18549.08922307897
 20
-33635.44815924316
 30
0.0
 11
-18537.98107193364
 21
-33635.44815924323
 31
0.0
  0
ARC
  5
28CA
330
2
100
AcDbEntity
  8
0
100
AcDbCircle
 10
-18630.97861011927
 20
-33615.93654251875
 30
0.0
 40
95.8066829822355
100
AcDbArc
 50
348.7324856834425
 51
359.8455402540681
  0
LINE
  5
28CB
330
2
100
AcDbEntity
  8
0
100
AcDbLine
 10
-18539.14829713716
 20
-33635.44815924324
 30
0.0
 11
-18537.98382274424
 21
-33635.44815924325
 31
0.0
  0
ARC
  5
28CF
330
2
100
AcDbEntity
  8
0
100
AcDbCircle
 10
-18537.98382274424
 20
-33634.46390924325
 30
0.0
 40
0.9842500000000001
100
AcDbArc
 50
270.0
 51
348.7324856834425
  0
ARC
  5
28D3
330
2
100
AcDbEntity
  8
0
100
AcDbCircle
 10
-18564.50557017153
 20
-33615.50702956787
 30
0.0
 40
0.27559
100
AcDbArc
 50
288.000000000622
 51
315.4622790880463
  0
LINE
  5
28D6
330
2
100
AcDbEntity
  8
0
 62
     2
370
     5
100
AcDbLine
 10
-18535.4171281909
 20
-33615.85687186734
 30
0.0
 11
-18535.41790457268
 21
-33615.8566196056
 31
0.0
  0
LINE
  5
28D9
330
2
100
AcDbEntity
  8
0
100
AcDbLine
 10
-18535.4171281909
 20
-33615.85687186734
 30
0.0
 11
-18535.6904497752
 21
-33615.76806430119
 31
0.0
  0
ARC
  5
28DC
330
2
100
AcDbEntity
  8
0
100
AcDbCircle
 10
-18535.52660398719
 20
-33616.19386563478
 30
0.0
 40
0.35433
100
AcDbArc
 50
359.8455402540681
 51
71.99999999937794
  0
ARC
  5
28E0
330
2
100
AcDbEntity
  8
0
100
AcDbCircle
 10
-18535.60200410266
 20
-33615.50702956787
 30
0.0
 40
0.27559
100
AcDbArc
 50
224.5377209098146
 51
251.9999999993779
  0
LINE
  5
2B1C
330
2
100
AcDbEntity
  8
0
100
AcDbLine
 10
-18627.00548363234
 20
-33636.03792256956
 30
0.0
 11
-18628.58028363234
 21
-33636.03792256956
 31
0.0
  0
LINE
  5
2B1D
330
2
100
AcDbEntity
  8
0
100
AcDbLine
 10
-18628.77713363234
 20
-33635.99855256956
 30
0.0
 11
-18626.80863363234
 21
-33635.99855256956
 31
0.0
  0
LINE
  5
2B20
330
2
100
AcDbEntity
  8
0
100
AcDbLine
 10
-18628.77713363234
 20
-33635.68359256956
 30
0.0
 11
-18626.80863363234
 21
-33635.68359256956
 31
0.0
  0
LINE
  5
2B21
330
2
100
AcDbEntity
  8
0
100
AcDbLine
 10
-18628.77713363234
 20
-33635.99855256956
 30
0.0
 11
-18628.77713363234
 21
-33635.84107256956
 31
0.0
  0
ARC
  5
2B22
330
2
100
AcDbEntity
  8
0
100
AcDbCircle
 10
-18628.73776363234
 20
-33635.70037276734
 30
0.0
 40
0.03937
100
AcDbArc
 50
133.8308606699537
 51
180.0
  0
LINE
  5
2B23
330
2
100
AcDbEntity
  8
0
100
AcDbLine
 10
-18628.53189058421
 20
-33635.44815924336
 30
0.0
 11
-18628.77713363234
 21
-33635.68359256956
 31
0.0
  0
LINE
  5
2B24
330
2
100
AcDbEntity
  8
0
100
AcDbLine
 10
-18628.61965363234
 20
-33635.99855256956
 30
0.0
 11
-18628.61965363234
 21
-33636.03792256956
 31
0.0
  0
LINE
  5
2B25
330
2
100
AcDbEntity
  8
0
100
AcDbLine
 10
-18626.96611363234
 20
-33636.03792256956
 30
0.0
 11
-18628.61965363234
 21
-33636.03792256956
 31
0.0
  0
LINE
  5
2B27
330
2
100
AcDbEntity
  8
0
100
AcDbLine
 10
-18626.80863363234
 20
-33635.99855256956
 30
0.0
 11
-18626.80863363234
 21
-33635.84107256956
 31
0.0
  0
LINE
  5
2B28
330
2
100
AcDbEntity
  8
0
100
AcDbLine
 10
-18627.05387668046
 20
-33635.44815924336
 30
0.0
 11
-18626.80863363234
 21
-33635.68359256956
 31
0.0
  0
LINE
  5
2B42
330
2
100
AcDbEntity
  8
0
100
AcDbLine
 10
-18626.96611363234
 20
-33635.99855256956
 30
0.0
 11
-18626.96611363234
 21
-33636.03792256956
 31
0.0
  0
LINE
  5
2B49
330
2
100
AcDbEntity
  8
0
100
AcDbLine
 10
-18626.80863363234
 20
-33635.84107256956
 30
0.0
 11
-18626.80863363234
 21
-33635.68359256956
 31
0.0
  0
LINE
  5
2B4A
330
2
100
AcDbEntity
  8
0
100
AcDbLine
 10
-18628.77713363234
 20
-33635.84107256956
 30
0.0
 11
-18628.77713363234
 21
-33635.68359256956
 31
0.0
  0
LINE
  5
2B4E
330
2
100
AcDbEntity
  8
0
100
AcDbLine
 10
-18593.54098363234
 20
-33636.03792256956
 30
0.0
 11
-18595.11578363234
 21
-33636.03792256956
 31
0.0
  0
LINE
  5
2B4F
330
2
100
AcDbEntity
  8
0
100
AcDbLine
 10
-18595.31263363234
 20
-33635.99855256956
 30
0.0
 11
-18593.34413363234
 21
-33635.99855256956
 31
0.0
  0
LINE
  5
2B52
330
2
100
AcDbEntity
  8
0
100
AcDbLine
 10
-18595.31263363234
 20
-33635.68359256956
 30
0.0
 11
-18593.34413363234
 21
-33635.68359256956
 31
0.0
  0
LINE
  5
2B53
330
2
100
AcDbEntity
  8
0
100
AcDbLine
 10
-18595.31263363234
 20
-33635.99855256956
 30
0.0
 11
-18595.31263363234
 21
-33635.84107256956
 31
0.0
  0
ARC
  5
2B54
330
2
100
AcDbEntity
  8
0
100
AcDbCircle
 10
-18595.27326363234
 20
-33635.70037276734
 30
0.0
 40
0.03937
100
AcDbArc
 50
133.8308606699537
 51
180.0
  0
LINE
  5
2B55
330
2
100
AcDbEntity
  8
0
100
AcDbLine
 10
-18595.06739058422
 20
-33635.44815924336
 30
0.0
 11
-18595.31263363234
 21
-33635.68359256956
 31
0.0
  0
LINE
  5
2B56
330
2
100
AcDbEntity
  8
0
100
AcDbLine
 10
-18595.15515363234
 20
-33635.99855256956
 30
0.0
 11
-18595.15515363234
 21
-33636.03792256956
 31
0.0
  0
LINE
  5
2B57
330
2
100
AcDbEntity
  8
0
100
AcDbLine
 10
-18593.50161363234
 20
-33636.03792256956
 30
0.0
 11
-18595.15515363234
 21
-33636.03792256956
 31
0.0
  0
LINE
  5
2B59
330
2
100
AcDbEntity
  8
0
100
AcDbLine
 10
-18593.34413363234
 20
-33635.99855256956
 30
0.0
 11
-18593.34413363234
 21
-33635.84107256956
 31
0.0
  0
LINE
  5
2B5A
330
2
100
AcDbEntity
  8
0
100
AcDbLine
 10
-18593.58937668047
 20
-33635.44815924336
 30
0.0
 11
-18593.34413363234
 21
-33635.68359256956
 31
0.0
  0
LINE
  5
2B74
330
2
100
AcDbEntity
  8
0
100
AcDbLine
 10
-18593.50161363234
 20
-33635.99855256956
 30
0.0
 11
-18593.50161363234
 21
-33636.03792256956
 31
0.0
  0
LINE
  5
2B7B
330
2
100
AcDbEntity
  8
0
100
AcDbLine
 10
-18593.34413363234
 20
-33635.84107256956
 30
0.0
 11
-18593.34413363234
 21
-33635.68359256956
 31
0.0
  0
LINE
  5
2B7C
330
2
100
AcDbEntity
  8
0
100
AcDbLine
 10
-18595.31263363234
 20
-33635.84107256956
 30
0.0
 11
-18595.31263363234
 21
-33635.68359256956
 31
0.0
  0
LINE
  5
2B84
330
2
100
AcDbEntity
  8
0
100
AcDbLine
 10
-18557.14038807897
 20
-33636.03792256956
 30
0.0
 11
-18558.71518807898
 21
-33636.03792256956
 31
0.0
  0
LINE
  5
2B85
330
2
100
AcDbEntity
  8
0
100
AcDbLine
 10
-18558.91203807898
 20
-33635.99855256956
 30
0.0
 11
-18556.94353807898
 21
-33635.99855256956
 31
0.0
  0
LINE
  5
2B88
330
2
100
AcDbEntity
  8
0
100
AcDbLine
 10
-18558.91203807898
 20
-33635.68359256956
 30
0.0
 11
-18556.94353807898
 21
-33635.68359256956
 31
0.0
  0
LINE
  5
2B89
330
2
100
AcDbEntity
  8
0
100
AcDbLine
 10
-18558.91203807898
 20
-33635.99855256956
 30
0.0
 11
-18558.91203807898
 21
-33635.84107256956
 31
0.0
  0
ARC
  5
2B8A
330
2
100
AcDbEntity
  8
0
100
AcDbCircle
 10
-18558.87266807897
 20
-33635.70037276734
 30
0.0
 40
0.03937
100
AcDbArc
 50
133.8308606699537
 51
180.0
  0
LINE
  5
2B8B
330
2
100
AcDbEntity
  8
0
100
AcDbLine
 10
-18558.66679503064
 20
-33635.44815924316
 30
0.0
 11
-18558.91203807898
 21
-33635.68359256956
 31
0.0
  0
LINE
  5
2B8C
330
2
100
AcDbEntity
  8
0
100
AcDbLine
 10
-18558.75455807897
 20
-33635.99855256956
 30
0.0
 11
-18558.75455807897
 21
-33636.03792256956
 31
0.0
  0
LINE
  5
2B8D
330
2
100
AcDbEntity
  8
0
100
AcDbLine
 10
-18557.10101807897
 20
-33636.03792256956
 30
0.0
 11
-18558.75455807897
 21
-33636.03792256956
 31
0.0
  0
LINE
  5
2B8F
330
2
100
AcDbEntity
  8
0
100
AcDbLine
 10
-18556.94353807898
 20
-33635.99855256956
 30
0.0
 11
-18556.94353807898
 21
-33635.84107256956
 31
0.0
  0
LINE
  5
2B90
330
2
100
AcDbEntity
  8
0
100
AcDbLine
 10
-18557.18878112731
 20
-33635.44815924316
 30
0.0
 11
-18556.94353807898
 21
-33635.68359256956
 31
0.0
  0
LINE
  5
2BAA
330
2
100
AcDbEntity
  8
0
100
AcDbLine
 10
-18557.10101807897
 20
-33635.99855256956
 30
0.0
 11
-18557.10101807897
 21
-33636.03792256956
 31
0.0
  0
LINE
  5
2BAF
330
2
100
AcDbEntity
  8
0
100
AcDbLine
 10
-18556.94353807898
 20
-33635.84107256956
 30
0.0
 11
-18556.94353807898
 21
-33635.68359256956
 31
0.0
  0
LINE
  5
2BB0
330
2
100
AcDbEntity
  8
0
100
AcDbLine
 10
-18558.91203807898
 20
-33635.84107256956
 30
0.0
 11
-18558.91203807898
 21
-33635.68359256956
 31
0.0
  0
LINE
  5
2BBD
330
2
100
AcDbEntity
  8
0
100
AcDbLine
 10
-18541.39238807897
 20
-33636.03792256956
 30
0.0
 11
-18542.96718807897
 21
-33636.03792256956
 31
0.0
  0
LINE
  5
2BBE
330
2
100
AcDbEntity
  8
0
100
AcDbLine
 10
-18543.16403807897
 20
-33635.99855256955
 30
0.0
 11
-18541.19553807898
 21
-33635.99855256955
 31
0.0
  0
LINE
  5
2BC1
330
2
100
AcDbEntity
  8
0
100
AcDbLine
 10
-18543.16403807897
 20
-33635.68359256956
 30
0.0
 11
-18541.19553807898
 21
-33635.68359256956
 31
0.0
  0
LINE
  5
2BC2
330
2
100
AcDbEntity
  8
0
100
AcDbLine
 10
-18543.16403807897
 20
-33635.99855256955
 30
0.0
 11
-18543.16403807897
 21
-33635.84107256956
 31
0.0
  0
ARC
  5
2BC3
330
2
100
AcDbEntity
  8
0
100
AcDbCircle
 10
-18543.12466807897
 20
-33635.70037276734
 30
0.0
 40
0.03937
100
AcDbArc
 50
133.8308606699537
 51
180.0
  0
LINE
  5
2BC4
330
2
100
AcDbEntity
  8
0
100
AcDbLine
 10
-18542.91879503069
 20
-33635.44815924319
 30
0.0
 11
-18543.16403807897
 21
-33635.68359256956
 31
0.0
  0
LINE
  5
2BC5
330
2
100
AcDbEntity
  8
0
100
AcDbLine
 10
-18543.00655807898
 20
-33635.99855256955
 30
0.0
 11
-18543.00655807898
 21
-33636.03792256956
 31
0.0
  0
LINE
  5
2BC6
330
2
100
AcDbEntity
  8
0
100
AcDbLine
 10
-18541.35301807898
 20
-33636.03792256956
 30
0.0
 11
-18543.00655807898
 21
-33636.03792256956
 31
0.0
  0
LINE
  5
2BC8
330
2
100
AcDbEntity
  8
0
100
AcDbLine
 10
-18541.19553807898
 20
-33635.99855256955
 30
0.0
 11
-18541.19553807898
 21
-33635.84107256956
 31
0.0
  0
LINE
  5
2BC9
330
2
100
AcDbEntity
  8
0
100
AcDbLine
 10
-18541.44078112725
 20
-33635.44815924321
 30
0.0
 11
-18541.19553807898
 21
-33635.68359256956
 31
0.0
  0
LINE
  5
2BDD
330
2
100
AcDbEntity
  8
0
100
AcDbLine
 10
-18541.35301807898
 20
-33635.99855256955
 30
0.0
 11
-18541.35301807898
 21
-33636.03792256956
 31
0.0
  0
LINE
  5
2BE2
330
2
100
AcDbEntity
  8
0
100
AcDbLine
 10
-18541.19553807898
 20
-33635.84107256956
 30
0.0
 11
-18541.19553807898
 21
-33635.68359256956
 31
0.0
  0
LINE
  5
2BE3
330
2
100
AcDbEntity
  8
0
100
AcDbLine
 10
-18543.16403807897
 20
-33635.84107256956
 30
0.0
 11
-18543.16403807897
 21
-33635.68359256956
 31
0.0
  0
ELLIPSE
  5
2C8C
330
2
100
AcDbEntity
  8
0
100
AcDbEllipse
 10
-18611.06063363232
 20
-33581.74344408614
 30
0.0
 11
1.5748
 21
0.0
 31
0.0
210
0.0
220
0.0
230
-1.0
 40
0.1
 41
3.141592653589792
 42
6.283185307179584
  0
LINE
  5
2C8D
330
2
100
AcDbEntity
  8
0
100
AcDbLine
 10
-18609.48583363232
 20
-33581.74344408614
 30
0.0
 11
-18609.48583363232
 21
-33582.00551601509
 31
0.0
  0
LINE
  5
2C8E
330
2
100
AcDbEntity
  8
0
100
AcDbLine
 10
-18612.63543363232
 20
-33581.74344408614
 30
0.0
 11
-18612.63543363232
 21
-33582.0055163329
 31
0.0
  0
ELLIPSE
  5
2C8F
330
2
100
AcDbEntity
  8
0
 62
     0
370
    -3
100
AcDbEllipse
 10
-18611.06063363232
 20
-33582.0055163329
 30
0.0
 11
-1.5748
 21
0.0
 31
0.0
210
0.0
220
0.0
230
1.0
 40
0.075
 41
0.0
 42
6.283185307179584
  0
CIRCLE
  5
2C90
330
2
100
AcDbEntity
  8
0
 62
     0
370
    -3
100
AcDbCircle
 10
-18611.06063363209
 20
-33593.31822333259
 30
0.0
 40
1.515745
  0
LINE
  5
2DAE
330
2
100
AcDbEntity
  8
0
100
AcDbLine
 10
-18611.97923167014
 20
-33635.44815924336
 30
0.0
 11
-18639.899985157
 21
-33635.44815924336
 31
0.0
  0
LINE
  5
2DAF
330
2
100
AcDbEntity
  8
0
100
AcDbLine
 10
-18610.0961768158
 20
-33635.44815924336
 30
0.0
 11
-18627.53587611797
 21
-33635.44815924336
 31
0.0
  0
LINE
  5
2DC6
330
2
100
AcDbEntity
  8
0
100
AcDbLine
 10
-18628.0498911467
 20
-33635.44815924336
 30
0.0
 11
-18637.46422238681
 21
-33635.44815924336
 31
0.0
  0
LINE
  5
490F
330
2
100
AcDbEntity
  8
0
100
AcDbLine
 10
-18610.14900297564
 20
-33636.23956334743
 30
0.0
 11
-18610.19801718762
 21
-33636.23956334743
 31
0.0
  0
LINE
  5
4912
330
2
100
AcDbEntity
  8
0
100
AcDbLine
 10
-18611.97235190543
 20
-33636.23956334743
 30
0.0
 11
-18611.92333769345
 21
-33636.23956334743
 31
0.0
  0
HATCH
  5
4915
330
2
100
AcDbEntity
  8
0
100
AcDbHatch
 10
0.0
 20
0.0
 30
0.0
210
0.0
220
0.0
230
1.0
  2
SOLID
 70
     1
 71
     0
 91
        4
 92
        7
 72
     0
 73
     1
 93
        4
 10
-18610.19801718762
 20
-33636.19076743098
 10
-18610.31264744053
 20
-33636.19076743098
 10
-18610.31264744053
 20
-33636.29870656957
 10
-18610.19801718762
 20
-33636.29870656957
 97
        0
 92
        7
 72
     0
 73
     1
 93
        4
 10
-18610.19801718762
 20
-33636.29870656957
 10
-18610.31264744053
 20
-33636.29870656957
 10
-18610.31264744053
 20
-33636.44248772534
 10
-18610.19801718762
 20
-33636.44248772534
 97
        0
 92
        7
 72
     0
 73
     1
 93
        4
 10
-18611.80870744053
 20
-33636.19076743098
 10
-18611.92333769345
 20
-33636.19076743098
 10
-18611.92333769345
 20
-33636.29870656957
 10
-18611.80870744053
 20
-33636.29870656957
 97
        0
 92
        7
 72
     0
 73
     1
 93
        4
 10
-18611.80870744053
 20
-33636.29870656957
 10
-18611.92333769345
 20
-33636.29870656957
 10
-18611.92333769345
 20
-33636.44248772534
 10
-18611.80870744053
 20
-33636.44248772534
 97
        0
 75
     0
 76
     1
 47
0.1023901707755524
 98
        4
 10
-18610.24667729542
 20
-33636.24890693622
 10
-18610.25071161235
 20
-33636.38193362956
 10
-18611.8481245909
 20
-33636.26906265665
 10
-18611.8481245909
 20
-33636.34162277842
  0
LINE
  5
4916
330
2
100
AcDbEntity
  8
0
100
AcDbLine
 10
-18610.31264744053
 20
-33635.72398522534
 30
0.0
 11
-18610.31264744053
 21
-33637.16099022534
 31
0.0
  0
LINE
  5
4921
330
2
100
AcDbEntity
  8
0
100
AcDbLine
 10
-18611.99104062484
 20
-33635.44815924336
 30
0.0
 11
-18611.99104062484
 21
-33635.64524522534
 31
0.0
  0
SPLINE
  5
4923
330
2
100
AcDbEntity
  8
0
100
AcDbSpline
210
0.0
220
0.0
230
1.0
 70
     8
 71
     3
 72
     9
 73
     5
 74
     3
 42
0.0000000001
 43
0.0000000001
 44
0.0000000001
 40
0.0
 40
0.0
 40
0.0
 40
0.0
 40
0.1375134981710699
 40
0.2750269963453736
 40
0.2750269963453736
 40
0.2750269963453736
 40
0.2750269963453736
 10
-18611.74656592173
 20
-33635.64524522534
 30
0.0
 10
-18611.78731170558
 20
-33635.67674122534
 30
0.0
 10
-18611.86880327328
 20
-33635.73973322536
 30
0.0
 10
-18611.95029484099
 20
-33635.67674122534
 30
0.0
 10
-18611.99104062484
 20
-33635.64524522534
 30
0.0
 11
-18611.74656592173
 21
-33635.64524522534
 31
0.0
 11
-18611.86880327328
 21
-33635.70823722534
 31
0.0
 11
-18611.99104062484
 21
-33635.64524522534
 31
0.0
  0
LINE
  5
4924
330
2
100
AcDbEntity
  8
0
100
AcDbLine
 10
-18611.74656592173
 20
-33635.64524522534
 30
0.0
 11
-18611.74656592173
 21
-33635.44815924336
 31
0.0
  0
LINE
  5
4925
330
2
100
AcDbEntity
  8
0
100
AcDbLine
 10
-18611.99104062484
 20
-33635.64524522534
 30
0.0
 11
-18612.0253068158
 21
-33635.64524522534
 31
0.0
  0
LINE
  5
4927
330
2
100
AcDbEntity
  8
0
100
AcDbLine
 10
-18611.30521651892
 20
-33635.64524522534
 30
0.0
 11
-18611.30521651892
 21
-33635.44815924336
 31
0.0
  0
LINE
  5
4928
330
2
100
AcDbEntity
  8
0
100
AcDbLine
 10
-18611.0607418158
 20
-33635.70823722534
 30
0.0
 11
-18611.08918574353
 21
-33635.70823722534
 31
0.0
  0
LINE
  5
4929
330
2
100
AcDbEntity
  8
0
100
AcDbLine
 10
-18611.0607418158
 20
-33635.72398522534
 30
0.0
 11
-18611.0607418158
 21
-33635.70823722534
 31
0.0
  0
ARC
  5
492A
330
2
100
AcDbEntity
  8
0
100
AcDbCircle
 10
-18611.9465668158
 20
-33635.64524522534
 30
0.0
 40
0.07874
100
AcDbArc
 50
180.0
 51
270.0
  0
LINE
  5
492B
330
2
100
AcDbEntity
  8
0
100
AcDbLine
 10
-18612.0253068158
 20
-33635.64524522534
 30
0.0
 11
-18612.0253068158
 21
-33635.44815924336
 31
0.0
  0
LINE
  5
492C
330
2
100
AcDbEntity
  8
0
100
AcDbLine
 10
-18611.74656592173
 20
-33635.64524522534
 30
0.0
 11
-18611.30521651892
 21
-33635.64524522534
 31
0.0
  0
SPLINE
  5
492D
330
2
100
AcDbEntity
  8
0
100
AcDbSpline
210
0.0
220
0.0
230
1.0
 70
     8
 71
     3
 72
     9
 73
     5
 74
     3
 42
0.0000000001
 43
0.0000000001
 44
0.0000000001
 40
0.0
 40
0.0
 40
0.0
 40
0.0
 40
0.1375134981710699
 40
0.2750269963453736
 40
0.2750269963453736
 40
0.2750269963453736
 40
0.2750269963453736
 10
-18610.37491770987
 20
-33635.64524522534
 30
0.0
 10
-18610.33417192602
 20
-33635.67674122534
 30
0.0
 10
-18610.25268035832
 20
-33635.73973322536
 30
0.0
 10
-18610.17118879061
 20
-33635.67674122534
 30
0.0
 10
-18610.13044300676
 20
-33635.64524522534
 30
0.0
 11
-18610.37491770987
 21
-33635.64524522534
 31
0.0
 11
-18610.25268035832
 21
-33635.70823722534
 31
0.0
 11
-18610.13044300676
 21
-33635.64524522534
 31
0.0
  0
LINE
  5
492E
330
2
100
AcDbEntity
  8
0
100
AcDbLine
 10
-18610.13044300676
 20
-33635.44815924336
 30
0.0
 11
-18610.13044300676
 21
-33635.64524522534
 31
0.0
  0
LINE
  5
492F
330
2
100
AcDbEntity
  8
0
100
AcDbLine
 10
-18610.37491770987
 20
-33635.64524522534
 30
0.0
 11
-18610.37491770987
 21
-33635.44815924336
 31
0.0
  0
LINE
  5
4930
330
2
100
AcDbEntity
  8
0
100
AcDbLine
 10
-18610.81626711269
 20
-33635.64524522534
 30
0.0
 11
-18610.81626711269
 21
-33635.44815924336
 31
0.0
  0
LINE
  5
4931
330
2
100
AcDbEntity
  8
0
100
AcDbLine
 10
-18610.13044300676
 20
-33635.64524522534
 30
0.0
 11
-18610.0961768158
 21
-33635.64524522534
 31
0.0
  0
LINE
  5
4932
330
2
100
AcDbEntity
  8
0
100
AcDbLine
 10
-18610.37491770987
 20
-33635.64524522534
 30
0.0
 11
-18610.81626711269
 21
-33635.64524522534
 31
0.0
  0
ARC
  5
4933
330
2
100
AcDbEntity
  8
0
100
AcDbCircle
 10
-18610.1749168158
 20
-33635.64524522534
 30
0.0
 40
0.07874
100
AcDbArc
 50
270.0
 51
0.0
  0
SPLINE
  5
4934
330
2
100
AcDbEntity
  8
0
100
AcDbSpline
210
0.0
220
0.0
230
1.0
 70
     8
 71
     3
 72
     9
 73
     5
 74
     3
 42
0.0000000001
 43
0.0000000001
 44
0.0000000001
 40
0.0
 40
0.0
 40
0.0
 40
0.0
 40
0.2524596453436781
 40
0.5049192906873563
 40
0.5049192906873563
 40
0.5049192906873563
 40
0.5049192906873563
 10
-18611.30521651892
 20
-33635.64524522534
 30
0.0
 10
-18611.22372495121
 20
-33635.67674122534
 30
0.0
 10
-18611.0607418158
 20
-33635.73973322535
 30
0.0
 10
-18610.89775868039
 20
-33635.67674122535
 30
0.0
 10
-18610.81626711269
 20
-33635.64524522534
 30
0.0
 11
-18611.30521651892
 21
-33635.64524522534
 31
0.0
 11
-18611.0607418158
 21
-33635.70823722534
 31
0.0
 11
-18610.81626711269
 21
-33635.64524522534
 31
0.0
  0
LINE
  5
4938
330
2
100
AcDbEntity
  8
0
100
AcDbLine
 10
-18611.0607418158
 20
-33635.72398522534
 30
0.0
 11
-18611.9465668158
 21
-33635.72398522534
 31
0.0
  0
LINE
  5
493A
330
2
100
AcDbEntity
  8
0
100
AcDbLine
 10
-18610.0961768158
 20
-33635.64524522534
 30
0.0
 11
-18610.0961768158
 21
-33635.44815924336
 31
0.0
  0
LINE
  5
493E
330
2
100
AcDbEntity
  8
0
100
AcDbLine
 10
-18611.0607418158
 20
-33635.72398522534
 30
0.0
 11
-18610.1749168158
 21
-33635.72398522534
 31
0.0
  0
LINE
  5
4945
330
2
100
AcDbEntity
  8
0
100
AcDbLine
 10
-18610.3127118158
 20
-33635.72398522534
 30
0.0
 11
-18611.8087718158
 21
-33635.72398522534
 31
0.0
  0
LINE
  5
4949
330
2
100
AcDbEntity
  8
0
100
AcDbLine
 10
-18611.80870744053
 20
-33637.16099022534
 30
0.0
 11
-18610.31264744053
 21
-33637.16099022534
 31
0.0
  0
LINE
  5
494A
330
2
100
AcDbEntity
  8
0
100
AcDbLine
 10
-18611.80870744053
 20
-33637.16099022534
 30
0.0
 11
-18610.31264744053
 21
-33637.16099022534
 31
0.0
  0
LINE
  5
494B
330
2
100
AcDbEntity
  8
0
100
AcDbLine
 10
-18611.80870744053
 20
-33637.16099022534
 30
0.0
 11
-18610.31264744053
 21
-33637.16099022534
 31
0.0
  0
LINE
  5
494C
330
2
100
AcDbEntity
  8
0
100
AcDbLine
 10
-18611.80870744053
 20
-33635.72398522534
 30
0.0
 11
-18611.80870744053
 21
-33637.16099022534
 31
0.0
  0
LINE
  5
49EA
330
2
100
AcDbEntity
  8
0
100
AcDbLine
 10
-18549.30575807897
 20
-33635.72398522534
 30
0.0
 11
-18550.80181807897
 21
-33635.72398522534
 31
0.0
  0
LINE
  5
49F1
330
2
100
AcDbEntity
  8
0
100
AcDbLine
 10
-18550.05378807897
 20
-33635.72398522534
 30
0.0
 11
-18549.16796307897
 21
-33635.72398522534
 31
0.0
  0
LINE
  5
49F5
330
2
100
AcDbEntity
  8
0
100
AcDbLine
 10
-18549.08922307897
 20
-33635.64524522534
 30
0.0
 11
-18549.08922307897
 21
-33635.44815924316
 31
0.0
  0
LINE
  5
49F7
330
2
100
AcDbEntity
  8
0
100
AcDbLine
 10
-18550.05378807897
 20
-33635.72398522534
 30
0.0
 11
-18550.93961307897
 21
-33635.72398522534
 31
0.0
  0
SPLINE
  5
49FB
330
2
100
AcDbEntity
  8
0
100
AcDbSpline
210
0.0
220
0.0
230
1.0
 70
     8
 71
     3
 72
     9
 73
     5
 74
     3
 42
0.0000000001
 43
0.0000000001
 44
0.0000000001
 40
0.0
 40
0.0
 40
0.0
 40
0.0
 40
0.2524596453436781
 40
0.5049192906873563
 40
0.5049192906873563
 40
0.5049192906873563
 40
0.5049192906873563
 10
-18550.29826278209
 20
-33635.64524522534
 30
0.0
 10
-18550.21677121438
 20
-33635.67674122534
 30
0.0
 10
-18550.05378807897
 20
-33635.73973322535
 30
0.0
 10
-18549.89080494356
 20
-33635.67674122535
 30
0.0
 10
-18549.80931337586
 20
-33635.64524522534
 30
0.0
 11
-18550.29826278209
 21
-33635.64524522534
 31
0.0
 11
-18550.05378807897
 21
-33635.70823722534
 31
0.0
 11
-18549.80931337586
 21
-33635.64524522534
 31
0.0
  0
ARC
  5
49FC
330
2
100
AcDbEntity
  8
0
100
AcDbCircle
 10
-18549.16796307897
 20
-33635.64524522534
 30
0.0
 40
0.07874
100
AcDbArc
 50
270.0
 51
0.0
  0
LINE
  5
49FD
330
2
100
AcDbEntity
  8
0
100
AcDbLine
 10
-18549.36796397305
 20
-33635.64524522534
 30
0.0
 11
-18549.80931337586
 21
-33635.64524522534
 31
0.0
  0
LINE
  5
49FE
330
2
100
AcDbEntity
  8
0
100
AcDbLine
 10
-18549.12348926993
 20
-33635.64524522534
 30
0.0
 11
-18549.08922307897
 21
-33635.64524522534
 31
0.0
  0
LINE
  5
49FF
330
2
100
AcDbEntity
  8
0
100
AcDbLine
 10
-18549.80931337586
 20
-33635.64524522534
 30
0.0
 11
-18549.80931337586
 21
-33635.44815924316
 31
0.0
  0
LINE
  5
4A00
330
2
100
AcDbEntity
  8
0
100
AcDbLine
 10
-18549.36796397305
 20
-33635.64524522534
 30
0.0
 11
-18549.36796397305
 21
-33635.44815924316
 31
0.0
  0
LINE
  5
4A01
330
2
100
AcDbEntity
  8
0
100
AcDbLine
 10
-18549.12348926993
 20
-33635.44815924316
 30
0.0
 11
-18549.12348926993
 21
-33635.64524522534
 31
0.0
  0
SPLINE
  5
4A02
330
2
100
AcDbEntity
  8
0
100
AcDbSpline
210
0.0
220
0.0
230
1.0
 70
     8
 71
     3
 72
     9
 73
     5
 74
     3
 42
0.0000000001
 43
0.0000000001
 44
0.0000000001
 40
0.0
 40
0.0
 40
0.0
 40
0.0
 40
0.1375134981710699
 40
0.2750269963453736
 40
0.2750269963453736
 40
0.2750269963453736
 40
0.2750269963453736
 10
-18549.36796397305
 20
-33635.64524522534
 30
0.0
 10
-18549.32721818919
 20
-33635.67674122534
 30
0.0
 10
-18549.24572662149
 20
-33635.73973322536
 30
0.0
 10
-18549.16423505379
 20
-33635.67674122534
 30
0.0
 10
-18549.12348926993
 20
-33635.64524522534
 30
0.0
 11
-18549.36796397305
 21
-33635.64524522534
 31
0.0
 11
-18549.24572662149
 21
-33635.70823722534
 31
0.0
 11
-18549.12348926993
 21
-33635.64524522534
 31
0.0
  0
LINE
  5
4A03
330
2
100
AcDbEntity
  8
0
100
AcDbLine
 10
-18550.7396121849
 20
-33635.64524522534
 30
0.0
 11
-18550.29826278209
 21
-33635.64524522534
 31
0.0
  0
LINE
  5
4A04
330
2
100
AcDbEntity
  8
0
100
AcDbLine
 10
-18551.01835307897
 20
-33635.64524522534
 30
0.0
 11
-18551.01835307897
 21
-33635.44815924316
 31
0.0
  0
ARC
  5
4A05
330
2
100
AcDbEntity
  8
0
100
AcDbCircle
 10
-18550.93961307897
 20
-33635.64524522534
 30
0.0
 40
0.07874
100
AcDbArc
 50
180.0
 51
270.0
  0
LINE
  5
4A06
330
2
100
AcDbEntity
  8
0
100
AcDbLine
 10
-18550.05378807897
 20
-33635.72398522534
 30
0.0
 11
-18550.05378807897
 21
-33635.70823722534
 31
0.0
  0
LINE
  5
4A07
330
2
100
AcDbEntity
  8
0
100
AcDbLine
 10
-18550.05378807897
 20
-33635.70823722534
 30
0.0
 11
-18550.0822320067
 21
-33635.70823722534
 31
0.0
  0
LINE
  5
4A08
330
2
100
AcDbEntity
  8
0
100
AcDbLine
 10
-18550.29826278209
 20
-33635.64524522534
 30
0.0
 11
-18550.29826278209
 21
-33635.44815924316
 31
0.0
  0
LINE
  5
4A0A
330
2
100
AcDbEntity
  8
0
100
AcDbLine
 10
-18550.98408688802
 20
-33635.64524522534
 30
0.0
 11
-18551.01835307897
 21
-33635.64524522534
 31
0.0
  0
LINE
  5
4A0B
330
2
100
AcDbEntity
  8
0
100
AcDbLine
 10
-18550.7396121849
 20
-33635.64524522534
 30
0.0
 11
-18550.7396121849
 21
-33635.44815924316
 31
0.0
  0
SPLINE
  5
4A0C
330
2
100
AcDbEntity
  8
0
100
AcDbSpline
210
0.0
220
0.0
230
1.0
 70
     8
 71
     3
 72
     9
 73
     5
 74
     3
 42
0.0000000001
 43
0.0000000001
 44
0.0000000001
 40
0.0
 40
0.0
 40
0.0
 40
0.0
 40
0.1375134981710699
 40
0.2750269963453736
 40
0.2750269963453736
 40
0.2750269963453736
 40
0.2750269963453736
 10
-18550.7396121849
 20
-33635.64524522534
 30
0.0
 10
-18550.78035796875
 20
-33635.67674122534
 30
0.0
 10
-18550.86184953646
 20
-33635.73973322536
 30
0.0
 10
-18550.94334110416
 20
-33635.67674122534
 30
0.0
 10
-18550.98408688802
 20
-33635.64524522534
 30
0.0
 11
-18550.7396121849
 21
-33635.64524522534
 31
0.0
 11
-18550.86184953646
 21
-33635.70823722534
 31
0.0
 11
-18550.98408688802
 21
-33635.64524522534
 31
0.0
  0
LINE
  5
4A0E
330
2
100
AcDbEntity
  8
0
100
AcDbLine
 10
-18550.98408688801
 20
-33635.44815924316
 30
0.0
 11
-18550.98408688802
 21
-33635.64524522534
 31
0.0
  0
LINE
  5
4A26
330
2
100
AcDbEntity
  8
0
100
AcDbLine
 10
-18550.80175370371
 20
-33637.16099022645
 30
0.0
 11
-18549.3056937037
 21
-33637.16099022645
 31
0.0
  0
LINE
  5
4A27
330
2
100
AcDbEntity
  8
0
100
AcDbLine
 10
-18550.80175370371
 20
-33637.16099022645
 30
0.0
 11
-18549.3056937037
 21
-33637.16099022645
 31
0.0
  0
LINE
  5
4A28
330
2
100
AcDbEntity
  8
0
100
AcDbLine
 10
-18550.80175370371
 20
-33637.16099022645
 30
0.0
 11
-18549.3056937037
 21
-33637.16099022645
 31
0.0
  0
LINE
  5
4A2B
330
2
100
AcDbEntity
  8
0
100
AcDbLine
 10
-18549.30575807897
 20
-33637.16099022534
 30
0.0
 11
-18550.80181807897
 21
-33637.16099022534
 31
0.0
  0
LINE
  5
4A2C
330
2
100
AcDbEntity
  8
0
100
AcDbLine
 10
-18550.80181807897
 20
-33635.70430022534
 30
0.0
 11
-18550.80181807897
 21
-33637.16099022534
 31
0.0
  0
LINE
  5
4A2D
330
2
100
AcDbEntity
  8
0
100
AcDbLine
 10
-18549.30575807897
 20
-33635.70430022534
 30
0.0
 11
-18549.30575807897
 21
-33637.16099022534
 31
0.0
  0
VIEWPORT
  5
4F2C
102
{ACAD_XDICTIONARY
360
7A25
102
}
330
4F25
100
AcDbEntity
 67
     1
  8
0
100
AcDbViewport
 10
145.3250122070312
 20
101.8250000476837
 30
0.0
 40
550.2034496919917
 41
222.18
 68
     1
 69
     1
 12
145.3250122070312
 22
101.8250000476837
 13
0.0
 23
0.0
 14
0.5
 24
0.5
 15
0.5
 25
0.5
 16
0.0
 26
0.0
 36
1.0
 17
0.0
 27
0.0
 37
0.0
 42
50.0
 43
0.0
 44
0.0
 45
222.18
 50
0.0
 51
0.0
 72
  1000
 90
   557088
  1

281
     0
 71
     1
 74
     0
110
0.0
120
0.0
130
0.0
111
1.0
121
0.0
131
0.0
112
0.0
122
1.0
132
0.0
 79
     0
146
0.0
  0
VIEWPORT
  5
4F2E
102
{ACAD_XDICTIONARY
360
7A27
102
}
330
4F25
100
AcDbEntity
 67
     1
  8
0
100
AcDbViewport
 10
145.3250061273575
 20
101.8249984979629
 30
0.0
 40
232.5200098037719
 41
162.9199975967407
 68
     2
 69
     2
 12
-18593.61045967901
 22
-33607.53757634318
 13
0.0
 23
0.0
 14
17.32050807568877
 24
5.0
 15
17.32050807568877
 25
5.0
 16
0.0
 26
0.0
 36
1.0
 17
0.0
 27
0.0
 37
0.0
 42
50.0
 43
0.0
 44
0.0
 45
82.85768717062861
 50
0.0
 51
0.0
 72
  1000
 90
   827488
  1

281
     0
 71
     1
 74
     0
110
0.0
120
0.0
130
0.0
111
1.0
121
0.0
131
0.0
112
0.0
122
1.0
132
0.0
 79
     0
146
0.0
  0
ENDSEC
  0
SECTION
  2
OBJECTS
  0
DICTIONARY
  5
7
330
0
100
AcDbDictionary
281
     1
  3
ACAD_COLOR
350
2B
  3
ACAD_GROUP
350
27
  3
ACAD_LAYOUT
350
B
  3
ACAD_MATERIAL
350
2A
  3
ACAD_MLINESTYLE
350
28
  3
ACAD_PLOTSETTINGS
350
29
  3
ACAD_PLOTSTYLENAME
350
6
  3
ACAD_TABLESTYLE
350
4B25
  3
ACAD_VISUALSTYLE
350
4B14
  3
AcadDim
350
7BB
  3
AcDbVariableDictionary
350
4B82
  3
DWGPROPS
350
7A19
  0
DICTIONARY
  5
4B8D
330
1D
100
AcDbDictionary
280
     1
281
     1
  0
DICTIONARY
  5
11
330
10
100
AcDbDictionary
280
     1
281
     1
  3
ACAD_LAYERFILTERS
360
12
  3
ACAD_LAYERSTATES
360
13
  0
DICTIONARY
  5
7699
330
2
100
AcDbDictionary
280
     1
281
     1
  3
ACAD_SORTENTS
360
769A
  0
DICTIONARY
  5
7A25
330
4F2C
100
AcDbDictionary
280
     1
281
     1
  3
ACAD_XREC_ROUNDTRIP
360
7A26
  0
DICTIONARY
  5
7A27
330
4F2E
100
AcDbDictionary
280
     1
281
     1
  3
ACAD_XREC_ROUNDTRIP
360
7A28
  0
DICTIONARY
  5
2B
102
{ACAD_REACTORS
330
7
102
}
330
7
100
AcDbDictionary
281
     1
  0
DICTIONARY
  5
27
102
{ACAD_REACTORS
330
7
102
}
330
7
100
AcDbDictionary
281
     1
  0
DICTIONARY
  5
B
102
{ACAD_REACTORS
330
7
102
}
330
7
100
AcDbDictionary
281
     1
  3
Layout1
350
4F26
  3
Model
350
A
1001
AcadStringInfo
1000
MIFCodePage
1070
     5
  0
DICTIONARY
  5
2A
102
{ACAD_REACTORS
330
7
102
}
330
7
100
AcDbDictionary
281
     1
  3
ByBlock
350
4B13
  3
ByLayer
350
4B12
  3
Global
350
47
  0
DICTIONARY
  5
28
102
{ACAD_REACTORS
330
7
102
}
330
7
100
AcDbDictionary
281
     1
  3
Standard
350
2D
  0
DICTIONARY
  5
29
102
{ACAD_REACTORS
330
7
102
}
330
7
100
AcDbDictionary
281
     1
  0
ACDBDICTIONARYWDFLT
  5
6
102
{ACAD_REACTORS
330
7
102
}
330
7
100
AcDbDictionary
281
     1
  3
Normal
350
5
100
AcDbDictionaryWithDefault
340
5
  0
DICTIONARY
  5
4B25
102
{ACAD_REACTORS
330
7
102
}
330
7
100
AcDbDictionary
281
     1
  3
Standard
350
4B26
  0
DICTIONARY
  5
4B14
102
{ACAD_REACTORS
330
7
102
}
330
7
100
AcDbDictionary
281
     1
  3
2dWireframe
350
4B1A
  3
3D Hidden
350
79BE
  3
3dWireframe
350
79BD
  3
Basic
350
4B19
  3
Brighten
350
4B20
  3
ColorChange
350
4B24
  3
Conceptual
350
79BF
  3
Dim
350
4B1F
  3
Facepattern
350
4B23
  3
Flat
350
4B15
  3
FlatWithEdges
350
4B16
  3
Gouraud
350
4B17
  3
GouraudWithEdges
350
4B18
  3
Linepattern
350
4B22
  3
Realistic
350
79C0
  3
Thicken
350
4B21
  0
XRECORD
  5
7BB
102
{ACAD_REACTORS
330
7
102
}
330
7
100
AcDbXrecord
280
     1
 90
   990106
  3

 60
     0
 61
     0
 62
     1
 63
     3
 64
     0
 65
     0
 66
     0
 67
     3
 68
     1
 69
     0
 70
     0
 71
     0
 72
     0
 40
0.0
170
     0
340
0
  0
DICTIONARY
  5
4B82
102
{ACAD_REACTORS
330
7
102
}
330
7
100
AcDbDictionary
281
     1
  3
CTABLESTYLE
350
4B83
  3
DIMASSOC
350
4BF9
  3
HIDETEXT
350
4BF8
  3
INDEXCTL
350
4BF7
  3
SORTENTS
350
4BF6
  0
XRECORD
  5
7A19
102
{ACAD_REACTORS
330
7
102
}
330
7
100
AcDbXrecord
280
     1
  1
DWGPROPS COOKIE
  2

  3

  4

  6

  7

  8
jgayle
  9

300
=
301
=
302
=
303
=
304
=
305
=
306
=
307
=
308
=
309
=
 40
0.6684003240740742
 41
2454978.968867361
 42
2455167.313195718
  1

 90
        0
  0
DICTIONARY
  5
12
102
{ACAD_REACTORS
330
11
102
}
330
11
100
AcDbDictionary
281
     1
  0
DICTIONARY
  5
13
102
{ACAD_REACTORS
330
11
102
}
330
11
100
AcDbDictionary
281
     1
  0
SORTENTSTABLE
  5
769A
102
{ACAD_REACTORS
330
7699
102
}
330
7699
100
AcDbSortentsTable
330
2
331
1F37
  5
1F37
331
2180
  5
2181
331
210A
  5
210B
331
2094
  5
2095
331
200E
  5
200E
331
205D
  5
205E
331
20D3
  5
20D4
331
2149
  5
214A
331
21FE
  5
21FF
331
2B8A
  5
2B8C
331
2188
  5
2189
331
209C
  5
209D
331
2112
  5
2113
331
2065
  5
2066
331
2151
  5
2152
331
21C7
  5
21C8
331
49F7
  5
49FC
331
2206
  5
2207
331
2190
  5
2191
331
211A
  5
211B
331
20E3
  5
20E4
331
2159
  5
215A
331
21CF
  5
21D0
331
2255
  5
2257
331
206D
  5
206E
331
20A4
  5
20A5
331
49FF
  5
4A01
331
2BAA
  5
2BB0
331
4928
  5
492A
331
220E
  5
220F
331
2198
  5
2199
331
21D7
  5
21D8
331
225D
  5
225F
331
2B53
  5
2B55
331
2036
  5
203C
331
20AC
  5
20AD
331
2122
  5
2123
331
2216
  5
2217
331
28DC
  5
2B1C
331
4930
  5
4932
331
4A07
  5
4A0A
331
2161
  5
2162
331
20EB
  5
20EC
331
20B4
  5
20B5
331
212A
  5
212B
331
21A0
  5
21A1
331
1F4F
  5
1F4F
331
2075
  5
2076
331
4938
  5
493E
331
2265
  5
2268
331
21DF
  5
21E0
331
2169
  5
216A
331
2132
  5
2133
331
21A8
  5
21A9
331
221E
  5
221F
331
20BC
  5
20BD
331
2046
  5
2047
331
1FC7
  5
1FC7
331
1F28
  5
1F28
331
207D
  5
207E
331
20F3
  5
20F4
331
21E7
  5
21E8
331
226D
  5
28BA
331
21B0
  5
21B1
331
2B1C
  5
2B1E
331
2BC2
  5
2BC4
331
213A
  5
213B
331
20C4
  5
20C5
331
204E
  5
204F
331
1FCF
  5
1FCF
331
2085
  5
2086
331
20FB
  5
20FC
331
2171
  5
2172
331
2B7B
  5
2B84
331
4A27
  5
4A2B
331
2B24
  5
2B27
331
21B8
  5
21B9
331
2142
  5
2143
331
20CC
  5
20CD
331
2056
  5
2057
331
208D
  5
208E
331
2103
  5
2104
331
2179
  5
217A
331
21EF
  5
21F0
331
21F7
  5
21F8
331
21C0
  5
21C1
331
2181
  5
2182
331
210B
  5
210C
331
2095
  5
2096
331
205E
  5
205F
331
20D4
  5
20DE
331
214A
  5
214B
331
2BE2
  5
2C8C
331
21FF
  5
2200
331
2B8B
  5
2B8D
331
2189
  5
218A
331
209D
  5
209E
331
2113
  5
2114
331
2066
  5
2067
331
2152
  5
2153
331
21C8
  5
21C9
331
4921
  5
4924
331
2207
  5
2208
331
2191
  5
2192
331
211B
  5
211C
331
20A5
  5
20A6
331
206E
  5
206F
331
20E4
  5
20E5
331
215A
  5
215B
331
21D0
  5
21D1
331
2256
  5
2258
331
4A00
  5
4A02
331
4929
  5
492B
331
2123
  5
2124
331
2199
  5
219A
331
220F
  5
2210
331
225E
  5
2260
331
2B54
  5
2B56
331
20AD
  5
20AE
331
2217
  5
2218
331
4931
  5
4933
331
1F48
  5
1F48
331
21D8
  5
21D9
331
2162
  5
2163
331
20EC
  5
20ED
331
2076
  5
2077
331
203F
  5
2040
331
20B5
  5
20B6
331
212B
  5
212C
331
21A1
  5
21A2
331
1FC0
  5
1FC0
331
2266
  5
2269
331
4A08
  5
4A0B
331
21E0
  5
21E1
331
216A
  5
216B
331
20F4
  5
20F5
331
20BD
  5
20BE
331
2133
  5
2134
331
21A9
  5
21AA
331
221F
  5
2220
331
2047
  5
2048
331
1FC8
  5
1FC8
331
1F29
  5
1F29
331
207E
  5
207F
331
2B74
  5
2B7C
331
21E8
  5
21E9
331
2172
  5
2173
331
213B
  5
213C
331
21B1
  5
21B2
331
2B1D
  5
2B1F
331
2BC3
  5
2BC5
331
20C5
  5
20C6
331
204F
  5
2050
331
1FD0
  5
1FD0
331
2086
  5
2087
331
20FC
  5
20FD
331
4A28
  5
4A2C
331
2B7C
  5
2B85
331
21F0
  5
21F1
331
28B6
  5
28BB
331
21B9
  5
21BA
331
2B25
  5
2B28
331
4949
  5
494B
331
2143
  5
2144
331
20CD
  5
20CE
331
2057
  5
2058
331
208E
  5
208F
331
2104
  5
2105
331
217A
  5
217B
331
28BE
  5
28C0
331
2B84
  5
2B86
331
1F31
  5
1F31
331
21C1
  5
21C2
331
214B
  5
214C
331
2096
  5
2097
331
210C
  5
210D
331
2182
  5
2183
331
21F8
  5
21F9
331
1F41
  5
1F41
331
205F
  5
2060
331
49F1
  5
49F7
331
2BE3
  5
2C8D
331
224F
  5
2253
331
21C9
  5
21CA
331
218A
  5
218B
331
2200
  5
2201
331
28C6
  5
28CA
331
2B8C
  5
2B8F
331
4912
  5
4916
331
209E
  5
209F
331
2114
  5
2115
331
2067
  5
2068
331
2153
  5
2154
331
2257
  5
2259
331
2208
  5
2209
331
2192
  5
2193
331
211C
  5
211D
331
20A6
  5
20A7
331
206F
  5
2070
331
20E5
  5
20E6
331
215B
  5
215C
331
21D1
  5
21D2
331
4A01
  5
4A03
331
2B55
  5
2B57
331
28D6
  5
28DC
331
492A
  5
492C
331
20AE
  5
20AF
331
2124
  5
2125
331
219A
  5
219B
331
2210
  5
2211
331
225F
  5
2261
331
4932
  5
4934
331
2218
  5
2219
331
21D9
  5
21DA
331
2163
  5
2164
331
20ED
  5
20EE
331
2077
  5
2078
331
1FC1
  5
1FC1
331
2040
  5
2041
331
20B6
  5
20B7
331
212C
  5
212D
331
21A2
  5
21A3
331
493A
  5
4945
331
21E1
  5
21E2
331
216B
  5
216C
331
20F5
  5
20F6
331
207F
  5
2080
331
2048
  5
2049
331
20BE
  5
20BF
331
2134
  5
2135
331
21AA
  5
21AB
331
2220
  5
2221
331
1FC9
  5
1FC9
331
2BC4
  5
2BC6
331
21E9
  5
21EA
331
2173
  5
2174
331
20FD
  5
20FE
331
20C6
  5
20C7
331
213C
  5
213D
331
21B2
  5
21B3
331
2050
  5
2051
331
2087
  5
2088
331
494A
  5
494C
331
21F1
  5
21F2
331
217B
  5
217C
331
2144
  5
2145
331
21BA
  5
21BB
331
20CE
  5
20CF
331
208F
  5
2090
331
2105
  5
2106
331
28BF
  5
28C6
331
2B85
  5
2B87
331
49EA
  5
49F5
331
2058
  5
2059
331
1F3A
  5
1F3A
331
21C2
  5
21C3
331
214C
  5
214D
331
2097
  5
2098
331
210D
  5
210E
331
2183
  5
2184
331
21F9
  5
21FA
331
2060
  5
2061
331
21CA
  5
21CB
331
2154
  5
2155
331
2115
  5
2116
331
218B
  5
218C
331
2201
  5
2202
331
2B8D
  5
2B90
331
209F
  5
20A0
331
2068
  5
2069
331
20DE
  5
20DF
331
2B4E
  5
2B50
331
2C8C
  5
2C8E
331
2258
  5
225A
331
21D2
  5
21D3
331
2193
  5
2194
331
2209
  5
220A
331
28CF
  5
28D6
331
4923
  5
4925
331
211D
  5
211E
331
20A7
  5
20A8
331
20E6
  5
20E7
331
215C
  5
215D
331
4A02
  5
4A04
331
2B56
  5
2B59
331
20AF
  5
20B0
331
2125
  5
2126
331
219B
  5
219C
331
2211
  5
2212
331
492B
  5
492D
331
4933
  5
4938
331
2070
  5
2071
331
2219
  5
221A
331
21A3
  5
21A4
331
2164
  5
2165
331
21DA
  5
21DB
331
2260
  5
2262
331
20EE
  5
20EF
331
2078
  5
2079
331
1FC2
  5
1FC2
331
2041
  5
2042
331
20B7
  5
20B8
331
212D
  5
212E
331
2BBD
  5
2BBF
331
2221
  5
2222
331
21E2
  5
21E3
331
2268
  5
226A
331
4A0A
  5
4A0C
331
216C
  5
216D
331
20F6
  5
20F7
331
2080
  5
2081
331
1FCA
  5
1FCA
331
2049
  5
204A
331
20BF
  5
20C0
331
2135
  5
2136
331
21AB
  5
21AC
331
2BC5
  5
2BC8
331
21EA
  5
21EB
331
2174
  5
2175
331
20FE
  5
20FF
331
2088
  5
2089
331
2051
  5
2052
331
20C7
  5
20C8
331
213D
  5
213E
331
21B3
  5
21B4
331
494B
  5
49EA
331
21F2
  5
21F3
331
217C
  5
217D
331
2106
  5
2107
331
20CF
  5
20D3
331
2145
  5
2146
331
21BB
  5
21BC
331
2239
  5
224F
331
2B27
  5
2B29
331
2BDD
  5
2BE3
331
2059
  5
205A
331
200A
  5
200A
331
2090
  5
2091
331
28C0
  5
28C9
331
21C3
  5
21C4
331
214D
  5
214E
331
2061
  5
2062
331
2012
  5
2012
331
2098
  5
2099
331
210E
  5
210F
331
2184
  5
2185
331
21FA
  5
21FB
331
21CB
  5
21CC
331
2155
  5
2156
331
20DF
  5
20E0
331
20A0
  5
20A1
331
2116
  5
2117
331
218C
  5
218D
331
2202
  5
2203
331
2069
  5
206A
331
4924
  5
4927
331
2259
  5
225B
331
2B4F
  5
2B51
331
2C8D
  5
2C8F
331
49FB
  5
49FD
331
21D3
  5
21D4
331
215D
  5
215E
331
211E
  5
211F
331
2194
  5
2195
331
220A
  5
220B
331
20A8
  5
20A9
331
20E7
  5
20E8
331
4A03
  5
4A05
331
2B57
  5
2B5A
331
2126
  5
2127
331
219C
  5
219D
331
2212
  5
2213
331
492C
  5
492E
331
4934
  5
493A
331
20B0
  5
20B1
331
1F4B
  5
1F4B
331
2071
  5
2072
331
28E0
  5
2B1D
331
221A
  5
221B
331
21A4
  5
21A5
331
212E
  5
212F
331
20EF
  5
20F0
331
2165
  5
2166
331
21DB
  5
21DC
331
2261
  5
2263
331
2079
  5
207A
331
1FC3
  5
1FC3
331
2042
  5
2043
331
20B8
  5
20B9
331
4A0B
  5
4A0E
331
2BBE
  5
2BC0
331
2222
  5
2223
331
21AC
  5
21AD
331
216D
  5
216E
331
21E3
  5
21E4
331
2269
  5
226B
331
20F7
  5
20F8
331
2081
  5
2082
331
1FCB
  5
1FCB
331
1F2C
  5
1F2C
331
204A
  5
204B
331
20C0
  5
20C1
331
2136
  5
2137
331
2B20
  5
2B22
331
2BC6
  5
2BC9
331
21EB
  5
21EC
331
2175
  5
2176
331
20FF
  5
2100
331
2089
  5
208A
331
2052
  5
2053
331
20C8
  5
20C9
331
213E
  5
213F
331
21B4
  5
21B5
331
2B28
  5
2B42
331
494C
  5
49F1
331
21F3
  5
21F4
331
4A2B
  5
4A2D
331
217D
  5
217E
331
2107
  5
2108
331
2146
  5
2147
331
21BC
  5
21BD
331
205A
  5
205B
331
200B
  5
200B
331
2091
  5
2092
331
21FB
  5
21FC
331
21C4
  5
21C5
331
214E
  5
214F
331
2062
  5
2063
331
2099
  5
209A
331
210F
  5
2110
331
2185
  5
2186
331
28C9
  5
28CB
331
2B8F
  5
2B91
331
4915
  5
4921
331
21CC
  5
21CD
331
2156
  5
2157
331
20E0
  5
20E1
331
206A
  5
206B
331
20A1
  5
20A2
331
2117
  5
2118
331
218D
  5
218E
331
2203
  5
2204
331
4925
  5
4928
331
225A
  5
225C
331
2C8E
  5
2C90
331
49FC
  5
49FE
331
21D4
  5
21D5
331
215E
  5
215F
331
20A9
  5
20AA
331
211F
  5
2120
331
2195
  5
2196
331
220B
  5
220C
331
492D
  5
492F
331
4A04
  5
4A06
331
2127
  5
2128
331
219D
  5
219E
331
2213
  5
2214
331
28D9
  5
28E0
331
2BAF
  5
2BBD
331
20B1
  5
20B2
331
2072
  5
2073
331
20E8
  5
20E9
331
221B
  5
221C
331
21A5
  5
21A6
331
212F
  5
2130
331
20B9
  5
20BA
331
207A
  5
207B
331
20F0
  5
20F1
331
2166
  5
2167
331
21DC
  5
21DD
331
2262
  5
2265
331
1FC4
  5
1FC4
331
2043
  5
2044
331
2DAE
  5
2DC6
331
4A0C
  5
4A26
331
2223
  5
222B
331
21AD
  5
21AE
331
2137
  5
2138
331
20F8
  5
20F9
331
216E
  5
216F
331
21E4
  5
21E5
331
226A
  5
226C
331
2082
  5
2083
331
1FCC
  5
1FCC
331
204B
  5
204C
331
20C1
  5
20C2
331
4945
  5
494A
331
222B
  5
222C
331
2B21
  5
2B23
331
21B5
  5
21B6
331
2176
  5
2177
331
21EC
  5
21ED
331
2DC6
  5
4912
331
2100
  5
2101
331
208A
  5
208B
331
2053
  5
2054
331
20C9
  5
20CA
331
213F
  5
2140
331
21F4
  5
21F5
331
28BA
  5
28BE
331
4A2C
  5
79C6
331
217E
  5
217F
331
2147
  5
2148
331
21BD
  5
21BE
331
2108
  5
2109
331
205B
  5
205C
331
1F3D
  5
1F3D
331
2092
  5
2093
331
21FC
  5
21FD
331
2B88
  5
2B8A
331
2186
  5
2187
331
214F
  5
2150
331
21C5
  5
21C6
331
2063
  5
2064
331
1F45
  5
1F45
331
209A
  5
209B
331
2110
  5
2111
331
2B90
  5
2BAA
331
4916
  5
4923
331
28CA
  5
28CF
331
2204
  5
2205
331
21CD
  5
21CE
331
2253
  5
2256
331
2B49
  5
2B4E
331
49F5
  5
49FB
331
2157
  5
2158
331
20E1
  5
20E2
331
206B
  5
206C
331
201C
  5
201C
331
20A2
  5
20A3
331
2118
  5
2119
331
218E
  5
218F
331
225B
  5
225D
331
2C8F
  5
2DAE
331
49FD
  5
49FF
331
21D5
  5
21D6
331
215F
  5
2160
331
20AA
  5
20AB
331
2120
  5
2121
331
2196
  5
2197
331
220C
  5
220D
331
2BB0
  5
2BBE
331
492E
  5
4930
331
4A05
  5
4A07
331
219E
  5
219F
331
2214
  5
2215
331
2128
  5
2129
331
20B2
  5
20B3
331
203C
  5
203D
331
2073
  5
2074
331
20E9
  5
20EA
331
2263
  5
2266
331
2B59
  5
2B5B
331
221C
  5
221D
331
21A6
  5
21A7
331
2130
  5
2131
331
20BA
  5
20BB
331
2044
  5
2045
331
1FC5
  5
1FC5
331
207B
  5
207C
331
20F1
  5
20F2
331
2167
  5
2168
331
21DD
  5
21DE
331
2DAF
  5
490F
331
493E
  5
4949
331
21AE
  5
21AF
331
2138
  5
2139
331
20C2
  5
20C3
331
2083
  5
2084
331
20F9
  5
20FA
331
216F
  5
2170
331
21E5
  5
21E6
331
226B
  5
226D
331
1FCD
  5
1FCD
331
1F2E
  5
1F2E
331
204C
  5
204D
331
222C
  5
222D
331
2B22
  5
2B24
331
2BC8
  5
2BCA
331
21B6
  5
21B7
331
2140
  5
2141
331
2101
  5
2102
331
2177
  5
2178
331
21ED
  5
21EE
331
208B
  5
208C
331
2054
  5
2055
331
20CA
  5
20CB
331
4A2D
  5
79C7
331
21BE
  5
21BF
331
217F
  5
2180
331
21F5
  5
21F6
331
28BB
  5
28BF
331
490F
  5
4915
331
2093
  5
2094
331
2109
  5
210A
331
205C
  5
205D
331
2148
  5
2149
331
2B89
  5
2B8B
331
21FD
  5
21FE
331
2187
  5
2188
331
2111
  5
2112
331
2150
  5
2151
331
21C6
  5
21C7
331
2B42
  5
2B4A
331
2064
  5
2065
331
209B
  5
209C
331
2205
  5
2206
331
28CB
  5
28D3
331
218F
  5
2190
331
2158
  5
2159
331
21CE
  5
21CF
331
2B4A
  5
2B4F
331
20E2
  5
20E3
331
206C
  5
206D
331
20A3
  5
20A4
331
2119
  5
211A
331
4927
  5
4929
331
28D3
  5
28D9
331
220D
  5
220E
331
21D6
  5
21D7
331
225C
  5
225E
331
2B52
  5
2B54
331
2C90
  5
2DAF
331
49FE
  5
4A00
331
20AB
  5
20AC
331
2121
  5
2122
331
2197
  5
2198
331
492F
  5
4931
331
4A06
  5
4A08
331
219F
  5
21A0
331
2215
  5
2216
331
2160
  5
2161
331
2129
  5
212A
331
20B3
  5
20B4
331
203D
  5
203F
331
2074
  5
2075
331
20EA
  5
20EB
331
2B5A
  5
2B74
331
21DE
  5
21DF
331
21A7
  5
21A8
331
221D
  5
221E
331
2131
  5
2132
331
20BB
  5
20BC
331
2045
  5
2046
331
1FC6
  5
1FC6
331
1F27
  5
1F27
331
207C
  5
207D
331
20F2
  5
20F3
331
2168
  5
2169
331
4A0E
  5
4A27
331
226C
  5
28B6
331
2BC1
  5
2BC3
331
21AF
  5
21B0
331
2139
  5
213A
331
20C3
  5
20C4
331
204D
  5
204E
331
1FCE
  5
1FCE
331
1F2F
  5
1F2F
331
2084
  5
2085
331
20FA
  5
20FB
331
2170
  5
2171
331
21E6
  5
21E7
331
4A26
  5
4A28
331
222D
  5
2239
331
2B23
  5
2B25
331
2BC9
  5
2BDD
331
21B7
  5
21B8
331
2141
  5
2142
331
20CB
  5
20CC
331
208C
  5
208D
331
2102
  5
2103
331
2178
  5
2179
331
21EE
  5
21EF
331
2055
  5
2056
331
21BF
  5
21C0
331
21F6
  5
21F7
  0
XRECORD
  5
7A26
102
{ACAD_REACTORS
330
7A25
102
}
330
7A25
100
AcDbXrecord
280
     1
102
SHADEPLOT
 70
     0
  0
XRECORD
  5
7A28
102
{ACAD_REACTORS
330
7A27
102
}
330
7A27
100
AcDbXrecord
280
     1
102
SHADEPLOT
 70
     0
  0
LAYOUT
  5
4F26
102
{ACAD_XDICTIONARY
360
4F33
102
}
102
{ACAD_REACTORS
330
B
102
}
330
B
100
AcDbPlotSettings
  1

  2
Fax
  4
A4 Small
  6

 40
3.174999952316284
 41
3.174999952316284
 42
3.175003051757812
 43
3.17498779296875
 44
210.0
 45
297.0
 46
0.0
 47
0.0
 48
0.0
 49
0.0
140
0.0
141
0.0
142
1.0
143
1.0
 70
   688
 72
     1
 73
     1
 74
     5
  7

 75
    16
147
1.0
148
0.0
149
0.0
100
AcDbLayout
  1
Layout1
 70
     1
 71
     1
 10
-3.17498779296875
 20
-3.174999952316284
 11
293.8250122070312
 21
206.8250000476837
 12
0.0
 22
0.0
 32
0.0
 14
29.0650012254715
 24
20.3649996995926
 34
0.0
 15
261.5850110292434
 25
183.2849972963333
 35
0.0
146
0.0
 13
0.0
 23
0.0
 33
0.0
 16
1.0
 26
0.0
 36
0.0
 17
0.0
 27
1.0
 37
0.0
 76
     0
330
4F25
331
4F2C
1001
ACAD_PSEXT
1000
Fax
1000
Microsoft Shared Fax Driver
1000
SHRFAX:
1000

1070
     0
  0
LAYOUT
  5
A
102
{ACAD_XDICTIONARY
360
7A1A
102
}
102
{ACAD_REACTORS
330
B
102
}
330
B
100
AcDbPlotSettings
  1

  2
Adobe PDF
  4
Letter
  6

 40
3.174999952316284
 41
3.174999952316284
 42
3.175003051757812
 43
3.17498779296875
 44
215.8999938964844
 45
279.3999938964844
 46
8.098832366081582
 47
0.0
 48
27302.94996609099
 49
-3430.562659875359
140
33137.94996609099
141
844.4373401246412
142
1.0
143
313.8218468470716
 70
 11956
 72
     0
 73
     1
 74
     1
  7
monochrome.ctb
 75
     0
147
0.0031865213019644
148
480660.9107113804
149
866462.1080304513
100
AcDbLayout
  1
Model
 70
     1
 71
     0
 10
0.0
 20
0.0
 11
12.0
 21
9.0
 12
0.0
 22
0.0
 32
0.0
 14
0.0
 24
0.0
 34
0.0
 15
0.0
 25
0.0
 35
0.0
146
0.0
 13
0.0
 23
0.0
 33
0.0
 16
1.0
 26
0.0
 36
0.0
 17
0.0
 27
1.0
 37
0.0
 76
     0
330
2
331
4B10
1001
ACAD_PSEXT
1000
Adobe PDF
1000
Adobe PDF Converter
1000
My Documents
1000

1070
     0
  0
MATERIAL
  5
4B13
102
{ACAD_XDICTIONARY
360
7A20
102
}
102
{ACAD_REACTORS
330
2A
102
}
330
2A
100
AcDbMaterial
  1
ByBlock
  0
MATERIAL
  5
4B12
102
{ACAD_XDICTIONARY
360
7A1E
102
}
102
{ACAD_REACTORS
330
2A
102
}
330
2A
100
AcDbMaterial
  1
ByLayer
  0
MATERIAL
  5
47
102
{ACAD_XDICTIONARY
360
7A1C
102
}
102
{ACAD_REACTORS
330
2A
102
}
330
2A
100
AcDbMaterial
  1
Global
  0
MLINESTYLE
  5
2D
102
{ACAD_REACTORS
330
28
102
}
330
28
100
AcDbMlineStyle
  2
STANDARD
 70
     0
  3

 62
   256
 51
90.0
 52
90.0
 71
     2
 49
0.5
 62
   256
  6
BYLAYER
 49
-0.5
 62
   256
  6
BYLAYER
  0
ACDBPLACEHOLDER
  5
5
102
{ACAD_REACTORS
330
6
102
}
330
6
  0
TABLESTYLE
  5
4B26
102
{ACAD_XDICTIONARY
360
7A22
102
}
102
{ACAD_REACTORS
330
4B25
102
}
330
4B25
100
AcDbTableStyle
  3
Standard
 70
     0
 71
     0
 40
1.5
 41
1.5
280
     0
281
     0
  7
Standard
140
4.5
170
     2
 62
     0
 63
     7
283
     0
274
    -2
284
     1
 64
     0
275
    -2
285
     1
 65
     0
276
    -2
286
     1
 66
     0
277
    -2
287
     1
 67
     0
278
    -2
288
     1
 68
     0
279
    -2
289
     1
 69
     0
  7
Standard
140
6.0
170
     5
 62
     0
 63
     7
283
     0
274
    -2
284
     1
 64
     0
275
    -2
285
     1
 65
     0
276
    -2
286
     1
 66
     0
277
    -2
287
     1
 67
     0
278
    -2
288
     1
 68
     0
279
    -2
289
     1
 69
     0
  7
Standard
140
4.5
170
     5
 62
     0
 63
     7
283
     0
274
    -2
284
     1
 64
     0
275
    -2
285
     1
 65
     0
276
    -2
286
     1
 66
     0
277
    -2
287
     1
 67
     0
278
    -2
288
     1
 68
     0
279
    -2
289
     1
 69
     0
  0
VISUALSTYLE
  5
4B1A
102
{ACAD_REACTORS
330
4B14
102
}
330
4B14
100
AcDbVisualStyle
  2
2dWireframe
 70
     4
 71
     0
 72
     2
 73
     0
 90
        0
 40
-0.6
 41
-30.0
 62
     5
 63
     7
 74
     1
 91
        4
 64
     7
 65
   257
 75
     1
175
     1
 42
1.0
 92
        0
 66
   257
 43
1.0
 76
     1
 77
     6
 78
     2
 67
     7
 79
     5
170
     0
171
     0
290
     0
174
     0
 93
        1
 44
0.0
173
     0
291
     0
 45
0.0
1001
ACAD
1000
AcDbSavedByObjectVersion
1070
     0
1000
AcDbSavedByObjectVersion
1070
     0
  0
VISUALSTYLE
  5
79BE
102
{ACAD_REACTORS
330
4B14
102
}
330
4B14
100
AcDbVisualStyle
  2
3D Hidden
 70
     6
 71
     1
 72
     2
 73
     2
 90
        0
 40
-0.6
 41
-30.0
 62
     5
 63
     7
 74
     2
 91
        2
 64
     7
 65
   257
 75
     2
175
     1
 42
40.0
 92
        0
 66
   257
 43
1.0
 76
     1
 77
     6
 78
     2
 67
     7
 79
     3
170
     0
171
     0
290
     0
174
     0
 93
        1
 44
0.0
173
     0
291
     0
 45
0.0
1001
ACAD
1000
AcDbSavedByObjectVersion
1070
     0
  0
VISUALSTYLE
  5
79BD
102
{ACAD_REACTORS
330
4B14
102
}
330
4B14
100
AcDbVisualStyle
  2
3dWireframe
 70
     5
 71
     0
 72
     2
 73
     0
 90
        0
 40
-0.6
 41
-30.0
 62
     5
 63
     7
 74
     1
 91
        4
 64
     7
 65
   257
 75
     1
175
     1
 42
1.0
 92
        0
 66
   257
 43
1.0
 76
     1
 77
     6
 78
     2
 67
     7
 79
     5
170
     0
171
     0
290
     0
174
     0
 93
        1
 44
0.0
173
     0
291
     0
 45
0.0
1001
ACAD
1000
AcDbSavedByObjectVersion
1070
     0
  0
VISUALSTYLE
  5
4B19
102
{ACAD_REACTORS
330
4B14
102
}
330
4B14
100
AcDbVisualStyle
  2
Basic
 70
     7
 71
     1
 72
     0
 73
     1
 90
        0
 40
-0.6
 41
-30.0
 62
     5
 63
     7
 74
     0
 91
        4
 64
     7
 65
   257
 75
     1
175
     1
 42
1.0
 92
        8
 66
     7
 43
1.0
 76
     1
 77
     6
 78
     2
 67
     7
 79
     5
170
     0
171
     0
290
     0
174
     0
 93
        1
 44
0.0
173
     0
291
     1
 45
0.0
1001
ACAD
1000
AcDbSavedByObjectVersion
1070
     0
1000
AcDbSavedByObjectVersion
1070
     0
  0
VISUALSTYLE
  5
4B20
102
{ACAD_REACTORS
330
4B14
102
}
330
4B14
100
AcDbVisualStyle
  2
Brighten
 70
    12
 71
     2
 72
     2
 73
     0
 90
        0
 40
-0.6
 41
-30.0
 62
     5
 63
     7
 74
     1
 91
        4
 64
     7
 65
   257
 75
     1
175
     1
 42
1.0
 92
        8
 66
     7
 43
1.0
 76
     1
 77
     6
 78
     2
 67
     7
 79
     5
170
     0
171
     0
290
     0
174
     0
 93
        1
 44
50.0
173
     0
291
     1
 45
0.0
1001
ACAD
1000
AcDbSavedByObjectVersion
1070
     0
1000
AcDbSavedByObjectVersion
1070
     0
  0
VISUALSTYLE
  5
4B24
102
{ACAD_REACTORS
330
4B14
102
}
330
4B14
100
AcDbVisualStyle
  2
ColorChange
 70
    16
 71
     2
 72
     2
 73
     3
 90
        0
 40
-0.6
 41
-30.0
 62
     5
 63
     8
 74
     1
 91
        4
 64
     7
 65
   257
 75
     1
175
     1
 42
1.0
 92
        8
 66
     8
 43
1.0
 76
     1
 77
     6
 78
     2
 67
     7
 79
     5
170
     0
171
     0
290
     0
174
     0
 93
        1
 44
0.0
173
     0
291
     1
 45
0.0
1001
ACAD
1000
AcDbSavedByObjectVersion
1070
     0
1000
AcDbSavedByObjectVersion
1070
     0
  0
VISUALSTYLE
  5
79BF
102
{ACAD_REACTORS
330
4B14
102
}
330
4B14
100
AcDbVisualStyle
  2
Conceptual
 70
     9
 71
     3
 72
     2
 73
     0
 90
        0
 40
-0.6
 41
-30.0
 62
     5
 63
     7
 74
     2
 91
        2
 64
     7
 65
   257
 75
     1
175
     1
 42
40.0
 92
        8
 66
     7
 43
1.0
 76
     1
 77
     6
 78
     2
 67
     7
 79
     3
170
     0
171
     0
290
     0
174
     0
 93
        1
 44
0.0
173
     0
291
     0
 45
0.0
1001
ACAD
1000
AcDbSavedByObjectVersion
1070
     0
  0
VISUALSTYLE
  5
4B1F
102
{ACAD_REACTORS
330
4B14
102
}
330
4B14
100
AcDbVisualStyle
  2
Dim
 70
    11
 71
     2
 72
     2
 73
     0
 90
        0
 40
-0.6
 41
-30.0
 62
     5
 63
     7
 74
     1
 91
        4
 64
     7
 65
   257
 75
     1
175
     1
 42
1.0
 92
        8
 66
     7
 43
1.0
 76
     1
 77
     6
 78
     2
 67
     7
 79
     5
170
     0
171
     0
290
     0
174
     0
 93
        1
 44
-50.0
173
     0
291
     1
 45
0.0
1001
ACAD
1000
AcDbSavedByObjectVersion
1070
     0
1000
AcDbSavedByObjectVersion
1070
     0
  0
VISUALSTYLE
  5
4B23
102
{ACAD_REACTORS
330
4B14
102
}
330
4B14
100
AcDbVisualStyle
  2
Facepattern
 70
    15
 71
     2
 72
     2
 73
     0
 90
        0
 40
-0.6
 41
-30.0
 62
     5
 63
     7
 74
     1
 91
        4
 64
     7
 65
   257
 75
     1
175
     1
 42
1.0
 92
        8
 66
     7
 43
1.0
 76
     1
 77
     6
 78
     2
 67
     7
 79
     5
170
     0
171
     0
290
     0
174
     0
 93
        1
 44
0.0
173
     0
291
     1
 45
0.0
1001
ACAD
1000
AcDbSavedByObjectVersion
1070
     0
1000
AcDbSavedByObjectVersion
1070
     0
  0
VISUALSTYLE
  5
4B15
102
{ACAD_REACTORS
330
4B14
102
}
330
4B14
100
AcDbVisualStyle
  2
Flat
 70
     0
 71
     2
 72
     1
 73
     1
 90
        2
 40
-0.6
 41
30.0
 62
     5
 63
     7
 74
     0
 91
        4
 64
     7
 65
   257
 75
     1
175
     1
 42
1.0
 92
        8
 66
     7
 43
1.0
 76
     1
 77
     6
 78
     2
 67
     7
 79
     5
170
     0
171
     0
290
     0
174
     0
 93
       13
 44
0.0
173
     0
291
     1
 45
0.0
1001
ACAD
1000
AcDbSavedByObjectVersion
1070
     0
1000
AcDbSavedByObjectVersion
1070
     0
  0
VISUALSTYLE
  5
4B16
102
{ACAD_REACTORS
330
4B14
102
}
330
4B14
100
AcDbVisualStyle
  2
FlatWithEdges
 70
     1
 71
     2
 72
     1
 73
     1
 90
        2
 40
-0.6
 41
30.0
 62
     5
 63
     7
 74
     1
 91
        4
 64
     7
 65
   257
 75
     1
175
     1
 42
1.0
 92
        0
 66
   257
 43
1.0
 76
     1
 77
     6
 78
     2
 67
     7
 79
     5
170
     0
171
     0
290
     0
174
     0
 93
       13
 44
0.0
173
     0
291
     1
 45
0.0
1001
ACAD
1000
AcDbSavedByObjectVersion
1070
     0
1000
AcDbSavedByObjectVersion
1070
     0
  0
VISUALSTYLE
  5
4B17
102
{ACAD_REACTORS
330
4B14
102
}
330
4B14
100
AcDbVisualStyle
  2
Gouraud
 70
     2
 71
     2
 72
     2
 73
     1
 90
        2
 40
-0.6
 41
30.0
 62
     5
 63
     7
 74
     0
 91
        4
 64
     7
 65
   257
 75
     1
175
     1
 42
1.0
 92
        0
 66
     7
 43
1.0
 76
     1
 77
     6
 78
     2
 67
     7
 79
     5
170
     0
171
     0
290
     0
174
     0
 93
       13
 44
0.0
173
     0
291
     1
 45
0.0
1001
ACAD
1000
AcDbSavedByObjectVersion
1070
     0
1000
AcDbSavedByObjectVersion
1070
     0
  0
VISUALSTYLE
  5
4B18
102
{ACAD_REACTORS
330
4B14
102
}
330
4B14
100
AcDbVisualStyle
  2
GouraudWithEdges
 70
     3
 71
     2
 72
     2
 73
     1
 90
        2
 40
-0.6
 41
30.0
 62
     5
 63
     7
 74
     1
 91
        4
 64
     7
 65
   257
 75
     1
175
     1
 42
1.0
 92
        0
 66
   257
 43
1.0
 76
     1
 77
     6
 78
     2
 67
     7
 79
     5
170
     0
171
     0
290
     0
174
     0
 93
       13
 44
0.0
173
     0
291
     1
 45
0.0
1001
ACAD
1000
AcDbSavedByObjectVersion
1070
     0
1000
AcDbSavedByObjectVersion
1070
     0
  0
VISUALSTYLE
  5
4B22
102
{ACAD_REACTORS
330
4B14
102
}
330
4B14
100
AcDbVisualStyle
  2
Linepattern
 70
    14
 71
     2
 72
     2
 73
     0
 90
        0
 40
-0.6
 41
-30.0
 62
     5
 63
     7
 74
     1
 91
        4
 64
     7
 65
   257
 75
     7
175
     7
 42
1.0
 92
        8
 66
     7
 43
1.0
 76
     1
 77
     6
 78
     2
 67
     7
 79
     5
170
     0
171
     0
290
     0
174
     0
 93
        1
 44
0.0
173
     0
291
     1
 45
0.0
1001
ACAD
1000
AcDbSavedByObjectVersion
1070
     0
1000
AcDbSavedByObjectVersion
1070
     0
  0
VISUALSTYLE
  5
79C0
102
{ACAD_REACTORS
330
4B14
102
}
330
4B14
100
AcDbVisualStyle
  2
Realistic
 70
     8
 71
     2
 72
     2
 73
     0
 90
        0
 40
-0.6
 41
-30.0
 62
     5
 63
     7
 74
     1
 91
        0
 64
     7
 65
   257
 75
     1
175
     1
 42
1.0
 92
        8
 66
     8
 43
1.0
 76
     1
 77
     6
 78
     2
 67
     7
 79
     5
170
     0
171
     0
290
     0
174
     0
 93
       13
 44
0.0
173
     0
291
     0
 45
0.0
1001
ACAD
1000
AcDbSavedByObjectVersion
1070
     0
  0
VISUALSTYLE
  5
4B21
102
{ACAD_REACTORS
330
4B14
102
}
330
4B14
100
AcDbVisualStyle
  2
Thicken
 70
    13
 71
     2
 72
     2
 73
     0
 90
        0
 40
-0.6
 41
-30.0
 62
     5
 63
     7
 74
     1
 91
        4
 64
     7
 65
   257
 75
     1
175
     1
 42
1.0
 92
       12
 66
     7
 43
1.0
 76
     1
 77
     6
 78
     2
 67
     7
 79
     5
170
     0
171
     0
290
     0
174
     0
 93
        1
 44
0.0
173
     0
291
     1
 45
0.0
1001
ACAD
1000
AcDbSavedByObjectVersion
1070
     0
1000
AcDbSavedByObjectVersion
1070
     0
  0
DICTIONARYVAR
  5
4B83
102
{ACAD_REACTORS
330
4B82
102
}
330
4B82
100
DictionaryVariables
280
     0
  1
STANDARD
  0
DICTIONARYVAR
  5
4BF9
102
{ACAD_REACTORS
330
4B82
102
}
330
4B82
100
DictionaryVariables
280
     0
  1
2
  0
DICTIONARYVAR
  5
4BF8
102
{ACAD_REACTORS
330
4B82
102
}
330
4B82
100
DictionaryVariables
280
     0
  1
1
  0
DICTIONARYVAR
  5
4BF7
102
{ACAD_REACTORS
330
4B82
102
}
330
4B82
100
DictionaryVariables
280
     0
  1
0
  0
DICTIONARYVAR
  5
4BF6
102
{ACAD_REACTORS
330
4B82
102
}
330
4B82
100
DictionaryVariables
280
     0
  1
127
  0
DICTIONARY
  5
4F33
330
4F26
100
AcDbDictionary
280
     1
281
     1
  3
ACAD_XREC_ROUNDTRIP
360
7A24
  3
ADSK_XREC_LAYOUTTHUMBNAIL
360
4F34
  0
DICTIONARY
  5
7A1A
330
A
100
AcDbDictionary
280
     1
281
     1
  3
ACAD_XREC_ROUNDTRIP
360
7A1B
  0
DICTIONARY
  5
7A20
330
4B13
100
AcDbDictionary
280
     1
281
     1
  3
ACAD_XREC_ROUNDTRIP
360
7A21
  0
DICTIONARY
  5
7A1E
330
4B12
100
AcDbDictionary
280
     1
281
     1
  3
ACAD_XREC_ROUNDTRIP
360
7A1F
  0
DICTIONARY
  5
7A1C
330
47
100
AcDbDictionary
280
     1
281
     1
  3
ACAD_XREC_ROUNDTRIP
360
7A1D
  0
DICTIONARY
  5
7A22
330
4B26
100
AcDbDictionary
280
     1
281
     1
  3
ACAD_XREC_ROUNDTRIP
360
7A23
  0
XRECORD
  5
7A24
102
{ACAD_REACTORS
330
4F33
102
}
330
4F33
100
AcDbXrecord
280
     1
102
SHADEPLOT
 70
     0
102
SHADEPLOTRESLEVEL
 70
     2
102
SHADEPLOTCUSTOMDPI
 70
   300
  0
XRECORD
  5
4F34
102
{ACAD_REACTORS
330
4F33
102
}
330
4F33
100
AcDbXrecord
280
     1
310
28000000B40000007F00000001000800000000004C59000000000000000000000001000000000000FFFFFF0000000000FFFFFF000000000000000000000000000000000000000000000000000000000000000000330000006600000099000000CC000000FF00000000330000333300006633000099330000CC330000FF3300
310
0000660000336600006666000099660000CC660000FF66000000990000339900006699000099990000CC990000FF99000000CC000033CC000066CC000099CC0000CCCC0000FFCC000000FF000033FF000066FF000099FF0000CCFF0000FFFF000000003300330033006600330099003300CC003300FF003300003333003333
310
33006633330099333300CC333300FF33330000663300336633006666330099663300CC663300FF66330000993300339933006699330099993300CC993300FF99330000CC330033CC330066CC330099CC3300CCCC3300FFCC330000FF330033FF330066FF330099FF3300CCFF3300FFFF330000006600330066006600660099
310
006600CC006600FF00660000336600333366006633660099336600CC336600FF33660000666600336666006666660099666600CC666600FF66660000996600339966006699660099996600CC996600FF99660000CC660033CC660066CC660099CC6600CCCC6600FFCC660000FF660033FF660066FF660099FF6600CCFF6600
310
FFFF660000009900330099006600990099009900CC009900FF00990000339900333399006633990099339900CC339900FF33990000669900336699006666990099669900CC669900FF66990000999900339999006699990099999900CC999900FF99990000CC990033CC990066CC990099CC9900CCCC9900FFCC990000FF99
310
0033FF990066FF990099FF9900CCFF9900FFFF99000000CC003300CC006600CC009900CC00CC00CC00FF00CC000033CC003333CC006633CC009933CC00CC33CC00FF33CC000066CC003366CC006666CC009966CC00CC66CC00FF66CC000099CC003399CC006699CC009999CC00CC99CC00FF99CC0000CCCC0033CCCC0066CC
310
CC0099CCCC00CCCCCC00FFCCCC0000FFCC0033FFCC0066FFCC0099FFCC00CCFFCC00FFFFCC000000FF003300FF006600FF009900FF00CC00FF00FF00FF000033FF003333FF006633FF009933FF00CC33FF00FF33FF000066FF003366FF006666FF009966FF00CC66FF00FF66FF000099FF003399FF006699FF009999FF00CC
310
99FF00FF99FF0000CCFF0033CCFF0066CCFF0099CCFF00CCCCFF00FFCCFF0000FFFF0033FFFF0066FFFF0099FFFF00CCFFFF00FFFFFF00000000000D0D0D001A1A1A00282828003535350043434300505050005D5D5D006B6B6B00787878008686860093939300A1A1A100AEAEAE00BBBBBB00C9C9C900D6D6D600E4E4E400
310
F1F1F100FFFFFF0000000000000000000000000000000000000000000000000000000000000000000000000000000000E2E2E2E2E2E2E2E2E2E2E2E2E2E2E2E2E2E2E2E2E2E2E2E2E2E2E2E2E2E2E2E2E2E2E2E2E2E2E2E2E2E2E2E2E2E2E2E2E2E2E2E2E2E2E2E2E2E2E2E2E2E2E2E2E2E2E2E2E2E2E2E2E2E2E2E2E2E2E2
310
E2E2E2E2E2E2E2E2E2E2E2E2E2E2E2E2E2E2E2E2E2E2E2E2E2E2E2E2E2E2E2E2E2E2E2E2E2E2E2E2E2E2E2E2E2E2E2E2E2E2E2E2E2E2E2E2E2E2E2E2E2E2E2E2E2E2E2E2E2E2E2E2E2E2E2E2E2E2E2E2E2E2E2E2E2E2E2E2E2E2E2E2E2E2E2E2E2E2E2E2EFE2F5F5F5F5F5F5F5F5F5F5F5F5F5F5F5F5F5F5F5F5F5F5F5F5F5
310
F5F5F5F5F5F5F5F5F5F5F5F5F5F5F5F5F5F5F5F5F5F5F5F5F5F5F5F5F5F5F5F5F5F5F5F5F5F5F5F5F5F5F5F5F5F5F5F5F5F5F5F5F5F5F5F5F5F5F5F5F5F5F5F5F5F5F5F5F5F5F5F5F5F5F5F5F5F5F5F5F5F5F5F5F5F5F5F5F5F5F5F5F5F5F5F5F5F5F5F5F5F5F5F5F5F5F5F5F5F5F5F5F5F5F5F5F5F5F5F5F5F5F5F5F5F5F5
310
F5F5F5F5F5F5F5F5F5F5F5F5F5F5F5F5F5F5F5F5F5F5F5F5E2E2EFE2E2E2E2E2E2E2E2E2E2F5F5F5F5F5F5F5F5F5E2E2E2E2E2E2E2E2E2E2E2E2E2E2E2E2F5F5F5F5F5F5F5F5F5E2E2E2E2E2E2E2E2E2E2E2E2E2E2E2E2F5F5F5F5F5F5F5F5F5E2E2E2E2E2E2E2E2E2E2E2E2E2E2E2E2F5F5F5F5F5F5F5F5F5E2E2E2E2E2E2
310
E2E2E2E2E2E2E2E2E2E2F5F5F5F5F5F5F5F5F5E2E2E2E2E2E2E2E2E2E2E2E2E2E2E2E2F5F5F5F5F5F5F5F5F5E2E2E2E2E2E2E2E2E2E2E2E2E2E2E2E2F5F5F5F5F5F5F5F5F5E2E2E2E2E2E2E2E2E2E2EFE2E2F5F5F5F5F5F5F5F5F5F5F5F5F5F5F5F5F5F5F5F5F5F5F5F5F5F5F5F5F5F5F5F5F5F5F5F5F5F5F5F5F5F5F5F5F5
310
F5F5F5F5F5F5F5F5F5F5F5F5F5F5F5F5F5F5F5F5F5F5F5F5F5F5F5F5F5F5F5F5F5F5F5F5F5F5F5F5F5F5F5F5F5F5F5F5F5F5F5F5F5F5F5F5F5F5F5F5F5F5F5F5F5F5F5F5F5F5F5F5F5F5F5F5F5F5F5F5F5F5F5F5F5F5F5F5F5F5F5F5F5F5F5F5F5F5F5F5F5F5F5F5F5F5F5F5F5F5F5F5F5F5F5F5F5F5F5F5F5F5F5F5F5F5F5
310
F5F5E2E2E2EFE2E2F5F5F5F5F5F5F5F5F5F5F5F5F5F5F5F5F5F5F5F5F5F5F5F5F5F5F5F5F5F5F5F5F5F5F5F5F5F5F5F5F5F5F5F5F5F5F5F5F5F5F5F5F5F5F5F5F5F5F5F5F5F5F5F5F5F5F5F5F5F5F5F5F5F5F5F5F5F5F5F5F5F5F5F5F5F5F5F5F5F5F5F5F5F5F5F5F5F5F5F5F5F5F5F5F5F5F5F5F5F5F5F5F5F5F5F5F5F5F5
310
F5F5F5F5F5F5F5F5F5F5F5F5F5F5F5F5F5F5F5F5F5F5F5F5F5F5F5F5F5F5F5F5F5F5F5F5F5F5F5F5F5F5F5F5F5F5F5F5F5F5F5F5F5F5F5E2E2E2EFE2E2F5F5F5F5F5F5F5F5F5F5F5F5F5F5F5F5F5F5F5F5F5F5F5F5F5F5F5F5F5F5F5F5F5F5F5F5F5F5F5F5F5F5F5F5F5F5F5F5F5F5F5F5F5F5F5F5F5F5F5F5F5F5F5F5F5F5
310
F5F5F5F5F5F5F5F5F5F5F5F5F5F5F5F5F5F5F5F5F5F5F5F5F5F5F5F5F5F5F5F5F5F5F5F5F5F5F5F5F5F5F5F5F5F5F5F5F5F5F5F5F5F5F5F5F5F5F5F5F5F5F5F5F5F5F5F5F5F5F5F5F5F5F5F5F5F5F5F5F5F5F5F5F5F5F5F5F5F5F5F5F5F5F5F5F5F5F5F5F5F5F5F5F5F5F5F5E2E2E2EFE2E2F5F5F5F5F5F5F5F5F5F5F5F5F5
310
F5F5F5F5F5F5F5F5F5F5F5F5F5F5F5F5F5F5F5F5F5F5F5F5F5F5F5F5F5F5F5F5F5F5F5F5F5F5F5F5F5F5F5F5F5F5F5F5F5F5F5F5F5F5F5F5F5F5F5F5F5F5F5F5F5F5F5F5F5F5F5F5F5F5F5F5F5F5F5F5F5F5F5F5F5F5F5F5F5F5F5F5F5F5F5F5F5F5F5F5F5F5F5F5F5F5F5F5F5F5F5F5F5F5F5F5F5F5F5F5F5F5F5F5F5F5F5
310
F5F5F5F5F5F5F5F5F5F5F5F5F5F5F5F5F5F5F5F5F5F5F5F5F5F5F5F5F5F5F5F5F5F5E2E2E2EFE2E2F5F5F5F5F5F5F5F5F5F5F5F5F5F5F5F5F5F5F5F5F5F5F5F5F5F5F5F5F5F5F5F5F5F5F5F5F5F5F5F5F5F5F5F5F5F5F5F5F5F5F5F5F5F5F5F5F5F5F5F5F5F5F5F5F5F5F5F5F5F5F5F5F5F5F5F5F5F5F5F5F5F5F5F5F5F5F5
310
F5F5F5F5F5F5F5F5F5F5F5F5F5F5F5F5F5F5F5F5F5F5F5F5F5F5F5F5F5F5F5F5F5F5F5F5F5F5F5F5F5F5F5F5F5F5F5F5F5F5F5F5F5F5F5F5F5F5F5F5F5F5F5F5F5F5F5F5F5F5F5F5F5F5F5F5F5F5F5F5F5F5F5F5F5F5F5E2E2E2EFE2E2F5F5F5F5F5F5F5F5F5F5F5F5F5F5F5F5F5F5F5F5F5F5F5F5F5F5F5F5F5F5F5F5F5F5
310
F5F5F5F5F5F5F5F5F5F5F5F5F5F5F5F5F5F5F5F5F5F5F5F5F5F5F5F5F5F5F5F5F5F5F5F5F5F5F5F5F5F5F5F5F5F5F5F5F5F5F5F5F5F5F5F5F5F5F5F5F5F5F5F5F5F5F5F5F5F5F5F5F5F5F5F5F5F5F5F5F5F5F5F5F5F5F5F5F5F5F5F5F5F5F5F5F5F5F5F5F5F5F5F5F5F5F5F5F5F5F5F5F5F5F5F5F5F5F5F5F5F5F5F5F5F5F5
310
F5F5F5F5F5F5F5F5F5F5F5F5F5E2E2E2EFE2E2F5F5F5F5F5F5F5F5F5F5F5F5F5F5F5F5F5F5F5F5F5F5F5F5F5F5F5F5F5F5F5F5F5F5F5F5F5F5F5F5F5F5F5F5F5F5F5F5F5F5F5F5F5F5F5F5F5F5F5F5F5F5F5F5F5F5F5F5F5F5F5F5F5F5F5F5F5F5F5F5F5F5F5F5F5F5F5F5F5F5F5F5F5F5F5F5F5F5F5F5F5F5F5F5F5F5F5F5
310
F5F5F5F5F5F5F5F5F5F5F5F5F5F5F5F5F5F5F5F5F5F5F5F5F5F5F5F5F5F5F5F5F5F5F5F5F5F5F5F5F5F5F5F5F5F5F5F5F5F5F5F5F5F5F5F5F5F5F5F5F5F5F5F5F5F5E2E2E2EFE2F5F5F5F5F5F5F5F5F5F5F5F5F5F5F5F5F5F5F5F5F5F5F5F5F5F5F5F5F5F5F5F5F5F5F5F5F5F5F5F5F5F5F5F5F5F5F5F5F5F5F5F5F5F5F5F5
310
F5F5F5F5F5F5F5F5F5F5F5F5F5F5F5F5F5F5F5F5F5F5F5F5F5F5F5F5F5F5F5F5F5F5F5F5F5F5F5F5F5F5F5F5F5F5F5F5F5F5F5F5F5F5F5F5F5F5F5F5F5F5F5F5F5F5F5F5F5F5F5F5F5F5F5F5F5F5F5F5F5F5F5F5F5F5F5F5F5F5F5F5F5F5F5F5F5F5F5F5F5F5F5F5F5F5F5F5F5F5F5F5F5F5F5F5F5F5F5F5E2E2EFE2F5F5F5
310
F5F5F5F5F5F5F5F5F5F5F5F5F5F5F5F5F5F5F5F5F5F5F5F5F5F5F5F5F5F5F5F5F5F5F5F5F5F5F5F5F5F5F5F5F5F5F5F5F5F5F5F5F5F5F5F5F5F5F5F5F5F5F5F5F5F5F5F5F5F5F5F5F5F5F5F5F5F5F5F5F5F5F5F5F5F5F5F5F5F5F5F5F5F5F5F5F5F5F5F5F5F5F5F5F5F5F5F5F5F5F5F5F5F5F5F5F5F5F5F5F5F5F5F5F5F5F5
310
F5F5F5F5F5F5F5F5F5F5F5F5F5F5F5F5F5F5F5F5F5F5F5F5F5F5F5F5F5F5F5F5F5F5F5F5F5F5F5F5F5F5F5F5F5F5E2E2EFE2F5F5F5F5F5F5F5F5F5F5F5F5F5F5F5F5F5F5F5F5F5F5F5F5F5F5F5F5F5F5F5F5F5F5F5F5F5F5F5F5F5F5F5F5F5F5F5F5F5F5F5F5F5F5F5F5F5F5F5F5F5F5F5F5F5F5F5F5F5F5F5F5F5F5F5F5F5
310
F5F5F5F5F5F5F5F5F5F5F5F5F5F5F5F5F5F5F5F5F5F5F5F5F5F5F5F5F5F5F5F5F5F5F5F5F5F5F5F5F5F5F5F5F5F5F5F5F5F5F5F5F5F5F5F5F5F5F5F5F5F5F5F5F5F5F5F5F5F5F5F5F5F5F5F5F5F5F5F5F5F5F5F5F5F5F5F5F5F5F5F5F5F5F5F5F5F5F5E2E2EFE2F5F5F5F5F5F5F5F5F5F5F5F5F5F5F5F5F5F5F5F5F5F5F5F5
310
F5F5F5F5F5F5F5F5F5F5F5F5F5F5F5F5F5F5F5F5F5F5F5F5F5F5F5F5F5F5F5F5F5F5F5F5F5F5F5F5F5F5F5F5F5F5F5F5F5F5F5F5F5F5F5F5F5F5F5F5F5F5F5F5F5F5F5F5F5F5F5F5F5F5F5F5F5F5F5F5F5F5F5F5F5F5F5F5F5F5F5F5F5F5F5F5F5F5F5F5F5F5F5F5F5F5F5F5F5F5F5F5F5F5F5F5F5F5F5F5F5F5F5F5F5F5F5
310
F5F5F5F5F5F5F5F5F5F5F5F5F5F5F5F5F5F5F5F5F5F5F5F5F5E2E2EFE2F5F5F5F5F5F5F5F5F5F5F5F5F5F5F5F5F5F5E2E2E2E2E2E2E2E2E2E2E2E2E2E2E2E2E2E2E2E2E2E2E2E2E2E2E2E2E2E2E2E2E2E2E2E2E2E2E2E2E2E2E2E2E2E2E2E2E2E2E2E2E2E2E2E2E2E2E2E2E2E2E2E2E2E2E2E2E2E2E2E2E2E2E2E2E2E2E2E2
310
E2E2E2E2E2E2E2E2E2E2E2E2E2E2E2E2E2E2E2E2E2E2E2E2E2E2E2E2E2E2E2E2E2E2E2E2E2E2E2E2E2E2E2E2E2E2E2E2E2E2E2E2E2E2E2E2E2E2E2E2F5F5F5F5F5F5F5F5F5F5F5F5F5F5F5F5F5F5E2E2EFE2F5F5F5F5F5F5F5F5F5F5F5F5F5F5F5F5F5F5E2F5F5F5F5F5F5F5F5F5F5F5F5F5F5F5F5F5F5F5F5F5F5F5F5F5F5
310
F5F5F5F5F5F5F5F5F5F5F5F5F5F5F5F5F5F5F5F5F5F5F5F5F5F5F5F5F5F5F5F5F5F5F5F5F5F5F5F5F5F5F5F5F5F5F5F5F5F5F5F5F5F5F5F5F5F5F5F5F5F5F5F5F5F5F5F5F5F5F5F5F5F5F5F5F5F5F5F5F5F5F5F5F5F5F5F5F5F5F5F5F5F5F5F5F5F5F5F5F5F5F5F5F5F5F5F5F5F5F5F5E2F5F5F5F5F5F5F5F5F5F5F5F5F5F5
310
F5F5F5F5E2E2EFE2F5F5F5F5F5F5F5F5F5F5F5F5F5F5F5F5F5F5E2F5F5F5F5F5F5F5F5F5F5F5F5F5F5F5F5F5F5F5F5F5F5F5F5F5F5F5F5F5F5F5F5F5F5F5F5F5F5F5F5F5F5F5F5F5F5F5F5F5F5F5F5F5F5F5F5F5F5F5F5F5F5F5F5F5F5F5F5F5F5F5F5F5F5F5F5F5F5F5F5F5F5F5F5F5F5F5F5F5F5F5F5F5F5F5F5F5F5F5F5
310
F5F5F5F5F5F5F5F5F5F5F5F5F5F5F5F5F5F5F5F5F5F5F5F5F5F5F5F5F5F5F5F5F5F5F5F5F5F5E2F5F5F5F5F5F5F5F5F5F5F5F5F5F5F5F5F5F5E2E2EFE2F5F5F5F5F5F5F5F5F5F5F5F5F5F5F5F5F5F5E2F5F5F5F5F5F5F5F5F5F5F5F5F5F5F5F5F5F5F5F5F5F5F5F5F5F5F5F5F5F5F5F5F5F5F5F5F5F5F5F5F5F5F5F5F5F5F5
310
F5F5F5F5F5F5F5F5F5F5F5F5F5F5F5F5F5F5F5F5F5F5F5F5F5F5F5F5F5F5F5F5F5F5F5F5F5F5F5F5F5F5F5F5F5F5F5F5F5F5F5F5F5F5F5F5F5F5F5F5F5F5F5F5F5F5F5F5F5F5F5F5F5F5F5F5F5F5F5F5F5F5F5F5F5F5F5F5F5F5F5E2F5F5F5F5F5F5F5F5F5F5F5F5F5F5F5F5F5F5E2E2EFE2F5F5F5F5F5F5F5F5F5F5F5F5F5
310
F5F5F5F5F5E2F5F5F5F5F5F5F5F5F5F5F5F5F5F5F5F5F5F5F5F5F5F5F5F5F5F5F5F5F5F5F5F5F5F5F5F5F5F5F5F5F5F5F5F5F5F5F5F5F5F5F5F5F5F5F5F5F5F5F5F5F5F5F5F5F5F5F5F5F5F5F5F5F5F5F5F5F5F5F5F5F5F5F5F5F5F5F5F5F5F5F5F5F5F5F5F5F5F5F5F5F5F5F5F5F5F5F5F5F5F5F5F5F5F5F5F5F5F5F5F5F5
310
F5F5F5F5F5F5F5F5F5F5F5F5F5F5F5F5F5E2F5F5F5F5F5F5F5F5F5F5F5F5F5F5F5F5F5F5E2E2EFE2E2F5F5F5F5F5F5F5F5F5F5F5F5F5F5F5F5F5E2F5F5F5F5F5F5F5F5F5F5F5F5F5F5F5F5F5F5F5F5F5F5F5F5F5F5F5F5F5F5F5F5F5F5F5F5F5F5F5F5F5F5F5F5F5F5F5F5F5F5F5F5F5F5F5F5F5F5F5F5F5F5F5F5F5F5F5F5
310
F5F5F5F5F5F5F5F5F5F5F5F5F5F5F5F5F5F5F5F5F5F5F5F5F5F5F5F5F5F5F5F5F5F5F5F5F5F5F5F5F5F5F5F5F5F5F5F5F5F5F5F5F5F5F5F5F5F5F5F5F5F5F5F5F5F5F5F5F5F5E2F5F5F5F5F5F5F5F5F5F5F5F5F5F5F5F5F5E2E2E2EFE2E2F5F5F5F5F5F5F5F5F5F5F5F5F5F5F5F5F5E2F5F5F5F5F5F5F5F5F5F5F5F5F5F5F5
310
F5F5F5F5F5F5F5F5F5F5F5F5F5F5F5F5F5F5F5F5F5F5F5F5F5F5F5F5F5F5F5F5F5F5F5F5F5F5F5F5F5F5F5F5F5F5F5F5F5F5F5F5F5F5F5F5F5F5F5F5F5F5F5F5F5F5F5F5F5F5F5F5F5F5F5F5F5F5F5F5F5F5F5F5F5F5F5F5F5F5F5F5F5F5F5F5F5F5F5F5F5F5F5F5F5F5F5F5F5F5F5F5F5F5F5F5F5F5F5F5F5F5F5E2F5F5F5
310
F5F5F5F5F5F5F5F5F5F5F5F5F5F5E2E2E2EFE2E2F5F5F5F5F5F5F5F5F5F5F5F5F5F5F5F5F5E2F5F5F5F5F5F5F5F5F5F5F5F5F5F5F5F5F5F5F5F5F5F5F5F5F5F5F5F5F5F5F5F5F5F5F5F5F5F5F5F5F5F5F5F5F5F5F5F5F5F5F5F5F5F5F5F5F5F5F5F5F5F5F5F5F5F5F5F5F5F5F5F5F5F5F5F5F5F5F5F5F5F5F5F5F5F5F5F5F5
310
F5F5F5F5F5F5F5F5F5F5F5F5F5F5F5F5F5F5F5F5F5F5F5F5F5F5F5F5F5F5F5F5F5F5F5F5F5F5F5F5F5F5F5F5F5F5F5F5F5E2F5F5F5F5F5F5F5F5F5F5F5F5F5F5F5F5F5E2E2E2EFE2E2F5F5F5F5F5F5F5F5F5F5F5F5F5F5F5F5F5E2F5F5F5F5F5F5F5F5F5F5F5F5F5F5F5F5F5F5F5F5F5F5F5F5F5F5F5F5F5F5F5F5F5F5F5F5
310
F5F5F5F5F5F5F5F5F5F5F5F5F5F5F5F5F5F5F5F5F5F5F5F5F5F5F5F5F5F5F5F5F5F5F5F5F5F5F5F5F5F5F5F5F5F5F5F5F5F5F5F5F5F5F5F5F5F5F5F5F5F5F5F5F5F5F5F5F5F5F5F5F5F5F5F5F5F5F5F5F5F5F5F5F5F5F5F5F5F5F5F5F5F5F5F5F5F5F5F5F5F5E2F5F5F5F5F5F5F5F5F5F5F5F5F5F5F5F5F5E2E2E2EFE2E2F5
310
F5F5F5F5F5F5F5F5F5F5F5F5F5F5F5F5E2F5F5F5F5F5F5F5F5F5F5F5F5F5F5F5F5F5F5F5F5F5F5F5F5F5F5F5F5F5F5F5F5F5F5F5F5F5F5F5F5F5F5F5F5F5F5F5F5F5F5F5F5F5F5F5F5F5F5F5F5F5F5F5F5F5F5F5F5F5F5F5F5F5F5F5F5F5F5F5F5F5F5F5F5F5F5F5F5F5F5F5F5F5F5F5F5F5F5F5F5F5F5F5F5F5F5F5F5F5F5
310
F5F5F5F5F5F5F5F5F5F5F5F5F5F5F5F5F5F5F5F5F5F5F5F5F5F5F5F5E2F5F5F5F5F5F5F5F5F5F5F5F5F5F5F5F5F5E2E2E2EFE2E2F5F5F5F5F5F5F5F5F5F5F5F5F5F5F5F5F5E2F5F5F5F5F5F5F5F5F5F5F5F5F5F5F5F5F5F5F5F5F5F5F5F5F5F5F5F5F5F5F5F5F5F5F5F5F5F5F5F5F5F5F5F5F5F5F5F5F5F5F5F5F5F5F5F5F5
310
F5F5F5F5F5F5F5F5F5F5F5F5F5F5F5F5F5F5F5F5F5F5F5F5F5F5F5F5F5F5F5F5F5F5F5F5F5F5F5F5F5F5F5F5F5F5F5F5F5F5F5F5F5F5F5F5F5F5F5F5F5F5F5F5F5F5F5F5F5F5F5F5F5F5F5F5F5F5F5F5F5E2F5F5F5F5F5F5F5F5F5F5F5F5F5F5F5F5F5E2E2E2EFE2E2F5F5F5F5F5F5F5F5F5F5F5F5F5F5F5F5F5E2F5F5F5F5
310
F5F5F5F5F5F5F5F5F5F5F5F5F5F5F5F5F5F5F5F5F5F5F5F5F5F5F5F5F5F5F5F5F5F5F5F5F5F5F5F5F5F5F5F5F5F5F5F5F5F5F5F5F5F5F5F5F5F5F5F5F5F5F5F5F5F5F5F5F5F5F5F5F5F5F5F5F5F5F5F5F5F5F5F5F5F5F5F5F5F5F5F5F5F5F5F5F5F5F5F5F5F5F5F5F5F5F5F5F5F5F5F5F5F5F5F5F5F5F5F5F5F5F5F5F5F5F5
310
F5F5F5F5F5F5F5E2F5F5F5F5F5F5F5F5F5F5F5F5F5F5F5F5F5E2E2E2EFE2E2F5F5F5F5F5F5F5F5F5F5F5F5F5F5F5F5F5E2F5F5F5F5F5F5F5F5F5F5F5F5F5F5F5F5F5F5F5F5F5F5F5F5F5F5F5F5F5F5F5F5F5F5F5F5F5F5F5F5F5F5F5F5F5F5F5F5F5F5F5F5F5F5F5F5F5F5F5F5F5F5F5F5F5F5F5F5F5F5F5F5F5F5F5F5F5F5
310
F5F5F5F5F5F5F5F5F5F5F5F5F5F5F5F5F5F5F5F5F5F5F5F5F5F5F5F5F5F5F5F5F5F5F5F5F5F5F5F5F5F5F5F5F5F5F5F5F5F5F5F5F5F5F5F5F5F5F5F5E2F5F5F5F5F5F5F5F5F5F5F5F5F5F5F5F5F5E2E2E2EFE2E2F5F5F5F5F5F5F5F5F5F5F5F5F5F5F5F5F5E2F5F5F5F5F5F5F5F5F5F5F5F5F5F5F5F5F5F5F5F5F5F5F5F5F5
310
F5F5F5F5F5F5F5F5F5F5F5F5F5F5F5F5F5F5F5F5F5F5F5F5F5F5F5F5F5F5F5F5F5F5F5F5F5F5F5F5F5F5F5F5F5F5F5F5F5F5F5F5F5F5F5F5F5F5F5F5F5F5F5F5F5F5F5F5F5F5F5F5F5F5F5F5F5F5F5F5F5F5F5F5F5F5F5F5F5F5F5F5F5F5E2F5E2F5F5F5F5F5F5F5F5F5F5F5F5F5F5F5F5E2F5F5F5F5F5F5F5F5F5F5F5F5F5
310
F5F5F5F5E2E2E2EFE2E2F5F5F5F5F5F5F5F5F5F5F5F5F5F5F5F5F5E2F5F5F5F5F5F5F5F5F5F5F5F5F5F5F5F5F5F5F5F5F5F5F5F5F5F5F5F5F5F5F5F5F5F5F5F5F5F5F5F5F5F5F5F5F5F5F5E2E2E2F5F5F5F5F5F5F5F5F5F5F5F5F5F5F5F5F5F5F5F5F5F5F5F5F5F5F5F5F5F5F5F5F5F5F5F5F5F5F5F5F5F5F5F5F5F5F5F5F5
310
F5F5F5F5F5F5F5F5E2F5F5E2F5F5F5E2F5F5E2F5E2E2E2E2F5F5E2F5F5F5F5E2F5F5E2F5F5F5F5E2F5F5F5F5F5F5F5F5F5F5F5F5F5F5F5F5F5E2E2E2EFE2E2F5F5F5F5F5F5F5F5F5F5F5F5F5F5F5F5F5E2F5F5F5F5F5F5F5F5F5F5F5F5F5F5F5F5F5F5F5F5F5F5F5F5F5F5F5F5F5F5F5F5F5F5F5F5F5F5F5F5F5F5F5F5F5F5
310
F5E2F5E2F5F5F5F5F5F5F5F5F5F5F5F5F5F5F5F5F5F5F5F5F5F5F5F5F5F5F5F5F5F5F5F5F5F5F5F5F5F5F5F5F5F5F5F5F5F5F5F5F5F5F5F5F5F5E2E2E2E2E2E2E2E2E2E2E2E2E2E2E2E2C3E2E2E2E2E2E2E2E2E2E2E2E2E2E2E2E2E2E2F5F5F5F5F5F5F5F5F5F5F5F5F5F5F5F5F5E2E2E2EFE2E2F5F5F5F5F5F5F5F5F5F5F5
310
F5F5F5F5F5F5E2F5F5F5F5F5F5F5F5F5F5F5F5F5F5E2E2E2E2E2E2E2E2E2E2E2E2E2E2E2E2E2E2E2E2E2E2E2E2E2E2E2E2E2E2E2E2E2E2E2E2E2E2E2E2E2E2E2E2E2E2E2E2E2E2E2E2C3C3C3C3E2E2E2E2E2E2E2E2E2E2E2E2E2F5F5F5F5F5F5F5F5F5F5F5F5F5F5F5F5F5F5F5F5F5F5E2E2E2E2C3C3C3C3E2E2E2E2E2E2E2
310
E2E2E2E2E2E2E2E2C3C3C3E2E2E2E2E2F5F5E2F5F5F5F5F5F5F5F5F5F5F5F5F5F5F5F5F5E2E2E2EFE2E2F5F5F5F5F5F5F5F5F5F5F5F5F5F5F5F5F5E2F5F5F5F5F5F5F5F5F5F5F5F5F5E2E2F5F5F5F5F5F5F5F5F5F5F5F5F5F5F5F5F5F5F5F5F5F5F5F5F5F5F5F5F5F5F5F5F5F5F5F5F5F5F5F5F5F5F5F5F5F5F5F5F5F5F5F5
310
F5F5F5F5F5F5F5F5F5F5F5F5F5F5F5E2E2F5F5F5F5F5F5F5F5F5F5F5F5F5F5F5F5F5F5F5F5F528E2E2E2E2C3E2E2E2E2E2E2E2E2E2E2E2E2E2E2E2E2E2E2E2E2E2E2E22828F5F5E2F5F5F5F5F5F5F5F5F5F5F5F5F5F5F5F5F5E2E2E2EFE2E2F5F5F5F5F5F5F5F5F5F5F5F5F5F5F5F5F5E2F5F5F5F5F5F5F5F5F5F5F5F5F5E2
310
F5F5F5F5F5F5F5F5F5F5F5F5F5F5F5F5F5F5F5F5F5F5F5F5F5F5F5F5F5F5F5F5F5F5F5F5F5F5F5F5F5F5F5F5F5F5F5F5F5F5F5F5F5F5F5F5F5F5F5F5F5F5F5F5F5F5F5F5F5F5E2F5F5F5F5F5F5F5F5F5F5F5F5F5F5F5F5F5F5F5F528E2F5F5F5C3C3F5F5F5F5F5F5F5E2E2E2E2E2F5F5F5F5F5F5F5E2F5E22828F5F5E2F5F5
310
F5F5F5F5F5F5F5F5F5F5F5F5F5F5F5E2E2E2EFE2E2F5F5F5F5F5F5F5F5F5F5F5F5F5F5F5F5F5E2F5F5F5F5F5F5F5F5F5F5F5F5E2F5F5F5F5F5F5F5F5F5F5F5F5F5F5F5F5F5F5F5F5F5F5F5F5F5F5F5F5F5F5F5F5F5F5F5F5F5F5F5F5F5F5F5F5F5F5F5F5F5F5F5F5F5F5F5F5F5F5F5F5F5F5F5F5F5F5F5F5F5F5F5E2F5F5F5
310
F5F5F5F5F5F5F5F5F5F5F5F5F5F5F5F528E2F5F5F5F5E2E2E2F5F5F5F5F5F5E2E2E2E2E2E2E2E2E2E2E2E2E2E2F52828E2F5E2F5F5F5F5F5F5F5F5F5F5F5F5F5F5F5F5F5E2E2E2EFE2E2F5F5F5F5F5F5F5F5F5F5F5F5F5F5F5F5F5E2F5F5F5F5F5F5F5F5F5F5F5F5E2F5F5F5F5F5F5F5F5F5F5F5F5F5F5F5F5F5F5F5F5F5F5
310
F5F5F5F5F5F5F5F5F5F5F5F5F5F5F5F5F5F5F5F5F5F5F5F5F5F5F5F5F5F5F5F5F5F5F5F5F5F5F5F5F5F5F5F5F5F5F5F5F5E2F5F5F5F5F5F5F5F5F5F5F5F5F5F5F5F5F5F5F528E2F5F5F5F5E2E2E2F5F5F5E2E2E2E2E2E2E2E2E2F5F5F5E2E2E2F5E2E2E22828F5E2F5F5F5F5F5F5F5F5F5F5F5F5F5F5F5F5F5E2E2E2EFE2F5
310
F5F5F5F5F5F5F5F5F5F5F5F5F5F5F5F5F5E2F5F5F5F5F5F5F5F5F5F5F5E2F5F5F5F5F5F5F5F5F5F5F5F5F5F5F5F5F5F5F5F5F5F5F5F5F5F5F5F5F5F5F5F5F5F5F5F5F5F5F5F5F5F5F5F5F5F5F5F5F5F5F5F5F5F5F5F5F5F5F5F5F5F5F5F5F5F5F5F5F5F5F5F5F5E2F5F5F5F5F5F5F5F5F5F5F5F5F5F5F5F5F5F528E2F5F5F5
310
E2E2E2E2E2E2E2E2E2E2E2E2E2E2E2E2E2E2E2E2E2E2E2E2F5E22828F5E2F5F5F5F5F5F5F5F5F5F5F5F5F5F5F5F5F5F5E2E2EFE2F5F5F5F5F5F5F5F5F5F5F5F5F5F5F5F5F5F5E2F5F5F5F5F5F5F5F5F5F5F5E2F5F5F5F5F5F5F5F5F5F5F5F5F5F5F5F5F5F5F5F5F5F5F5F5F5F5F5F5F5F5F5F5F5F5F5F5F5F5F5F5F5F5F5F5
310
F5F5F5F5F5F5F5F5F5F5F5F5F5F5F5F5F5F5F5F5F5F5F5F5F5F5F5F5F5E2F5F5F5F5F5F5F5F5F5F5F5F5F5F5F5F5F5F528E2F5F5E2E2F5F5F5F5F5F5F5F5F5F5C32828F5F5F5F5F5F5F5F5E2E2F5E22828F5E2F5F5F5F5F5F5F5F5F5F5F5F5F5F5F5F5F5F5E2E2EFE2F5F5F5F5F5F5F5F5F5F5F5F5F5F5F5F5F5F5E2F5F5F5
310
F5F5F5F5F5F5F5F5E2F5F5F5F5F5F5F5F5F5F5F5F5F5F5F5F5F5F5F5F5F5F5F5F5F5F5F5F5F5F5F5F5F5F5F5F5F5F5F5F5F5F5F5F5F5F5F5F5F5F5F5F5F5F5F5F5F5F5F5F5F5F5F5F5F5F5F5F5F5F5F5F5F5E2F5F5F5F5F5F5F5F5F5F5F5F5F5F5F5F5F5F528E2F5E2E2F5F5F5F5F5F5F5F5F5F5F5C3F5F5F5F5F5F5F5F5F5
310
F5F5E2F5E22828F5E2F5F5F5F5F5F5F5F5F5F5F5F5F5F5F5F5F5F5E2E2EFE2F5F5F5F5F5F5F5F5F5F5F5F5F5F5F5F5F5F5E2F5F5F5F5F5F5F5F5F5F5E2F5F5F5F5F5F5F5F5F5F5F5F5F5F5F5F5F5F5F5F5F5F5F5F5F5F5F5F5F5F5F5F5F5F5F5F5F5F5F5F5F5F5F5F5F5F5F5F5F5F5F5F5F5F5F5F5F5F5F5F5F5F5F5F5F5F5
310
F5F5F5F5F5F5F5F5E2F5F5F5F5F5F5F5F5F5F5F5F5F5F5F5F5F5E228E2F5E2E2F5F5F5F5F5F5F5F5F5F5F5C3F5F5F5F5F5F5F5F5F5F5F5E2E2F52828F5E2F5F5F5F5F5F5F5F5F5F5F5F5F5F5F5F5F5F5E2E2EFE2F5F5F5F5F5F5F5F5F5F5F5F5F5F5F5F5F5F5E2F5F5F5F5F5F5F5F5F5F5E2F5F5F5F5F5F5F5F5F5F5F5F5F5
310
F5F5F5F5F5F5F5F5F5F5F5F5F5F5F5F5F5F5F5F5F5F5F5F5F5F5F5F5F5F5F5F5F5F5F5F5F5F5F5F5F5F5F5F5F5F5F5F5F5F5F5F5F5F5F5F5F5F5F5F5F5E2F5F5F5F5F5F5F5F5F5F5F5F5F5F5F5F5F528E2F5F5E2E2F5F5F5F5F5F5F5F5F5F5F5C3F5F5F5F5F5F5F5F5F5F5F5E2E2F52828F5E2F5F5F5F5F5F5F5F5F5F5F5F5
310
F5F5F5F5F5F5E2E2EFE2F5F5F5F5F5F5F5F5F5F5F5F5F5F5F5F5F5F5E2F5F5F5F5F5F5F5F5F5F5E2F5F5F5F5F5F5F5F5F5F5F5F5F5F5F5F5F5F5F5F5F5F5F5F5F5F5F5F5F5F5F5F5F5F5F5F5F5F5F5F5F5F5F5F5F5F5F5F5F5F5F5F5F5F5F5F5F5F5F5F5F5F5F5F5F5F5F5F5F5F5F5F5F5F5F5E2F5F5F5F5F5F5F5F5F5F5F5
310
F5F5F5F5F528E2F5F5E2E2F5F5F5F5F5F5F5F5F5F5F5C3F5F5F5F5F5F5F5F5F5F5F5E2E2F52828F5E2F5F5F5F5F5F5F5F5F5F5F5F5F5F5F5F5F5F5E2E2EFE2F5F5F5F5F5F5F5F5F5F5F5F5F5F5F5F5F5F5E2F5F5F5F5F5F5F5F5F5F5E2F5F5F5F5F5F5F5F5F5F5F5F5F5F5F5F5F5F5F5F5F5F5F5F5F5F5F5F5F5F5F5F5F5F5
310
F5F5F5F5F5F5F5F5F5F5F5F5F5F5F5F5F5F5F5F5F5F5F5F5F5F5F5F5F5F5F5F5F5F5F5F5F5F5F5F5F5E2F5F5F5F5F5F5F5F5F5F5F5F5F5F5F5F528E2F5F5E2E2F5F5F5F5F5F5F5F5F5F5F5C3F5F5F5F5F5F5F5F5F5F5F5F5E2F5E22828E2F5F5F5F5F5F5F5F5F5F5F5F5F5F5F5F5F5F5E2E2EFE2F5F5F5F5F5F5F5F5F5F5F5
310
F5F5F5F5F5F5F5E2F5F5F5F5F5F5F5F5F5F5E2F5F5F5F5F5F5F5F5F5F5F5F5F5F5F5F5F5F5F5F5F5F5F5F5F5F5F5F5F5F5F5F5F5F5F5F5F5F5F5F5F5F5F5F5F5F5F5F5F5F5F5F5F5F5F5F5F5F5F5F5F5F5F5F5F5F5F5F5F5F5F5F5F5F5F5F5E2F5F5F5F5F5F5F5F5F5F5F5F5F5F5F528E2F5F5E2F5F5F5F5F5F5F5F5F5F5F5
310
F5C3F5F5F5F5F5F5F5F5F5F5F5F5E2F5E22828E2F5F5F5F5F5F5F5F5F5F5F5F5F5F5F5F5F5F5E2E2EFE2E2F5F5F5F5F5F5F5F5F5F5F5F5F5F5F5F5F5E2F5F5F5F5F5F5F5F5F5E2F5F5F5F5F5F5F5F5F5F5F5F5F5F5F5F5F5F5F5F5F5F5F5F5F5F5F5F5F5F5F5F5F5F5F5F5F5F5F5F5F5F5F5F5F5F5F5F5F5F5F5F5F5F5F5F5
310
F5F5F5F5F5F5F5F5F5F5F5F5F5F5F5F5F5F5F5F5F5E2F5F5F5F5F5F5F5F5F5F5F5F5F5F5F528E2F5F5E2F5F5F5F5F5F5F5F5F5F5F5F5C3F5F5F5F5F5F5F5F5F5F5F5F5E2F5E22828E2F5F5F5F5F5F5F5F5F5F5F5F5F5F5F5F5F5E2E2E2EFE2E2F5F5F5F5F5F5F5F5F5F5F5F5F5F5F5F5F5E2F5F5F5F5F5F5F5F5F5E2F5F5F5
310
F5F5F5F5F5F5F5F5F5F5F5F5F5F5F5F5F5F5F5F5F5F5F5F5F5F5F5F5F5F5F5F5F5F5F5F5F5F5F5F5F5F5F5F5F5F5F5F5F5F5F5F5F5F5F5F5F5F5F5F5F5F5F5F5F5F5F5F5F5F5F5F5F5F5E2F5F5F5F5F5F5F5F5F5F5F5F5F5F5F52828F5F5E2F5F5F5F5F5F5F5F5F5F5F5F5C3F5F5F5F5F5F5F5F5F5F5F5F5E2F5E22828E2F5
310
F5F5F5F5F5F5F5F5F5F5F5F5F5F5F5F5E2E2E2EFE2E2F5F5F5F5F5F5F5F5F5F5F5F5F5F5F5F5F5E2F5F5F5F5F5F5F5F5F5E2F5F5F5F5F5F5F5F5F5F5F5F5F5F5F5F5F5F5F5F5F5F5F5F5F5F5F5F5F5F5F5F5F5F5F5F5F5F5F5F5F5F5F5F5F5F5F5F5F5F5F5F5F5F5F5F5F5F5F5F5F5F5F5F5F5F5F5F5F5F5F5F5F5F5F5F5F5
310
E2F5F5F5F5F5F5F5F5F5F5F5F5F5F5F52828ECF5E2F5F5F5F5F5F5F5F5F5F5F5F5C3F5F5F5F5F5F5F5F5F5F5F5F5E2E2F52828E2F5F5F5F5F5F5F5F5F5F5F5F5F5F5F5F5F5E2E2E2EFE2E2F5F5F5F5F5F5F5F5F5F5F5F5F5F5F5F5F5E2F5F5F5F5F5F5F5F5F5E2F5F5F5F5F5F5F5F5F5F5F5F5F5F5F5F5F5F5F5F5F5F5F5F5
310
F5F5F5F5F5F5F5F5F5F5F5F5F5F5F5F5F5F5F5F5F5F5F5F5F5F5F5F5F5F5F5F5F5F5F5F5F5F5F5F5F5F5F5F5F5F5F5F5F5F5F5F5F5E2F5F5F5F5F5F5F5F5F5F5F5F5F5F5F52828E2E2E2F5F5F5F5F5F5F5F5F5F5F5F5C3F5F5F5F5F5F5F5F5F5F5F5F5E2E2F52828E2F5F5F5F5F5F5F5F5F5F5F5F5F5F5F5F5F5E2E2E2EFE2
310
E2F5F5F5F5F5F5F5F5F5F5F5F5F5F5F5F5F5E2F5F5F5F5F5F5F5F5F5E2F5F5F5F5F5F5F5F5F5F5F5F5F5F5F5F5F5F5F5F5F5F5F5F5F5F5F5F5F5F5F5F5F5F5F5F5F5F5F5F5F5F5F5F5F5F5F5F5F5F5F5F5F5F5F5F5F5F5F5F5F5F5F5F5F5F5F5F5F5F5F5F5F5F5F5F5F5E2F5F5F5F5F5F5F5F5F5F5F5F5F5F5F52828E2E2E2
310
F5F5F5F5F5F5F5F5F5F5F5F5C3F5F5F5F5F5F5F5F5F5F5F5F5E2E2F52828E2F5F5F5F5F5F5F5F5F5F5F5F5F5F5F5F5F5E2E2E2EFE2E2F5F5F5F5F5F5F5F5F5F5F5F5F5F5F5F5F5E2F5F5F5F5F5F5F5F5F5E2F5F5F5F5F5F5F5F5F5F5F5F5F5F5F5F5F5F5F5F5F5F5F5F5F5F5F5F5F5F5F5F5F5F5F5F5F5F5F5F5F5F5F5F5F5
310
F5F5F5F5F5F5F5F5F5F5F5F5F5F5F5F5F5F5F5F5F5F5F5F5F5F5F5F5F5F5F5F5E2F5F5F5F5F5F5F5F5F5F5F5F5F5F5E22828E2E2E2F5F5F5F5F5F5F5F5F5F5F5F5C3F5F5F5F5F5F5F5F5F5F5F5F5E2E2E22828E2F5F5F5F5F5F5F5F5F5F5F5F5F5F5F5F5F5E2E2E2EFE2E2F5F5F5F5F5F5F5F5F5F5F5F5F5F5F5F5F5E2F5F5
310
F5F5F5F5F5F5F5E2F5F5F5F5F5F5F5F5F5F5F5F5F5F5F5F5F5F5F5F5F5F5F5F5F5F5F5F5F5F5F5F5F5F5F5F5F5F5F5F5F5F5F5F5F5F5F5F5F5F5F5F5F5F5F5F5F5F5F5F5F5F5F5F5F5F5F5F5F5F5F5F5F5F5F5F5F5E2F5F5F5F5F5F5F5F5F5F5F5F5F5F5E22828E2E2E2F5F5F5F5F5F5F5F5F5F5F5F5C3F5F5F5F5F5F5F5F5
310
F5F5F5F5F5E2E2E228E2F5F5F5F5F5F5F5F5F5F5F5F5F5F5F5F5F5E2E2E2EFE2E2F5F5F5F5F5F5F5F5F5F5F5F5F5F5F5F5F5E2F5F5F5F5F5F5F5F5E2F5F5F5F5F5F5F5F5F5F5F5F5F5F5F5F5F5F5F5F5F5F5F5F5F5F5F5F5F5F5F5F5F5F5F5F5F5F5F5F5F5F5F5F5F5F5F5F5F5F5F5F5F5F5F5F5F5F5F5F5F5F5F5F5F5F5F5
310
F5F5F5F5F5F5F5F5F5F5F5E2F5F5F5F5F5F5F5F5F5F5F5F5F5F5E22828E2E2F5F5F5F5F5F5F5F5F5F5F5F5F5C3F5F5F5F5F5F5F5F5F5F5F5F5E2E2E2F528E2F5F5F5F5F5F5F5F5F5F5F5F5F5F5F5F5F5E2E2E2EFE2E2F5F5F5F5F5F5F5F5F5F5F5F5F5F5F5F5F5E2F5F5F5F5F5F5F5F5E2F5F5F5F5F5F5F5F5F5F5F5F5F5F5
310
F5F5F5F5F5F5F5F5F5F5F5F5F5F5F5F5F5F5F5F5F5F5F5F5F5F5F5F5F5F5F5F5F5F5F5F5F5F5F5F5F5F5F5F5F5F5F5F5F5F5F5F5F5F5F5F5F5F5F5F5F5F5F5F5E2F5F5F5F5F5F5F5F5F5F5F5F5F5F5E22828E2E2F5F5F5F5F5F5F5F5F5F5F5F5F5C3F5F5F5F5F5F5F5F5F5F5F5E2E2E2E2F528E2F5F5F5F5F5F5F5F5F5F5F5
310
F5F5F5F5F5F5E2E2E2EFE2E2F5F5F5F5F5F5F5F5F5F5F5F5F5F5F5F5F5E2F5F5F5F5F5F5F5F5E2F5F5F5F5F5F5F5F5F5F5F5F5F5F5F5F5F5F5F5F5F5F5F5F5F5F5F5F5F5F5F5F5F5F5F5F5F5F5F5F5F5F5F5F5F5F5F5F5F5F5F5F5F5F5F5F5F5F5F5F5F5F5F5F5F5F5F5F5F5F5F5F5F5F5F5F5F5F5F5E2F5F5F5F5F5F5F5F5
310
F5F5F5F5F5E22828E2E2F5F5F5F5F5F5F5F5F5F5F5F5F5C3F5F5F5F5F5F5F5F5F5F5F5F5E2E2E22828E2F5F5F5F5F5F5F5F5F5F5F5F5F5F5F5F5F5E2E2E2EFE2E2F5F5F5F5F5F5F5F5F5F5F5F5F5F5F5F5F5E2F5F5F5F5F5F5F5F5E2E2E2E2E2E2E2E2E2E2E2E2E2E2E2E2E2E2E2E2E2E2E2E2E2E2E2E2E2E2E2E2E2E2E2E2
310
E2E2E2E2E2E2E2E2E2E2E2E2E2E2E2E2E2E2E2E2E2E2E2E2E2E2E2E2E2E2E2E2E2E2E2E2E2E2E2E2E2E2E2E2E2F5F5F5F5F5F5F5F5F5F5F5F5F5E2E22828E2F5F5F5F5F5F5F5F5F5F5F5F5F5C3F5F5F5F5F5F5F5F5F5F5F5F5E2E2282828E2F5F5F5F5F5F5F5F5F5F5F5F5F5F5F5F5F5E2E2E2EFE2E2F5F5F5F5F5F5F5F5F5
310
F5F5F5F5F5F5F5F5E2F5F5F5F5F5F5F5F5E2E2E2E2E2E2E2E2E2E2E2E2E2E2E2E2E2E2E2E2E2E2E2E2E2E2E2E2E2E2E2E2E2E2E2E2E2E2E2E2E2E2E2E2E2E2E2E2E2E2E2E2E2E2E2E2E2E2E2E2E2E2E2E2E2E2E2E2E2E2E2E2E2E2E2E2E2E2E2E2F5F5F5F5F5F5F5F5F5F5F5F5F5F5F5E2E228E2E2E2E2E2E2E2E2E2E2E2E2
310
E2E2C3E2E2E2E2E2E2E2E2E2E2E2E2E2E228E2E2E2F5F5F5F5F5F5F5F5F5F5F5F5F5F5F5F5F5E2E2E2EFE2E2F5F5F5F5F5F5F5F5F5F5F5F5F5F5F5F5F5E2F5F5F5F5F5F5F5F5F5F5F5F5F5F5F5F5F5F5F5F5F5F5F5F5F5F5F5F5F5F5F5F5F5F5F5F5F5F5F5F5F5F5F5F5F5F5F5F5F5F5F5F5F5F5F5F5F5F5F5F5F5F5F5F5F5
310
F5F5F5F5F5F5F5F5F5F5F5F5F5F5F5F5F5F5F5F5F5F5F5F5F5F5F5F5F5F5F5F5F5F5F5F5F5F5F5F5F5F5F5F5F5F5F5F5F5F5F5F5F5F5F5C328F5F5F5F5F5F5F5F5F5F5F5F5F5F5F5F5E2F5F5F5F5F5F5F5F5F5F5F5F5F5F5F5F5F5E2E2E2EFE2E2F5F5F5F5F5F5F5F5F5F5F5F5F5F5F5F5F5E2F5F5F5F5F5F5F5F5F5F5F5F5
310
F5F5F5F5F5F5F5F5F5F5F5F5F5F5F5F5F5F5F5F5F5F5F5F5F5F5F5F5F5F5F5F5F5F5F5F5F5F5F5F5F5F5F5F5F5F5F5F5F5F5F5F5F5F5F5F5F5F5F5F5F5F5F5F5F5F5F5F5F5F5F5F5F5F5F5F5F5F5F5F5F5F5F5F5F5F5F5F5F5F5F5F5F5F5F5F5F5F5F5F5F5F5F5F5F5F5F5F5C3F528F5F5F5F5F5F5F5F5F5F5F5F5F5F5F5E2
310
F5F5F5F5F5F5F5F5F5F5F5F5F5F5F5F5F5E2E2E2EFE2E2F5F5F5F5F5F5F5F5F5F5F5F5F5F5F5F5F5E2F5F5F5F5F5F5F5F5F5F5F5F5F5F5F5F5F5F5F5F5F5F5F5F5F5F5F5F5F5F5F5F5F5F5F5F5F5F5F5F5F5F5F5F5F5F5F5F5F5F5F5F5F5F5F5F5F5F5F5F5F5F5F5F5F5F5F5F5F5F5F5F5F5F5F5F5F5F5F5F5F5F5F5F5F5F5
310
F5F5F5F5F5F5F5F5F5F5F5F5F5F5F5F5F5F5F5F5F5F5F5F5F5F5F5F5F5F5F5F5F5F5C3F5F5F5F5F5F5F5F5F5F5F5F5F5F5F5F5F5E2F5F5F5F5F5F5F5F5F5F5F5F5F5F5F5F5F5E2E2E2EFE2E2F5F5F5F5F5F5F5F5F5F5F5F5F5F5F5F5F5E2F5F5F5F5F5F5F5F5F5F5F5F5F5F5F5F5F5F5F5F5F5F5F5F5F5F5F5F5F5F5F5F5F5
310
F5F5F5F5F5F5F5F5F5F5F5F5F5F5F5C3F5F5F5F5F5F5F5F5F5F5F5F5F5F5F5F5F5F5F5F5F5F5F5F5F5F5F5F5F5F5F5F5F5F5F5F5F5F5F5F5F5F5F5F5F5F5F5F5F5F5F5F5F5F5F5F5F5F5F5F5F5F5F5F5F5F5F5F5F5F5F5F5F5F5F5F5F5F5F5F5F5F5F5F5F5F5F5F5F5E2F5F5F5F5F5F5F5F5F5F5F5F5F5F5F5F5F5E2E2E2EF
310
E2F5F5F5F5F5F5F5F5F5F5F5F5F5F5F5F5F5F5E2F5F5F5F5F5F5F5F5F5F5F5F5F5F5F5F5F5F5F5F5F5F5F5F5F5F5F5F5F5F5F5F5F5F5F5F5F5F5F5F5F5F5F5F5F5F5F5F5C3F5F5F5F5F5F5F5F5F5F5F5F5F5F5F5F5F5F5F5F5F5F5F5F5F5F5F5F5F5F5F5F5F5F5F5F5F5F5F5F5F5F5F5F5F5F5F5F5F5F5F5F5F5F5F5F5F5F5
310
F5F5F5F5F5F5F5F5F5F5F5F5F5F5F5F5F5F5F5F5F5F5F5F5F5F5F5F5F5F5F5E2F5F5F5F5F5F5F5F5F5F5F5F5F5F5F5F5F5F5E2E2EFE2F5F5F5F5F5F5F5F5F5F5F5F5F5F5F5F5F5F5E2F5F5F5F5F5F5F5F5F5F5F5F5F5F5F5F5F5F5F5F5F5F5F5F5F5F5F5F5F5F5F5F5F5F5F5F5F5F5F5F5F5F5F5F5F5F5F5F5C3F5F5F5F5F5
310
F5F5F5F5F5F5F5F5F5F5F5F5F5F5F5F5F5F5F5F5F5F5F5F5F5F5F5F5F5F5F5F5F5F5F5F5F5F5F5F5F5F5F5F5F5F5F5F5F5F5F5F5F5F5F5F5F5F5F5F5F5F5F5F5F5F5F5F5F5F5F5F5F5F5F5F5F5F5F5F5F5F5F5F5E2F5F5F5F5F5F5F5F5F5F5F5F5F5F5F5F5F5F5E2E2EFE2F5F5F5F5F5F5F5F5F5F5F5F5F5F5F5F5F5F5E2F5
310
F5F5F5F5F5F5F5F5F5F5F5F5F5F5F5F5F5F5F5F5F5F5F5F5F5F5F5F5F5F5F5F5F5F5F5F5F5F5F5F5F5F5F5F5F5F5F5C3F5F5F5F5F5F5F5F5F5F5F5F5F5F5F5F5F5F5F5F5F5F5F5F5F5F5F5F5F5F5F5F5F5F5F5F5F5F5F5F5F5F5F5F5F5F5F5F5F5F5F5F5F5F5F5F5F5F5F5F5F5F5F5F5F5F5F5F5F5F5F5F5F5F5F5F5F5F5F5
310
F5F5F5F5F5F5F5F5F5F5E2F5F5F5F5F5F5F5F5F5F5F5F5F5F5F5F5F5F5E2E2EFE2F5F5F5F5F5F5F5F5F5F5F5F5F5F5F5F5F5F5E2F5F5F5F5F5F5F5F5F5F5F5F5F5F5F5F5F5F5F5F5F5F5F5F5E2E2E2E2E2E2E2E2E2E2E2E2E2E2E2E2E2E2E2E2E2E2E2E2C3E2E2E2E2E2E2E2E2E2E2E2E2E2E2E2E2E2E2E2E2E2E2E2F5F5F5
310
F5F5F5F5F5F5F5F5F5F5F5F5F5F5F5F5F5F5F5F5F5F5F5F5F5F5F5F5F5F5F5F5F5F5F5F5F5F5F5F5F5F5F5F5F5F5F5F5F5F5F5F5F5F5F5F5F5F5F5F5F5F5F5E2F5F5F5F5F5F5F5F5F5F5F5F5F5F5F5F5F5F5E2E2EFE2F5F5F5F5F5F5F5F5F5F5F5F5F5F5F5F5F5F5E2F5F5F5F5F5F5F5F5F5F5F5F5F5F5F5F5F5F5F5F5E2E2
310
E2E2F5F5F5F5F5F5F5F5F5F5F5F5F5F5F5F5F5F5F5F5F5F5F5F5C3F5F5F5F5F5F5F5F5F5F5F5F5F5F5F5F5F5F5F5F5F5F5F5E2E2E2E2F5F5F5F5F5F5F5F5F5F5F5F5F5F5F5F5F5F5F5F5F5F5F5F5F5F5F5F5F5F5F5F5F5F5F5F5F5F5F5F5F5F5F5F5F5F5F5F5F5F5F5F5F5F5F5F5F5F5F5F5F5F5E2F5F5F5F5F5F5F5F5F5F5
310
F5F5F5F5F5F5F5F5E2E2EFE2F5F5F5F5F5F5F5F5F5F5F5F5F5F5F5F5F5F5E2F5F5F5F5F5F5F5F5F5F5F5F5F5F5F5F5F5F5E2E2F5F5F5F5F5F5F5F5F5F5F5F5F5F5F5F5F5F5F5F5F5F5F5F5F5F5F5F5C3F5F5F5F5F5F5F5F5F5F5F5F5F5F5F5F5F5F5F5F5F5F5F5F5F5F5F5E2E2E2F5F5F5F5F5F5F5F5F5F5F5F5F5F5F5F5F5
310
F5F5F5F5F5F5F5F5F5F5F5F5F5F5F5F5F5F5F5F5F5F5F5F5F5F5F5F5F5F5F5F5F5F5F5F5F5F5F5F5F5F5E2F5F5F5F5F5F5F5F5F5F5F5F5F5F5F5F5F5F5E2E2EFE2F5F5F5F5F5F5F5F5F5F5F5F5F5F5F5F5F5F5E2F5F5F5F5F5F5F5F5F5F5F5F5F5F5F5F5F5E2F5F5F5F5F5F5F5F5F5F5F5F5F5F5F5F5F5F5F5F5F5F5F5F5F5
310
F5F5F5F5F5C3F5F5F5F5F5F5F5F5F5F5F5F5F5F5F5F5F5F5F5F5F5F5F5F5F5F5F5F5F5F5E2F5F5F5F5F5F5F5F5F5F5F5F5F5F5F5F5F5F5F5F5F5F5F5F5F5F5F5F5F5F5F5F5F5F5F5F5F5F5F5F5F5F5F5F5F5F5F5F5F5F5F5F5F5F5F5F5F5F5E2F5F5F5F5F5F5F5F5F5F5F5F5F5F5F5F5F5F5E2E2EFE2F5F5F5F5F5F5F5F5F5
310
F5F5F5F5F5F5F5F5F5E2F5F5F5F5F5F5F5F5F5F5F5F5F5F5F5E2E2F5F5F5F5F5F5F5E2E2E2E2E2E2E2E2E2E2E2E2E2E2E2E2E2E2E2E2E2E2E2E2C3E2E2E2E2E2E2E2E2E2E2E2E2E2E2E2E2E2E2E2E2E2E2E2E2F5F5F5F5F5F5F5E2E2F5F5F5F5F5F5F5F5F5F5F5F5F5F5F5F5F5F5F5F5F5F5F5F5F5F5F5F5F5F5F5F5F5F5F5
310
F5F5F5F5F5F5F5F5F5F5F5F5F5F5F5F5F5F5F5F5F5E2F5F5F5F5F5F5F5F5F5F5F5F5F5F5F5F5F5F5E2E2EFE2F5F5F5F5F5F5F5F5F5F5F5F5F5F5F5F5F5F5E2F5F5F5F5F5F5F5F5F5F5F5F5F5F5E2F5F5F5F5F5F5E2E2E2F5F5F5F5F5F5F5F5F5F5F5F5F5F5F5F5F5F5F5F5F5F5F5F5C3F5F5F5F5F5F5F5F5F5F5F5F5F5F5F5
310
F5F5F5F5F5F5F5F5F5E2E2E2F5F5F5F5F5F5E2F5F5F5F5F5F5F5F5F5F5F5F5F5F5F5F5F5F5F5F5F5F5F5F5F5F5F5F5F5F5F5F5F5F5F5F5F5F5F5F5F5F5F5F5F5F5F5F5F5F5F5F5F5F5F5E2F5F5F5F5F5F5F5F5F5F5F5F5F5F5F5F5F5F5E2E2EFE2E2F5F5F5F5F5F5F5F5F5F5F5F5F5F5F5F5F5E2F5F5F5F5F5F5F5F5F5F5F5
310
F5F5E2F5F5F5F5F5E2E2F5F5F5F5F5F5F5F5F5F5E2E2E2E2E2E2E2E2E2E2E2E2E2E2E2E2E2E2E2E2E2E2E2E2E2E2E2E2E2E2E2E2E2E2E2F5F5F5F5F5F5F5F5F5F5E2E2F5F5F5F5F5E2F5F5F5F5F5F5F5F5F5F5F5F5F5F5F5F5F5F5F5F5F5F5F5F5F5F5F5F5F5F5F5F5F5F5F5F5F5F5F5F5F5F5F5F5F5F5F5F5F5F5F5F5F5F5
310
E2F5F5F5F5F5F5F5F5F5F5F5F5F5F5F5F5F5E2E2E2EFE2E2F5F5F5F5F5F5F5F5F5F5F5F5F5F5F5F5F5E2F5F5F5F5F5F5F5F5F5F5F5F5E2F5F5F5F5F5E2F5F5F5F5F5F5F5F5F5F5E2E2F5F5F5F5F5F5F5F5F5F5F5F5F5F5F5F5F5C3F5F5F5F5F5F5F5F5F5F5F5F5F5F5F5F5F5E2E2F5F5F5F5F5F5F5F5F5F5E2F5F5F5F5F5E2
310
F5F5F5F5F5F5F5F5F5F5F5F5F5F5F5F5F5F5F5F5F5F5F5F5F5F5F5F5F5F5F5F5F5F5F5F5F5F5F5F5F5F5F5F5F5F5F5F5F5F5F5F5F5E2F5F5F5F5F5F5F5F5F5F5F5F5F5F5F5F5F5E2E2E2EFE2E2F5F5F5F5F5F5F5F5F5F5F5F5F5F5F5F5F5E2F5F5F5F5F5F5F5F5F5F5F5F5E2F5F5F5F5E2F5F5F5F5F5F5F5F5F5E2E2F5F5F5
310
F5F5F5F5F5F5F5F5F5F5F5F5F5F5F5F5C3F5F5F5F5F5F5F5F5F5F5F5F5F5F5F5F5F5F5F5E2E2F5F5F5F5F5F5F5F5F5E2F5F5F5F5F5E2F5F5F5F5F5F5F5F5F5F5F5F5F5F5F5F5F5F5F5F5F5F5F5F5F5F5F5F5F5F5F5F5F5F5F5F5F5F5F5F5F5F5F5F5F5F5F5F5F5F5F5F5E2F5F5F5F5F5F5F5F5F5F5F5F5F5F5F5F5F5E2E2E2
310
EFE2E2F5F5F5F5F5F5F5F5F5F5F5F5F5F5F5F5F5E2F5F5F5F5F5F5F5F5F5F5F5E2F5F5F5F5E2F5F5F5F5F5F5F5F5F5E2F5F5F5F5F5F5F5F5F5F5F5F5F5F5F5F5F5F5F5F5F5C3F5F5F5F5F5F5F5F5F5F5F5F5F5F5F5F5F5F5F5F5F5E2F5F5F5F5F5F5F5F5F5E2F5F5F5F5E2F5F5F5F5F5F5F5F5F5F5F5F5F5F5F5F5F5F5F5F5
310
F5F5F5F5F5F5F5F5F5F5F5F5F5F5F5F5F5F5F5F5F5F5F5F5F5F5F5F5F5F5F5F5E2F5F5F5F5F5F5F5F5F5F5F5F5F5F5F5F5F5E2E2E2EFE2E2F5F5F5F5F5F5F5F5F5F5F5F5F5F5F5F5F5E2F5F5F5F5F5F5F5F5F5F5E2F5F5F5F5E2F5F5F5F5F5F5F5F5F5E2F5F5F5F5F5F528282828282828282828282828282828C328282828
310
282828282828282828282828F5F5F5F5F5F5E2F5F5F5F5F5F5F5F5E2E2F5F5F5E2F5F5F5F5F5F5F5F5F5F5F5F5F5F5F5F5F5F5F5F5F5F5F5F5F5F5F5F5F5F5F5F5F5F5F5F5F5F5F5F5F5F5F5F5F5F5F5F5F5F5F5F5E2F5F5F5F5F5F5F5F5F5F5F5F5F5F5F5F5F5E2E2E2EFE2E2F5F5F5F5F5F5F5F5F5F5F5F5F5F5F5F5F5E2
310
F5F5F5F5F5F5F5F5F5F5E2F5F5F5E2F5F5F5F5F5F5F5F5F5E2F5F5F5F5F5282828282828282828282828282828282828C3282828282828282828282828282828282828F5F5F5F5E2F5F5F5F5F5F5F5F5F5F5E2F5F5F5E2F5F5F5F5F5F5F5F5F5F5F5F5F5F5F5F5F5F5F5F5F5F5F5F5F5F5F5F5F5F5F5F5F5F5F5F5F5F5F5F5
310
F5F5F5F5F5F5F5F5F5F5F5E2F5F5F5F5F5F5F5F5F5F5F5F5F5F5F5F5F5E2E2E2EFE2E2F5F5F5F5F5F5F5F5F5F5F5F5F5F5F5F5F5E2F5F5F5F5F5F5F5F5F5E2F5F5F5F5E2F5F5F5F5F5F5F5F5F5E2F5F5F5F528282828282828282828282828282828282828C328282828282828282828282828282828282828F5F5F5F5E2F5
310
F5F5F5F5F5F5F5F5E2F5F5F5F5E2F5F5F5F5F5F5F5F5F5F5F5F5F5F5F5F5F5F5F5F5F5F5F5F5F5F5F5F5F5F5F5F5F5F5F5F5F5F5F5F5F5F5F5F5F5F5F5F5F5F5E2F5F5F5F5F5F5F5F5F5F5F5F5F5F5F5F5F5E2E2E2EFE2E2F5F5F5F5F5F5F5F5F5F5F5F5F5F5F5F5F5E2F5F5F5F5F5F5F5F5F5E2F5F5F5F5E2F5F5F5F5F5F5
310
F5F5E2F5F5F5F52828282828282828282828282828282828282828C32828282828282828282828282828282828282828F5F5F5E2F5F5F5F5F5F5F5F5F5E2F5F5F5F5E2F5F5F5F5F5F5F5F5F5F5F5F5F5F5F5F5F5F5F5F5F5F5F5F5F5F5F5F5F5F5F5F5F5F5F5F5F5F5F5F5F5F5F5F5F5F5F5F5F5F5E2F5F5F5F5F5F5F5F5F5
310
F5F5F5F5F5F5F5F5E2E2E2EFE2E2F5F5F5F5F5F5F5F5F5F5F5F5F5F5F5F5F5E2F5F5F5F5F5F5F5F5F5E2F5F5F5E2F5F5F5F5F5F5F5F5F5E2F5F5F5282828282828282828282828282828282828282828C32828282828282828282828282828282828282828F5F5F5F5E2F5F5F5F5F5F5F5F5F5E2F5F5F5E2F5F5F5F5F5F5F5
310
F5F5F5F5F5F5F5F5F5F5F5F5F5F5F5F5F5F5F5F5F5F5F5F5F5F5F5F5F5F5F5F5F5F5F5F5F5F5F5F5F5F5F5E2F5F5F5F5F5F5F5F5F5F5F5F5F5F5F5F5F5E2E2E2EFE2E2F5F5F5F5F5F5F5F5F5F5F5F5F5F5F5F5F5E2F5F5F5F5F5F5F5F5F5E2F5F5F5E2F5F5F5F5F5F5F5F5F5E2F5F5F5282828282828282828282828282828
310
28282828F5F5C3F52828282828282828282828282828282828282828F5F5F5E2F5F5F5F5F5F5F5F5F5E2F5F5F5E2F5F5F5F5F5F5F5F5F5F5F5F5F5F5F5F5F5F5F5F5F5F5F5F5F5F5F5F5F5F5F5F5F5F5F5F5F5F5F5F5F5F5F5F5F5F5F5F5F5F5E2F5F5F5F5F5F5F5F5F5F5F5F5F5F5F5F5F5E2E2E2EFE2E2F5F5F5F5F5F5F5
310
F5F5F5F5F5F5F5F5F5F5E2F5F5F5F5F5F5F5F5E2F5F5F5F5E2F5F5F5F5F5F5F5F5E2F5F5F5F528282828282828282828282828282828282828F5E2E2E2F528282828282828282828282828282828282828F5F5F5E2F5F5F5F5F5F5F5F5F5E2F5F5F5E2F5F5F5F5F5F5F5F5F5F5F5F5F5F5F5F5F5F5F5F5F5F5F5F5F5F5F5F5
310
F5F5F5F5F5F5F5F5F5F5F5F5F5F5F5F5F5F5F5F5F5F5E2F5F5F5F5F5F5F5F5F5F5F5F5F5F5F5F5F5E2E2E2EFE2E2F5F5F5F5F5F5F5F5F5F5F5F5F5F5F5F5F5E2F5F5F5F5F5F5F5F5E2F5F5F5F5E2F5F5F5F5F5F5F5F5E2F5F5F5F5282828282828282828282828282828282828F5E2F5C3F5E2F52828282828282828282828
310
28282828282828F5F5F5E2F5F5F5F5F5F5F5F5F5E2F5F5F5E2F5F5F5F5F5F5F5F5F5F5F5F5F5F5F5F5F5F5F5F5F5F5F5F5F5F5F5F5F5F5F5F5F5F5F5F5F5F5F5F5F5F5F5F5F5F5F5F5F5F5E2F5F5F5F5F5F5F5F5F5F5F5F5F5F5F5F5F5E2E2E2EFE2E2F5F5F5F5F5F5F5F5F5F5F5F5F5F5F5F5F5E2C3C3C3C3C3C3C3C3E2C3
310
C3C3C3E2C3C3C3C3C3C3C3C3C3C3C3C3C3C3C3C3C3C3C3C3C3C3C3C3C3C3C3C3C3C3C3C3E2C3C3C3E2C3C3C3C32828C3C3C3C3C3C3C3C3C3C3C3C3C3C3C3C3C3C3C3C3C3C3C3C3C3C3E2C3C3C3E2C3C3C3C3C3C3F5F5F5F5F5F5F5F5F5F5F5F5F5F5F5F5F5F5F5F5F5F5F5F5F5F5F5F5F5F5F5F5F5F5F5F5F5F5F5F5F5F5F5
310
F5E2F5F5F5F5F5F5F5F5F5F5F5F5F5F5F5F5F5E2E2E2EFE2E2F5F5F5F5F5F5F5F5F5F5F5F5F5F5F5F5F5E2F5F5F5F5F5F5F5F5E2F5F5F5F5E2F5F5F5F5F5F5F5F5E2F5F5F5F528282828282828282828282828282828282828F5E2E2E2F528282828282828282828282828282828282828F5F5F5E2F5F5F5F5F5F5F5F5F5E2
310
F5F5F5E2F5F5F5F5F5F5F5F5F5F5F5F5F5F5F5F5F5F5F5F5F5F5F5F5F5F5F5F5F5F5F5F5F5F5F5F5F5F5F5F5F5F5F5F5F5F5F5F5F5F5E2F5F5F5F5F5F5F5F5F5F5F5F5F5F5F5F5F5E2E2E2EFE2E2F5F5F5F5F5F5F5F5F5F5F5F5F5F5F5F5F5E2F5F5F5F5F5F5F5F5F5E2F5F5F5E2F5F5F5F5F5F5F5F5F5E2F5F5F528282828
310
282828282828282828282828282828F5F5C3F52828282828282828282828282828282828282828F5F5F5E2F5F5F5F5F5F5F5F5F5E2F5F5F5E2F5F5F5F5F5F5F5F5F5F5F5F5F5F5F5F5F5F5F5F5F5F5F5F5F5F5F5F5F5F5F5F5F5F5F5F5F5F5F5F5F5F5F5F5F5F5F5F5F5F5E2F5F5F5F5F5F5F5F5F5F5F5F5F5F5F5F5F5E2E2
310
E2EFE2E2F5F5F5F5F5F5F5F5F5F5F5F5F5F5F5F5F5E2F5F5F5F5F5F5F5F5F5E2F5F5F5E2F5F5F5F5F5F5F5F5F5E2F5F5F5282828282828282828282828282828282828282828C3282828282828282828282828282828282828282828F5F5F5E2F5F5F5F5F5F5F5F5F5E2F5F5F5E2F5F5F5F5F5F5F5F5F5F5F5F5F5F5F5F5F5
310
F5F5F5F5F5F5F5F5F5F5F5F5F5F5F5F5F5F5F5F5F5F5F5F5F5F5F5F5F5F5F5F5F5E2F5F5F5F5F5F5F5F5F5F5F5F5F5F5F5F5F5E2E2E2EFE2F5F5F5F5F5F5F5F5F5F5F5F5F5F5F5F5F5F5E2F5F5F5F5F5F5F5F5F5E2F5F5F5E2F5F5F5F5F5F5F5F5F5E2F5F5F5F52828282828282828282828282828282828282828C3282828
310
2828282828282828282828282828282828F5F5F5E2F5F5F5F5F5F5F5F5F5F5E2F5F5F5E2F5F5F5F5F5F5F5F5F5F5F5F5F5F5F5F5F5F5F5F5F5F5F5F5F5F5F5F5F5F5F5F5F5F5F5F5F5F5F5F5F5F5F5F5F5F5F5F5F5F5E2F5F5F5F5F5F5F5F5F5F5F5F5F5F5F5F5F5F5E2E2EFE2F5F5F5F5F5F5F5F5F5F5F5F5F5F5F5F5F5F5
310
E2F5F5F5F5F5F5F5F5F5E2F5F5F5F5E2F5F5F5F5F5F5F5F5F5E2F5F5F52828282828282828282828282828282828282828C328282828282828282828282828282828282828F5F5F5F5E2F5F5F5F5F5F5F5F5F5E2F5F5F5F5E2F5F5F5F5F5F5F5F5F5F5F5F5F5F5F5F5F5F5F5F5F5F5F5F5F5F5F5F5F5F5F5F5F5F5F5F5F5F5
310
F5F5F5F5F5F5F5F5F5F5F5F5E2F5F5F5F5F5F5F5F5F5F5F5F5F5F5F5F5F5F5E2E2EFE2F5F5F5F5F5F5F5F5F5F5F5F5F5F5F5F5F5F5E2F5F5F5F5F5F5F5F5F5F5E2F5F5F5E2F5F5F5F5F5F5F5F5F5E2F5F5F5F5F5282828282828282828282828282828282828C3282828282828282828282828282828282828F5F5F5F5E2F5
310
F5F5F5F5F5F5F5F5F5E2F5F5F5E2F5F5F5F5F5F5F5F5F5F5F5F5F5F5F5F5F5F5F5F5F5F5F5F5F5F5F5F5F5F5F5F5F5F5F5F5F5F5F5F5F5F5F5F5F5F5F5F5F5F5F5E2F5F5F5F5F5F5F5F5F5F5F5F5F5F5F5F5F5F5E2E2EFE2F5F5F5F5F5F5F5F5F5F5F5F5F5F5F5F5F5F5E2F5F5F5F5F5F5F5F5F5F5E2F5F5F5F5E2F5F5F5F5
310
F5F5F5F5F5E2F5F5F5F5F52828282828282828282828282828282828C32828282828282828282828282828282828F5F5F5F5F5E2F5F5F5F5F5F5F5F5F5E2F5F5F5E2F5F5F5F5F5F5F5F5F5F5F5F5F5F5F5F5F5F5F5F5F5F5F5F5F5F5F5F5F5F5F5F5F5F5F5F5F5F5F5F5F5F5F5F5F5F5F5F5F5F5F5F5E2F5F5F5F5F5F5F5F5
310
F5F5F5F5F5F5F5F5F5F5E2E2EFE2F5F5F5F5F5F5F5F5F5F5F5F5F5F5F5F5F5F5E2F5F5F5F5F5F5F5F5F5F5F5E2F5F5F5E2E2F5F5F5F5F5F5F5F5F5E2F5F5F5F5F5F5F5F5F5F5F5F5F5F5F5F5F5F5F5F5F5C3F5F5F5F5F5F5F5F5F5F5F5F5F5F5F5F5F5F5F5F5F5E2F5F5F5F5F5F5F5F5F5E2F5F5F5F5E2F5F5F5F5F5F5F5F5
310
F5F5F5F5F5F5F5F5F5F5F5F5F5F5F5F5F5F5F5F5F5F5F5F5F5F5F5F5F5F5F5F5F5F5F5F5F5F5F5F5F5F5F5F5E2F5F5F5F5F5F5F5F5F5F5F5F5F5F5F5F5F5F5E2E2EFE2F5F5F5F5F5F5F5F5F5F5F5F5F5F5F5F5F5F5E2F5F5F5F5F5F5F5F5F5F5F5E2F5F5F5F5F5E2F5F5F5F5F5F5F5F5F5E2E2F5F5F5F5F5F5F5F5F5F5F5F5
310
F5F5F5F5F5F5F5C3F5F5F5F5F5F5F5F5F5F5F5F5F5F5F5F5F5F5F5E2E2F5F5F5F5F5F5F5F5F5E2F5F5F5F5F5E2F5F5F5F5F5F5F5F5F5F5F5F5F5F5F5F5F5F5F5F5F5F5F5F5F5F5F5F5F5F5F5F5F5F5F5F5F5F5F5F5F5F5F5F5F5F5F5F5F5F5F5F5E2F5F5F5F5F5F5F5F5F5F5F5F5F5F5F5F5F5F5E2E2EFE2F5F5F5F5F5F5F5
310
F5F5F5F5F5F5F5F5F5F5F5E2F5F5F5F5F5F5F5F5F5F5F5F5E2F5F5F5F5F5E2F5F5F5F5F5F5F5F5F5F5E2E2F5F5F5F5F5F5F5F5F5F5F5F5F5F5F5F5F5C3F5F5F5F5F5F5F5F5F5F5F5F5F5F5F5F5F5E2E2F5F5F5F5F5F5F5F5F5F5E2F5F5F5F5F5E2F5F5F5F5F5F5F5F5F5F5F5F5F5F5F5F5F5F5F5F5F5F5F5F5F5F5F5F5F5F5
310
F5F5F5F5F5F5F5F5F5F5F5F5F5F5F5F5F5F5F5F5F5F5F5E2F5F5F5F5F5F5F5F5F5F5F5F5F5F5F5F5F5F5E2E2EFE2F5F5F5F5F5F5F5F5F5F5F5F5F5F5F5F5F5F5E2F5F5F5F5F5F5F5F5F5F5F5F5F5E2F5F5F5F5F5E2E2F5F5F5F5F5F5F5F5F5F5E2E2E2E2E2E2E2E2E2E2E2E2E2E2E2E2E2E2E2E2E2E2E2E2E2E2E2E2E2E2E2
310
E2E2E2E2F5F5F5F5F5F5F5F5F5F5E2E2F5F5F5F5F5E2F5F5F5F5F5F5F5F5F5F5F5F5F5F5F5F5F5F5F5F5F5F5F5F5F5F5F5F5F5F5F5F5F5F5F5F5F5F5F5F5F5F5F5F5F5F5F5F5F5F5F5F5F5F5E2F5F5F5F5F5F5F5F5F5F5F5F5F5F5F5F5F5F5E2E2EFE2E2F5F5F5F5F5F5F5F5F5F5F5F5F5F5F5F5F5E2F5F5F5F5F5F5F5F5F5
310
F5F5F5F5F5E2F5F5F5F5F5F5E2E2E2F5F5F5F5F5F5F5F5F5F5F5F5F5F5F5F5F5F5F5F5F5F5F5F5C3F5F5F5F5F5F5F5F5F5F5F5F5F5F5F5F5F5F5F5F5F5F5F5F5E2E2E2F5F5F5F5F5F5E2F5F5F5F5F5F5F5F5F5F5F5F5F5F5F5F5F5F5F5F5F5F5F5F5F5F5F5F5F5F5F5F5F5F5F5F5F5F5F5F5F5F5F5F5F5F5F5F5F5F5F5F5F5
310
F5F5E2F5F5F5F5F5F5F5F5F5F5F5F5F5F5F5F5F5E2E2E2EFE2E2F5F5F5F5F5F5F5F5F5F5F5F5F5F5F5F5F5E2F5F5F5F5F5F5F5F5F5F5F5F5F5F5F5E2E2F5F5F5F5F5F5F5E2E2E2E2E2E2E2E2E2E2E2E2E2E2E2E2E2E2E2E2E2E2E2E20FE2E2E2E2E2E2E2E2E2E2E2E2E2E2E2E2E2E2E2E2E2E2E2E2F5F5F5F5F5F5F5E2E2F5
310
F5F5F5F5F5F5F5F5F5F5F5F5F5F5F5F5F5F5F5F5F5F5F5F5F5F5F5F5F5F5F5F5F5F5F5F5F5F5F5F5F5F5F5F5F5F5F5F5F5F5F5F5F5F5F5E2F5F5F5F5F5F5F5F5F5F5F5F5F5F5F5F5F5E2E2E2EFE2E2F5F5F5F5F5F5F5F5F5F5F5F5F5F5F5F5F5E2F5F5F5F5F5F5F5F5F5F5F5F5F5F5F5F5F5E2F5F5F5F5F5F5F5F5F5F5F5F5
310
F5F5F5F5F5F5F5F5F5F5F5F5F5F5F5F5F5F50FF5F5F5F5F5F5F5F5F5F5F5F5F5F5F5F5F5F5F5F5F5F5F5F5F5F5F5F5F5F5E2F5F5F5F5F5F5F5F5F5F5F5F5F5F5F5F5F5F5F5F5F5F5F5F5F5F5F5F5F5F5F5F5F5F5F5F5F5F5F5F5F5F5F5F5F5F5F5F5F5F5F5F5F5F5F5F5F5F5E2F5F5F5F5F5F5F5F5F5F5F5F5F5F5F5F5F5E2
310
E2E2EFE2E2F5F5F5F5F5F5F5F5F5F5F5F5F5F5F5F5F5E2F5F5F5F5F5F5F5F5F5F5F5F5F5F5F5F5F5F5E2E2F5F5F5F5F5F5F5F5F5F5F5F5F5F5F5F5F5F5F5F5F5F5F5F5F5F5F5F50FF5F5F5F5F5F5F5F5F5F5F5F5F5F5F5F5F5F5F5F5F5F5F5F5F5F5F5F5E2E2F5F5F5F5F5F5F5F5F5F5F5F5F5F5F5F5F5F5F5F5F5F5F5F5F5
310
F5F5F5F5F5F5F5F5F5F5F5F5F5F5F5F5F5F5F5F5F5F5F5F5F5F5F5F5F5F5F5F5F5F5E2F5F5F5F5F5F5F5F5F5F5F5F5F5F5F5F5F5E2E2E2EFE2E2F5F5F5F5F5F5F5F5F5F5F5F5F5F5F5F5F5E2F5F5F5F5F5F5F5F5F5F5F5F5F5F5F5F5F5F5F5F5E2E2E2F5F5F5F5F5F5F5F5F5F5F5F5F5F5F5F5F5F5F5F5F5F5F5F5F50FF5F5
310
F5F5F5F5F5F5F5F5F5F5F5F5F5F5F5F5F5F5F5F5F5F5F5E2E2E2F5F5F5F5F5F5F5F5F5F5F5F5F5F5F5F5F5F5F5F5F5F5F5F5F5F5F5F5F5F5F5F5F5F5F5F5F5F5F5F5F5F5F5F5F5F5F5F5F5F5F5F5F5F5F5F5F5F5F5F5F5E2F5F5F5F5F5F5F5F5F5F5F5F5F5F5F5F5F5E2E2E2EFE2E2F5F5F5F5F5F5F5F5F5F5F5F5F5F5F5F5
310
F5E2F5F5F5F5F5F5F5F5F5F5F5F5F5F5F5F5F5F5F5F5F5F5F5E2E2E2E2E2E2E2E2E2E2E2E2E2E2E2E2E2E2E2E2E2E2E2E2E20FE2E2E2E2E2E2E2E2E2E2E2E2E2E2E2E2E2E2E2E2E2E2E2E2E2F5F5F5F5F5F5F5F5F5F5F5F5F5F5F5F5F5F5F5F5F5F5F5F5F5F5F5F5F5F5F5F5F5F5F5F5F5F5F5F5F5F5F5F5F5F5F5F5F5F5F5
310
F5F5F5F5F5F5F5F5F5F5F5F5F5E2F5F5F5F5F5F5F5F5F5F5F5F5F5F5F5F5F5E2E2E2EFE2E2F5F5F5F5F5F5F5F5F5F5F5F5F5F5F5F5F5E2F5F5F5F5F5F5F5F5F5F5F5F5F5F5F5F5F5F5F5F5F5F5F5F5F5F5F5F5F5F5F5F5F5F5F5F5F5F5F5F5F5F5F5F5F5F5F5F5C3F5F5F5F5F5F5F5F5F5F5F5F5F5F5F5F5F5F5F5F5F5F5F5
310
F5F5F5F5F5F5F5F5F5F5F5F5F5F5F5F5F5F5F5F5F5F5F5F5F5F5F5F5F5F5F5F5F5F5F5F5F5F5F5F5F5F5F5F5F5F5F5F5F5F5F5F5F5F5F5F5F5F5F5F5F5F5F5F5F5F5E2F5F5F5F5F5F5F5F5F5F5F5F5F5F5F5F5F5E2E2E2EFE2E2F5F5F5F5F5F5F5F5F5F5F5F5F5F5F5F5F5E2F5F5F5F5F5F5F5F5F5F5F5F5F5F5F5F5F5F5F5
310
F5F5F5F5F5F5F5F5F5F5F5F5F5F5F5F5F5F5F5F5F5F5F5F5F5F5F5F5F5C3F5F5F5F5F5F5F5F5F5F5F5F5F5F5F5F5F5F5F5F5F5F5F5F5F5F5F5F5F5F5F5F5F5F5F5F5F5F5F5F5F5F5F5F5F5F5F5F5F5F5F5F5F5F5F5F5F5F5F5F5F5F5F5F5F5F5F5F5F5F5F5F5F5F5F5F5F5F5F5F5F5F5F5F5F5F5F5F5F5E2F5F5F5F5F5F5F5
310
F5F5F5F5F5F5F5F5F5F5E2E2E2EFE2E2F5F5F5F5F5F5F5F5F5F5F5F5F5F5F5F5F5E2F5F5F5F5F5F5F5F5F5F5F5F5F5F5F5F5F5F5F5F5F5F5F5F5F5F5F5F5F5F5F5F5F5F5F5F5F5F5F5F5F5F5F5F5F5F5F5F5F5F5F5F5F5F5F5F5F5F5F5F5F5F5F5F5F5F5F5F5F5F5F5F5F5F5F5F5F5F5F5F5F5F5F5F5F5F5F5F5F5F5F5F5F5
310
F5F5F5F5F5F5F5F5F5F5F5F5F5F5F5F5F5F5F5F5F5F5F5F5F5F5F5F5F5F5F5F5F5F5F5F5F5F5F5F5F5F5F5F5F5E2F5F5F5F5F5F5F5F5F5F5F5F5F5F5F5F5F5E2E2E2EFE2E2F5F5F5F5F5F5F5F5F5F5F5F5F5F5F5F5F5E2F5F5F5F5F5F5F5F5F5F5F5F5F5F5F5F5F5F5F5F5F5F5F5F5F5F5F5F5F5F5F5F5F5F5F5F5F5F5F5F5
310
F5F5F5F5F5F5F5F5F5F5F5F5F5F5F5F5F5F5F5F5F5F5F5F5F5F5F5F5F5F5F5F5F5F5F5F5F5F5F5F5F5F5F5F5F5F5F5F5F5F5F5F5F5F5F5F5F5F5F5F5F5F5F5F5F5F5F5F5F5F5F5F5F5F5F5F5F5F5F5F5F5F5F5F5F5F5F5F5F5F5F5F5F5F5F5F5F5F5E2F5F5F5F5F5F5F5F5F5F5F5F5F5F5F5F5F5E2E2E2EFE2E2F5F5F5F5F5
310
F5F5F5F5F5F5F5F5F5F5F5F5E2F5F5F5F5F5F5F5F5F5F5F5F5F5F5F5F5F5F5F5F5F5F5F5F5F5F5F5F5F5F5F5F5F5F5F5F5F5F5F5F5F5F5F5F5F5F5F5F5F5F5F5F5F5F5F5F5F5F5F5F5F5F5F5F5F5F5F5F5F5F5F5F5F5F5F5F5F5F5F5F5F5F5F5F5F5F5F5F5F5F5F5F5F5F5F5F5F5F5F5F5F5F5F5F5F5F5F5F5F5F5F5F5F5F5
310
F5F5F5F5F5F5F5F5F5F5F5F5F5F5F5F5F5F5F5F5F5F5F5F5E2F5F5F5F5F5F5F5F5F5F5F5F5F5F5F5F5F5E2E2E2EFE2E2F5F5F5F5F5F5F5F5F5F5F5F5F5F5F5F5F5E2F5F5F5F5F5F5F5F5F5F5F5F5F5F5F5F5F5F5F5F5F5F5F5F5F5F5F5F5F5F5F5F5F5F5F5F5F5F5F5F5F5F5F5F5F5F5F5F5F5F5F5F5F5F5F5F5F5F5F5F5F5
310
F5F5F5F5F5F5F5F5F5F5F5F5F5F5F5F5F5F5F5F5F5F5F5F5F5F5F5F5F5F5F5F5F5F5F5F5F5F5F5F5F5F5F5F5F5F5F5F5F5F5F5F5F5F5F5F5F5F5F5F5F5F5F5F5F5F5F5F5F5F5F5F5F5F5F5F5F5E2F5F5F5F5F5F5F5F5F5F5F5F5F5F5F5F5F5E2E2E2EFE2E2F5F5F5F5F5F5F5F5F5F5F5F5F5F5F5F5F5E2F5F5F5F5F5F5F5F5
310
F5F5F5F5F5F5F5F5F5F5F5F5F5F5F5F5F5F5F5F5F5F5F5F5F5F5F5F5F5F5F5F5F5F5F5F5F5F5F5F5F5F5F5F5F5F5F5F5F5F5F5F5F5F5F5F5F5F5F5F5F5F5F5F5F5F5F5F5F5F5F5F5F5F5F5F5F5F5F5F5F5F5F5F5F5F5F5F5F5F5F5F5F5F5F5F5F5F5F5F5F5F5F5F5F5F5F5F5F5F5F5F5F5F5F5F5F5F5F5F5F5F5F5F5F5F5F5
310
F5F5F5E2F5F5F5F5F5F5F5F5F5F5F5F5F5F5F5F5F5E2E2E2EFE2E2F5F5F5F5F5F5F5F5F5F5F5F5F5F5F5F5F5E2F5F5F5F5F5F5F5F5F5F5F5F5F5F5F5F5F5F5F5F5F5F5F5F5F5F5F5F5F5F5F5F5F5F5F5F5F5F5F5F5F5F5F5F5F5F5F5F5F5F5F5F5F5F5F5F5F5F5F5F5F5F5F5F5F5F5F5F5F5F5F5F5F5F5F5F5F5F5F5F5F5F5
310
F5F5F5F5F5F5F5F5F5F5F5F5F5F5F5F5F5F5F5F5F5F5F5F5F5F5F5F5F5F5F5F5F5F5F5F5F5F5F5F5F5F5F5F5F5F5F5F5F5F5F5F5F5F5F5F5E2F5F5F5F5F5F5F5F5F5F5F5F5F5F5F5F5F5E2E2E2EFE2E2F5F5F5F5F5F5F5F5F5F5F5F5F5F5F5F5F5E2F5F5F5F5F5F5F5F5F5F5F5F5F5F5F5F5F5F5F5F5F5F5F5F5F5F5F5F5F5
310
F5F5F5F5F5F5F5F5F5F5F5F5F5F5F5F5F5F5F5F5F5F5F5F5F5F5F5F5F5F5F5F5F5F5F5F5F5F5F5F5F5F5F5F5F5F5F5F5F5F5F5F5F5F5F5F5F5F5F5F5F5F5F5F5F5F5F5F5F5F5F5F5F5F5F5F5F5F5F5F5F5F5F5F5F5F5F5F5F5F5F5F5F5F5F5F5F5F5F5F5F5F5F5F5F5F5F5F5F5E2F5F5F5F5F5F5F5F5F5F5F5F5F5F5F5F5F5
310
E2E2E2EFE2E2F5F5F5F5F5F5F5F5F5F5F5F5F5F5F5F5F5E2F5F5F5F5F5F5F5F5F5F5F5F5F5F5F5F5F5F5F5F5F5F5F5F5F5F5F5F5F5F5F5F5F5F5F5F5F5F5F5F5F5F5F5F5F5F5F5F5F5F5F5F5F5F5F5F5F5F5F5F5F5F5F5F5F5F5F5F5F5F5F5F5F5F5F5F5F5F5F5F5F5F5F5F5F5F5F5F5F5F5F5F5F5F5F5F5F5F5F5F5F5F5F5
310
F5F5F5F5F5F5F5F5F5F5F5F5F5F5F5F5F5F5F5F5F5F5F5F5F5F5F5F5F5F5F5F5F5F5F5E2F5F5F5F5F5F5F5F5F5F5F5F5F5F5F5F5F5E2E2E2EFE2F5F5F5F5F5F5F5F5F5F5F5F5F5F5F5F5F5F5E2F5F5F5F5F5F5F5F5F5F5F5F5F5F5F5F5F5F5F5F5F5F5F5F5F5F5F5F5F5F5F5F5F5F5F5F5F5F5F5F5F5F5F5F5F5F5F5F5F5F5
310
F5F5F5F5F5F5F5F5F5F5F5F5F5F5F5F5F5F5F5F5F5F5F5F5F5F5F5F5F5F5F5F5F5F5F5F5F5F5F5F5F5F5F5F5F5F5F5F5F5F5F5F5F5F5F5F5F5F5F5F5F5F5F5F5F5F5F5F5F5F5F5F5F5F5F5F5F5F5F5F5F5F5F5F5F5F5F5F5E2F5F5F5F5F5F5F5F5F5F5F5F5F5F5F5F5F5F5E2E2EFE2F5F5F5F5F5F5F5F5F5F5F5F5F5F5F5F5
310
F5F5E2F5F5F5F5F5F5F5F5F5F5F5F5F5F5F5F5F5F5F5F5F5F5F5F5F5F5F5F5F5F5F5F5F5F5F5F5F5F5F5F5F5F5F5F5F5F5F5F5F5F5F5F5F5F5F5F5F5F5F5F5F5F5F5F5F5F5F5F5F5F5F5F5F5F5F5F5F5F5F5F5F5F5F5F5F5F5F5F5F5F5F5F5F5F5F5F5F5F5F5F5F5F5F5F5F5F5F5F5F5F5F5F5F5F5F5F5F5F5F5F5F5F5F5F5
310
F5F5F5F5F5F5F5F5F5F5F5F5F5F5E2F5F5F5F5F5F5F5F5F5F5F5F5F5F5F5F5F5F5E2E2EFE2F5F5F5F5F5F5F5F5F5F5F5F5F5F5F5F5F5F5E2F5F5F5F5F5F5F5F5F5F5F5F5F5F5F5F5F5F5F5F5F5F5F5F5F5F5F5F5F5F5F5F5F5F5F5F5F5F5F5F5F5F5F5F5F5F5F5F5F5F5F5F5F5F5F5F5F5F5F5F5F5F5F5F5F5F5F5F5F5F5F5
310
F5F5F5F5F5F5F5F5F5F5F5F5F5F5F5F5F5F5F5F5F5F5F5F5F5F5F5F5F5F5F5F5F5F5F5F5F5F5F5F5F5F5F5F5F5F5F5F5F5F5F5F5F5F5F5F5F5F5F5F5F5F5F5F5F5F5F5E2F5F5F5F5F5F5F5F5F5F5F5F5F5F5F5F5F5F5E2E2EFE2F5F5F5F5F5F5F5F5F5F5F5F5F5F5F5F5F5F5E2F5F5F5F5F5F5F5F5F5F5F5F5F5F5F5F5F5F5
310
F5F5F5F5F5F5F5F5F5F5F5F5F5F5F5F5F5F5F5F5F5F5F5F5F5F5F5F5F5F5F5F5F5F5F5F5F5F5F5F5F5F5F5F5F5F5F5F5F5F5F5F5F5F5F5F5F5F5F5F5F5F5F5F5F5F5F5F5F5F5F5F5F5F5F5F5F5F5F5F5F5F5F5F5F5F5F5F5F5F5F5F5F5F5F5F5F5F5F5F5F5F5F5F5F5F5F5F5F5F5F5F5F5F5F5F5F5F5F5F5E2F5F5F5F5F5F5
310
F5F5F5F5F5F5F5F5F5F5F5F5E2E2EFE2F5F5F5F5F5F5F5F5F5F5F5F5F5F5F5F5F5F5E2E2E2E2E2E2E2E2E2E2E2E2E2E2E2E2E2E2E2E2E2E2E2E2E2E2E2E2E2E2E2E2E2E2E2E2E2E2E2E2E2E2E2E2E2E2E2E2E2E2E2E2E2E2E2E2E2E2E2E2E2E2E2E2E2E2E2E2E2E2E2E2E2E2E2E2E2E2E2E2E2E2E2E2E2E2E2E2E2E2E2E2E2
310
E2E2E2E2E2E2E2E2E2E2E2E2E2E2E2E2E2E2E2E2E2E2E2E2E2E2E2E2E2E2E2E2E2E2E2E2E2E2E2E2E2E2E2E2E2E2E2F5F5F5F5F5F5F5F5F5F5F5F5F5F5F5F5F5F5E2E2EFE2F5F5F5F5F5F5F5F5F5F5F5F5F5F5F5F5F5F5F5F5F5F5F5F5F5F5F5F5F5F5F5F5F5F5F5F5F5F5F5F5F5F5F5F5F5F5F5F5F5F5F5F5F5F5F5F5F5F5
310
F5F5F5F5F5F5F5F5F5F5F5F5F5F5F5F5F5F5F5F5F5F5F5F5F5F5F5F5F5F5F5F5F5F5F5F5F5F5F5F5F5F5F5F5F5F5F5F5F5F5F5F5F5F5F5F5F5F5F5F5F5F5F5F5F5F5F5F5F5F5F5F5F5F5F5F5F5F5F5F5F5F5F5F5F5F5F5F5F5F5F5F5F5F5F5F5F5F5F5F5F5F5F5F5F5F5F5F5F5F5F5F5F5F5F5F5F5F5E2E2EFE2F5F5F5F5F5
310
F5F5F5F5F5F5F5F5F5F5F5F5F5F5F5F5F5F5F5F5F5F5F5F5F5F5F5F5F5F5F5F5F5F5F5F5F5F5F5F5F5F5F5F5F5F5F5F5F5F5F5F5F5F5F5F5F5F5F5F5F5F5F5F5F5F5F5F5F5F5F5F5F5F5F5F5F5F5F5F5F5F5F5F5F5F5F5F5F5F5F5F5F5F5F5F5F5F5F5F5F5F5F5F5F5F5F5F5F5F5F5F5F5F5F5F5F5F5F5F5F5F5F5F5F5F5F5
310
F5F5F5F5F5F5F5F5F5F5F5F5F5F5F5F5F5F5F5F5F5F5F5F5F5F5F5F5F5F5F5F5F5F5F5F5F5F5F5F5F5F5F5F5E2E2EFE2F5F5F5F5F5F5F5F5F5F5F5F5F5F5F5F5F5F5F5F5F5F5F5F5F5F5F5F5F5F5F5F5F5F5F5F5F5F5F5F5F5F5F5F5F5F5F5F5F5F5F5F5F5F5F5F5F5F5F5F5F5F5F5F5F5F5F5F5F5F5F5F5F5F5F5F5F5F5F5
310
F5F5F5F5F5F5F5F5F5F5F5F5F5F5F5F5F5F5F5F5F5F5F5F5F5F5F5F5F5F5F5F5F5F5F5F5F5F5F5F5F5F5F5F5F5F5F5F5F5F5F5F5F5F5F5F5F5F5F5F5F5F5F5F5F5F5F5F5F5F5F5F5F5F5F5F5F5F5F5F5F5F5F5F5F5F5F5F5F5F5F5F5F5F5F5F5F5E2E2EFE2F5F5F5F5F5F5F5F5F5F5F5F5F5F5F5F5F5F5F5F5F5F5F5F5F5F5
310
F5F5F5F5F5F5F5F5F5F5F5F5F5F5F5F5F5F5F5F5F5F5F5F5F5F5F5F5F5F5F5F5F5F5F5F5F5F5F5F5F5F5F5F5F5F5F5F5F5F5F5F5F5F5F5F5F5F5F5F5F5F5F5F5F5F5F5F5F5F5F5F5F5F5F5F5F5F5F5F5F5F5F5F5F5F5F5F5F5F5F5F5F5F5F5F5F5F5F5F5F5F5F5F5F5F5F5F5F5F5F5F5F5F5F5F5F5F5F5F5F5F5F5F5F5F5F5
310
F5F5F5F5F5F5F5F5F5F5F5F5F5F5F5F5F5F5F5F5F5F5F5E2E2EFE2E2F5F5F5F5F5F5F5F5F5F5F5F5F5F5F5F5F5F5F5F5F5F5F5F5F5F5F5F5F5F5F5F5F5F5F5F5F5F5F5F5F5F5F5F5F5F5F5F5F5F5F5F5F5F5F5F5F5F5F5F5F5F5F5F5F5F5F5F5F5F5F5F5F5F5F5F5F5F5F5F5F5F5F5F5F5F5F5F5F5F5F5F5F5F5F5F5F5F5F5
310
F5F5F5F5F5F5F5F5F5F5F5F5F5F5F5F5F5F5F5F5F5F5F5F5F5F5F5F5F5F5F5F5F5F5F5F5F5F5F5F5F5F5F5F5F5F5F5F5F5F5F5F5F5F5F5F5F5F5F5F5F5F5F5F5F5F5F5F5F5F5F5F5F5F5F5E2E2E2EFE2E2F5F5F5F5F5F5F5F5F5F5F5F5F5F5F5F5F5F5F5F5F5F5F5F5F5F5F5F5F5F5F5F5F5F5F5F5F5F5F5F5F5F5F5F5F5F5
310
F5F5F5F5F5F5F5F5F5F5F5F5F5F5F5F5F5F5F5F5F5F5F5F5F5F5F5F5F5F5F5F5F5F5F5F5F5F5F5F5F5F5F5F5F5F5F5F5F5F5F5F5F5F5F5F5F5F5F5F5F5F5F5F5F5F5F5F5F5F5F5F5F5F5F5F5F5F5F5F5F5F5F5F5F5F5F5F5F5F5F5F5F5F5F5F5F5F5F5F5F5F5F5F5F5F5F5F5F5F5F5F5F5F5F5F5F5F5F5F5F5F5F5F5F5F5F5
310
F5E2E2E2EFE2E2F5F5F5F5F5F5F5F5F5F5F5F5F5F5F5F5F5F5F5F5F5F5F5F5F5F5F5F5F5F5F5F5F5F5F5F5F5F5F5F5F5F5F5F5F5F5F5F5F5F5F5F5F5F5F5F5F5F5F5F5F5F5F5F5F5F5F5F5F5F5F5F5F5F5F5F5F5F5F5F5F5F5F5F5F5F5F5F5F5F5F5F5F5F5F5F5F5F5F5F5F5F5F5F5F5F5F5F5F5F5F5F5F5F5F5F5F5F5F5F5
310
F5F5F5F5F5F5F5F5F5F5F5F5F5F5F5F5F5F5F5F5F5F5F5F5F5F5F5F5F5F5F5F5F5F5F5F5F5F5F5F5F5F5F5F5F5F5F5F5F5F5F5F5F5F5E2E2E2EFE2E2F5F5F5F5F5F5F5F5F5F5F5F5F5F5F5F5F5F5F5F5F5F5F5F5F5F5F5F5F5F5F5F5F5F5F5F5F5F5F5F5F5F5F5F5F5F5F5F5F5F5F5F5F5F5F5F5F5F5F5F5F5F5F5F5F5F5F5
310
F5F5F5F5F5F5F5F5F5F5F5F5F5F5F5F5F5F5F5F5F5F5F5F5F5F5F5F5F5F5F5F5F5F5F5F5F5F5F5F5F5F5F5F5F5F5F5F5F5F5F5F5F5F5F5F5F5F5F5F5F5F5F5F5F5F5F5F5F5F5F5F5F5F5F5F5F5F5F5F5F5F5F5F5F5F5F5F5F5F5F5F5F5F5F5F5F5F5F5F5F5F5F5F5F5F5F5E2E2E2EFE2E2F5F5F5F5F5F5F5F5F5F5F5F5F5F5
310
F5F5F5F5F5F5F5F5F5F5F5F5F5F5F5F5F5F5F5F5F5F5F5F5F5F5F5F5F5F5F5F5F5F5F5F5F5F5F5F5F5F5F5F5F5F5F5F5F5F5F5F5F5F5F5F5F5F5F5F5F5F5F5F5F5F5F5F5F5F5F5F5F5F5F5F5F5F5F5F5F5F5F5F5F5F5F5F5F5F5F5F5F5F5F5F5F5F5F5F5F5F5F5F5F5F5F5F5F5F5F5F5F5F5F5F5F5F5F5F5F5F5F5F5F5F5F5
310
F5F5F5F5F5F5F5F5F5F5F5F5F5F5F5F5F5F5F5F5F5F5F5F5F5F5F5F5F5F5F5F5F5E2E2E2EFE2E2F5F5F5F5F5F5F5F5F5F5F5F5F5F5F5F5F5F5F5F5F5F5F5F5F5F5F5F5F5F5F5F5F5F5F5F5F5F5F5F5F5F5F5F5F5F5F5F5F5F5F5F5F5F5F5F5F5F5F5F5F5F5F5F5F5F5F5F5F5F5F5F5F5F5F5F5F5F5F5F5F5F5F5F5F5F5F5F5
310
F5F5F5F5F5F5F5F5F5F5F5F5F5F5F5F5F5F5F5F5F5F5F5F5F5F5F5F5F5F5F5F5F5F5F5F5F5F5F5F5F5F5F5F5F5F5F5F5F5F5F5F5F5F5F5F5F5F5F5F5F5F5F5F5F5F5F5F5F5F5F5F5F5F5F5F5F5F5F5F5F5F5F5F5F5F5E2E2E2EFE2E2F5F5F5F5F5F5F5F5F5F5F5F5F5F5F5F5F5F5F5F5F5F5F5F5F5F5F5F5F5F5F5F5F5F5F5
310
F5F5F5F5F5F5F5F5F5F5F5F5F5F5F5F5F5F5F5F5F5F5F5F5F5F5F5F5F5F5F5F5F5F5F5F5F5F5F5F5F5F5F5F5F5F5F5F5F5F5F5F5F5F5F5F5F5F5F5F5F5F5F5F5F5F5F5F5F5F5F5F5F5F5F5F5F5F5F5F5F5F5F5F5F5F5F5F5F5F5F5F5F5F5F5F5F5F5F5F5F5F5F5F5F5F5F5F5F5F5F5F5F5F5F5F5F5F5F5F5F5F5F5F5F5F5F5
310
F5F5F5F5F5F5F5F5F5F5F5F5E2E2E2EFE2E2E2E2E2E2E2E2E2E2F5F5F5F5F5F5F5F5F5E2E2E2E2E2E2E2E2E2E2E2E2E2E2E2E2F5F5F5F5F5F5F5F5F5E2E2E2E2E2E2E2E2E2E2E2E2E2E2E2E2F5F5F5F5F5F5F5F5F5E2E2E2E2E2E2E2E2E2E2E2E2E2E2E2E2F5F5F5F5F5F5F5F5F5E2E2E2E2E2E2E2E2E2E2E2E2E2E2E2E2F5
310
F5F5F5F5F5F5F5F5E2E2E2E2E2E2E2E2E2E2E2E2E2E2E2E2F5F5F5F5F5F5F5F5F5E2E2E2E2E2E2E2E2E2E2E2E2E2E2E2E2F5F5F5F5F5F5F5F5F5E2E2E2E2E2E2E2E2E2E2EFE2F5F5F5F5F5F5F5F5F5F5F5F5F5F5F5F5F5F5F5F5F5F5F5F5F5F5F5F5F5F5F5F5F5F5F5F5F5F5F5F5F5F5F5F5F5F5F5F5F5F5F5F5F5F5F5F5F5
310
F5F5F5F5F5F5F5F5F5F5F5F5F5F5F5F5F5F5F5F5F5F5F5F5F5F5F5F5F5F5F5F5F5F5F5F5F5F5F5F5F5F5F5F5F5F5F5F5F5F5F5F5F5F5F5F5F5F5F5F5F5F5F5F5F5F5F5F5F5F5F5F5F5F5F5F5F5F5F5F5F5F5F5F5F5F5F5F5F5F5F5F5F5F5F5F5F5F5F5F5F5F5F5F5F5F5F5F5F5F5F5F5F5F5F5F5F5F5F5E2EFEFE2E2E2E2E2
310
E2E2E2E2E2E2E2E2E2E2E2E2E2E2E2E2E2E2E2E2E2E2E2E2E2E2E2E2E2E2E2E2E2E2E2E2E2E2E2E2E2E2E2E2E2E2E2E2E2E2E2E2E2E2E2E2E2E2E2E2E2E2E2E2E2E2E2E2E2E2E2E2E2E2E2E2E2E2E2E2E2E2E2E2E2E2E2E2E2E2E2E2E2E2E2E2E2E2E2E2E2E2E2E2E2E2E2E2E2E2E2E2E2E2E2E2E2E2E2E2E2E2E2E2E2E2E2
310
E2E2E2E2E2E2E2E2E2E2E2E2E2E2E2E2E2E2E2E2E2E2E2E2E2E2E2E2E2E2E2E2E2E2E2E2E2E2E2E2E2E2E2E2E2E2EFEF
  0
XRECORD
  5
7A1B
102
{ACAD_REACTORS
330
7A1A
102
}
330
7A1A
100
AcDbXrecord
280
     1
102
SHADEPLOT
 70
     1
102
SHADEPLOTRESLEVEL
 70
     2
102
SHADEPLOTCUSTOMDPI
 70
   300
  0
XRECORD
  5
7A21
102
{ACAD_REACTORS
330
7A20
102
}
330
7A20
100
AcDbXrecord
280
     1
102
MATERIAL
148
0.0
149
0.0
149
0.0
 93
        0
 94
       63
282
     0
 72
     1
 77
     1
171
     1
175
     1
179
     1
273
     0
  0
XRECORD
  5
7A1F
102
{ACAD_REACTORS
330
7A1E
102
}
330
7A1E
100
AcDbXrecord
280
     1
102
MATERIAL
148
0.0
149
0.0
149
0.0
 93
        0
 94
       63
282
     0
 72
     1
 77
     1
171
     1
175
     1
179
     1
273
     0
  0
XRECORD
  5
7A1D
102
{ACAD_REACTORS
330
7A1C
102
}
330
7A1C
100
AcDbXrecord
280
     1
102
MATERIAL
148
0.0
149
0.0
149
0.0
 93
        0
 94
       63
282
     0
 72
     1
 77
     1
171
     1
175
     1
179
     1
273
     0
  0
XRECORD
  5
7A23
102
{ACAD_REACTORS
330
7A22
102
}
330
7A22
100
AcDbXrecord
280
     1
102
ACAD_ROUNDTRIP_PRE2007_TABLESTYLE
 90
      512
 91
        0
  1

 92
      512
 93
        0
  2

 94
      512
 95
        0
  3

  0
ENDSEC
  0
EOF
