  0
SECTION
  2
HEADER
  9
$ACADVER
  1
AC1015
  9
$ACADMAINTVER
 70
    20
  9
$DWGCODEPAGE
  3
ANSI_1252
  9
$INSBASE
 10
0.0
 20
0.0
 30
0.0
  9
$EXTMIN
 10
6.541907744549163
 20
4.781757206730986
 30
-0.0015258207003583
  9
$EXTMAX
 10
50.1865319681043
 20
36.74798294702823
 30
0.0000000349246037
  9
$LIMMIN
 10
0.0
 20
0.0
  9
$LIMMAX
 10
0.0
 20
0.0
  9
$ORTHOMODE
 70
     1
  9
$REGENMODE
 70
     1
  9
$FILLMODE
 70
     1
  9
$QTEXTMODE
 70
     0
  9
$MIRRTEXT
 70
     1
  9
$LTSCALE
 40
1.0
  9
$ATTMODE
 70
     1
  9
$TEXTSIZE
 40
0.0
  9
$TRACEWID
 40
0.05
  9
$TEXTSTYLE
  7
STANDARD
  9
$CLAYER
  8
0
  9
$CELTYPE
  6
CONTINUOUS
  9
$CECOLOR
 62
   256
  9
$CELTSCALE
 40
1.0
  9
$DISPSILH
 70
     0
  9
$DIMSCALE
 40
1.0
  9
$DIMASZ
 40
2.5
  9
$DIMEXO
 40
1.0
  9
$DIMDLI
 40
0.38
  9
$DIMRND
 40
0.0
  9
$DIMDLE
 40
1.0
  9
$DIMEXE
 40
0.18
  9
$DIMTP
 40
0.0
  9
$DIMTM
 40
0.0
  9
$DIMTXT
 40
2.5
  9
$DIMCEN
 40
0.09
  9
$DIMTSZ
 40
0.0
  9
$DIMTOL
 70
     0
  9
$DIMLIM
 70
     0
  9
$DIMTIH
 70
     1
  9
$DIMTOH
 70
     1
  9
$DIMSE1
 70
     0
  9
$DIMSE2
 70
     0
  9
$DIMTAD
 70
     1
  9
$DIMZIN
 70
     1
  9
$DIMBLK
  1

  9
$DIMASO
 70
     1
  9
$DIMSHO
 70
     1
  9
$DIMPOST
  1

  9
$DIMAPOST
  1

  9
$DIMALT
 70
     0
  9
$DIMALTD
 70
     2
  9
$DIMALTF
 40
0.0394
  9
$DIMLFAC
 40
1.0
  9
$DIMTOFL
 70
     0
  9
$DIMTVP
 40
0.0
  9
$DIMTIX
 70
     0
  9
$DIMSOXD
 70
     0
  9
$DIMSAH
 70
     0
  9
$DIMBLK1
  1

  9
$DIMBLK2
  1

  9
$DIMSTYLE
  2
STANDARD
  9
$DIMCLRD
 70
     0
  9
$DIMCLRE
 70
     0
  9
$DIMCLRT
 70
     0
  9
$DIMTFAC
 40
1.0
  9
$DIMGAP
 40
1.0
  9
$DIMJUST
 70
     0
  9
$DIMSD1
 70
     0
  9
$DIMSD2
 70
     0
  9
$DIMTOLJ
 70
     1
  9
$DIMTZIN
 70
     1
  9
$DIMALTZ
 70
     0
  9
$DIMALTTZ
 70
     0
  9
$DIMUPT
 70
     0
  9
$DIMDEC
 70
     4
  9
$DIMTDEC
 70
     4
  9
$DIMALTU
 70
     2
  9
$DIMALTTD
 70
     2
  9
$DIMTXSTY
  7
STANDARD
  9
$DIMAUNIT
 70
     0
  9
$DIMADEC
 70
     0
  9
$DIMALTRND
 40
0.0
  9
$DIMAZIN
 70
     0
  9
$DIMDSEP
 70
    46
  9
$DIMATFIT
 70
     3
  9
$DIMFRAC
 70
     0
  9
$DIMLDRBLK
  1

  9
$DIMLUNIT
 70
     2
  9
$DIMLWD
 70
    -2
  9
$DIMLWE
 70
    -2
  9
$DIMTMOVE
 70
     0
  9
$LUNITS
 70
     2
  9
$LUPREC
 70
     4
  9
$SKETCHINC
 40
0.1
  9
$FILLETRAD
 40
0.0
  9
$AUNITS
 70
     0
  9
$AUPREC
 70
     0
  9
$MENU
  1
acad
  9
$ELEVATION
 40
0.0
  9
$PELEVATION
 40
0.0
  9
$THICKNESS
 40
0.0
  9
$LIMCHECK
 70
     0
  9
$CHAMFERA
 40
0.0
  9
$CHAMFERB
 40
0.0
  9
$CHAMFERC
 40
0.0
  9
$CHAMFERD
 40
0.0
  9
$SKPOLY
 70
     0
  9
$TDCREATE
 40
2311948.878217026
  9
$TDUCREATE
 40
2311949.169883692
  9
$TDUPDATE
 40
2454923.679521701
  9
$TDUUPDATE
 40
2454923.971188368
  9
$TDINDWG
 40
0.0210994097
  9
$TDUSRTIMER
 40
0.0210991204
  9
$USRTIMER
 70
     1
  9
$ANGBASE
 50
0.0
  9
$ANGDIR
 70
     0
  9
$PDMODE
 70
     0
  9
$PDSIZE
 40
-1.0
  9
$PLINEWID
 40
0.0
  9
$SPLFRAME
 70
     0
  9
$SPLINETYPE
 70
     6
  9
$SPLINESEGS
 70
     8
  9
$HANDSEED
  5
4D2
  9
$SURFTAB1
 70
     6
  9
$SURFTAB2
 70
     6
  9
$SURFTYPE
 70
     6
  9
$SURFU
 70
     6
  9
$SURFV
 70
     6
  9
$UCSBASE
  2

  9
$UCSNAME
  2

  9
$UCSORG
 10
0.0
 20
0.0
 30
0.0
  9
$UCSXDIR
 10
1.0
 20
0.0
 30
0.0
  9
$UCSYDIR
 10
0.0
 20
1.0
 30
0.0
  9
$UCSORTHOREF
  2

  9
$UCSORTHOVIEW
 70
     0
  9
$UCSORGTOP
 10
0.0
 20
0.0
 30
0.0
  9
$UCSORGBOTTOM
 10
0.0
 20
0.0
 30
0.0
  9
$UCSORGLEFT
 10
0.0
 20
0.0
 30
0.0
  9
$UCSORGRIGHT
 10
0.0
 20
0.0
 30
0.0
  9
$UCSORGFRONT
 10
0.0
 20
0.0
 30
0.0
  9
$UCSORGBACK
 10
0.0
 20
0.0
 30
0.0
  9
$PUCSBASE
  2

  9
$PUCSNAME
  2

  9
$PUCSORG
 10
0.0
 20
0.0
 30
0.0
  9
$PUCSXDIR
 10
1.0
 20
0.0
 30
0.0
  9
$PUCSYDIR
 10
0.0
 20
1.0
 30
0.0
  9
$PUCSORTHOREF
  2

  9
$PUCSORTHOVIEW
 70
     0
  9
$PUCSORGTOP
 10
0.0
 20
0.0
 30
0.0
  9
$PUCSORGBOTTOM
 10
0.0
 20
0.0
 30
0.0
  9
$PUCSORGLEFT
 10
0.0
 20
0.0
 30
0.0
  9
$PUCSORGRIGHT
 10
0.0
 20
0.0
 30
0.0
  9
$PUCSORGFRONT
 10
0.0
 20
0.0
 30
0.0
  9
$PUCSORGBACK
 10
0.0
 20
0.0
 30
0.0
  9
$USERI1
 70
     0
  9
$USERI2
 70
     0
  9
$USERI3
 70
     0
  9
$USERI4
 70
     0
  9
$USERI5
 70
     0
  9
$USERR1
 40
0.0
  9
$USERR2
 40
0.0
  9
$USERR3
 40
0.0
  9
$USERR4
 40
0.0
  9
$USERR5
 40
0.0
  9
$WORLDVIEW
 70
     1
  9
$SHADEDGE
 70
     3
  9
$SHADEDIF
 70
    70
  9
$TILEMODE
 70
     0
  9
$MAXACTVP
 70
    16
  9
$PINSBASE
 10
0.0
 20
0.0
 30
0.0
  9
$PLIMCHECK
 70
     0
  9
$PEXTMIN
 10
1.049743681505489
 20
0.7996673802841308
 30
-0.0015258207003583
  9
$PEXTMAX
 10
9.450622583565561
 20
7.200576801086516
 30
0.0000000349246037
  9
$PLIMMIN
 10
-0.2500002402958907
 20
-0.2499999962453767
  9
$PLIMMAX
 10
10.74999951940822
 20
8.249999763458733
  9
$UNITMODE
 70
     0
  9
$VISRETAIN
 70
     0
  9
$PLINEGEN
 70
     1
  9
$PSLTSCALE
 70
     1
  9
$TREEDEPTH
 70
  3020
  9
$CMLSTYLE
  2
STANDARD
  9
$CMLJUST
 70
     0
  9
$CMLSCALE
 40
1.0
  9
$PROXYGRAPHICS
 70
     1
  9
$MEASUREMENT
 70
     0
  9
$CELWEIGHT
370
    -1
  9
$ENDCAPS
280
     0
  9
$JOINSTYLE
280
     0
  9
$LWDISPLAY
290
     0
  9
$INSUNITS
 70
     0
  9
$HYPERLINKBASE
  1

  9
$STYLESHEET
  1

  9
$XEDIT
290
     1
  9
$CEPSNTYPE
380
     0
  9
$PSTYLEMODE
290
     1
  9
$FINGERPRINTGUID
  2
{A587D9F2-42AD-4EF0-9575-FD87196DCD17}
  9
$VERSIONGUID
  2
{279A6637-5CEA-4C4E-8B80-1C3C36C4CE06}
  9
$EXTNAMES
290
     1
  9
$PSVPSCALE
 40
0.0
  9
$OLESTARTUP
290
     0
  0
ENDSEC
  0
SECTION
  2
CLASSES
  0
CLASS
  1
IMAGE
  2
AcDbRasterImage
  3
ISM
 90
    34943
280
     0
281
     1
  0
CLASS
  1
DICTIONARYVAR
  2
AcDbDictionaryVar
  3
ObjectDBX Classes
 90
        0
280
     0
281
     0
  0
CLASS
  1
RASTERVARIABLES
  2
AcDbRasterVariables
  3
ISM
 90
    32768
280
     0
281
     0
  0
CLASS
  1
IMAGEDEF
  2
AcDbRasterImageDef
  3
ISM
 90
    32768
280
     0
281
     0
  0
CLASS
  1
IMAGEDEF_REACTOR
  2
AcDbRasterImageDefReactor
  3
ISM
 90
    32769
280
     0
281
     0
  0
CLASS
  1
IDBUFFER
  2
AcDbIdBuffer
  3
ObjectDBX Classes
 90
    32768
280
     0
281
     0
  0
CLASS
  1
SPATIAL_FILTER
  2
AcDbSpatialFilter
  3
ObjectDBX Classes
 90
    32768
280
     0
281
     0
  0
CLASS
  1
SORTENTSTABLE
  2
AcDbSortentsTable
  3
ObjectDBX Classes
 90
    32768
280
     0
281
     0
  0
CLASS
  1
LAYER_INDEX
  2
AcDbLayerIndex
  3
ObjectDBX Classes
 90
    32768
280
     0
281
     0
  0
CLASS
  1
SPATIAL_INDEX
  2
AcDbSpatialIndex
  3
ObjectDBX Classes
 90
    32768
280
     0
281
     0
  0
CLASS
  1
OBJECT_PTR
  2
CAseDLPNTableRecord
  3
ASE-LPNTableRecord
 90
    32769
280
     0
281
     0
  0
CLASS
  1
LAYOUT
  2
AcDbLayout
  3
ObjectDBX Classes
 90
        0
280
     0
281
     0
  0
CLASS
  1
PLOTSETTINGS
  2
AcDbPlotSettings
  3
ObjectDBX Classes
 90
    32768
280
     0
281
     0
  0
CLASS
  1
ACDBDICTIONARYWDFLT
  2
AcDbDictionaryWithDefault
  3
ObjectDBX Classes
 90
        0
280
     0
281
     0
  0
CLASS
  1
ACDBPLACEHOLDER
  2
AcDbPlaceHolder
  3
ObjectDBX Classes
 90
        0
280
     0
281
     0
  0
CLASS
  1
VBA_PROJECT
  2
AcDbVbaProject
  3
acad
 90
    32768
280
     0
281
     0
  0
CLASS
  1
WIPEOUT
  2
AcDbWipeout
  3
"WipeOut|Product Desc: Object Enabler for WipeOut entity                        |Company: Autodesk, Inc.                        |WEB Address: www.autodesk.com"
 90
    34943
280
     0
281
     1
  0
CLASS
  1
WIPEOUTVARIABLES
  2
AcDbWipeoutVariables
  3
"WipeOut|Product Desc:     WipeOut Dbx Application|Company:          Autodesk, Inc.|WEB Address:      www.autodesk.com"
 90
    32768
280
     0
281
     0
  0
CLASS
  1
RTEXT
  2
RText
  3
RText|AutoCAD Express Tool|expresstools@autodesk.com
 90
    33791
280
     0
281
     1
  0
CLASS
  1
ARCALIGNEDTEXT
  2
AcDbArcAlignedText
  3
ATEXT|AutoCAD Express Tool|expresstools@autodesk.com
 90
    32768
280
     0
281
     1
  0
CLASS
  1
TABLESTYLE
  2
AcDbTableStyle
  3
ObjectDBX Classes
 90
     4095
280
     0
281
     0
  0
CLASS
  1
MATERIAL
  2
AcDbMaterial
  3
ObjectDBX Classes
 90
     1024
280
     0
281
     0
  0
CLASS
  1
VISUALSTYLE
  2
AcDbVisualStyle
  3
ObjectDBX Classes
 90
     4095
280
     0
281
     0
  0
ENDSEC
  0
SECTION
  2
TABLES
  0
TABLE
  2
VPORT
  5
7
330
0
100
AcDbSymbolTable
 70
     1
  0
VPORT
  5
49E
330
7
100
AcDbSymbolTableRecord
100
AcDbViewportTableRecord
  2
*Active
 70
     0
 10
0.0
 20
0.0
 11
1.0
 21
1.0
 12
28.36421985632674
 22
20.76487007687962
 13
0.0
 23
0.0
 14
1.0
 24
1.0
 15
0.0
 25
0.0
 16
0.0
 26
0.0
 36
1.0
 17
0.0
 27
0.0
 37
0.0
 40
32.23560404709751
 41
1.646976090014064
 42
50.0
 43
0.0
 44
0.0
 50
0.0
 51
0.0
 71
     0
 72
  2000
 73
     1
 74
     1
 75
     0
 76
     0
 77
     0
 78
     0
281
     0
 65
     1
110
0.0
120
0.0
130
0.0
111
1.0
121
0.0
131
0.0
112
0.0
122
1.0
132
0.0
 79
     0
146
0.0
  0
ENDTAB
  0
TABLE
  2
LTYPE
  5
4
330
0
100
AcDbSymbolTable
 70
     6
  0
LTYPE
  5
11
330
4
100
AcDbSymbolTableRecord
100
AcDbLinetypeTableRecord
  2
BYBLOCK
 70
     0
  3

 72
    65
 73
     0
 40
0.0
  0
LTYPE
  5
12
330
4
100
AcDbSymbolTableRecord
100
AcDbLinetypeTableRecord
  2
BYLAYER
 70
     0
  3

 72
    65
 73
     0
 40
0.0
  0
LTYPE
  5
13
330
4
100
AcDbSymbolTableRecord
100
AcDbLinetypeTableRecord
  2
CONTINUOUS
 70
     0
  3
Solid line
 72
    65
 73
     0
 40
0.0
  0
LTYPE
  5
1E
330
4
100
AcDbSymbolTableRecord
100
AcDbLinetypeTableRecord
  2
HIDDEN
 70
     0
  3
Hidden __ __ __ __ __ __ __ __ __ __ __ __ __ __
 72
    65
 73
     2
 40
1.905
 49
1.27
 74
     0
 49
-0.635
 74
     0
  0
LTYPE
  5
1F
330
4
100
AcDbSymbolTableRecord
100
AcDbLinetypeTableRecord
  2
PHANTOM
 70
     0
  3
Phantom ______  __  __  ______  __  __  ______
 72
    65
 73
     6
 40
12.7
 49
6.349999999999998
 74
     0
 49
-1.27
 74
     0
 49
1.27
 74
     0
 49
-1.27
 74
     0
 49
1.27
 74
     0
 49
-1.27
 74
     0
  0
LTYPE
  5
20
330
4
100
AcDbSymbolTableRecord
100
AcDbLinetypeTableRecord
  2
CENTER
 70
     0
  3
Center ____ _ ____ _ ____ _ ____ _ ____ _ ____
 72
    65
 73
     4
 40
10.16
 49
6.349999999999998
 74
     0
 49
-1.27
 74
     0
 49
1.27
 74
     0
 49
-1.27
 74
     0
  0
LTYPE
  5
21
330
4
100
AcDbSymbolTableRecord
100
AcDbLinetypeTableRecord
  2
CENTERX2
 70
     0
  3
Center (2x) ________  __  ________  __  _____
 72
    65
 73
     4
 40
20.32
 49
12.7
 74
     0
 49
-2.54
 74
     0
 49
2.54
 74
     0
 49
-2.54
 74
     0
  0
LTYPE
  5
22
330
4
100
AcDbSymbolTableRecord
100
AcDbLinetypeTableRecord
  2
DOT2
 70
     0
  3
Dot (.5x) ........................................
 72
    65
 73
     2
 40
0.635
 49
0.0
 74
     0
 49
-0.635
 74
     0
  0
ENDTAB
  0
TABLE
  2
LAYER
  5
2
330
0
100
AcDbSymbolTable
 70
     4
  0
LAYER
  5
14
330
2
100
AcDbSymbolTableRecord
100
AcDbLayerTableRecord
  2
0
 70
     0
 62
     7
  6
CONTINUOUS
370
    -3
390
44B
  0
LAYER
  5
26
330
2
100
AcDbSymbolTableRecord
100
AcDbLayerTableRecord
  2
DEFPOINTS
 70
     0
 62
     7
  6
CONTINUOUS
290
     0
370
    -3
390
44B
  0
LAYER
  5
28
330
2
100
AcDbSymbolTableRecord
100
AcDbLayerTableRecord
  2
PIC06
 70
     0
 62
     7
  6
CONTINUOUS
370
    -3
390
44B
  0
LAYER
  5
29
330
2
100
AcDbSymbolTableRecord
100
AcDbLayerTableRecord
  2
PIC07
 70
     0
 62
     7
  6
CONTINUOUS
370
    -3
390
44B
  0
ENDTAB
  0
TABLE
  2
STYLE
  5
3
330
0
100
AcDbSymbolTable
 70
     3
  0
STYLE
  5
17
330
3
100
AcDbSymbolTableRecord
100
AcDbTextStyleTableRecord
  2
STANDARD
 70
     0
 40
0.0
 41
1.0
 50
0.0
 71
     0
 42
0.0
  3
txt
  4

  0
STYLE
  5
2C
330
3
100
AcDbSymbolTableRecord
100
AcDbTextStyleTableRecord
  2
SLDTEXTSTYLE0
 70
     0
 40
0.0
 41
0.75
 50
0.0
 71
     0
 42
0.0
  3
txt
  4

  0
STYLE
  5
3EC
330
3
100
AcDbSymbolTableRecord
100
AcDbTextStyleTableRecord
  2
SLDTEXTSTYLE1
 70
     0
 40
0.0
 41
0.6547619345
 50
0.0
 71
     0
 42
0.0
  3
txt
  4

  0
ENDTAB
  0
TABLE
  2
VIEW
  5
5
330
0
100
AcDbSymbolTable
 70
     2
  0
ENDTAB
  0
TABLE
  2
UCS
  5
6
330
0
100
AcDbSymbolTable
 70
     0
  0
ENDTAB
  0
TABLE
  2
APPID
  5
8
330
0
100
AcDbSymbolTable
 70
     3
  0
APPID
  5
16
330
8
100
AcDbSymbolTableRecord
100
AcDbRegAppTableRecord
  2
ACAD
 70
     0
  0
APPID
  5
485
330
8
100
AcDbSymbolTableRecord
100
AcDbRegAppTableRecord
  2
DCO15
 70
     0
  0
APPID
  5
4BB
330
8
100
AcDbSymbolTableRecord
100
AcDbRegAppTableRecord
  2
ACAD_PSEXT
 70
     0
  0
ENDTAB
  0
TABLE
  2
DIMSTYLE
  5
9
330
0
100
AcDbSymbolTable
 70
     1
100
AcDbDimStyleTable
 71
     0
  0
DIMSTYLE
105
18
330
9
100
AcDbSymbolTableRecord
100
AcDbDimStyleTableRecord
  2
STANDARD
 70
     0
340
17
  0
ENDTAB
  0
TABLE
  2
BLOCK_RECORD
  5
1
330
0
100
AcDbSymbolTable
 70
    14
  0
BLOCK_RECORD
  5
A
102
{ACAD_XDICTIONARY
360
475
102
}
330
1
100
AcDbSymbolTableRecord
100
AcDbBlockTableRecord
  2
*MODEL_SPACE
340
47F
  0
BLOCK_RECORD
  5
B
102
{ACAD_XDICTIONARY
360
477
102
}
330
1
100
AcDbSymbolTableRecord
100
AcDbBlockTableRecord
  2
*PAPER_SPACE
340
480
  0
BLOCK_RECORD
  5
2A
330
1
100
AcDbSymbolTableRecord
100
AcDbBlockTableRecord
  2
COMP1
340
0
  0
BLOCK_RECORD
  5
38
330
1
100
AcDbSymbolTableRecord
100
AcDbBlockTableRecord
  2
COMP2
340
0
  0
BLOCK_RECORD
  5
45
330
1
100
AcDbSymbolTableRecord
100
AcDbBlockTableRecord
  2
COMP3
340
0
  0
BLOCK_RECORD
  5
54
330
1
100
AcDbSymbolTableRecord
100
AcDbBlockTableRecord
  2
COMP4
340
0
  0
BLOCK_RECORD
  5
62
330
1
100
AcDbSymbolTableRecord
100
AcDbBlockTableRecord
  2
COMP5
340
0
  0
BLOCK_RECORD
  5
70
330
1
100
AcDbSymbolTableRecord
100
AcDbBlockTableRecord
  2
COMP6
340
0
  0
BLOCK_RECORD
  5
7F
330
1
100
AcDbSymbolTableRecord
100
AcDbBlockTableRecord
  2
COMP7
340
0
  0
BLOCK_RECORD
  5
8D
330
1
100
AcDbSymbolTableRecord
100
AcDbBlockTableRecord
  2
COMP8
340
0
  0
BLOCK_RECORD
  5
9B
330
1
100
AcDbSymbolTableRecord
100
AcDbBlockTableRecord
  2
COMP9
340
0
  0
BLOCK_RECORD
  5
A8
330
1
100
AcDbSymbolTableRecord
100
AcDbBlockTableRecord
  2
COMP10
340
0
  0
BLOCK_RECORD
  5
B6
330
1
100
AcDbSymbolTableRecord
100
AcDbBlockTableRecord
  2
COMP11
340
0
  0
BLOCK_RECORD
  5
C4
330
1
100
AcDbSymbolTableRecord
100
AcDbBlockTableRecord
  2
COMP12
340
0
  0
BLOCK_RECORD
  5
D3
330
1
100
AcDbSymbolTableRecord
100
AcDbBlockTableRecord
  2
COMP13
340
0
  0
BLOCK_RECORD
  5
E1
330
1
100
AcDbSymbolTableRecord
100
AcDbBlockTableRecord
  2
COMP14
340
0
  0
ENDTAB
  0
ENDSEC
  0
SECTION
  2
BLOCKS
  0
BLOCK
  5
D
330
A
100
AcDbEntity
  8
0
100
AcDbBlockBegin
  2
*MODEL_SPACE
 70
     0
 10
0.0
 20
0.0
 30
0.0
  3
*MODEL_SPACE
  1

  0
ENDBLK
  5
E
330
A
100
AcDbEntity
  8
0
100
AcDbBlockEnd
  0
BLOCK
  5
F
330
B
100
AcDbEntity
 67
     1
  8
0
100
AcDbBlockBegin
  2
*PAPER_SPACE
 70
     0
 10
0.0
 20
0.0
 30
0.0
  3
*PAPER_SPACE
  1

  0
ENDBLK
  5
10
330
B
100
AcDbEntity
 67
     1
  8
0
100
AcDbBlockEnd
  0
BLOCK
  5
2B
330
2A
100
AcDbEntity
  8
0
 62
     0
100
AcDbBlockBegin
  2
COMP1
 70
     0
 10
0.0
 20
0.0
 30
0.0
  3
COMP1
  1

  0
MTEXT
  5
2D
330
2A
100
AcDbEntity
  8
0
 62
     7
100
AcDbMText
 10
100.9206644632999
 20
-67.2053875142
 30
0.0
 40
2.5
 41
0.0
 71
     1
 72
     5
  1
3
  7
SLDTEXTSTYLE0
 11
0.0
 21
1.0
 31
0.0
 73
     1
 44
1.0
1001
ACAD
1000
MTEXTBEGIN
1070
    73
1070
     1
1070
    44
1040
1.0
1070
    74
1070
     0
1000
MTEXTEND
  0
MTEXT
  5
2E
330
2A
100
AcDbEntity
  8
0
 62
     7
100
AcDbMText
 10
100.920665025
 20
-65.4866375142
 30
0.0
 40
2.5
 41
0.0
 71
     1
 72
     5
  1
0
  7
SLDTEXTSTYLE0
 11
0.0
 21
1.0
 31
0.0
 73
     1
 44
1.0
1001
ACAD
1000
MTEXTBEGIN
1070
    73
1070
     1
1070
    44
1040
1.0
1070
    74
1070
     0
1000
MTEXTEND
  0
LINE
  5
2F
330
2A
100
AcDbEntity
  8
PIC06
  6
Continuous
 62
     7
100
AcDbLine
 10
104.020662202
 20
-70.7053912779
 30
0.0
 11
104.020662202
 21
-63.7366394608
 31
0.0
  0
LINE
  5
30
330
2A
100
AcDbEntity
  8
0
  6
Continuous
 62
     7
100
AcDbLine
 10
104.645662202
 20
-68.2053912779
 30
0.0
 11
104.020662202
 21
-70.7053912779
 31
0.0
  0
LINE
  5
31
330
2A
100
AcDbEntity
  8
0
  6
Continuous
 62
     7
100
AcDbLine
 10
104.020662202
 20
-70.7053912779
 30
0.0
 11
103.395662202
 21
-68.2053912779
 31
0.0
  0
LINE
  5
32
330
2A
100
AcDbEntity
  8
PIC06
  6
Continuous
 62
     7
100
AcDbLine
 10
104.020662202
 20
-70.7053912779
 30
0.0
 11
104.020662202
 21
-73.2054411967
 31
0.0
  0
LINE
  5
33
330
2A
100
AcDbEntity
  8
PIC06
  6
Continuous
 62
     7
100
AcDbLine
 10
104.020662202
 20
-75.7054911156
 30
0.0
 11
104.020662202
 21
-73.2054411967
 31
0.0
  0
LINE
  5
34
330
2A
100
AcDbEntity
  8
PIC06
  6
Continuous
 62
     7
100
AcDbLine
 10
104.020662202
 20
-75.7054911156
 30
0.0
 11
104.020662202
 21
-78.7054899819
 31
0.0
  0
LINE
  5
35
330
2A
100
AcDbEntity
  8
0
  6
Continuous
 62
     7
100
AcDbLine
 10
103.395662202
 20
-78.2054911156
 30
0.0
 11
104.020662202
 21
-75.7054911156
 31
0.0
  0
LINE
  5
36
330
2A
100
AcDbEntity
  8
0
  6
Continuous
 62
     7
100
AcDbLine
 10
104.020662202
 20
-75.7054911156
 30
0.0
 11
104.645662202
 21
-78.2054911156
 31
0.0
  0
ENDBLK
  5
37
330
2A
100
AcDbEntity
  8
0
100
AcDbBlockEnd
  0
BLOCK
  5
39
330
38
100
AcDbEntity
  8
0
 62
     0
100
AcDbBlockBegin
  2
COMP2
 70
     0
 10
0.0
 20
0.0
 30
0.0
  3
COMP2
  1

  0
MTEXT
  5
3A
330
38
100
AcDbEntity
  8
0
 62
     7
100
AcDbMText
 10
100.9206644632999
 20
-87.1327517563
 30
0.0
 40
2.5
 41
0.0
 71
     1
 72
     5
  1
1
  7
SLDTEXTSTYLE0
 11
0.0
 21
1.0
 31
0.0
 73
     1
 44
1.0
1001
ACAD
1000
MTEXTBEGIN
1070
    73
1070
     1
1070
    44
1040
1.0
1070
    74
1070
     0
1000
MTEXTEND
  0
MTEXT
  5
3B
330
38
100
AcDbEntity
  8
0
 62
     7
100
AcDbMText
 10
100.920665025
 20
-85.4140017563
 30
0.0
 40
2.5
 41
0.0
 71
     1
 72
     5
  1
0
  7
SLDTEXTSTYLE0
 11
0.0
 21
1.0
 31
0.0
 73
     1
 44
1.0
1001
ACAD
1000
MTEXTBEGIN
1070
    73
1070
     1
1070
    44
1040
1.0
1070
    74
1070
     0
1000
MTEXTEND
  0
MTEXT
  5
3C
330
38
100
AcDbEntity
  8
0
 62
     7
100
AcDbMText
 10
100.9206655866
 20
-83.6952517563
 30
0.0
 40
2.5
 41
0.0
 71
     1
 72
     5
  1
9
  7
SLDTEXTSTYLE0
 11
0.0
 21
1.0
 31
0.0
 73
     1
 44
1.0
1001
ACAD
1000
MTEXTBEGIN
1070
    73
1070
     1
1070
    44
1040
1.0
1070
    74
1070
     0
1000
MTEXTEND
  0
LINE
  5
3D
330
38
100
AcDbEntity
  8
PIC06
  6
Continuous
 62
     7
100
AcDbLine
 10
104.020662202
 20
-75.7054911156
 30
0.0
 11
104.020662202
 21
-84.7890058209
 31
0.0
  0
LINE
  5
3E
330
38
100
AcDbEntity
  8
0
  6
Continuous
 62
     7
100
AcDbLine
 10
103.395662202
 20
-78.2054911156
 30
0.0
 11
104.020662202
 21
-75.7054911156
 31
0.0
  0
LINE
  5
3F
330
38
100
AcDbEntity
  8
0
  6
Continuous
 62
     7
100
AcDbLine
 10
104.020662202
 20
-75.7054911156
 30
0.0
 11
104.645662202
 21
-78.2054911156
 31
0.0
  0
LINE
  5
40
330
38
100
AcDbEntity
  8
PIC06
  6
Continuous
 62
     7
100
AcDbLine
 10
104.020662202
 20
-93.87251035350001
 30
0.0
 11
104.020662202
 21
-84.7890058209
 31
0.0
  0
LINE
  5
41
330
38
100
AcDbEntity
  8
0
  6
Continuous
 62
     7
100
AcDbLine
 10
104.645662202
 20
-91.37251035350001
 30
0.0
 11
104.020662202
 21
-93.87251035350001
 31
0.0
  0
LINE
  5
42
330
38
100
AcDbEntity
  8
0
  6
Continuous
 62
     7
100
AcDbLine
 10
104.020662202
 20
-93.87251035350001
 30
0.0
 11
103.395662202
 21
-91.37251035350001
 31
0.0
  0
LINE
  5
43
330
38
100
AcDbEntity
  8
PIC06
  6
Continuous
 62
     7
100
AcDbLine
 10
118.5758234327
 20
-93.87251035350001
 30
0.0
 11
103.0206625798999
 21
-93.87251035350001
 31
0.0
  0
ENDBLK
  5
44
330
38
100
AcDbEntity
  8
0
100
AcDbBlockEnd
  0
BLOCK
  5
46
330
45
100
AcDbEntity
  8
0
 62
     0
100
AcDbBlockBegin
  2
COMP3
 70
     0
 10
0.0
 20
0.0
 30
0.0
  3
COMP3
  1

  0
MTEXT
  5
47
330
45
100
AcDbEntity
  8
0
 62
     7
100
AcDbMText
 10
100.9206644632999
 20
-108.8414371701
 30
0.0
 40
2.5
 41
0.0
 71
     1
 72
     5
  1
5
  7
SLDTEXTSTYLE0
 11
0.0
 21
1.0
 31
0.0
 73
     1
 44
1.0
1001
ACAD
1000
MTEXTBEGIN
1070
    73
1070
     1
1070
    44
1040
1.0
1070
    74
1070
     0
1000
MTEXTEND
  0
MTEXT
  5
48
330
45
100
AcDbEntity
  8
0
 62
     7
100
AcDbMText
 10
100.920665025
 20
-107.1226871701
 30
0.0
 40
2.5
 41
0.0
 71
     1
 72
     5
  1
1
  7
SLDTEXTSTYLE0
 11
0.0
 21
1.0
 31
0.0
 73
     1
 44
1.0
1001
ACAD
1000
MTEXTBEGIN
1070
    73
1070
     1
1070
    44
1040
1.0
1070
    74
1070
     0
1000
MTEXTEND
  0
LINE
  5
49
330
45
100
AcDbEntity
  8
PIC06
  6
Continuous
 62
     7
100
AcDbLine
 10
104.020662202
 20
-102.3726800777
 30
0.0
 11
104.020662202
 21
-109.3414268083999
 31
0.0
  0
LINE
  5
4A
330
45
100
AcDbEntity
  8
0
  6
Continuous
 62
     7
100
AcDbLine
 10
103.395662202
 20
-104.8726800777
 30
0.0
 11
104.020662202
 21
-102.3726800777
 31
0.0
  0
LINE
  5
4B
330
45
100
AcDbEntity
  8
0
  6
Continuous
 62
     7
100
AcDbLine
 10
104.020662202
 20
-102.3726800777
 30
0.0
 11
104.645662202
 21
-104.8726800777
 31
0.0
  0
LINE
  5
4C
330
45
100
AcDbEntity
  8
PIC06
  6
Continuous
 62
     7
100
AcDbLine
 10
104.020662202
 20
-102.3726800777
 30
0.0
 11
104.020662202
 21
-98.12259521560001
 31
0.0
  0
LINE
  5
4D
330
45
100
AcDbEntity
  8
PIC06
  6
Continuous
 62
     7
100
AcDbLine
 10
104.020662202
 20
-93.87251035350001
 30
0.0
 11
104.020662202
 21
-98.12259521560001
 31
0.0
  0
LINE
  5
4E
330
45
100
AcDbEntity
  8
PIC06
  6
Continuous
 62
     7
100
AcDbLine
 10
104.020662202
 20
-93.87251035350001
 30
0.0
 11
104.020662202
 21
-90.87251148719998
 31
0.0
  0
LINE
  5
4F
330
45
100
AcDbEntity
  8
0
  6
Continuous
 62
     7
100
AcDbLine
 10
104.645662202
 20
-91.37251035350001
 30
0.0
 11
104.020662202
 21
-93.87251035350001
 31
0.0
  0
LINE
  5
50
330
45
100
AcDbEntity
  8
0
  6
Continuous
 62
     7
100
AcDbLine
 10
104.020662202
 20
-93.87251035350001
 30
0.0
 11
103.395662202
 21
-91.37251035350001
 31
0.0
  0
LINE
  5
51
330
45
100
AcDbEntity
  8
PIC06
  6
Continuous
 62
     7
100
AcDbLine
 10
118.6930132726
 20
-102.3726800777
 30
0.0
 11
103.0206625798999
 21
-102.3726800777
 31
0.0
  0
LINE
  5
52
330
45
100
AcDbEntity
  8
PIC06
  6
Continuous
 62
     7
100
AcDbLine
 10
118.5758234327
 20
-93.87251035350001
 30
0.0
 11
103.0206625798999
 21
-93.87251035350001
 31
0.0
  0
ENDBLK
  5
53
330
45
100
AcDbEntity
  8
0
100
AcDbBlockEnd
  0
BLOCK
  5
55
330
54
100
AcDbEntity
  8
0
 62
     0
100
AcDbBlockBegin
  2
COMP4
 70
     0
 10
0.0
 20
0.0
 30
0.0
  3
COMP4
  1

  0
MTEXT
  5
56
330
54
100
AcDbEntity
  8
0
 62
     7
100
AcDbMText
 10
121.5655173243
 20
-86.3670393147
 30
0.0
 40
2.5
 41
0.0
 71
     1
 72
     5
  1
%%c
  7
SLDTEXTSTYLE0
 73
     1
 44
1.0
1001
ACAD
1000
MTEXTBEGIN
1070
    73
1070
     1
1070
    44
1040
1.0
1070
    74
1070
     0
1000
MTEXTEND
  0
MTEXT
  5
57
330
54
100
AcDbEntity
  8
0
 62
     7
100
AcDbMText
 10
123.2842673243
 20
-86.3670393147
 30
0.0
 40
2.5
 41
0.0
 71
     1
 72
     5
  1
4
  7
SLDTEXTSTYLE0
 73
     1
 44
1.0
1001
ACAD
1000
MTEXTBEGIN
1070
    73
1070
     1
1070
    44
1040
1.0
1070
    74
1070
     0
1000
MTEXTEND
  0
MTEXT
  5
58
330
54
100
AcDbEntity
  8
0
 62
     7
100
AcDbMText
 10
125.0030173243
 20
-86.3670393147
 30
0.0
 40
2.5
 41
0.0
 71
     1
 72
     5
  1
4
  7
SLDTEXTSTYLE0
 73
     1
 44
1.0
1001
ACAD
1000
MTEXTBEGIN
1070
    73
1070
     1
1070
    44
1040
1.0
1070
    74
1070
     0
1000
MTEXTEND
  0
LINE
  5
59
330
54
100
AcDbEntity
  8
PIC06
  6
Continuous
 62
     7
100
AcDbLine
 10
120.2425233786
 20
-89.4670370534
 30
0.0
 11
123.9092632595999
 21
-89.4670370534
 31
0.0
  0
LINE
  5
5A
330
54
100
AcDbEntity
  8
0
  6
Continuous
 62
     7
100
AcDbLine
 10
122.7425233786
 20
-90.0920370534
 30
0.0
 11
120.2425233786
 21
-89.4670370534
 31
0.0
  0
LINE
  5
5B
330
54
100
AcDbEntity
  8
0
  6
Continuous
 62
     7
100
AcDbLine
 10
120.2425233786
 20
-89.4670370534
 30
0.0
 11
122.7425233786
 21
-88.8420370534
 31
0.0
  0
LINE
  5
5C
330
54
100
AcDbEntity
  8
PIC06
  6
Continuous
 62
     7
100
AcDbLine
 10
127.5760031406999
 20
-89.4670370534
 30
0.0
 11
123.9092632595999
 21
-89.4670370534
 31
0.0
  0
LINE
  5
5D
330
54
100
AcDbEntity
  8
0
  6
Continuous
 62
     7
100
AcDbLine
 10
125.0760031406999
 20
-88.8420370534
 30
0.0
 11
127.5760031406999
 21
-89.4670370534
 31
0.0
  0
LINE
  5
5E
330
54
100
AcDbEntity
  8
0
  6
Continuous
 62
     7
100
AcDbLine
 10
127.5760031406999
 20
-89.4670370534
 30
0.0
 11
125.0760031406999
 21
-90.0920370534
 31
0.0
  0
LINE
  5
5F
330
54
100
AcDbEntity
  8
PIC06
  6
Continuous
 62
     7
100
AcDbLine
 10
120.2425233786
 20
-95.70588029399999
 30
0.0
 11
120.2425233786
 21
-88.46703743129998
 31
0.0
  0
LINE
  5
60
330
54
100
AcDbEntity
  8
PIC06
  6
Continuous
 62
     7
100
AcDbLine
 10
127.5760031406999
 20
-95.70588029399999
 30
0.0
 11
127.5760031406999
 21
-88.46703743129998
 31
0.0
  0
ENDBLK
  5
61
330
54
100
AcDbEntity
  8
0
100
AcDbBlockEnd
  0
BLOCK
  5
63
330
62
100
AcDbEntity
  8
0
 62
     0
100
AcDbBlockBegin
  2
COMP5
 70
     0
 10
0.0
 20
0.0
 30
0.0
  3
COMP5
  1

  0
MTEXT
  5
64
330
62
100
AcDbEntity
  8
0
 62
     7
100
AcDbMText
 10
121.5655173243
 20
-81.6109730768
 30
0.0
 40
2.5
 41
0.0
 71
     1
 72
     5
  1
%%c
  7
SLDTEXTSTYLE0
 73
     1
 44
1.0
1001
ACAD
1000
MTEXTBEGIN
1070
    73
1070
     1
1070
    44
1040
1.0
1070
    74
1070
     0
1000
MTEXTEND
  0
MTEXT
  5
65
330
62
100
AcDbEntity
  8
0
 62
     7
100
AcDbMText
 10
123.2842673243
 20
-81.6109730768
 30
0.0
 40
2.5
 41
0.0
 71
     1
 72
     5
  1
6
  7
SLDTEXTSTYLE0
 73
     1
 44
1.0
1001
ACAD
1000
MTEXTBEGIN
1070
    73
1070
     1
1070
    44
1040
1.0
1070
    74
1070
     0
1000
MTEXTEND
  0
MTEXT
  5
66
330
62
100
AcDbEntity
  8
0
 62
     7
100
AcDbMText
 10
125.0030173243
 20
-81.6109730768
 30
0.0
 40
2.5
 41
0.0
 71
     1
 72
     5
  1
4
  7
SLDTEXTSTYLE0
 73
     1
 44
1.0
1001
ACAD
1000
MTEXTBEGIN
1070
    73
1070
     1
1070
    44
1040
1.0
1070
    74
1070
     0
1000
MTEXTEND
  0
LINE
  5
67
330
62
100
AcDbEntity
  8
PIC06
  6
Continuous
 62
     7
100
AcDbLine
 10
118.5758234327
 20
-84.7109708155
 30
0.0
 11
123.9092632595999
 21
-84.7109708155
 31
0.0
  0
LINE
  5
68
330
62
100
AcDbEntity
  8
0
  6
Continuous
 62
     7
100
AcDbLine
 10
121.0758234327
 20
-85.3359708155
 30
0.0
 11
118.5758234327
 21
-84.7109708155
 31
0.0
  0
LINE
  5
69
330
62
100
AcDbEntity
  8
0
  6
Continuous
 62
     7
100
AcDbLine
 10
118.5758234327
 20
-84.7109708155
 30
0.0
 11
121.0758234327
 21
-84.0859708155
 31
0.0
  0
LINE
  5
6A
330
62
100
AcDbEntity
  8
PIC06
  6
Continuous
 62
     7
100
AcDbLine
 10
129.2427030865999
 20
-84.7109708155
 30
0.0
 11
123.9092632595999
 21
-84.7109708155
 31
0.0
  0
LINE
  5
6B
330
62
100
AcDbEntity
  8
0
  6
Continuous
 62
     7
100
AcDbLine
 10
126.7427030866
 20
-84.0859708155
 30
0.0
 11
129.2427030865999
 21
-84.7109708155
 31
0.0
  0
LINE
  5
6C
330
62
100
AcDbEntity
  8
0
  6
Continuous
 62
     7
100
AcDbLine
 10
129.2427030865999
 20
-84.7109708155
 30
0.0
 11
126.7427030866
 21
-85.3359708155
 31
0.0
  0
LINE
  5
6D
330
62
100
AcDbEntity
  8
PIC06
  6
Continuous
 62
     7
100
AcDbLine
 10
118.5758234327
 20
-93.87251035350001
 30
0.0
 11
118.5758234327
 21
-83.71097119339998
 31
0.0
  0
LINE
  5
6E
330
62
100
AcDbEntity
  8
PIC06
  6
Continuous
 62
     7
100
AcDbLine
 10
129.2427030865999
 20
-93.87251035350001
 30
0.0
 11
129.2427030865999
 21
-83.71097119339998
 31
0.0
  0
ENDBLK
  5
6F
330
62
100
AcDbEntity
  8
0
100
AcDbBlockEnd
  0
BLOCK
  5
71
330
70
100
AcDbEntity
  8
0
 62
     0
100
AcDbBlockBegin
  2
COMP6
 70
     0
 10
0.0
 20
0.0
 30
0.0
  3
COMP6
  1

  0
MTEXT
  5
72
330
70
100
AcDbEntity
  8
0
 62
     7
100
AcDbMText
 10
48.0974204022
 20
-67.2053875142
 30
0.0
 40
2.5
 41
0.0
 71
     1
 72
     5
  1
1
  7
SLDTEXTSTYLE0
 11
0.0
 21
1.0
 31
0.0
 73
     1
 44
1.0
1001
ACAD
1000
MTEXTBEGIN
1070
    73
1070
     1
1070
    44
1040
1.0
1070
    74
1070
     0
1000
MTEXTEND
  0
MTEXT
  5
73
330
70
100
AcDbEntity
  8
0
 62
     7
100
AcDbMText
 10
48.0974209639
 20
-65.4866375142
 30
0.0
 40
2.5
 41
0.0
 71
     1
 72
     5
  1
3
  7
SLDTEXTSTYLE0
 11
0.0
 21
1.0
 31
0.0
 73
     1
 44
1.0
1001
ACAD
1000
MTEXTBEGIN
1070
    73
1070
     1
1070
    44
1040
1.0
1070
    74
1070
     0
1000
MTEXTEND
  0
LINE
  5
74
330
70
100
AcDbEntity
  8
PIC06
  6
Continuous
 62
     7
100
AcDbLine
 10
51.1974181409
 20
-70.7053912779
 30
0.0
 11
51.1974181409
 21
-63.7366394608
 31
0.0
  0
LINE
  5
75
330
70
100
AcDbEntity
  8
0
  6
Continuous
 62
     7
100
AcDbLine
 10
51.8224181409
 20
-68.2053912779
 30
0.0
 11
51.1974181409
 21
-70.7053912779
 31
0.0
  0
LINE
  5
76
330
70
100
AcDbEntity
  8
0
  6
Continuous
 62
     7
100
AcDbLine
 10
51.1974181409
 20
-70.7053912779
 30
0.0
 11
50.5724181409
 21
-68.2053912779
 31
0.0
  0
LINE
  5
77
330
70
100
AcDbEntity
  8
PIC06
  6
Continuous
 62
     7
100
AcDbLine
 10
51.1974181409
 20
-70.7053912779
 30
0.0
 11
51.1974181409
 21
-71.7887462427
 31
0.0
  0
LINE
  5
78
330
70
100
AcDbEntity
  8
PIC06
  6
Continuous
 62
     7
100
AcDbLine
 10
51.1974181409
 20
-72.8721012076
 30
0.0
 11
51.1974181409
 21
-71.7887462427
 31
0.0
  0
LINE
  5
79
330
70
100
AcDbEntity
  8
PIC06
  6
Continuous
 62
     7
100
AcDbLine
 10
51.1974181409
 20
-72.8721012076
 30
0.0
 11
51.1974181409
 21
-75.8721000739
 31
0.0
  0
LINE
  5
7A
330
70
100
AcDbEntity
  8
0
  6
Continuous
 62
     7
100
AcDbLine
 10
50.5724181409
 20
-75.3721012076
 30
0.0
 11
51.1974181409
 21
-72.8721012076
 31
0.0
  0
LINE
  5
7B
330
70
100
AcDbEntity
  8
0
  6
Continuous
 62
     7
100
AcDbLine
 10
51.1974181409
 20
-72.8721012076
 30
0.0
 11
51.8224181409
 21
-75.3721012076
 31
0.0
  0
LINE
  5
7C
330
70
100
AcDbEntity
  8
PIC06
  6
Continuous
 62
     7
100
AcDbLine
 10
44.1705139176
 20
-70.7053912779
 30
0.0
 11
52.19741776300001
 21
-70.7053912779
 31
0.0
  0
LINE
  5
7D
330
70
100
AcDbEntity
  8
PIC06
  6
Continuous
 62
     7
100
AcDbLine
 10
44.1705139176
 20
-72.8721012076
 30
0.0
 11
52.19741776300001
 21
-72.8721012076
 31
0.0
  0
ENDBLK
  5
7E
330
70
100
AcDbEntity
  8
0
100
AcDbBlockEnd
  0
BLOCK
  5
80
330
7F
100
AcDbEntity
  8
0
 62
     0
100
AcDbBlockBegin
  2
COMP7
 70
     0
 10
0.0
 20
0.0
 30
0.0
  3
COMP7
  1

  0
MTEXT
  5
81
330
7F
100
AcDbEntity
  8
0
 62
     7
100
AcDbMText
 10
54.3085836467
 20
-88.8827765267
 30
0.0
 40
2.5
 41
0.0
 71
     1
 72
     5
  1
1
  7
SLDTEXTSTYLE0
 11
0.0
 21
1.0
 31
0.0
 73
     1
 44
1.0
1001
ACAD
1000
MTEXTBEGIN
1070
    73
1070
     1
1070
    44
1040
1.0
1070
    74
1070
     0
1000
MTEXTEND
  0
MTEXT
  5
82
330
7F
100
AcDbEntity
  8
0
 62
     7
100
AcDbMText
 10
54.30858420839999
 20
-87.1640265267
 30
0.0
 40
2.5
 41
0.0
 71
     1
 72
     5
  1
9
  7
SLDTEXTSTYLE0
 11
0.0
 21
1.0
 31
0.0
 73
     1
 44
1.0
1001
ACAD
1000
MTEXTBEGIN
1070
    73
1070
     1
1070
    44
1040
1.0
1070
    74
1070
     0
1000
MTEXTEND
  0
MTEXT
  5
83
330
7F
100
AcDbEntity
  8
0
 62
     7
100
AcDbMText
 10
54.30858477010001
 20
-85.4452765267
 30
0.0
 40
2.5
 41
0.0
 71
     1
 72
     5
  1
0
  7
SLDTEXTSTYLE0
 11
0.0
 21
1.0
 31
0.0
 73
     1
 44
1.0
1001
ACAD
1000
MTEXTBEGIN
1070
    73
1070
     1
1070
    44
1040
1.0
1070
    74
1070
     0
1000
MTEXTEND
  0
LINE
  5
84
330
7F
100
AcDbEntity
  8
PIC06
  6
Continuous
 62
     7
100
AcDbLine
 10
57.4085813855
 20
-70.7053912779
 30
0.0
 11
57.4085813855
 21
-86.53903059139999
 31
0.0
  0
LINE
  5
85
330
7F
100
AcDbEntity
  8
0
  6
Continuous
 62
     7
100
AcDbLine
 10
56.7835813855
 20
-73.2053912779
 30
0.0
 11
57.4085813855
 21
-70.7053912779
 31
0.0
  0
LINE
  5
86
330
7F
100
AcDbEntity
  8
0
  6
Continuous
 62
     7
100
AcDbLine
 10
57.4085813855
 20
-70.7053912779
 30
0.0
 11
58.0335813855
 21
-73.2053912779
 31
0.0
  0
LINE
  5
87
330
7F
100
AcDbEntity
  8
PIC06
  6
Continuous
 62
     7
100
AcDbLine
 10
57.4085813855
 20
-102.3726800777
 30
0.0
 11
57.4085813855
 21
-86.53903059139999
 31
0.0
  0
LINE
  5
88
330
7F
100
AcDbEntity
  8
0
  6
Continuous
 62
     7
100
AcDbLine
 10
58.0335813855
 20
-99.87268007770001
 30
0.0
 11
57.4085813855
 21
-102.3726800777
 31
0.0
  0
LINE
  5
89
330
7F
100
AcDbEntity
  8
0
  6
Continuous
 62
     7
100
AcDbLine
 10
57.4085813855
 20
-102.3726800777
 30
0.0
 11
56.7835813855
 21
-99.87268007770001
 31
0.0
  0
LINE
  5
8A
330
7F
100
AcDbEntity
  8
PIC06
  6
Continuous
 62
     7
100
AcDbLine
 10
44.1705139176
 20
-70.7053912779
 30
0.0
 11
58.40858100760002
 21
-70.7053912779
 31
0.0
  0
LINE
  5
8B
330
7F
100
AcDbEntity
  8
PIC06
  6
Continuous
 62
     7
100
AcDbLine
 10
4.254485203299998
 20
-102.3726800777
 30
0.0
 11
58.40858100760002
 21
-102.3726800777
 31
0.0
  0
ENDBLK
  5
8C
330
7F
100
AcDbEntity
  8
0
100
AcDbBlockEnd
  0
BLOCK
  5
8E
330
8D
100
AcDbEntity
  8
0
 62
     0
100
AcDbBlockBegin
  2
COMP8
 70
     0
 10
0.0
 20
0.0
 30
0.0
  3
COMP8
  1

  0
MTEXT
  5
8F
330
8D
100
AcDbEntity
  8
0
 62
     7
100
AcDbMText
 10
48.0974204022
 20
-10.44540662419999
 30
0.0
 40
2.5
 41
0.0
 71
     1
 72
     5
  1
4
  7
SLDTEXTSTYLE0
 11
0.0
 21
1.0
 31
0.0
 73
     1
 44
1.0
1001
ACAD
1000
MTEXTBEGIN
1070
    73
1070
     1
1070
    44
1040
1.0
1070
    74
1070
     0
1000
MTEXTEND
  0
MTEXT
  5
90
330
8D
100
AcDbEntity
  8
0
 62
     7
100
AcDbMText
 10
48.0974209639
 20
-8.7266566242
 30
0.0
 40
2.5
 41
0.0
 71
     1
 72
     5
  1
3
  7
SLDTEXTSTYLE0
 11
0.0
 21
1.0
 31
0.0
 73
     1
 44
1.0
1001
ACAD
1000
MTEXTBEGIN
1070
    73
1070
     1
1070
    44
1040
1.0
1070
    74
1070
     0
1000
MTEXTEND
  0
MTEXT
  5
91
330
8D
100
AcDbEntity
  8
0
 62
     7
100
AcDbMText
 10
48.09742152560001
 20
-7.007906624199999
 30
0.0
 40
2.5
 41
0.0
 71
     1
 72
     5
  1
7
  7
SLDTEXTSTYLE0
 11
0.0
 21
1.0
 31
0.0
 73
     1
 44
1.0
1001
ACAD
1000
MTEXTBEGIN
1070
    73
1070
     1
1070
    44
1040
1.0
1070
    74
1070
     0
1000
MTEXTEND
  0
LINE
  5
92
330
8D
100
AcDbEntity
  8
PIC06
  6
Continuous
 62
     7
100
AcDbLine
 10
51.1974181409
 20
-44.5190519642
 30
0.0
 11
51.1974181409
 21
-8.1016575099
 31
0.0
  0
LINE
  5
93
330
8D
100
AcDbEntity
  8
0
  6
Continuous
 62
     7
100
AcDbLine
 10
51.8224181409
 20
-42.0190519642
 30
0.0
 11
51.1974181409
 21
-44.5190519642
 31
0.0
  0
LINE
  5
94
330
8D
100
AcDbEntity
  8
0
  6
Continuous
 62
     7
100
AcDbLine
 10
51.1974181409
 20
-44.5190519642
 30
0.0
 11
50.5724181409
 21
-42.0190519642
 31
0.0
  0
LINE
  5
95
330
8D
100
AcDbEntity
  8
PIC06
  6
Continuous
 62
     7
100
AcDbLine
 10
51.1974181409
 20
28.3157356728
 30
0.0
 11
51.1974181409
 21
-8.1016575099
 31
0.0
  0
LINE
  5
96
330
8D
100
AcDbEntity
  8
0
  6
Continuous
 62
     7
100
AcDbLine
 10
50.5724181409
 20
25.8157356728
 30
0.0
 11
51.1974181409
 21
28.3157356728
 31
0.0
  0
LINE
  5
97
330
8D
100
AcDbEntity
  8
0
  6
Continuous
 62
     7
100
AcDbLine
 10
51.1974181409
 20
28.3157356728
 30
0.0
 11
51.8224181409
 21
25.8157356728
 31
0.0
  0
LINE
  5
98
330
8D
100
AcDbEntity
  8
PIC06
  6
Continuous
 62
     7
100
AcDbLine
 10
-0.7470479562000003
 20
-44.5190519642
 30
0.0
 11
52.19741776300001
 21
-44.5190519642
 31
0.0
  0
LINE
  5
99
330
8D
100
AcDbEntity
  8
PIC06
  6
Continuous
 62
     7
100
AcDbLine
 10
-0.7470479562000003
 20
28.3157356728
 30
0.0
 11
52.19741776300001
 21
28.3157356728
 31
0.0
  0
ENDBLK
  5
9A
330
8D
100
AcDbEntity
  8
0
100
AcDbBlockEnd
  0
BLOCK
  5
9C
330
9B
100
AcDbEntity
  8
0
 62
     0
100
AcDbBlockBegin
  2
COMP9
 70
     0
 10
0.0
 20
0.0
 30
0.0
  3
COMP9
  1

  0
MTEXT
  5
9D
330
9B
100
AcDbEntity
  8
0
 62
     7
100
AcDbMText
 10
-2.231422951499999
 20
-76.5171010216
 30
0.0
 40
2.5
 41
0.0
 71
     1
 72
     5
  1
6
  7
SLDTEXTSTYLE0
 73
     1
 44
1.0
1001
ACAD
1000
MTEXTBEGIN
1070
    73
1070
     1
1070
    44
1040
1.0
1070
    74
1070
     0
1000
MTEXTEND
  0
MTEXT
  5
9E
330
9B
100
AcDbEntity
  8
0
 62
     7
100
AcDbMText
 10
-0.5126729515
 20
-76.5171010216
 30
0.0
 40
2.5
 41
0.0
 71
     1
 72
     5
  1
3
  7
SLDTEXTSTYLE0
 73
     1
 44
1.0
1001
ACAD
1000
MTEXTBEGIN
1070
    73
1070
     1
1070
    44
1040
1.0
1070
    74
1070
     0
1000
MTEXTEND
  0
LINE
  5
9F
330
9B
100
AcDbEntity
  8
PIC06
  6
Continuous
 62
     7
100
AcDbLine
 10
-5.997152547399998
 20
-79.61709876029998
 30
0.0
 11
-0.7470479562000003
 21
-79.61709876029998
 31
0.0
  0
LINE
  5
A0
330
9B
100
AcDbEntity
  8
0
  6
Continuous
 62
     7
100
AcDbLine
 10
-3.4971525474
 20
-80.24209876029997
 30
0.0
 11
-5.997152547399998
 21
-79.61709876029998
 31
0.0
  0
LINE
  5
A1
330
9B
100
AcDbEntity
  8
0
  6
Continuous
 62
     7
100
AcDbLine
 10
-5.997152547399998
 20
-79.61709876029998
 30
0.0
 11
-3.4971525474
 21
-78.99209876029998
 31
0.0
  0
LINE
  5
A2
330
9B
100
AcDbEntity
  8
PIC06
  6
Continuous
 62
     7
100
AcDbLine
 10
4.503056793999999
 20
-79.61709876029998
 30
0.0
 11
-0.7470479562000003
 21
-79.61709876029998
 31
0.0
  0
LINE
  5
A3
330
9B
100
AcDbEntity
  8
0
  6
Continuous
 62
     7
100
AcDbLine
 10
2.003056793999999
 20
-78.99209876029998
 30
0.0
 11
4.503056793999999
 21
-79.61709876029998
 31
0.0
  0
LINE
  5
A4
330
9B
100
AcDbEntity
  8
0
  6
Continuous
 62
     7
100
AcDbLine
 10
4.503056793999999
 20
-79.61709876029998
 30
0.0
 11
2.003056793999999
 21
-80.24209876029997
 31
0.0
  0
LINE
  5
A5
330
9B
100
AcDbEntity
  8
PIC06
  6
Continuous
 62
     7
100
AcDbLine
 10
-5.997152547399998
 20
-74.6221361508
 30
0.0
 11
-5.997152547399998
 21
-80.6170983824
 31
0.0
  0
LINE
  5
A6
330
9B
100
AcDbEntity
  8
PIC06
  6
Continuous
 62
     7
100
AcDbLine
 10
4.503056793999999
 20
-74.6221361508
 30
0.0
 11
4.503056793999999
 21
-80.6170983824
 31
0.0
  0
ENDBLK
  5
A7
330
9B
100
AcDbEntity
  8
0
100
AcDbBlockEnd
  0
BLOCK
  5
A9
330
A8
100
AcDbEntity
  8
0
 62
     0
100
AcDbBlockBegin
  2
COMP10
 70
     0
 10
0.0
 20
0.0
 30
0.0
  3
COMP10
  1

  0
MTEXT
  5
AA
330
A8
100
AcDbEntity
  8
0
 62
     7
100
AcDbMText
 10
-6.831144673899999
 20
-18.6345162345
 30
0.0
 40
2.5
 41
0.0
 71
     1
 72
     5
  1
4
  7
SLDTEXTSTYLE0
 73
     1
 44
1.0
1001
ACAD
1000
MTEXTBEGIN
1070
    73
1070
     1
1070
    44
1040
1.0
1070
    74
1070
     0
1000
MTEXTEND
  0
MTEXT
  5
AB
330
A8
100
AcDbEntity
  8
0
 62
     7
100
AcDbMText
 10
-5.112394673899999
 20
-18.6345162345
 30
0.0
 40
2.5
 41
0.0
 71
     1
 72
     5
  1
8
  7
SLDTEXTSTYLE0
 73
     1
 44
1.0
1001
ACAD
1000
MTEXTBEGIN
1070
    73
1070
     1
1070
    44
1040
1.0
1070
    74
1070
     0
1000
MTEXTEND
  0
MTEXT
  5
AC
330
A8
100
AcDbEntity
  8
0
 62
     7
100
AcDbMText
 10
-3.393644673899998
 20
-18.6345162345
 30
0.0
 40
2.5
 41
0.0
 71
     1
 72
     5
  1
3
  7
SLDTEXTSTYLE0
 73
     1
 44
1.0
1001
ACAD
1000
MTEXTBEGIN
1070
    73
1070
     1
1070
    44
1040
1.0
1070
    74
1070
     0
1000
MTEXTEND
  0
LINE
  5
AD
330
A8
100
AcDbEntity
  8
PIC06
  6
Continuous
 62
     7
100
AcDbLine
 10
-40.99785077609999
 20
-21.75729325699999
 30
0.0
 11
-0.7470479562000003
 21
-21.75729325699999
 31
0.0
  0
LINE
  5
AE
330
A8
100
AcDbEntity
  8
0
  6
Continuous
 62
     7
100
AcDbLine
 10
-38.4978507761
 20
-22.38229325699999
 30
0.0
 11
-40.99785077609999
 21
-21.75729325699999
 31
0.0
  0
LINE
  5
AF
330
A8
100
AcDbEntity
  8
0
  6
Continuous
 62
     7
100
AcDbLine
 10
-40.99785077609999
 20
-21.75729325699999
 30
0.0
 11
-38.4978507761
 21
-21.132293257
 31
0.0
  0
LINE
  5
B0
330
A8
100
AcDbEntity
  8
PIC06
  6
Continuous
 62
     7
100
AcDbLine
 10
39.5037566122
 20
-21.75729325699999
 30
0.0
 11
-0.7470479562000003
 21
-21.75729325699999
 31
0.0
  0
LINE
  5
B1
330
A8
100
AcDbEntity
  8
0
  6
Continuous
 62
     7
100
AcDbLine
 10
37.0037566122
 20
-21.132293257
 30
0.0
 11
39.5037566122
 21
-21.75729325699999
 31
0.0
  0
LINE
  5
B2
330
A8
100
AcDbEntity
  8
0
  6
Continuous
 62
     7
100
AcDbLine
 10
39.5037566122
 20
-21.75729325699999
 30
0.0
 11
37.0037566122
 21
-22.38229325699999
 31
0.0
  0
LINE
  5
B3
330
A8
100
AcDbEntity
  8
PIC06
  6
Continuous
 62
     7
100
AcDbLine
 10
-40.99785077609999
 20
-8.1016575099
 30
0.0
 11
-40.99785077609999
 21
-22.75729287909999
 31
0.0
  0
LINE
  5
B4
330
A8
100
AcDbEntity
  8
PIC06
  6
Continuous
 62
     7
100
AcDbLine
 10
39.5037566122
 20
-8.1016575099
 30
0.0
 11
39.5037566122
 21
-22.75729287909999
 31
0.0
  0
ENDBLK
  5
B5
330
A8
100
AcDbEntity
  8
0
100
AcDbBlockEnd
  0
BLOCK
  5
B7
330
B6
100
AcDbEntity
  8
0
 62
     0
100
AcDbBlockBegin
  2
COMP11
 70
     0
 10
0.0
 20
0.0
 30
0.0
  3
COMP11
  1

  0
MTEXT
  5
B8
330
B6
100
AcDbEntity
  8
0
 62
     7
100
AcDbMText
 10
14.3729107566
 20
-14.3818471723
 30
0.0
 40
2.5
 41
0.0
 71
     1
 72
     5
  1
3
  7
SLDTEXTSTYLE0
 11
0.0
 21
1.0
 31
0.0
 73
     1
 44
1.0
1001
ACAD
1000
MTEXTBEGIN
1070
    73
1070
     1
1070
    44
1040
1.0
1070
    74
1070
     0
1000
MTEXTEND
  0
MTEXT
  5
B9
330
B6
100
AcDbEntity
  8
0
 62
     7
100
AcDbMText
 10
14.3729113183
 20
-12.6630971723
 30
0.0
 40
2.5
 41
0.0
 71
     1
 72
     5
  1
8
  7
SLDTEXTSTYLE0
 11
0.0
 21
1.0
 31
0.0
 73
     1
 44
1.0
1001
ACAD
1000
MTEXTBEGIN
1070
    73
1070
     1
1070
    44
1040
1.0
1070
    74
1070
     0
1000
MTEXTEND
  0
MTEXT
  5
BA
330
B6
100
AcDbEntity
  8
0
 62
     7
100
AcDbMText
 10
14.37291188
 20
-10.9443471723
 30
0.0
 40
2.5
 41
0.0
 71
     1
 72
     5
  1
1
  7
SLDTEXTSTYLE0
 11
0.0
 21
1.0
 31
0.0
 73
     1
 44
1.0
1001
ACAD
1000
MTEXTBEGIN
1070
    73
1070
     1
1070
    44
1040
1.0
1070
    74
1070
     0
1000
MTEXTEND
  0
LINE
  5
BB
330
B6
100
AcDbEntity
  8
PIC06
  6
Continuous
 62
     7
100
AcDbLine
 10
17.5932086472
 20
23.6489758242
 30
0.0
 11
17.5932086472
 21
-8.1016575099
 31
0.0
  0
LINE
  5
BC
330
B6
100
AcDbEntity
  8
0
  6
Continuous
 62
     7
100
AcDbLine
 10
16.9682086472
 20
21.1489758242
 30
0.0
 11
17.5932086472
 21
23.6489758242
 31
0.0
  0
LINE
  5
BD
330
B6
100
AcDbEntity
  8
0
  6
Continuous
 62
     7
100
AcDbLine
 10
17.5932086472
 20
23.6489758242
 30
0.0
 11
18.2182086472
 21
21.1489758242
 31
0.0
  0
LINE
  5
BE
330
B6
100
AcDbEntity
  8
PIC06
  6
Continuous
 62
     7
100
AcDbLine
 10
17.5932086472
 20
-39.8522921156
 30
0.0
 11
17.5932086472
 21
-8.1016575099
 31
0.0
  0
LINE
  5
BF
330
B6
100
AcDbEntity
  8
0
  6
Continuous
 62
     7
100
AcDbLine
 10
18.2182086472
 20
-37.3522921156
 30
0.0
 11
17.5932086472
 21
-39.8522921156
 31
0.0
  0
LINE
  5
C0
330
B6
100
AcDbEntity
  8
0
  6
Continuous
 62
     7
100
AcDbLine
 10
17.5932086472
 20
-39.8522921156
 30
0.0
 11
16.9682086472
 21
-37.3522921156
 31
0.0
  0
LINE
  5
C1
330
B6
100
AcDbEntity
  8
PIC06
  6
Continuous
 62
     7
100
AcDbLine
 10
-0.7470479562000003
 20
23.6489758242
 30
0.0
 11
18.5932082693
 21
23.6489758242
 31
0.0
  0
LINE
  5
C2
330
B6
100
AcDbEntity
  8
PIC06
  6
Continuous
 62
     7
100
AcDbLine
 10
-0.7470479562000003
 20
-39.8522921156
 30
0.0
 11
18.5932082693
 21
-39.8522921156
 31
0.0
  0
ENDBLK
  5
C3
330
B6
100
AcDbEntity
  8
0
100
AcDbBlockEnd
  0
BLOCK
  5
C5
330
C4
100
AcDbEntity
  8
0
 62
     0
100
AcDbBlockBegin
  2
COMP12
 70
     0
 10
0.0
 20
0.0
 30
0.0
  3
COMP12
  1

  0
MTEXT
  5
C6
330
C4
100
AcDbEntity
  8
0
 62
     7
100
AcDbMText
 10
-16.1625385796
 20
-70.0387774222
 30
0.0
 40
2.5
 41
0.0
 71
     1
 72
     5
  1
1
  7
SLDTEXTSTYLE0
 11
0.0
 21
1.0
 31
0.0
 73
     1
 44
1.0
1001
ACAD
1000
MTEXTBEGIN
1070
    73
1070
     1
1070
    44
1040
1.0
1070
    74
1070
     0
1000
MTEXTEND
  0
MTEXT
  5
C7
330
C4
100
AcDbEntity
  8
0
 62
     7
100
AcDbMText
 10
-16.162538018
 20
-68.3200274222
 30
0.0
 40
2.5
 41
0.0
 71
     1
 72
     5
  1
3
  7
SLDTEXTSTYLE0
 11
0.0
 21
1.0
 31
0.0
 73
     1
 44
1.0
1001
ACAD
1000
MTEXTBEGIN
1070
    73
1070
     1
1070
    44
1040
1.0
1070
    74
1070
     0
1000
MTEXTEND
  0
LINE
  5
C8
330
C4
100
AcDbEntity
  8
PIC06
  6
Continuous
 62
     7
100
AcDbLine
 10
-13.0625382977
 20
-75.7054911156
 30
0.0
 11
-13.0625382977
 21
-78.7054899819
 31
0.0
  0
LINE
  5
C9
330
C4
100
AcDbEntity
  8
0
  6
Continuous
 62
     7
100
AcDbLine
 10
-13.6875382977
 20
-78.2054911156
 30
0.0
 11
-13.0625382977
 21
-75.7054911156
 31
0.0
  0
LINE
  5
CA
330
C4
100
AcDbEntity
  8
0
  6
Continuous
 62
     7
100
AcDbLine
 10
-13.0625382977
 20
-75.7054911156
 30
0.0
 11
-12.4375382977
 21
-78.2054911156
 31
0.0
  0
LINE
  5
CB
330
C4
100
AcDbEntity
  8
PIC06
  6
Continuous
 62
     7
100
AcDbLine
 10
-13.0625382977
 20
-75.7054911156
 30
0.0
 11
-13.0625382977
 21
-74.6221361508
 31
0.0
  0
LINE
  5
CC
330
C4
100
AcDbEntity
  8
PIC06
  6
Continuous
 62
     7
100
AcDbLine
 10
-13.0625382977
 20
-73.5387811859
 30
0.0
 11
-13.0625382977
 21
-74.6221361508
 31
0.0
  0
LINE
  5
CD
330
C4
100
AcDbEntity
  8
PIC06
  6
Continuous
 62
     7
100
AcDbLine
 10
-13.0625382977
 20
-73.5387811859
 30
0.0
 11
-13.0625382977
 21
-66.57002936890001
 31
0.0
  0
LINE
  5
CE
330
C4
100
AcDbEntity
  8
0
  6
Continuous
 62
     7
100
AcDbLine
 10
-12.4375382977
 20
-71.0387811859
 30
0.0
 11
-13.0625382977
 21
-73.5387811859
 31
0.0
  0
LINE
  5
CF
330
C4
100
AcDbEntity
  8
0
  6
Continuous
 62
     7
100
AcDbLine
 10
-13.0625382977
 20
-73.5387811859
 30
0.0
 11
-13.6875382977
 21
-71.0387811859
 31
0.0
  0
LINE
  5
D0
330
C4
100
AcDbEntity
  8
PIC06
  6
Continuous
 62
     7
100
AcDbLine
 10
-4.9137979004
 20
-75.7054911156
 30
0.0
 11
-14.0625379198
 21
-75.7054911156
 31
0.0
  0
LINE
  5
D1
330
C4
100
AcDbEntity
  8
PIC06
  6
Continuous
 62
     7
100
AcDbLine
 10
-4.9137979004
 20
-73.5387811859
 30
0.0
 11
-14.0625379198
 21
-73.5387811859
 31
0.0
  0
ENDBLK
  5
D2
330
C4
100
AcDbEntity
  8
0
100
AcDbBlockEnd
  0
BLOCK
  5
D4
330
D3
100
AcDbEntity
  8
0
 62
     0
100
AcDbBlockBegin
  2
COMP13
 70
     0
 10
0.0
 20
0.0
 30
0.0
  3
COMP13
  1

  0
MTEXT
  5
D5
330
D3
100
AcDbEntity
  8
0
 62
     7
100
AcDbMText
 10
-3.090797785699998
 20
-52.7253458572
 30
0.0
 40
2.5
 41
0.0
 71
     1
 72
     5
  1
5
  7
SLDTEXTSTYLE0
 73
     1
 44
1.0
1001
ACAD
1000
MTEXTBEGIN
1070
    73
1070
     1
1070
    44
1040
1.0
1070
    74
1070
     0
1000
MTEXTEND
  0
MTEXT
  5
D6
330
D3
100
AcDbEntity
  8
0
 62
     7
100
AcDbMText
 10
-1.372047785699999
 20
-52.7253458572
 30
0.0
 40
2.5
 41
0.0
 71
     1
 72
     5
  1
3
  7
SLDTEXTSTYLE0
 73
     1
 44
1.0
1001
ACAD
1000
MTEXTBEGIN
1070
    73
1070
     1
1070
    44
1040
1.0
1070
    74
1070
     0
1000
MTEXTEND
  0
MTEXT
  5
D7
330
D3
100
AcDbEntity
  8
0
 62
     7
100
AcDbMText
 10
0.3467022143
 20
-52.7253458572
 30
0.0
 40
2.5
 41
0.0
 71
     1
 72
     5
  1
9
  7
SLDTEXTSTYLE0
 73
     1
 44
1.0
1001
ACAD
1000
MTEXTBEGIN
1070
    73
1070
     1
1070
    44
1040
1.0
1070
    74
1070
     0
1000
MTEXTEND
  0
LINE
  5
D8
330
D3
100
AcDbEntity
  8
PIC06
  6
Continuous
 62
     7
100
AcDbLine
 10
44.1705139176
 20
-55.8253435959
 30
0.0
 11
-0.7470496251000001
 21
-55.8253435959
 31
0.0
  0
LINE
  5
D9
330
D3
100
AcDbEntity
  8
0
  6
Continuous
 62
     7
100
AcDbLine
 10
41.6705139176
 20
-55.2003435959
 30
0.0
 11
44.1705139176
 21
-55.8253435959
 31
0.0
  0
LINE
  5
DA
330
D3
100
AcDbEntity
  8
0
  6
Continuous
 62
     7
100
AcDbLine
 10
44.1705139176
 20
-55.8253435959
 30
0.0
 11
41.6705139176
 21
-56.4503435959
 31
0.0
  0
LINE
  5
DB
330
D3
100
AcDbEntity
  8
PIC06
  6
Continuous
 62
     7
100
AcDbLine
 10
-45.66461316779999
 20
-55.8253435959
 30
0.0
 11
-0.7470496251000001
 21
-55.8253435959
 31
0.0
  0
LINE
  5
DC
330
D3
100
AcDbEntity
  8
0
  6
Continuous
 62
     7
100
AcDbLine
 10
-43.16461316779999
 20
-56.4503435959
 30
0.0
 11
-45.66461316779999
 21
-55.8253435959
 31
0.0
  0
LINE
  5
DD
330
D3
100
AcDbEntity
  8
0
  6
Continuous
 62
     7
100
AcDbLine
 10
-45.66461316779999
 20
-55.8253435959
 30
0.0
 11
-43.16461316779999
 21
-55.2003435959
 31
0.0
  0
LINE
  5
DE
330
D3
100
AcDbEntity
  8
PIC06
  6
Continuous
 62
     7
100
AcDbLine
 10
44.1705139176
 20
-8.1016575099
 30
0.0
 11
44.1705139176
 21
-56.825343218
 31
0.0
  0
LINE
  5
DF
330
D3
100
AcDbEntity
  8
PIC06
  6
Continuous
 62
     7
100
AcDbLine
 10
-45.66461316779999
 20
-8.1016575099
 30
0.0
 11
-45.66461316779999
 21
-56.825343218
 31
0.0
  0
ENDBLK
  5
E0
330
D3
100
AcDbEntity
  8
0
100
AcDbBlockEnd
  0
BLOCK
  5
E2
330
E1
100
AcDbEntity
  8
0
 62
     0
100
AcDbBlockBegin
  2
COMP14
 70
     0
 10
0.0
 20
0.0
 30
0.0
  3
COMP14
  1

  0
MTEXT
  5
E3
330
E1
100
AcDbEntity
  8
0
 62
     7
100
AcDbMText
 10
130.0083738923999
 20
-106.0396122958999
 30
0.0
 40
2.5
 41
0.0
 71
     1
 72
     5
  1
9
  7
SLDTEXTSTYLE0
 73
     1
 44
1.0
1001
ACAD
1000
MTEXTBEGIN
1070
    73
1070
     1
1070
    44
1040
1.0
1070
    74
1070
     0
1000
MTEXTEND
  0
MTEXT
  5
E4
330
E1
100
AcDbEntity
  8
0
 62
     7
100
AcDbMText
 10
131.7271238923999
 20
-106.0396122958999
 30
0.0
 40
2.5
 41
0.0
 71
     1
 72
     5
  1
1
  7
SLDTEXTSTYLE0
 73
     1
 44
1.0
1001
ACAD
1000
MTEXTBEGIN
1070
    73
1070
     1
1070
    44
1040
1.0
1070
    74
1070
     0
1000
MTEXTEND
  0
LINE
  5
E5
330
E1
100
AcDbEntity
  8
PIC06
  6
Continuous
 62
     7
100
AcDbLine
 10
139.0762327676
 20
-109.1396100345999
 30
0.0
 11
131.4927480136
 21
-109.1396100345999
 31
0.0
  0
LINE
  5
E6
330
E1
100
AcDbEntity
  8
0
  6
Continuous
 62
     7
100
AcDbLine
 10
136.5762327676
 20
-108.5146100345999
 30
0.0
 11
139.0762327676
 21
-109.1396100345999
 31
0.0
  0
LINE
  5
E7
330
E1
100
AcDbEntity
  8
0
  6
Continuous
 62
     7
100
AcDbLine
 10
139.0762327676
 20
-109.1396100345999
 30
0.0
 11
136.5762327676
 21
-109.7646100346
 31
0.0
  0
LINE
  5
E8
330
E1
100
AcDbEntity
  8
PIC06
  6
Continuous
 62
     7
100
AcDbLine
 10
123.9092632595999
 20
-109.1396100345999
 30
0.0
 11
131.4927480136
 21
-109.1396100345999
 31
0.0
  0
LINE
  5
E9
330
E1
100
AcDbEntity
  8
0
  6
Continuous
 62
     7
100
AcDbLine
 10
126.4092632596
 20
-109.7646100346
 30
0.0
 11
123.9092632595999
 21
-109.1396100345999
 31
0.0
  0
LINE
  5
EA
330
E1
100
AcDbEntity
  8
0
  6
Continuous
 62
     7
100
AcDbLine
 10
123.9092632595999
 20
-109.1396100345999
 30
0.0
 11
126.4092632596
 21
-108.5146100345999
 31
0.0
  0
LINE
  5
EB
330
E1
100
AcDbEntity
  8
PIC06
  6
Continuous
 62
     7
100
AcDbLine
 10
139.0762327676
 20
-72.8721012076
 30
0.0
 11
139.0762327676
 21
-110.1396096566999
 31
0.0
  0
LINE
  5
EC
330
E1
100
AcDbEntity
  8
PIC06
  6
Continuous
 62
     7
100
AcDbLine
 10
123.9092632595999
 20
-105.5686158804
 30
0.0
 11
123.9092632595999
 21
-110.1396096566999
 31
0.0
  0
ENDBLK
  5
ED
330
E1
100
AcDbEntity
  8
0
100
AcDbBlockEnd
  0
ENDSEC
  0
SECTION
  2
ENTITIES
  0
LINE
  5
EE
330
A
100
AcDbEntity
  8
PIC06
  6
Continuous
 62
     7
100
AcDbLine
 10
50.18500032658831
 20
12.50717867770885
 30
0.0
 11
50.18500032658831
 21
13.01899889730259
 31
0.0
  0
LINE
  5
EF
330
A
100
AcDbEntity
  8
PIC06
  6
Continuous
 62
     7
100
AcDbLine
 10
32.97996679097615
 20
13.01899889730259
 30
0.0
 11
50.18500032658831
 21
13.01899889730259
 31
0.0
  0
LINE
  5
F0
330
A
100
AcDbEntity
  8
PIC06
  6
Continuous
 62
     7
100
AcDbLine
 10
32.97996679097615
 20
12.50717867770885
 30
0.0
 11
32.97996679097615
 21
13.01899889730259
 31
0.0
  0
LINE
  5
F1
330
A
100
AcDbEntity
  8
PIC06
  6
Continuous
 62
     7
100
AcDbLine
 10
49.59214897527764
 20
12.50717867770885
 30
0.0
 11
50.18500032658831
 21
12.50717867770885
 31
0.0
  0
LINE
  5
F2
330
A
100
AcDbEntity
  8
PIC06
  6
Continuous
 62
     7
100
AcDbLine
 10
32.97996679097615
 20
12.50717867770885
 30
0.0
 11
33.01390215005807
 21
12.50717867770885
 31
0.0
  0
LINE
  5
F7
330
A
100
AcDbEntity
  8
PIC06
  6
Continuous
 62
     7
100
AcDbLine
 10
15.97448356049097
 20
5.538549533995023
 30
0.0
 11
18.34241833829698
 21
5.538549533995023
 31
0.0
  0
LINE
  5
F8
330
A
100
AcDbEntity
  8
PIC06
  6
Continuous
 62
     7
100
AcDbLine
 10
27.08213737063495
 20
12.50717867770885
 30
0.0
 11
27.76637262135071
 21
12.50717867770885
 31
0.0
  0
LINE
  5
F9
330
A
100
AcDbEntity
  8
PIC06
  6
Continuous
 62
     7
100
AcDbLine
 10
27.76637262135071
 20
12.50717867770885
 30
0.0
 11
27.76637262135071
 21
13.01899889730259
 31
0.0
  0
LINE
  5
FA
330
A
100
AcDbEntity
  8
PIC06
  6
Continuous
 62
     7
100
AcDbLine
 10
6.54551890121391
 20
12.50717867770885
 30
0.0
 11
6.54551890121391
 21
13.01899889730259
 31
0.0
  0
LINE
  5
FB
330
A
100
AcDbEntity
  8
PIC06
  6
Continuous
 62
     7
100
AcDbLine
 10
6.54551890121391
 20
13.01899889730259
 30
0.0
 11
27.76637262135071
 21
13.01899889730259
 31
0.0
  0
LINE
  5
FC
330
A
100
AcDbEntity
  8
PIC06
  6
Continuous
 62
     7
100
AcDbLine
 10
17.1559457612705
 20
12.50717867770885
 30
0.0
 11
6.54551890121391
 21
12.50717867770885
 31
0.0
  0
LINE
  5
FD
330
A
100
AcDbEntity
  8
PIC06
  6
Continuous
 62
     7
100
AcDbLine
 10
15.74220383722456
 20
5.731783007889504
 30
0.0
 11
15.5094289527359
 21
6.989455086926142
 31
0.0
  0
LINE
  5
FE
330
A
100
AcDbEntity
  8
PIC06
  6
Continuous
 62
     7
100
AcDbLine
 10
18.57353454327624
 20
5.725913053590062
 30
0.0
 11
18.84377310903424
 21
7.00415663757812
 31
0.0
  0
LINE
  5
FF
330
A
100
AcDbEntity
  8
PIC06
  6
Continuous
 62
     7
100
AcDbLine
 10
15.46906264118522
 20
7.207552426336889
 30
0.0
 11
15.14019403430957
 21
12.32295439031566
 31
0.0
  0
LINE
  5
100
330
A
100
AcDbEntity
  8
PIC06
  6
CENTERX2
 62
     7
100
AcDbLine
 10
17.1559457612705
 20
18.91194578571597
 30
0.0
 11
17.1559457612705
 21
36.74686143625425
 31
0.0
  0
LINE
  5
102
330
A
100
AcDbEntity
  8
PIC06
  6
CENTERX2
 62
     7
100
AcDbLine
 10
17.1559457612705
 20
5.251995140136472
 30
0.0
 11
17.1559457612705
 21
13.26138611288152
 31
0.0
  0
LINE
  5
103
330
A
100
AcDbEntity
  8
PIC06
  6
CENTERX2
 62
     7
100
AcDbLine
 10
46.60225878940855
 20
4.783606780190638
 30
0.0
 11
46.60225878940855
 21
7.692731564527861
 31
0.0
  0
LINE
  5
109
330
A
100
AcDbEntity
  8
PIC06
  6
Continuous
 62
     7
100
AcDbLine
 10
45.37007685092696
 20
5.538550528977282
 30
0.0
 11
47.78372099021169
 21
5.538550528977282
 31
0.0
  0
LINE
  5
114
330
A
100
AcDbEntity
  8
PIC06
  6
Continuous
 62
     7
100
AcDbLine
 10
48.01600071345447
 20
5.731784002895381
 30
0.0
 11
48.31850926638892
 21
7.366223910434229
 31
0.0
  0
LINE
  5
11A
330
A
100
AcDbEntity
  8
PIC06
  6
CENTERX2
 62
     7
100
AcDbLine
 10
15.2267772412688
 20
32.82702796841718
 30
0.0
 11
19.08511428129583
 21
32.82702796841718
 31
0.0
  0
ARC
  5
264
330
A
100
AcDbEntity
  8
PIC06
  6
Continuous
 62
     7
100
AcDbCircle
 10
20.21411076832196
 20
27.65075148114832
 30
0.0
 40
6.417438137995692
100
AcDbArc
 50
303.6989058233157
 51
336.5776381015861
  0
ARC
  5
265
330
A
100
AcDbEntity
  8
PIC06
  6
Continuous
 62
     7
100
AcDbCircle
 10
19.85284461067461
 20
27.80725273779086
 30
0.0
 40
6.811145999216186
100
AcDbArc
 50
336.5776381015861
 51
23.42236189841387
  0
ARC
  5
266
330
A
100
AcDbEntity
  8
PIC06
  6
Continuous
 62
     7
100
AcDbCircle
 10
20.21411076832196
 20
27.9637539944334
 30
0.0
 40
6.417438137995692
100
AcDbArc
 50
23.42236189841387
 51
56.30109417668432
  0
ARC
  5
267
330
A
100
AcDbEntity
  8
PIC06
  6
Continuous
 62
     7
100
AcDbCircle
 10
17.1559457612705
 20
23.37803929898351
 30
0.0
 40
11.92934819517715
100
AcDbArc
 50
56.30109417668432
 51
123.6989058233156
  0
ARC
  5
268
330
A
100
AcDbEntity
  8
PIC06
  6
Continuous
 62
     7
100
AcDbCircle
 10
14.09778075424266
 20
27.9637539944334
 30
0.0
 40
6.417438137995692
100
AcDbArc
 50
123.6989058233156
 51
156.5776381015861
  0
ARC
  5
269
330
A
100
AcDbEntity
  8
PIC06
  6
Continuous
 62
     7
100
AcDbCircle
 10
14.45904691186639
 20
27.80725273779086
 30
0.0
 40
6.811145999216186
100
AcDbArc
 50
156.5776381015861
 51
203.4223618984138
  0
ARC
  5
26A
330
A
100
AcDbEntity
  8
PIC06
  6
Continuous
 62
     7
100
AcDbCircle
 10
17.1559457612705
 20
32.23646617659824
 30
0.0
 40
11.92934819517715
100
AcDbArc
 50
236.3010941766843
 51
303.6989058233157
  0
ARC
  5
26B
330
A
100
AcDbEntity
  8
PIC06
  6
Continuous
 62
     7
100
AcDbCircle
 10
14.09778075424266
 20
27.65075148114832
 30
0.0
 40
6.417438137995692
100
AcDbArc
 50
203.4223618984138
 51
236.3010941766843
  0
ARC
  5
26C
330
A
100
AcDbEntity
  8
PIC06
  6
Continuous
 62
     7
100
AcDbCircle
 10
20.21411076832196
 20
27.65075148114832
 30
0.0
 40
7.519820149431981
100
AcDbArc
 50
303.6989058233157
 51
336.5776381015861
  0
ARC
  5
26D
330
A
100
AcDbEntity
  8
PIC06
  6
Continuous
 62
     7
100
AcDbCircle
 10
20.21411076832196
 20
27.9637539944334
 30
0.0
 40
7.519820149431981
100
AcDbArc
 50
23.42236189841387
 51
56.30109417668432
  0
ARC
  5
26E
330
A
100
AcDbEntity
  8
PIC06
  6
Continuous
 62
     7
100
AcDbCircle
 10
17.1559457612705
 20
23.37803929898351
 30
0.0
 40
13.03173020661344
100
AcDbArc
 50
56.30109417668432
 51
123.6989058233156
  0
ARC
  5
26F
330
A
100
AcDbEntity
  8
PIC06
  6
Continuous
 62
     7
100
AcDbCircle
 10
19.85284461067461
 20
27.80725273779086
 30
0.0
 40
7.913528010652482
100
AcDbArc
 50
336.5776381015861
 51
23.42236189841387
  0
ARC
  5
270
330
A
100
AcDbEntity
  8
PIC06
  6
Continuous
 62
     7
100
AcDbCircle
 10
14.45904691186639
 20
27.80725273779086
 30
0.0
 40
7.913528010652482
100
AcDbArc
 50
156.5776381015861
 51
203.4223618984138
  0
ARC
  5
271
330
A
100
AcDbEntity
  8
PIC06
  6
Continuous
 62
     7
100
AcDbCircle
 10
14.09778075424266
 20
27.65075148114832
 30
0.0
 40
7.519820149431981
100
AcDbArc
 50
203.4223618984138
 51
236.3010941766843
  0
ARC
  5
272
330
A
100
AcDbEntity
  8
PIC06
  6
Continuous
 62
     7
100
AcDbCircle
 10
14.09778075424266
 20
27.9637539944334
 30
0.0
 40
7.519820149431981
100
AcDbArc
 50
123.6989058233156
 51
156.5776381015861
  0
ARC
  5
273
330
A
100
AcDbEntity
  8
PIC06
  6
Continuous
 62
     7
100
AcDbCircle
 10
17.1559457612705
 20
32.23646617659824
 30
0.0
 40
13.03173020661344
100
AcDbArc
 50
236.3010941766843
 51
303.6989058233157
  0
ARC
  5
274
330
A
100
AcDbEntity
  8
PIC06
  6
Continuous
 62
     7
100
AcDbCircle
 10
38.01863992018456
 20
13.09774046955141
 30
0.0
 40
5.039460623712137
100
AcDbArc
 50
186.7298128417977
 51
243.1034481999944
  0
ARC
  5
27C
330
A
100
AcDbEntity
  8
PIC06
  6
Continuous
 62
     7
100
AcDbCircle
 10
21.9631781001803
 20
13.49144833077193
 30
0.0
 40
5.118202195937337
100
AcDbArc
 50
294.2244434541011
 51
347.8468025309801
  0
ARC
  5
27D
330
A
100
AcDbEntity
  8
PIC06
  6
Continuous
 62
     7
100
AcDbCircle
 10
27.08213737063495
 20
12.38906631933562
 30
0.0
 40
0.118112358373236
100
AcDbArc
 50
90.0
 51
167.8468025309801
  0
ARC
  5
282
330
A
100
AcDbEntity
  8
PIC06
  6
Continuous
 62
     7
100
AcDbCircle
 10
12.34871342238432
 20
13.49144833077193
 30
0.0
 40
5.118202195937337
100
AcDbArc
 50
192.1531974690199
 51
245.7755565458989
  0
ARC
  5
283
330
A
100
AcDbEntity
  8
PIC06
  6
Continuous
 62
     7
100
AcDbCircle
 10
7.229754151929654
 20
12.38906631933562
 30
0.0
 40
0.118112358373236
100
AcDbArc
 50
12.1531974690199
 51
90.0
  0
ARC
  5
284
330
A
100
AcDbEntity
  8
PIC06
  6
Continuous
 62
     7
100
AcDbCircle
 10
16.38729114250407
 20
22.46744771765063
 30
0.0
 40
14.96089872661514
100
AcDbArc
 50
245.7755565458989
 51
255.8543594377064
  0
ARC
  5
285
330
A
100
AcDbEntity
  8
PIC06
  6
Continuous
 62
     7
100
AcDbCircle
 10
17.31305993360058
 20
19.27239078654102
 30
0.0
 40
12.20494369802441
100
AcDbArc
 50
247.9494949433065
 51
260.282053381307
  0
ARC
  5
28E
330
A
100
AcDbEntity
  8
PIC06
  6
Continuous
 62
     7
100
AcDbCircle
 10
15.98269633482917
 20
20.50342958538767
 30
0.0
 40
0.066930336406776
100
AcDbArc
 50
84.28966907410252
 51
264.2898508970924
  0
ARC
  5
28F
330
A
100
AcDbEntity
  8
PIC06
  6
Continuous
 62
     7
100
AcDbCircle
 10
17.1559457612705
 20
32.23646617659824
 30
0.0
 40
11.85848078014848
100
AcDbArc
 50
264.2896701003966
 51
275.7103309258974
  0
ARC
  5
290
330
A
100
AcDbEntity
  8
PIC06
  6
Continuous
 62
     7
100
AcDbCircle
 10
18.32919518773546
 20
20.50342958538767
 30
0.0
 40
0.066930336406776
100
AcDbArc
 50
275.7103309258974
 51
95.71010823911036
  0
ARC
  5
291
330
A
100
AcDbEntity
  8
PIC06
  6
Continuous
 62
     7
100
AcDbCircle
 10
17.1559457612705
 20
32.23646617659824
 30
0.0
 40
11.72462010733493
100
AcDbArc
 50
264.2896690741026
 51
275.7103321970937
  0
ARC
  5
292
330
A
100
AcDbEntity
  8
PIC06
  6
Continuous
 62
     7
100
AcDbCircle
 10
49.59214897527764
 20
12.38906631933562
 30
0.0
 40
0.118112358373236
100
AcDbArc
 50
90.0
 51
178.8955117349923
  0
ARC
  5
293
330
A
100
AcDbEntity
  8
PIC06
  6
Continuous
 62
     7
100
AcDbCircle
 10
18.34241833829698
 20
5.774774250717882
 30
0.0
 40
0.236224716746472
100
AcDbArc
 50
270.0
 51
348.0626496654055
  0
ARC
  5
294
330
A
100
AcDbEntity
  8
PIC06
  6
Continuous
 62
     7
100
AcDbCircle
 10
19.1519280490381
 20
6.939008374709544
 30
0.0
 40
0.314966288971674
100
AcDbArc
 50
99.90259966118918
 51
168.0626496654055
  0
ARC
  5
295
330
A
100
AcDbEntity
  8
PIC06
  6
Continuous
 62
     7
100
AcDbCircle
 10
15.19972265505524
 20
6.932133429813774
 30
0.0
 40
0.314966288971674
100
AcDbArc
 50
10.48586748481699
 51
80.28205338130698
  0
ARC
  5
296
330
A
100
AcDbEntity
  8
PIC06
  6
Continuous
 62
     7
100
AcDbCircle
 10
15.97448356049097
 20
5.774774250717882
 30
0.0
 40
0.236224716746472
100
AcDbArc
 50
190.485867484817
 51
270.0
  0
ARC
  5
297
330
A
100
AcDbEntity
  8
PIC06
  6
Continuous
 62
     7
100
AcDbCircle
 10
14.94374566423073
 20
12.31032474708681
 30
0.0
 40
0.19685393062206
100
AcDbArc
 50
3.678476734688667
 51
90.0
  0
ARC
  5
298
330
A
100
AcDbEntity
  8
PIC06
  6
HIDDEN
 62
     7
100
AcDbCircle
 10
20.21411076832196
 20
27.65075148114832
 30
0.0
 40
6.811145999216186
100
AcDbArc
 50
303.6989058233157
 51
336.5776381015861
  0
ARC
  5
299
330
A
100
AcDbEntity
  8
PIC06
  6
HIDDEN
 62
     7
100
AcDbCircle
 10
19.85284461067461
 20
27.80725273779086
 30
0.0
 40
7.204853860460311
100
AcDbArc
 50
336.5776381015861
 51
23.42236189841387
  0
ARC
  5
29A
330
A
100
AcDbEntity
  8
PIC06
  6
HIDDEN
 62
     7
100
AcDbCircle
 10
20.21411076832196
 20
27.9637539944334
 30
0.0
 40
6.811145999216186
100
AcDbArc
 50
23.42236189841387
 51
56.30109417668432
  0
ARC
  5
29B
330
A
100
AcDbEntity
  8
PIC06
  6
HIDDEN
 62
     7
100
AcDbCircle
 10
17.1559457612705
 20
23.37803929898351
 30
0.0
 40
12.32305605639765
100
AcDbArc
 50
56.30109417668432
 51
123.6989058233156
  0
ARC
  5
29C
330
A
100
AcDbEntity
  8
PIC06
  6
HIDDEN
 62
     7
100
AcDbCircle
 10
14.09778075424266
 20
27.9637539944334
 30
0.0
 40
6.811145999216186
100
AcDbArc
 50
123.6989058233156
 51
156.5776381015861
  0
ARC
  5
29D
330
A
100
AcDbEntity
  8
PIC06
  6
HIDDEN
 62
     7
100
AcDbCircle
 10
14.09778075424266
 20
27.65075148114832
 30
0.0
 40
6.811145999216186
100
AcDbArc
 50
203.4223618984138
 51
236.3010941766843
  0
ARC
  5
29E
330
A
100
AcDbEntity
  8
PIC06
  6
HIDDEN
 62
     7
100
AcDbCircle
 10
14.45904691186639
 20
27.80725273779086
 30
0.0
 40
7.204853860460311
100
AcDbArc
 50
156.5776381015861
 51
203.4223618984138
  0
ARC
  5
29F
330
A
100
AcDbEntity
  8
PIC06
  6
HIDDEN
 62
     7
100
AcDbCircle
 10
17.1559457612705
 20
32.23646617659824
 30
0.0
 40
12.32305605639765
100
AcDbArc
 50
280.5572099709952
 51
303.6989058233157
  0
ARC
  5
2A0
330
A
100
AcDbEntity
  8
PIC06
  6
HIDDEN
 62
     7
100
AcDbCircle
 10
17.1559457612705
 20
32.23646617659824
 30
0.0
 40
12.32305605639765
100
AcDbArc
 50
236.3010941766843
 51
259.4427900290048
  0
ARC
  5
2A1
330
A
100
AcDbEntity
  8
PIC06
  6
HIDDEN
 62
     7
100
AcDbCircle
 10
19.47144904162476
 20
19.81237452524857
 30
0.0
 40
0.314966288971674
100
AcDbArc
 50
100.5572099709952
 51
167.279161560988
  0
ARC
  5
2A2
330
A
100
AcDbEntity
  8
PIC06
  6
HIDDEN
 62
     7
100
AcDbCircle
 10
18.39612552414223
 20
20.05512013674061
 30
0.0
 40
0.7874157224646181
100
AcDbArc
 50
275.8132388788038
 51
347.279161560988
  0
ARC
  5
2A3
330
A
100
AcDbEntity
  8
PIC06
  6
HIDDEN
 62
     7
100
AcDbCircle
 10
15.91576599842239
 20
20.05512013674061
 30
0.0
 40
0.7874157224646181
100
AcDbArc
 50
192.7208384390119
 51
264.1867611211962
  0
ARC
  5
2A4
330
A
100
AcDbEntity
  8
PIC06
  6
HIDDEN
 62
     7
100
AcDbCircle
 10
14.84044248093987
 20
19.81237452524857
 30
0.0
 40
0.314966288971674
100
AcDbArc
 50
12.72083843901194
 51
79.44279002900478
  0
ARC
  5
2A8
330
A
100
AcDbEntity
  8
PIC06
  6
Continuous
 62
     7
100
AcDbCircle
 10
47.78372099021169
 20
5.774775245723759
 30
0.0
 40
0.236224716746472
100
AcDbArc
 50
270.0
 51
349.514132515183
  0
ARC
  5
2AA
330
A
100
AcDbEntity
  8
PIC06
  6
Continuous
 62
     7
100
AcDbCircle
 10
38.01863992018456
 20
13.09774046955141
 30
0.0
 40
5.039460623712137
100
AcDbArc
 50
186.7298128417977
 51
245.3514949240054
  0
ARC
  5
2AD
330
A
100
AcDbEntity
  8
PIC06
  6
Continuous
 62
     7
100
AcDbCircle
 10
45.37007685092696
 20
5.774775245723759
 30
0.0
 40
0.236224716746472
100
AcDbArc
 50
208.0108636447964
 51
270.0
  0
ARC
  5
2B1
330
A
100
AcDbEntity
  8
PIC06
  6
Continuous
 62
     7
100
AcDbCircle
 10
45.407460475632
 20
29.20029523040895
 30
0.0
 40
22.75631437891801
100
AcDbArc
 50
245.3514949240054
 51
266.1439001556098
  0
ARC
  5
2B2
330
A
100
AcDbEntity
  8
PIC06
  6
Continuous
 62
     7
100
AcDbCircle
 10
43.77117041200608
 20
4.924232701087845
 30
0.0
 40
1.574831444905614
100
AcDbArc
 50
28.01086364479641
 51
86.14390015560978
  0
ARC
  5
2B9
330
A
100
AcDbEntity
  8
PIC06
  6
Continuous
 62
     7
100
AcDbCircle
 10
30.97220457315427
 20
13.09218565770044
 30
0.0
 40
18.50426947767049
100
AcDbArc
 50
345.5311272258881
 51
357.8361902516173
  0
ARC
  5
2BA
330
A
100
AcDbEntity
  8
PIC06
  6
Continuous
 62
     7
100
AcDbCircle
 10
46.60225878940855
 20
9.059036830447297
 30
0.0
 40
2.362247167370229
100
AcDbArc
 50
319.1777143762002
 51
345.5311272258881
  0
ARC
  5
2BB
330
A
100
AcDbEntity
  8
PIC06
  6
Continuous
 62
     7
100
AcDbCircle
 10
48.62821556406958
 20
7.308902253321889
 30
0.0
 40
0.314966288971674
100
AcDbArc
 50
139.1777143762003
 51
169.514132515183
  0
ARC
  5
2BC
330
A
100
AcDbEntity
  8
PIC06
  6
HIDDEN
 62
     7
100
AcDbCircle
 10
17.1559457612705
 20
32.82702796841718
 30
0.0
 40
1.732314589403262
100
AcDbArc
 50
1.325061268295308
 51
178.6749387317047
  0
CIRCLE
  5
2BD
330
A
100
AcDbEntity
  8
PIC06
  6
Continuous
 62
     7
100
AcDbCircle
 10
17.1559457612705
 20
32.82702796841718
 30
0.0
 40
0.8661572946898202
  0
CIRCLE
  5
2BE
330
A
100
AcDbEntity
  8
PIC06
  6
Continuous
 62
     7
100
AcDbCircle
 10
17.1559457612705
 20
32.82702796841718
 30
0.0
 40
1.25986515593394
  0
ARC
  5
495
330
A
100
AcDbEntity
  8
PIC06
  6
Continuous
 62
     7
100
AcDbCircle
 10
17.92460038003692
 20
22.46744771765063
 30
0.0
 40
14.96089872661514
100
AcDbArc
 50
284.1456405622927
 51
294.2244434541005
  0
ARC
  5
496
330
A
100
AcDbEntity
  8
PIC06
  6
Continuous
 62
     7
100
AcDbCircle
 10
16.9988315889404
 20
19.27239078654102
 30
0.0
 40
12.20494369802441
100
AcDbArc
 50
279.717946618693
 51
292.0505050566934
  0
LINE
  5
497
330
A
100
AcDbEntity
  8
PIC06
  6
Continuous
 62
     7
100
AcDbLine
 10
18.84282888135578
 20
7.207552426336889
 30
0.0
 11
19.17169748823143
 21
12.32295439031566
 31
0.0
  0
ARC
  5
498
330
A
100
AcDbEntity
  8
PIC06
  6
Continuous
 62
     7
100
AcDbCircle
 10
19.36814585831027
 20
12.31032474708681
 30
0.0
 40
0.19685393062206
100
AcDbArc
 50
90.0
 51
176.3215232653113
  0
LINE
  5
499
330
A
100
AcDbEntity
  8
PIC06
  6
Continuous
 62
     7
100
AcDbLine
 10
17.1559457612705
 20
12.50717867770885
 30
0.0
 11
27.76637262132709
 21
12.50717867770885
 31
0.0
  0
VIEWPORT
  5
4BA
102
{ACAD_XDICTIONARY
360
4CE
102
}
330
B
100
AcDbEntity
 67
     1
  8
0
  6
Continuous
100
AcDbViewport
 10
5.250183132535525
 20
4.000122090685323
 30
0.0
 40
10.63098306903433
 41
6.454849668730496
 68
     1
 69
     1
 12
5.250183132535525
 22
4.000122090685323
 13
0.0
 23
0.0
 14
0.5
 24
0.5
 15
0.5
 25
0.5
 16
0.0
 26
0.0
 36
1.0
 17
0.0
 27
0.0
 37
0.0
 42
50.0
 43
0.0
 44
0.0
 45
6.454849668730496
 50
0.0
 51
0.0
 72
  2000
 90
   819232
  1

281
     0
 71
     1
 74
     0
110
0.0
120
0.0
130
0.0
111
1.0
121
0.0
131
0.0
112
0.0
122
1.0
132
0.0
 79
     0
146
0.0
  0
VIEWPORT
  5
4BD
102
{ACAD_XDICTIONARY
360
4D0
102
}
330
B
100
AcDbEntity
 67
     1
  8
0
  6
Continuous
100
AcDbViewport
 10
5.249999761581421
 20
3.999999761581421
 30
0.0
 40
8.399999618530275
 41
6.399999618530274
 68
     2
 69
     2
 12
28.36421985632674
 22
20.76487007687961
 13
0.0
 23
0.0
 14
1.0
 24
1.0
 15
0.0
 25
0.0
 16
0.0
 26
0.0
 36
1.0
 17
0.0
 27
0.0
 37
0.0
 42
50.0
 43
0.0
 44
0.0
 45
33.55352589190262
 50
0.0
 51
0.0
 72
  2000
 90
   819232
  1

281
     0
 71
     1
 74
     0
110
0.0
120
0.0
130
0.0
111
1.0
121
0.0
131
0.0
112
0.0
122
1.0
132
0.0
 79
     0
146
0.0
  0
ENDSEC
  0
SECTION
  2
OBJECTS
  0
DICTIONARY
  5
19
330
0
100
AcDbDictionary
281
     1
  3
ACAD_COLOR
350
47C
  3
ACAD_GROUP
350
1A
  3
ACAD_LAYOUT
350
44C
  3
ACAD_MATERIAL
350
47B
  3
ACAD_MLINESTYLE
350
1B
  3
ACAD_PLOTSETTINGS
350
44D
  3
ACAD_PLOTSTYLENAME
350
44A
  3
ACAD_TABLESTYLE
350
47D
  3
ACAD_VISUALSTYLE
350
4A3
  3
ACDBVARIABLEDICTIONARY
350
452
  3
ASE_INDEX_DICTIONARY
350
484
  3
DWGPROPS
350
4C1
  0
DICTIONARY
  5
475
330
A
100
AcDbDictionary
280
     1
281
     1
  3
ACAD_LAYOUTSELFREF
360
476
  0
DICTIONARY
  5
477
330
B
100
AcDbDictionary
280
     1
281
     1
  3
ACAD_LAYOUTSELFREF
360
478
  0
DICTIONARY
  5
4CE
330
4BA
100
AcDbDictionary
280
     1
281
     1
  3
ACAD_XREC_ROUNDTRIP
360
4CF
  0
DICTIONARY
  5
4D0
330
4BD
100
AcDbDictionary
280
     1
281
     1
  3
ACAD_XREC_ROUNDTRIP
360
4D1
  0
DICTIONARY
  5
47C
102
{ACAD_REACTORS
330
19
102
}
330
19
100
AcDbDictionary
281
     1
  0
DICTIONARY
  5
1A
102
{ACAD_REACTORS
330
19
102
}
330
19
100
AcDbDictionary
281
     1
  0
DICTIONARY
  5
44C
102
{ACAD_REACTORS
330
19
102
}
330
19
100
AcDbDictionary
281
     1
  3
Layout1
350
480
  3
Model
350
47F
  0
DICTIONARY
  5
47B
102
{ACAD_REACTORS
330
19
102
}
330
19
100
AcDbDictionary
281
     1
  3
ByBlock
350
4A1
  3
ByLayer
350
4A0
  3
Global
350
4A2
  0
DICTIONARY
  5
1B
102
{ACAD_REACTORS
330
19
102
}
330
19
100
AcDbDictionary
281
     1
  3
STANDARD
350
1C
  0
DICTIONARY
  5
44D
102
{ACAD_REACTORS
330
19
102
}
330
19
100
AcDbDictionary
281
     1
  0
ACDBDICTIONARYWDFLT
  5
44A
102
{ACAD_REACTORS
330
19
102
}
330
19
100
AcDbDictionary
281
     1
  3
Normal
350
44B
100
AcDbDictionaryWithDefault
340
44B
  0
DICTIONARY
  5
47D
102
{ACAD_REACTORS
330
19
102
}
330
19
100
AcDbDictionary
281
     1
  3
Standard
350
47E
  0
DICTIONARY
  5
4A3
102
{ACAD_REACTORS
330
19
102
}
330
19
100
AcDbDictionary
281
     1
  3
2dWireframe
350
4A9
  3
3D Hidden
350
4AB
  3
3dWireframe
350
4AA
  3
Basic
350
4A8
  3
Brighten
350
4AF
  3
ColorChange
350
4B3
  3
Conceptual
350
4AC
  3
Dim
350
4AE
  3
Facepattern
350
4B2
  3
Flat
350
4A4
  3
FlatWithEdges
350
4A5
  3
Gouraud
350
4A6
  3
GouraudWithEdges
350
4A7
  3
Linepattern
350
4B1
  3
Realistic
350
4AD
  3
Thicken
350
4B0
  0
DICTIONARY
  5
452
102
{ACAD_REACTORS
330
19
102
}
330
19
100
AcDbDictionary
281
     1
  3
CTABLESTYLE
350
488
  3
DIMASSOC
350
453
  3
INDEXCTL
350
4C0
  3
SORTENTS
350
4BF
  0
DICTIONARY
  5
484
102
{ACAD_REACTORS
330
19
102
}
330
19
100
AcDbDictionary
281
     1
  3
ASEBlockHierarchyIndexRecord
350
486
1001
DCO15
1040
1652008406.674999
  0
XRECORD
  5
4C1
102
{ACAD_REACTORS
330
19
102
}
330
19
100
AcDbXrecord
280
     1
  1
DWGPROPS COOKIE
  2

  3

  4

  6

  7

  8
nnguyen
  9

300
=
301
=
302
=
303
=
304
=
305
=
306
=
307
=
308
=
309
=
 40
0.021099224537037
 41
2311948.878217026
 42
2454923.679521701
  1

 90
        0
  0
XRECORD
  5
476
102
{ACAD_REACTORS
330
475
102
}
330
475
100
AcDbXrecord
280
     1
340
A
  0
XRECORD
  5
478
102
{ACAD_REACTORS
330
477
102
}
330
477
100
AcDbXrecord
280
     1
340
B
  0
XRECORD
  5
4CF
102
{ACAD_REACTORS
330
4CE
102
}
330
4CE
100
AcDbXrecord
280
     1
102
SHADEPLOT
 70
     0
  0
XRECORD
  5
4D1
102
{ACAD_REACTORS
330
4D0
102
}
330
4D0
100
AcDbXrecord
280
     1
102
SHADEPLOT
 70
     0
  0
LAYOUT
  5
480
102
{ACAD_XDICTIONARY
360
4C6
102
}
102
{ACAD_REACTORS
330
44C
102
}
330
44C
100
AcDbPlotSettings
  1

  2
none_device
  4
Letter_(8.50_x_11.00_Inches)
  6

 40
6.349999904632568
 41
6.349999904632568
 42
6.350006103515625
 43
6.350006103515625
 44
215.8999938964844
 45
279.3999938964844
 46
0.0
 47
0.0
 48
0.0
 49
0.0
140
0.0
141
0.0
142
1.0
143
1.0
 70
   688
 72
     0
 73
     1
 74
     5
  7

 75
    16
147
1.0
148
0.0
149
0.0
100
AcDbLayout
  1
Layout1
 70
     1
 71
     1
 10
-0.2500002402958907
 20
-0.2499999962453767
 11
10.74999951940822
 21
8.249999763458733
 12
0.0
 22
0.0
 32
0.0
 14
1.049743681505489
 24
0.7996673802841308
 34
-0.0015258207003583
 15
9.450622583565561
 25
7.200576801086516
 35
0.0000000349246037
146
0.0
 13
0.0
 23
0.0
 33
0.0
 16
1.0
 26
0.0
 36
0.0
 17
0.0
 27
1.0
 37
0.0
 76
     0
330
B
331
4BA
1001
ACAD_PSEXT
1000
None
1000
None
1000
Not applicable
1000
The layout will not be plotted unless a new plotter configuration name is selected.
1070
     0
  0
LAYOUT
  5
47F
102
{ACAD_XDICTIONARY
360
4C4
102
}
102
{ACAD_REACTORS
330
44C
102
}
330
44C
100
AcDbPlotSettings
  1

  2
HP Color LaserJet 2840 PS
  4

  6

 40
0.0
 41
0.0
 42
0.0
 43
0.0
 44
0.0
 45
0.0
 46
0.0
 47
0.0
 48
0.0
 49
0.0
140
0.0
141
0.0
142
1.0
143
1.0
 70
  1712
 72
     0
 73
     0
 74
     0
  7

 75
     0
147
1.0
148
0.0
149
0.0
100
AcDbLayout
  1
Model
 70
     1
 71
     0
 10
0.0
 20
0.0
 11
12.0
 21
9.0
 12
0.0
 22
0.0
 32
0.0
 14
0.0
 24
0.0
 34
0.0
 15
0.0
 25
0.0
 35
0.0
146
0.0
 13
0.0
 23
0.0
 33
0.0
 16
1.0
 26
0.0
 36
0.0
 17
0.0
 27
1.0
 37
0.0
 76
     0
330
A
  0
MATERIAL
  5
4A1
102
{ACAD_XDICTIONARY
360
4CA
102
}
102
{ACAD_REACTORS
330
47B
102
}
330
47B
100
AcDbMaterial
  1
ByBlock
  0
MATERIAL
  5
4A0
102
{ACAD_XDICTIONARY
360
4C8
102
}
102
{ACAD_REACTORS
330
47B
102
}
330
47B
100
AcDbMaterial
  1
ByLayer
  0
MATERIAL
  5
4A2
102
{ACAD_XDICTIONARY
360
4CC
102
}
102
{ACAD_REACTORS
330
47B
102
}
330
47B
100
AcDbMaterial
  1
Global
  0
MLINESTYLE
  5
1C
102
{ACAD_REACTORS
330
1B
102
}
330
1B
100
AcDbMlineStyle
  2
STANDARD
 70
     0
  3

 62
     0
 51
90.0
 52
90.0
 71
     2
 49
0.5
 62
   256
  6
BYLAYER
 49
-0.5
 62
   256
  6
BYLAYER
  0
ACDBPLACEHOLDER
  5
44B
102
{ACAD_REACTORS
330
44A
102
}
330
44A
  0
TABLESTYLE
  5
47E
102
{ACAD_XDICTIONARY
360
4C2
102
}
102
{ACAD_REACTORS
330
47D
102
}
330
47D
100
AcDbTableStyle
  3
Standard
 70
     0
 71
     0
 40
0.06
 41
0.06
280
     0
281
     0
  7
STANDARD
140
0.18
170
     2
 62
     0
 63
     7
283
     0
274
    -2
284
     1
 64
     0
275
    -2
285
     1
 65
     0
276
    -2
286
     1
 66
     0
277
    -2
287
     1
 67
     0
278
    -2
288
     1
 68
     0
279
    -2
289
     1
 69
     0
  7
STANDARD
140
0.25
170
     5
 62
     0
 63
     7
283
     0
274
    -2
284
     1
 64
     0
275
    -2
285
     1
 65
     0
276
    -2
286
     1
 66
     0
277
    -2
287
     1
 67
     0
278
    -2
288
     1
 68
     0
279
    -2
289
     1
 69
     0
  7
STANDARD
140
0.18
170
     5
 62
     0
 63
     7
283
     0
274
    -2
284
     1
 64
     0
275
    -2
285
     1
 65
     0
276
    -2
286
     1
 66
     0
277
    -2
287
     1
 67
     0
278
    -2
288
     1
 68
     0
279
    -2
289
     1
 69
     0
  0
VISUALSTYLE
  5
4A9
102
{ACAD_REACTORS
330
4A3
102
}
330
4A3
100
AcDbVisualStyle
  2
2dWireframe
 70
     4
 71
     0
 72
     2
 73
     0
 90
        0
 40
-0.6
 41
-30.0
 62
     5
 63
     7
 74
     1
 91
        4
 64
     7
 65
   257
 75
     1
175
     1
 42
1.0
 92
        0
 66
   257
 43
1.0
 76
     1
 77
     6
 78
     2
 67
     7
 79
     5
170
     0
171
     0
290
     0
174
     0
 93
        1
 44
0.0
173
     0
291
     0
 45
0.0
1001
ACAD
1000
AcDbSavedByObjectVersion
1070
     0
  0
VISUALSTYLE
  5
4AB
102
{ACAD_REACTORS
330
4A3
102
}
330
4A3
100
AcDbVisualStyle
  2
3D Hidden
 70
     6
 71
     1
 72
     2
 73
     2
 90
        0
 40
-0.6
 41
-30.0
 62
     5
 63
     7
 74
     2
 91
        2
 64
     7
 65
   257
 75
     2
175
     1
 42
40.0
 92
        0
 66
   257
 43
1.0
 76
     1
 77
     6
 78
     2
 67
     7
 79
     3
170
     0
171
     0
290
     0
174
     0
 93
        1
 44
0.0
173
     0
291
     0
 45
0.0
1001
ACAD
1000
AcDbSavedByObjectVersion
1070
     0
  0
VISUALSTYLE
  5
4AA
102
{ACAD_REACTORS
330
4A3
102
}
330
4A3
100
AcDbVisualStyle
  2
3dWireframe
 70
     5
 71
     0
 72
     2
 73
     0
 90
        0
 40
-0.6
 41
-30.0
 62
     5
 63
     7
 74
     1
 91
        4
 64
     7
 65
   257
 75
     1
175
     1
 42
1.0
 92
        0
 66
   257
 43
1.0
 76
     1
 77
     6
 78
     2
 67
     7
 79
     5
170
     0
171
     0
290
     0
174
     0
 93
        1
 44
0.0
173
     0
291
     0
 45
0.0
1001
ACAD
1000
AcDbSavedByObjectVersion
1070
     0
  0
VISUALSTYLE
  5
4A8
102
{ACAD_REACTORS
330
4A3
102
}
330
4A3
100
AcDbVisualStyle
  2
Basic
 70
     7
 71
     1
 72
     0
 73
     1
 90
        0
 40
-0.6
 41
-30.0
 62
     5
 63
     7
 74
     0
 91
        4
 64
     7
 65
   257
 75
     1
175
     1
 42
1.0
 92
        8
 66
     7
 43
1.0
 76
     1
 77
     6
 78
     2
 67
     7
 79
     5
170
     0
171
     0
290
     0
174
     0
 93
        1
 44
0.0
173
     0
291
     1
 45
0.0
1001
ACAD
1000
AcDbSavedByObjectVersion
1070
     0
  0
VISUALSTYLE
  5
4AF
102
{ACAD_REACTORS
330
4A3
102
}
330
4A3
100
AcDbVisualStyle
  2
Brighten
 70
    12
 71
     2
 72
     2
 73
     0
 90
        0
 40
-0.6
 41
-30.0
 62
     5
 63
     7
 74
     1
 91
        4
 64
     7
 65
   257
 75
     1
175
     1
 42
1.0
 92
        8
 66
     7
 43
1.0
 76
     1
 77
     6
 78
     2
 67
     7
 79
     5
170
     0
171
     0
290
     0
174
     0
 93
        1
 44
50.0
173
     0
291
     1
 45
0.0
1001
ACAD
1000
AcDbSavedByObjectVersion
1070
     0
  0
VISUALSTYLE
  5
4B3
102
{ACAD_REACTORS
330
4A3
102
}
330
4A3
100
AcDbVisualStyle
  2
ColorChange
 70
    16
 71
     2
 72
     2
 73
     3
 90
        0
 40
-0.6
 41
-30.0
 62
     5
 63
     8
 74
     1
 91
        4
 64
     7
 65
   257
 75
     1
175
     1
 42
1.0
 92
        8
 66
     8
 43
1.0
 76
     1
 77
     6
 78
     2
 67
     7
 79
     5
170
     0
171
     0
290
     0
174
     0
 93
        1
 44
0.0
173
     0
291
     1
 45
0.0
1001
ACAD
1000
AcDbSavedByObjectVersion
1070
     0
  0
VISUALSTYLE
  5
4AC
102
{ACAD_REACTORS
330
4A3
102
}
330
4A3
100
AcDbVisualStyle
  2
Conceptual
 70
     9
 71
     3
 72
     2
 73
     0
 90
        0
 40
-0.6
 41
-30.0
 62
     5
 63
     7
 74
     2
 91
        2
 64
     7
 65
   257
 75
     1
175
     1
 42
40.0
 92
        8
 66
     7
 43
1.0
 76
     1
 77
     6
 78
     2
 67
     7
 79
     3
170
     0
171
     0
290
     0
174
     0
 93
        1
 44
0.0
173
     0
291
     0
 45
0.0
1001
ACAD
1000
AcDbSavedByObjectVersion
1070
     0
  0
VISUALSTYLE
  5
4AE
102
{ACAD_REACTORS
330
4A3
102
}
330
4A3
100
AcDbVisualStyle
  2
Dim
 70
    11
 71
     2
 72
     2
 73
     0
 90
        0
 40
-0.6
 41
-30.0
 62
     5
 63
     7
 74
     1
 91
        4
 64
     7
 65
   257
 75
     1
175
     1
 42
1.0
 92
        8
 66
     7
 43
1.0
 76
     1
 77
     6
 78
     2
 67
     7
 79
     5
170
     0
171
     0
290
     0
174
     0
 93
        1
 44
-50.0
173
     0
291
     1
 45
0.0
1001
ACAD
1000
AcDbSavedByObjectVersion
1070
     0
  0
VISUALSTYLE
  5
4B2
102
{ACAD_REACTORS
330
4A3
102
}
330
4A3
100
AcDbVisualStyle
  2
Facepattern
 70
    15
 71
     2
 72
     2
 73
     0
 90
        0
 40
-0.6
 41
-30.0
 62
     5
 63
     7
 74
     1
 91
        4
 64
     7
 65
   257
 75
     1
175
     1
 42
1.0
 92
        8
 66
     7
 43
1.0
 76
     1
 77
     6
 78
     2
 67
     7
 79
     5
170
     0
171
     0
290
     0
174
     0
 93
        1
 44
0.0
173
     0
291
     1
 45
0.0
1001
ACAD
1000
AcDbSavedByObjectVersion
1070
     0
  0
VISUALSTYLE
  5
4A4
102
{ACAD_REACTORS
330
4A3
102
}
330
4A3
100
AcDbVisualStyle
  2
Flat
 70
     0
 71
     2
 72
     1
 73
     1
 90
        2
 40
-0.6
 41
30.0
 62
     5
 63
     7
 74
     0
 91
        4
 64
     7
 65
   257
 75
     1
175
     1
 42
1.0
 92
        8
 66
     7
 43
1.0
 76
     1
 77
     6
 78
     2
 67
     7
 79
     5
170
     0
171
     0
290
     0
174
     0
 93
       13
 44
0.0
173
     0
291
     1
 45
0.0
1001
ACAD
1000
AcDbSavedByObjectVersion
1070
     0
  0
VISUALSTYLE
  5
4A5
102
{ACAD_REACTORS
330
4A3
102
}
330
4A3
100
AcDbVisualStyle
  2
FlatWithEdges
 70
     1
 71
     2
 72
     1
 73
     1
 90
        2
 40
-0.6
 41
30.0
 62
     5
 63
     7
 74
     1
 91
        4
 64
     7
 65
   257
 75
     1
175
     1
 42
1.0
 92
        0
 66
   257
 43
1.0
 76
     1
 77
     6
 78
     2
 67
     7
 79
     5
170
     0
171
     0
290
     0
174
     0
 93
       13
 44
0.0
173
     0
291
     1
 45
0.0
1001
ACAD
1000
AcDbSavedByObjectVersion
1070
     0
  0
VISUALSTYLE
  5
4A6
102
{ACAD_REACTORS
330
4A3
102
}
330
4A3
100
AcDbVisualStyle
  2
Gouraud
 70
     2
 71
     2
 72
     2
 73
     1
 90
        2
 40
-0.6
 41
30.0
 62
     5
 63
     7
 74
     0
 91
        4
 64
     7
 65
   257
 75
     1
175
     1
 42
1.0
 92
        0
 66
     7
 43
1.0
 76
     1
 77
     6
 78
     2
 67
     7
 79
     5
170
     0
171
     0
290
     0
174
     0
 93
       13
 44
0.0
173
     0
291
     1
 45
0.0
1001
ACAD
1000
AcDbSavedByObjectVersion
1070
     0
  0
VISUALSTYLE
  5
4A7
102
{ACAD_REACTORS
330
4A3
102
}
330
4A3
100
AcDbVisualStyle
  2
GouraudWithEdges
 70
     3
 71
     2
 72
     2
 73
     1
 90
        2
 40
-0.6
 41
30.0
 62
     5
 63
     7
 74
     1
 91
        4
 64
     7
 65
   257
 75
     1
175
     1
 42
1.0
 92
        0
 66
   257
 43
1.0
 76
     1
 77
     6
 78
     2
 67
     7
 79
     5
170
     0
171
     0
290
     0
174
     0
 93
       13
 44
0.0
173
     0
291
     1
 45
0.0
1001
ACAD
1000
AcDbSavedByObjectVersion
1070
     0
  0
VISUALSTYLE
  5
4B1
102
{ACAD_REACTORS
330
4A3
102
}
330
4A3
100
AcDbVisualStyle
  2
Linepattern
 70
    14
 71
     2
 72
     2
 73
     0
 90
        0
 40
-0.6
 41
-30.0
 62
     5
 63
     7
 74
     1
 91
        4
 64
     7
 65
   257
 75
     7
175
     7
 42
1.0
 92
        8
 66
     7
 43
1.0
 76
     1
 77
     6
 78
     2
 67
     7
 79
     5
170
     0
171
     0
290
     0
174
     0
 93
        1
 44
0.0
173
     0
291
     1
 45
0.0
1001
ACAD
1000
AcDbSavedByObjectVersion
1070
     0
  0
VISUALSTYLE
  5
4AD
102
{ACAD_REACTORS
330
4A3
102
}
330
4A3
100
AcDbVisualStyle
  2
Realistic
 70
     8
 71
     2
 72
     2
 73
     0
 90
        0
 40
-0.6
 41
-30.0
 62
     5
 63
     7
 74
     1
 91
        0
 64
     7
 65
   257
 75
     1
175
     1
 42
1.0
 92
        8
 66
     8
 43
1.0
 76
     1
 77
     6
 78
     2
 67
     7
 79
     5
170
     0
171
     0
290
     0
174
     0
 93
       13
 44
0.0
173
     0
291
     0
 45
0.0
1001
ACAD
1000
AcDbSavedByObjectVersion
1070
     0
  0
VISUALSTYLE
  5
4B0
102
{ACAD_REACTORS
330
4A3
102
}
330
4A3
100
AcDbVisualStyle
  2
Thicken
 70
    13
 71
     2
 72
     2
 73
     0
 90
        0
 40
-0.6
 41
-30.0
 62
     5
 63
     7
 74
     1
 91
        4
 64
     7
 65
   257
 75
     1
175
     1
 42
1.0
 92
       12
 66
     7
 43
1.0
 76
     1
 77
     6
 78
     2
 67
     7
 79
     5
170
     0
171
     0
290
     0
174
     0
 93
        1
 44
0.0
173
     0
291
     1
 45
0.0
1001
ACAD
1000
AcDbSavedByObjectVersion
1070
     0
  0
DICTIONARYVAR
  5
488
102
{ACAD_REACTORS
330
452
102
}
330
452
100
DictionaryVariables
280
     0
  1
STANDARD
  0
DICTIONARYVAR
  5
453
102
{ACAD_REACTORS
330
452
102
}
330
452
100
DictionaryVariables
280
     0
  1
1
  0
DICTIONARYVAR
  5
4C0
102
{ACAD_REACTORS
330
452
102
}
330
452
100
DictionaryVariables
280
     0
  1
0
  0
DICTIONARYVAR
  5
4BF
102
{ACAD_REACTORS
330
452
102
}
330
452
100
DictionaryVariables
280
     0
  1
127
  0
XRECORD
  5
486
102
{ACAD_REACTORS
330
484
102
}
330
484
100
AcDbXrecord
280
     1
330
0
330
0
330
0
330
0
330
0
330
0
330
0
330
0
330
0
330
0
330
0
330
0
330
0
330
0
  0
DICTIONARY
  5
4C6
330
480
100
AcDbDictionary
280
     1
281
     1
  3
ACAD_XREC_ROUNDTRIP
360
4C7
  0
DICTIONARY
  5
4C4
330
47F
100
AcDbDictionary
280
     1
281
     1
  3
ACAD_XREC_ROUNDTRIP
360
4C5
  0
DICTIONARY
  5
4CA
330
4A1
100
AcDbDictionary
280
     1
281
     1
  3
ACAD_XREC_ROUNDTRIP
360
4CB
  0
DICTIONARY
  5
4C8
330
4A0
100
AcDbDictionary
280
     1
281
     1
  3
ACAD_XREC_ROUNDTRIP
360
4C9
  0
DICTIONARY
  5
4CC
330
4A2
100
AcDbDictionary
280
     1
281
     1
  3
ACAD_XREC_ROUNDTRIP
360
4CD
  0
DICTIONARY
  5
4C2
330
47E
100
AcDbDictionary
280
     1
281
     1
  3
ACAD_XREC_ROUNDTRIP
360
4C3
  0
XRECORD
  5
4C7
102
{ACAD_REACTORS
330
4C6
102
}
330
4C6
100
AcDbXrecord
280
     1
102
SHADEPLOT
 70
     0
102
SHADEPLOTRESLEVEL
 70
     2
102
SHADEPLOTCUSTOMDPI
 70
   300
  0
XRECORD
  5
4C5
102
{ACAD_REACTORS
330
4C4
102
}
330
4C4
100
AcDbXrecord
280
     1
102
SHADEPLOT
 70
     0
102
SHADEPLOTRESLEVEL
 70
     2
102
SHADEPLOTCUSTOMDPI
 70
   300
  0
XRECORD
  5
4CB
102
{ACAD_REACTORS
330
4CA
102
}
330
4CA
100
AcDbXrecord
280
     1
102
MATERIAL
148
0.0
149
0.0
149
0.0
 93
        0
 94
       63
282
     0
 72
     1
 77
     1
171
     1
175
     1
179
     1
273
     0
  0
XRECORD
  5
4C9
102
{ACAD_REACTORS
330
4C8
102
}
330
4C8
100
AcDbXrecord
280
     1
102
MATERIAL
148
0.0
149
0.0
149
0.0
 93
        0
 94
       63
282
     0
 72
     1
 77
     1
171
     1
175
     1
179
     1
273
     0
  0
XRECORD
  5
4CD
102
{ACAD_REACTORS
330
4CC
102
}
330
4CC
100
AcDbXrecord
280
     1
102
MATERIAL
148
0.0
149
0.0
149
0.0
 93
        0
 94
       63
282
     0
 72
     1
 77
     1
171
     1
175
     1
179
     1
273
     0
  0
XRECORD
  5
4C3
102
{ACAD_REACTORS
330
4C2
102
}
330
4C2
100
AcDbXrecord
280
     1
102
ACAD_ROUNDTRIP_PRE2007_TABLESTYLE
 90
        4
 91
        0
  1

 92
        4
 93
        0
  2

 94
        4
 95
        0
  3

  0
ENDSEC
  0
EOF
