  0
SECTION
  2
HEADER
  9
$ACADVER
  1
AC1018
  9
$ACADMAINTVER
 70
   104
  9
$DWGCODEPAGE
  3
ANSI_1252
  9
$LASTSAVEDBY
  1
jgayle
  9
$INSBASE
 10
0.0
 20
0.0
 30
0.0
  9
$EXTMIN
 10
-723.2336982494111
 20
-436.7942856434035
 30
0.0
  9
$EXTMAX
 10
691.4105606751493
 20
941.621666424859
 30
0.0
  9
$LIMMIN
 10
0.0
 20
0.0
  9
$LIMMAX
 10
297.0
 20
210.0
  9
$ORTHOMODE
 70
     1
  9
$REGENMODE
 70
     1
  9
$FILLMODE
 70
     1
  9
$QTEXTMODE
 70
     0
  9
$MIRRTEXT
 70
     1
  9
$LTSCALE
 40
1.0
  9
$ATTMODE
 70
     1
  9
$TEXTSIZE
 40
3.0
  9
$TRACEWID
 40
0.5
  9
$TEXTSTYLE
  7
STANDARD
  9
$CLAYER
  8
DIM
  9
$CELTYPE
  6
BYLAYER
  9
$CECOLOR
 62
   256
  9
$CELTSCALE
 40
1.0
  9
$DISPSILH
 70
     0
  9
$DIMSCALE
 40
1.0
  9
$DIMASZ
 40
15.0
  9
$DIMEXO
 40
5.0
  9
$DIMDLI
 40
15.0
  9
$DIMRND
 40
0.0
  9
$DIMDLE
 40
3.0
  9
$DIMEXE
 40
5.0
  9
$DIMTP
 40
0.0
  9
$DIMTM
 40
0.0
  9
$DIMTXT
 40
15.0
  9
$DIMCEN
 40
2.0
  9
$DIMTSZ
 40
0.0
  9
$DIMTOL
 70
     0
  9
$DIMLIM
 70
     0
  9
$DIMTIH
 70
     0
  9
$DIMTOH
 70
     0
  9
$DIMSE1
 70
     0
  9
$DIMSE2
 70
     0
  9
$DIMTAD
 70
     1
  9
$DIMZIN
 70
     8
  9
$DIMBLK
  1

  9
$DIMASO
 70
     1
  9
$DIMSHO
 70
     0
  9
$DIMPOST
  1
mm
  9
$DIMAPOST
  1
"
  9
$DIMALT
 70
     1
  9
$DIMALTD
 70
     4
  9
$DIMALTF
 40
0.03937
  9
$DIMLFAC
 40
1.0
  9
$DIMTOFL
 70
     1
  9
$DIMTVP
 40
1.0
  9
$DIMTIX
 70
     0
  9
$DIMSOXD
 70
     0
  9
$DIMSAH
 70
     0
  9
$DIMBLK1
  1

  9
$DIMBLK2
  1

  9
$DIMSTYLE
  2
STANDARD
  9
$DIMCLRD
 70
     0
  9
$DIMCLRE
 70
     0
  9
$DIMCLRT
 70
     0
  9
$DIMTFAC
 40
1.0
  9
$DIMGAP
 40
5.0
  9
$DIMJUST
 70
     0
  9
$DIMSD1
 70
     0
  9
$DIMSD2
 70
     0
  9
$DIMTOLJ
 70
     1
  9
$DIMTZIN
 70
     0
  9
$DIMALTZ
 70
     0
  9
$DIMALTTZ
 70
     0
  9
$DIMUPT
 70
     0
  9
$DIMDEC
 70
     1
  9
$DIMTDEC
 70
     1
  9
$DIMALTU
 70
     5
  9
$DIMALTTD
 70
     4
  9
$DIMTXSTY
  7
STANDARD
  9
$DIMAUNIT
 70
     0
  9
$DIMADEC
 70
     0
  9
$DIMALTRND
 40
0.0
  9
$DIMAZIN
 70
     0
  9
$DIMDSEP
 70
    46
  9
$DIMATFIT
 70
     3
  9
$DIMFRAC
 70
     0
  9
$DIMLDRBLK
  1

  9
$DIMLUNIT
 70
     2
  9
$DIMLWD
 70
    -2
  9
$DIMLWE
 70
    -2
  9
$DIMTMOVE
 70
     0
  9
$LUNITS
 70
     2
  9
$LUPREC
 70
     4
  9
$SKETCHINC
 40
1.0
  9
$FILLETRAD
 40
10.0
  9
$AUNITS
 70
     0
  9
$AUPREC
 70
     0
  9
$MENU
  1
acad
  9
$ELEVATION
 40
0.0
  9
$PELEVATION
 40
0.0
  9
$THICKNESS
 40
0.0
  9
$LIMCHECK
 70
     0
  9
$CHAMFERA
 40
0.0
  9
$CHAMFERB
 40
0.0
  9
$CHAMFERC
 40
0.0
  9
$CHAMFERD
 40
0.0
  9
$SKPOLY
 70
     0
  9
$TDCREATE
 40
2452723.576157408
  9
$TDUCREATE
 40
2452723.784490741
  9
$TDUPDATE
 40
2456350.582682038
  9
$TDUUPDATE
 40
2456350.791015371
  9
$TDINDWG
 40
0.0909539468
  9
$TDUSRTIMER
 40
0.0909536806
  9
$USRTIMER
 70
     1
  9
$ANGBASE
 50
0.0
  9
$ANGDIR
 70
     0
  9
$PDMODE
 70
     0
  9
$PDSIZE
 40
0.0
  9
$PLINEWID
 40
0.0
  9
$SPLFRAME
 70
     0
  9
$SPLINETYPE
 70
     6
  9
$SPLINESEGS
 70
     8
  9
$HANDSEED
  5
2C66
  9
$SURFTAB1
 70
     6
  9
$SURFTAB2
 70
     6
  9
$SURFTYPE
 70
     6
  9
$SURFU
 70
     6
  9
$SURFV
 70
     6
  9
$UCSBASE
  2

  9
$UCSNAME
  2

  9
$UCSORG
 10
0.0
 20
0.0
 30
0.0
  9
$UCSXDIR
 10
1.0
 20
0.0
 30
0.0
  9
$UCSYDIR
 10
0.0
 20
1.0
 30
0.0
  9
$UCSORTHOREF
  2

  9
$UCSORTHOVIEW
 70
     0
  9
$UCSORGTOP
 10
0.0
 20
0.0
 30
0.0
  9
$UCSORGBOTTOM
 10
0.0
 20
0.0
 30
0.0
  9
$UCSORGLEFT
 10
0.0
 20
0.0
 30
0.0
  9
$UCSORGRIGHT
 10
0.0
 20
0.0
 30
0.0
  9
$UCSORGFRONT
 10
0.0
 20
0.0
 30
0.0
  9
$UCSORGBACK
 10
0.0
 20
0.0
 30
0.0
  9
$PUCSBASE
  2

  9
$PUCSNAME
  2

  9
$PUCSORG
 10
0.0
 20
0.0
 30
0.0
  9
$PUCSXDIR
 10
1.0
 20
0.0
 30
0.0
  9
$PUCSYDIR
 10
0.0
 20
1.0
 30
0.0
  9
$PUCSORTHOREF
  2

  9
$PUCSORTHOVIEW
 70
     0
  9
$PUCSORGTOP
 10
0.0
 20
0.0
 30
0.0
  9
$PUCSORGBOTTOM
 10
0.0
 20
0.0
 30
0.0
  9
$PUCSORGLEFT
 10
0.0
 20
0.0
 30
0.0
  9
$PUCSORGRIGHT
 10
0.0
 20
0.0
 30
0.0
  9
$PUCSORGFRONT
 10
0.0
 20
0.0
 30
0.0
  9
$PUCSORGBACK
 10
0.0
 20
0.0
 30
0.0
  9
$USERI1
 70
     0
  9
$USERI2
 70
     0
  9
$USERI3
 70
     0
  9
$USERI4
 70
     0
  9
$USERI5
 70
     0
  9
$USERR1
 40
0.0
  9
$USERR2
 40
0.0
  9
$USERR3
 40
0.0
  9
$USERR4
 40
0.0
  9
$USERR5
 40
0.0
  9
$WORLDVIEW
 70
     1
  9
$SHADEDGE
 70
     3
  9
$SHADEDIF
 70
    70
  9
$TILEMODE
 70
     1
  9
$MAXACTVP
 70
    64
  9
$PINSBASE
 10
0.0
 20
0.0
 30
0.0
  9
$PLIMCHECK
 70
     0
  9
$PEXTMIN
 10
1.000000000000000E+20
 20
1.000000000000000E+20
 30
1.000000000000000E+20
  9
$PEXTMAX
 10
-1.000000000000000E+20
 20
-1.000000000000000E+20
 30
-1.000000000000000E+20
  9
$PLIMMIN
 10
0.0
 20
0.0
  9
$PLIMMAX
 10
12.0
 20
9.0
  9
$UNITMODE
 70
     0
  9
$VISRETAIN
 70
     1
  9
$PLINEGEN
 70
     0
  9
$PSLTSCALE
 70
     1
  9
$TREEDEPTH
 70
  3020
  9
$CMLSTYLE
  2
STANDARD
  9
$CMLJUST
 70
     0
  9
$CMLSCALE
 40
1.0
  9
$PROXYGRAPHICS
 70
     1
  9
$MEASUREMENT
 70
     0
  9
$CELWEIGHT
370
    -1
  9
$ENDCAPS
280
     0
  9
$JOINSTYLE
280
     0
  9
$LWDISPLAY
290
     0
  9
$INSUNITS
 70
     0
  9
$HYPERLINKBASE
  1

  9
$STYLESHEET
  1

  9
$XEDIT
290
     1
  9
$CEPSNTYPE
380
     0
  9
$PSTYLEMODE
290
     1
  9
$FINGERPRINTGUID
  2
{C67BE70C-451B-4AF7-B44B-624A4FC94FA9}
  9
$VERSIONGUID
  2
{86592536-3598-44C5-91B4-ACFDC983B1E6}
  9
$EXTNAMES
290
     1
  9
$PSVPSCALE
 40
0.0
  9
$OLESTARTUP
290
     0
  9
$SORTENTS
280
   127
  9
$INDEXCTL
280
     0
  9
$HIDETEXT
280
     0
  9
$XCLIPFRAME
290
     0
  9
$HALOGAP
280
     0
  9
$OBSCOLOR
 70
   257
  9
$OBSLTYPE
280
     0
  9
$INTERSECTIONDISPLAY
280
     0
  9
$INTERSECTIONCOLOR
 70
   257
  9
$DIMASSOC
280
     1
  9
$PROJECTNAME
  1

  0
ENDSEC
  0
SECTION
  2
CLASSES
  0
CLASS
  1
ACDBDICTIONARYWDFLT
  2
AcDbDictionaryWithDefault
  3
ObjectDBX Classes
 90
        0
 91
        1
280
     0
281
     0
  0
CLASS
  1
DICTIONARYVAR
  2
AcDbDictionaryVar
  3
ObjectDBX Classes
 90
        0
 91
        4
280
     0
281
     0
  0
CLASS
  1
TABLESTYLE
  2
AcDbTableStyle
  3
ObjectDBX Classes
 90
     4095
 91
        1
280
     0
281
     0
  0
CLASS
  1
SORTENTSTABLE
  2
AcDbSortentsTable
  3
ObjectDBX Classes
 90
        0
 91
        1
280
     0
281
     0
  0
CLASS
  1
MATERIAL
  2
AcDbMaterial
  3
ObjectDBX Classes
 90
     1153
 91
        3
280
     0
281
     0
  0
CLASS
  1
VISUALSTYLE
  2
AcDbVisualStyle
  3
ObjectDBX Classes
 90
     4095
 91
       24
280
     0
281
     0
  0
CLASS
  1
SCALE
  2
AcDbScale
  3
ObjectDBX Classes
 90
     1153
 91
       17
280
     0
281
     0
  0
CLASS
  1
MLEADERSTYLE
  2
AcDbMLeaderStyle
  3
ACDB_MLEADERSTYLE_CLASS
 90
     4095
 91
        1
280
     0
281
     0
  0
CLASS
  1
CELLSTYLEMAP
  2
AcDbCellStyleMap
  3
ObjectDBX Classes
 90
     1152
 91
        2
280
     0
281
     0
  0
ENDSEC
  0
SECTION
  2
TABLES
  0
TABLE
  2
VPORT
  5
8
330
0
100
AcDbSymbolTable
 70
     1
  0
VPORT
  5
2B85
330
8
100
AcDbSymbolTableRecord
100
AcDbViewportTableRecord
  2
*Active
 70
     0
 10
0.0
 20
0.0
 11
1.0
 21
1.0
 12
-15.9855632431022
 22
385.374689005243
 13
0.0
 23
0.0
 14
0.0
 24
0.0
 15
0.0
 25
0.0
 16
0.0
 26
0.0
 36
1.0
 17
0.0
 27
0.0
 37
0.0
 40
1391.856107517827
 41
2.320493066255778
 42
50.0
 43
0.0
 44
0.0
 50
0.0
 51
0.0
 71
     0
 72
   100
 73
     1
 74
     0
 75
     0
 76
     0
 77
     0
 78
     0
281
     0
 65
     1
110
0.0
120
0.0
130
0.0
111
1.0
121
0.0
131
0.0
112
0.0
122
1.0
132
0.0
 79
     0
146
0.0
1001
ACAD_NAV_VCDISPLAY
1070
     3
  0
ENDTAB
  0
TABLE
  2
LTYPE
  5
5
330
0
100
AcDbSymbolTable
 70
     7
  0
LTYPE
  5
13
330
5
100
AcDbSymbolTableRecord
100
AcDbLinetypeTableRecord
  2
BYBLOCK
 70
     0
  3

 72
    65
 73
     0
 40
0.0
  0
LTYPE
  5
14
330
5
100
AcDbSymbolTableRecord
100
AcDbLinetypeTableRecord
  2
BYLAYER
 70
     0
  3

 72
    65
 73
     0
 40
0.0
  0
LTYPE
  5
15
330
5
100
AcDbSymbolTableRecord
100
AcDbLinetypeTableRecord
  2
CONTINUOUS
 70
     0
  3
solid line
 72
    65
 73
     0
 40
0.0
  0
LTYPE
  5
23
330
5
100
AcDbSymbolTableRecord
100
AcDbLinetypeTableRecord
  2
DASHED
 70
     0
  3
-- -- -- -- -- -- -- -- -- --
 72
    65
 73
     2
 40
3.0
 49
2.0
 74
     0
 49
-1.0
 74
     0
  0
LTYPE
  5
24
330
5
100
AcDbSymbolTableRecord
100
AcDbLinetypeTableRecord
  2
CENTER
 70
     0
  3
--- - --- - --- - --- - --- -
 72
    65
 73
     4
 40
6.0
 49
3.0
 74
     0
 49
-1.0
 74
     0
 49
1.0
 74
     0
 49
-1.0
 74
     0
  0
LTYPE
  5
1F5F
330
5
100
AcDbSymbolTableRecord
100
AcDbLinetypeTableRecord
  2
HIDDEN
 70
     0
  3
Hidden __ __ __ __ __ __ __ __ __ __ __ __ __ __
 72
    65
 73
     2
 40
1.905
 49
1.27
 74
     0
 49
-0.635
 74
     0
  0
LTYPE
  5
1F60
330
5
100
AcDbSymbolTableRecord
100
AcDbLinetypeTableRecord
  2
PHANTOM
 70
     0
  3
Phantom ______  __  __  ______  __  __  ______
 72
    65
 73
     6
 40
12.7
 49
6.349999999999997
 74
     0
 49
-1.27
 74
     0
 49
1.27
 74
     0
 49
-1.27
 74
     0
 49
1.27
 74
     0
 49
-1.27
 74
     0
  0
LTYPE
  5
1F61
330
5
100
AcDbSymbolTableRecord
100
AcDbLinetypeTableRecord
  2
CENTERX2
 70
     0
  3
Center (2x) ________  __  ________  __  _____
 72
    65
 73
     4
 40
20.32
 49
12.7
 74
     0
 49
-2.54
 74
     0
 49
2.54
 74
     0
 49
-2.54
 74
     0
  0
ENDTAB
  0
TABLE
  2
LAYER
  5
2
330
0
100
AcDbSymbolTable
 70
     6
  0
LAYER
  5
10
102
{ACAD_XDICTIONARY
360
2BD3
102
}
330
2
100
AcDbSymbolTableRecord
100
AcDbLayerTableRecord
  2
0
 70
     0
 62
     7
  6
CONTINUOUS
370
    -3
390
F
  0
LAYER
  5
25
102
{ACAD_XDICTIONARY
360
2BD5
102
}
330
2
100
AcDbSymbolTableRecord
100
AcDbLayerTableRecord
  2
PIC06
 70
     0
 62
     7
  6
CONTINUOUS
370
    -3
390
F
  0
LAYER
  5
26
102
{ACAD_XDICTIONARY
360
2BD7
102
}
330
2
100
AcDbSymbolTableRecord
100
AcDbLayerTableRecord
  2
PIC52
 70
     0
 62
     7
  6
CONTINUOUS
370
    -3
390
F
  0
LAYER
  5
46A
102
{ACAD_XDICTIONARY
360
2BD9
102
}
330
2
100
AcDbSymbolTableRecord
100
AcDbLayerTableRecord
  2
DIM
 70
     0
 62
     7
  6
CONTINUOUS
370
    -3
390
F
  0
LAYER
  5
46C
330
2
100
AcDbSymbolTableRecord
100
AcDbLayerTableRecord
  2
DEFPOINTS
 70
     0
 62
     7
  6
CONTINUOUS
290
     0
370
    -3
390
F
  0
LAYER
  5
1F62
102
{ACAD_XDICTIONARY
360
2BDB
102
}
330
2
100
AcDbSymbolTableRecord
100
AcDbLayerTableRecord
  2
PIC55
 70
     0
 62
     7
  6
CONTINUOUS
370
    -3
390
F
  0
ENDTAB
  0
TABLE
  2
STYLE
  5
3
330
0
100
AcDbSymbolTable
 70
     3
  0
STYLE
  5
11
330
3
100
AcDbSymbolTableRecord
100
AcDbTextStyleTableRecord
  2
STANDARD
 70
     0
 40
0.0
 41
1.0
 50
0.0
 71
     0
 42
3.0
  3
monotxt
  4
extfont
  0
STYLE
  5
1F63
330
3
100
AcDbSymbolTableRecord
100
AcDbTextStyleTableRecord
  2
SLDTEXTSTYLE0
 70
     0
 40
0.0
 41
0.75
 50
0.0
 71
     0
 42
0.0
  3
txt
  4

  0
STYLE
  5
1F64
330
3
100
AcDbSymbolTableRecord
100
AcDbTextStyleTableRecord
  2
SLDTEXTSTYLE1
 70
     0
 40
0.0
 41
0.6547619345
 50
0.0
 71
     0
 42
0.0
  3
txt
  4

  0
ENDTAB
  0
TABLE
  2
VIEW
  5
6
330
0
100
AcDbSymbolTable
 70
     0
  0
ENDTAB
  0
TABLE
  2
UCS
  5
7
330
0
100
AcDbSymbolTable
 70
     0
  0
ENDTAB
  0
TABLE
  2
APPID
  5
9
330
0
100
AcDbSymbolTable
 70
     5
  0
APPID
  5
12
330
9
100
AcDbSymbolTableRecord
100
AcDbRegAppTableRecord
  2
ACAD
 70
     0
  0
APPID
  5
2A93
330
9
100
AcDbSymbolTableRecord
100
AcDbRegAppTableRecord
  2
DCO15
 70
     0
  0
APPID
  5
2BDF
330
9
100
AcDbSymbolTableRecord
100
AcDbRegAppTableRecord
  2
ACAD_NAV_VCDISPLAY
 70
     0
  0
APPID
  5
2C27
330
9
100
AcDbSymbolTableRecord
100
AcDbRegAppTableRecord
  2
ACAD_MLEADERVER
 70
     0
  0
APPID
  5
2C2F
330
9
100
AcDbSymbolTableRecord
100
AcDbRegAppTableRecord
  2
ACAD_EXEMPT_FROM_CAD_STANDARDS
 70
     0
  0
ENDTAB
  0
TABLE
  2
DIMSTYLE
  5
A
330
0
100
AcDbSymbolTable
 70
     1
100
AcDbDimStyleTable
 71
     1
340
417
  0
DIMSTYLE
105
417
330
A
100
AcDbSymbolTableRecord
100
AcDbDimStyleTableRecord
  2
STANDARD
 70
     0
340
11
  0
ENDTAB
  0
TABLE
  2
BLOCK_RECORD
  5
1
330
0
100
AcDbSymbolTable
 70
    81
  0
BLOCK_RECORD
  5
1E
102
{ACAD_XDICTIONARY
360
43E
102
}
330
1
100
AcDbSymbolTableRecord
100
AcDbBlockTableRecord
  2
*MODEL_SPACE
340
2A8D
  0
BLOCK_RECORD
  5
1A
102
{ACAD_XDICTIONARY
360
43C
102
}
330
1
100
AcDbSymbolTableRecord
100
AcDbBlockTableRecord
  2
*PAPER_SPACE
340
2A8E
  0
BLOCK_RECORD
  5
29
330
1
100
AcDbSymbolTableRecord
100
AcDbBlockTableRecord
  2
MARK1_1
340
0
102
{BLKREFS
331
D8
331
DA
331
E4
331
E6
331
F0
331
F4
331
FB
331
FF
331
108
331
10A
331
113
331
115
331
11F
331
121
331
12B
331
12D
331
136
331
138
331
142
331
144
331
14F
331
153
331
31
331
33
331
3D
331
3F
331
49
331
4D
331
54
331
56
331
61
331
63
331
6D
331
6F
331
79
331
7B
331
85
331
87
331
91
331
93
331
9D
331
9F
331
A9
331
AB
331
B5
331
B7
331
C1
331
C3
331
CD
331
CF
102
}
  0
BLOCK_RECORD
  5
2E
330
1
100
AcDbSymbolTableRecord
100
AcDbBlockTableRecord
  2
COMP1
340
0
  0
BLOCK_RECORD
  5
3A
330
1
100
AcDbSymbolTableRecord
100
AcDbBlockTableRecord
  2
COMP2
340
0
  0
BLOCK_RECORD
  5
46
330
1
100
AcDbSymbolTableRecord
100
AcDbBlockTableRecord
  2
COMP3
340
0
  0
BLOCK_RECORD
  5
51
330
1
100
AcDbSymbolTableRecord
100
AcDbBlockTableRecord
  2
COMP4
340
0
  0
BLOCK_RECORD
  5
5E
330
1
100
AcDbSymbolTableRecord
100
AcDbBlockTableRecord
  2
COMP5
340
0
  0
BLOCK_RECORD
  5
6A
330
1
100
AcDbSymbolTableRecord
100
AcDbBlockTableRecord
  2
COMP6
340
0
  0
BLOCK_RECORD
  5
76
330
1
100
AcDbSymbolTableRecord
100
AcDbBlockTableRecord
  2
COMP7
340
0
  0
BLOCK_RECORD
  5
82
330
1
100
AcDbSymbolTableRecord
100
AcDbBlockTableRecord
  2
COMP8
340
0
  0
BLOCK_RECORD
  5
8E
330
1
100
AcDbSymbolTableRecord
100
AcDbBlockTableRecord
  2
COMP9
340
0
  0
BLOCK_RECORD
  5
9A
330
1
100
AcDbSymbolTableRecord
100
AcDbBlockTableRecord
  2
COMP10
340
0
  0
BLOCK_RECORD
  5
A6
330
1
100
AcDbSymbolTableRecord
100
AcDbBlockTableRecord
  2
COMP11
340
0
  0
BLOCK_RECORD
  5
B2
330
1
100
AcDbSymbolTableRecord
100
AcDbBlockTableRecord
  2
COMP12
340
0
  0
BLOCK_RECORD
  5
BE
330
1
100
AcDbSymbolTableRecord
100
AcDbBlockTableRecord
  2
COMP13
340
0
  0
BLOCK_RECORD
  5
CA
330
1
100
AcDbSymbolTableRecord
100
AcDbBlockTableRecord
  2
COMP14
340
0
  0
BLOCK_RECORD
  5
D5
330
1
100
AcDbSymbolTableRecord
100
AcDbBlockTableRecord
  2
COMP15
340
0
  0
BLOCK_RECORD
  5
E1
330
1
100
AcDbSymbolTableRecord
100
AcDbBlockTableRecord
  2
COMP16
340
0
  0
BLOCK_RECORD
  5
ED
330
1
100
AcDbSymbolTableRecord
100
AcDbBlockTableRecord
  2
COMP17
340
0
  0
BLOCK_RECORD
  5
F8
330
1
100
AcDbSymbolTableRecord
100
AcDbBlockTableRecord
  2
COMP18
340
0
  0
BLOCK_RECORD
  5
105
330
1
100
AcDbSymbolTableRecord
100
AcDbBlockTableRecord
  2
COMP19
340
0
  0
BLOCK_RECORD
  5
110
330
1
100
AcDbSymbolTableRecord
100
AcDbBlockTableRecord
  2
COMP20
340
0
  0
BLOCK_RECORD
  5
11C
330
1
100
AcDbSymbolTableRecord
100
AcDbBlockTableRecord
  2
COMP21
340
0
  0
BLOCK_RECORD
  5
128
330
1
100
AcDbSymbolTableRecord
100
AcDbBlockTableRecord
  2
COMP22
340
0
  0
BLOCK_RECORD
  5
133
330
1
100
AcDbSymbolTableRecord
100
AcDbBlockTableRecord
  2
COMP23
340
0
  0
BLOCK_RECORD
  5
13F
330
1
100
AcDbSymbolTableRecord
100
AcDbBlockTableRecord
  2
COMP24
340
0
  0
BLOCK_RECORD
  5
14C
330
1
100
AcDbSymbolTableRecord
100
AcDbBlockTableRecord
  2
COMP25
340
0
  0
BLOCK_RECORD
  5
1CAC
330
1
100
AcDbSymbolTableRecord
100
AcDbBlockTableRecord
  2
COMP26
340
0
  0
BLOCK_RECORD
  5
1CB9
330
1
100
AcDbSymbolTableRecord
100
AcDbBlockTableRecord
  2
COMP27
340
0
  0
BLOCK_RECORD
  5
1CC6
330
1
100
AcDbSymbolTableRecord
100
AcDbBlockTableRecord
  2
COMP28
340
0
  0
BLOCK_RECORD
  5
1CD3
330
1
100
AcDbSymbolTableRecord
100
AcDbBlockTableRecord
  2
COMP29
340
0
  0
BLOCK_RECORD
  5
1CE2
330
1
100
AcDbSymbolTableRecord
100
AcDbBlockTableRecord
  2
COMP30
340
0
  0
BLOCK_RECORD
  5
1CF1
330
1
100
AcDbSymbolTableRecord
100
AcDbBlockTableRecord
  2
COMP31
340
0
  0
BLOCK_RECORD
  5
1CFA
330
1
100
AcDbSymbolTableRecord
100
AcDbBlockTableRecord
  2
COMP32
340
0
  0
BLOCK_RECORD
  5
1D03
330
1
100
AcDbSymbolTableRecord
100
AcDbBlockTableRecord
  2
COMP33
340
0
  0
BLOCK_RECORD
  5
1D0E
330
1
100
AcDbSymbolTableRecord
100
AcDbBlockTableRecord
  2
COMP34
340
0
  0
BLOCK_RECORD
  5
1D1A
330
1
100
AcDbSymbolTableRecord
100
AcDbBlockTableRecord
  2
COMP35
340
0
  0
BLOCK_RECORD
  5
1D26
330
1
100
AcDbSymbolTableRecord
100
AcDbBlockTableRecord
  2
COMP36
340
0
  0
BLOCK_RECORD
  5
1D33
330
1
100
AcDbSymbolTableRecord
100
AcDbBlockTableRecord
  2
COMP37
340
0
  0
BLOCK_RECORD
  5
1D3C
330
1
100
AcDbSymbolTableRecord
100
AcDbBlockTableRecord
  2
COMP38
340
0
  0
BLOCK_RECORD
  5
1D49
330
1
100
AcDbSymbolTableRecord
100
AcDbBlockTableRecord
  2
COMP39
340
0
  0
BLOCK_RECORD
  5
1D57
330
1
100
AcDbSymbolTableRecord
100
AcDbBlockTableRecord
  2
COMP40
340
0
  0
BLOCK_RECORD
  5
1D64
330
1
100
AcDbSymbolTableRecord
100
AcDbBlockTableRecord
  2
COMP41
340
0
  0
BLOCK_RECORD
  5
1D70
330
1
100
AcDbSymbolTableRecord
100
AcDbBlockTableRecord
  2
COMP42
340
0
  0
BLOCK_RECORD
  5
1D7E
330
1
100
AcDbSymbolTableRecord
100
AcDbBlockTableRecord
  2
COMP43
340
0
  0
BLOCK_RECORD
  5
1D88
330
1
100
AcDbSymbolTableRecord
100
AcDbBlockTableRecord
  2
COMP44
340
0
  0
BLOCK_RECORD
  5
1D96
330
1
100
AcDbSymbolTableRecord
100
AcDbBlockTableRecord
  2
COMP45
340
0
  0
BLOCK_RECORD
  5
1DA4
330
1
100
AcDbSymbolTableRecord
100
AcDbBlockTableRecord
  2
COMP46
340
0
  0
BLOCK_RECORD
  5
1DB2
330
1
100
AcDbSymbolTableRecord
100
AcDbBlockTableRecord
  2
COMP47
340
0
  0
BLOCK_RECORD
  5
1DC1
330
1
100
AcDbSymbolTableRecord
100
AcDbBlockTableRecord
  2
COMP48
340
0
  0
BLOCK_RECORD
  5
1DCF
330
1
100
AcDbSymbolTableRecord
100
AcDbBlockTableRecord
  2
COMP49
340
0
  0
BLOCK_RECORD
  5
1DDD
330
1
100
AcDbSymbolTableRecord
100
AcDbBlockTableRecord
  2
COMP50
340
0
  0
BLOCK_RECORD
  5
1DEB
330
1
100
AcDbSymbolTableRecord
100
AcDbBlockTableRecord
  2
COMP51
340
0
  0
BLOCK_RECORD
  5
1DF8
330
1
100
AcDbSymbolTableRecord
100
AcDbBlockTableRecord
  2
COMP52
340
0
  0
BLOCK_RECORD
  5
1E01
330
1
100
AcDbSymbolTableRecord
100
AcDbBlockTableRecord
  2
COMP53
340
0
  0
BLOCK_RECORD
  5
1E0A
330
1
100
AcDbSymbolTableRecord
100
AcDbBlockTableRecord
  2
COMP54
340
0
  0
BLOCK_RECORD
  5
1E17
330
1
100
AcDbSymbolTableRecord
100
AcDbBlockTableRecord
  2
COMP55
340
0
  0
BLOCK_RECORD
  5
1E25
330
1
100
AcDbSymbolTableRecord
100
AcDbBlockTableRecord
  2
COMP56
340
0
  0
BLOCK_RECORD
  5
1E2E
330
1
100
AcDbSymbolTableRecord
100
AcDbBlockTableRecord
  2
COMP57
340
0
  0
BLOCK_RECORD
  5
1E38
330
1
100
AcDbSymbolTableRecord
100
AcDbBlockTableRecord
  2
COMP58
340
0
  0
BLOCK_RECORD
  5
1E46
330
1
100
AcDbSymbolTableRecord
100
AcDbBlockTableRecord
  2
MARK25_2
340
0
  0
BLOCK_RECORD
  5
1E5B
330
1
100
AcDbSymbolTableRecord
100
AcDbBlockTableRecord
  2
MARK25_2_0
340
0
  0
BLOCK_RECORD
  5
1E70
330
1
100
AcDbSymbolTableRecord
100
AcDbBlockTableRecord
  2
COMP281
340
0
  0
BLOCK_RECORD
  5
1E7C
330
1
100
AcDbSymbolTableRecord
100
AcDbBlockTableRecord
  2
COMP282
340
0
  0
BLOCK_RECORD
  5
1E85
330
1
100
AcDbSymbolTableRecord
100
AcDbBlockTableRecord
  2
COMP283
340
0
  0
BLOCK_RECORD
  5
1E94
330
1
100
AcDbSymbolTableRecord
100
AcDbBlockTableRecord
  2
COMP293
340
0
  0
BLOCK_RECORD
  5
1E9C
330
1
100
AcDbSymbolTableRecord
100
AcDbBlockTableRecord
  2
COMP294
340
0
  0
BLOCK_RECORD
  5
1EA5
330
1
100
AcDbSymbolTableRecord
100
AcDbBlockTableRecord
  2
COMP295
340
0
  0
BLOCK_RECORD
  5
1EAE
330
1
100
AcDbSymbolTableRecord
100
AcDbBlockTableRecord
  2
COMP300
340
0
  0
BLOCK_RECORD
  5
1EB7
330
1
100
AcDbSymbolTableRecord
100
AcDbBlockTableRecord
  2
COMP301
340
0
  0
BLOCK_RECORD
  5
1EC4
330
1
100
AcDbSymbolTableRecord
100
AcDbBlockTableRecord
  2
COMP302
340
0
  0
BLOCK_RECORD
  5
1ECC
330
1
100
AcDbSymbolTableRecord
100
AcDbBlockTableRecord
  2
COMP303
340
0
  0
BLOCK_RECORD
  5
1ED4
330
1
100
AcDbSymbolTableRecord
100
AcDbBlockTableRecord
  2
COMP304
340
0
  0
BLOCK_RECORD
  5
1EE1
330
1
100
AcDbSymbolTableRecord
100
AcDbBlockTableRecord
  2
COMP305
340
0
  0
BLOCK_RECORD
  5
1EEF
330
1
100
AcDbSymbolTableRecord
100
AcDbBlockTableRecord
  2
COMP307
340
0
  0
BLOCK_RECORD
  5
1EF8
330
1
100
AcDbSymbolTableRecord
100
AcDbBlockTableRecord
  2
COMP340
340
0
  0
BLOCK_RECORD
  5
1F05
330
1
100
AcDbSymbolTableRecord
100
AcDbBlockTableRecord
  2
COMP341
340
0
  0
BLOCK_RECORD
  5
1F15
330
1
100
AcDbSymbolTableRecord
100
AcDbBlockTableRecord
  2
COMP342
340
0
  0
BLOCK_RECORD
  5
1F25
330
1
100
AcDbSymbolTableRecord
100
AcDbBlockTableRecord
  2
COMP343
340
0
  0
BLOCK_RECORD
  5
1F34
330
1
100
AcDbSymbolTableRecord
100
AcDbBlockTableRecord
  2
COMP344
340
0
  0
BLOCK_RECORD
  5
1F43
330
1
100
AcDbSymbolTableRecord
100
AcDbBlockTableRecord
  2
COMP345
340
0
  0
BLOCK_RECORD
  5
1F52
330
1
100
AcDbSymbolTableRecord
100
AcDbBlockTableRecord
  2
COMP346
340
0
  0
ENDTAB
  0
ENDSEC
  0
SECTION
  2
BLOCKS
  0
BLOCK
  5
1F
330
1E
100
AcDbEntity
  8
0
100
AcDbBlockBegin
  2
*MODEL_SPACE
 70
     0
 10
0.0
 20
0.0
 30
0.0
  3
*MODEL_SPACE
  1

  0
ENDBLK
  5
20
330
1E
100
AcDbEntity
  8
0
100
AcDbBlockEnd
  0
BLOCK
  5
1B
330
1A
100
AcDbEntity
 67
     1
  8
0
100
AcDbBlockBegin
  2
*PAPER_SPACE
 70
     0
 10
0.0
 20
0.0
 30
0.0
  3
*PAPER_SPACE
  1

  0
ENDBLK
  5
1C
330
1A
100
AcDbEntity
 67
     1
  8
0
100
AcDbBlockEnd
  0
BLOCK
  5
2A
330
29
100
AcDbEntity
  8
0
100
AcDbBlockBegin
  2
MARK1_1
 70
     0
 10
0.0
 20
0.0
 30
0.0
  3
MARK1_1
  1

  0
LINE
  5
2B
330
29
100
AcDbEntity
  8
0
  6
Continuous
 62
     0
100
AcDbLine
 10
1.0
 20
-0.25
 30
0.0
 11
0.0
 21
0.0
 31
0.0
  0
LINE
  5
2C
330
29
100
AcDbEntity
  8
0
  6
Continuous
 62
     0
100
AcDbLine
 10
0.0
 20
0.0
 30
0.0
 11
1.0
 21
0.25
 31
0.0
  0
ENDBLK
  5
2D
330
29
100
AcDbEntity
  8
0
100
AcDbBlockEnd
  0
BLOCK
  5
2F
330
2E
100
AcDbEntity
  8
PIC06
100
AcDbBlockBegin
  2
COMP1
 70
     0
 10
0.0
 20
0.0
 30
0.0
  3
COMP1
  1

  0
LINE
  5
30
330
2E
100
AcDbEntity
  8
PIC06
  6
Continuous
 62
     7
100
AcDbLine
 10
137.4419838276643
 20
-25.18227059993388
 30
0.0
 11
137.4419838276643
 21
-43.38570312184129
 31
0.0
  0
INSERT
  5
31
330
2E
100
AcDbEntity
  8
PIC06
  6
Continuous
 62
     7
100
AcDbBlockReference
  2
MARK1_1
 10
137.4419838276643
 20
-25.18227059993388
 30
0.0
 41
2.5
 42
2.5
 50
270.0
  0
LINE
  5
32
330
2E
100
AcDbEntity
  8
PIC06
  6
Continuous
 62
     7
100
AcDbLine
 10
137.4419838276643
 20
-56.84956957254053
 30
0.0
 11
137.4419838276643
 21
-43.38570312184129
 31
0.0
  0
INSERT
  5
33
330
2E
100
AcDbEntity
  8
PIC06
  6
Continuous
 62
     7
100
AcDbBlockReference
  2
MARK1_1
 10
137.4419838276643
 20
-56.84956957254053
 30
0.0
 41
2.5
 42
2.5
 50
90.0
  0
LINE
  5
34
330
2E
100
AcDbEntity
  8
PIC06
  6
Continuous
 62
     7
100
AcDbLine
 10
120.8663049580864
 20
-25.18227059993388
 30
0.0
 11
138.4419732770327
 21
-25.18227059993388
 31
0.0
  0
LINE
  5
35
330
2E
100
AcDbEntity
  8
PIC06
  6
Continuous
 62
     7
100
AcDbLine
 10
121.8820723103853
 20
-56.84956957254053
 30
0.0
 11
138.4419732770327
 21
-56.84956957254053
 31
0.0
  0
TEXT
  5
36
330
2E
100
AcDbEntity
  8
PIC06
  6
Continuous
 62
     7
100
AcDbText
 10
136.8419860889517
 20
-45.72945922988401
 30
0.0
 40
2.5
  1
1
 50
90.0
 41
0.6547619344966496
100
AcDbText
  0
TEXT
  5
37
330
2E
100
AcDbEntity
  8
PIC06
  6
Continuous
 62
     7
100
AcDbText
 10
136.8419866506302
 20
-44.01070922988409
 30
0.0
 40
2.5
  1
9
 50
90.0
 41
0.6547619344966496
100
AcDbText
  0
TEXT
  5
38
330
2E
100
AcDbEntity
  8
PIC06
  6
Continuous
 62
     7
100
AcDbText
 10
136.8419872123091
 20
-42.29195922988417
 30
0.0
 40
2.5
  1
0
 50
90.0
 41
0.6547619344966496
100
AcDbText
  0
ENDBLK
  5
39
330
2E
100
AcDbEntity
  8
PIC06
100
AcDbBlockEnd
  0
BLOCK
  5
3B
330
3A
100
AcDbEntity
  8
PIC06
100
AcDbBlockBegin
  2
COMP2
 70
     0
 10
0.0
 20
0.0
 30
0.0
  3
COMP2
  1

  0
LINE
  5
3C
330
3A
100
AcDbEntity
  8
PIC06
  6
Continuous
 62
     7
100
AcDbLine
 10
116.1027007278681
 20
-76.00475754849412
 30
0.0
 11
94.64918805230992
 21
-76.00475754849412
 31
0.0
  0
INSERT
  5
3D
330
3A
100
AcDbEntity
  8
PIC06
  6
Continuous
 62
     7
100
AcDbBlockReference
  2
MARK1_1
 10
116.1027007278681
 20
-76.00475754849412
 30
0.0
 41
2.5
 42
2.5
 50
180.0
  0
LINE
  5
3E
330
3A
100
AcDbEntity
  8
PIC06
  6
Continuous
 62
     7
100
AcDbLine
 10
77.93527705251199
 20
-76.00475754849412
 30
0.0
 11
94.64918805230992
 21
-76.00475754849412
 31
0.0
  0
INSERT
  5
3F
330
3A
100
AcDbEntity
  8
PIC06
  6
Continuous
 62
     7
100
AcDbBlockReference
  2
MARK1_1
 10
77.93527705251199
 20
-76.00475754849412
 30
0.0
 41
2.5
 42
2.5
  0
LINE
  5
40
330
3A
100
AcDbEntity
  8
PIC06
  6
Continuous
 62
     7
100
AcDbLine
 10
116.1027007278681
 20
-60.99348166038819
 30
0.0
 11
116.1027007278681
 21
-77.00475717059179
 31
0.0
  0
LINE
  5
41
330
3A
100
AcDbEntity
  8
PIC06
  6
Continuous
 62
     7
100
AcDbLine
 10
77.93527705251199
 20
-60.99348166038819
 30
0.0
 11
77.93527705251199
 21
-77.00475717059179
 31
0.0
  0
TEXT
  5
42
330
3A
100
AcDbEntity
  8
PIC06
  6
Continuous
 62
     7
100
AcDbText
 10
92.30544211699635
 20
-75.40475472341677
 30
0.0
 40
2.5
  1
2
 41
0.6547619344966496
100
AcDbText
  0
TEXT
  5
43
330
3A
100
AcDbEntity
  8
PIC06
  6
Continuous
 62
     7
100
AcDbText
 10
94.02419211699635
 20
-75.40475472341677
 30
0.0
 40
2.5
  1
2
 41
0.6547619344966496
100
AcDbText
  0
TEXT
  5
44
330
3A
100
AcDbEntity
  8
PIC06
  6
Continuous
 62
     7
100
AcDbText
 10
95.74294211699635
 20
-75.40475472341677
 30
0.0
 40
2.5
  1
9
 41
0.6547619344966496
100
AcDbText
  0
ENDBLK
  5
45
330
3A
100
AcDbEntity
  8
PIC06
100
AcDbBlockEnd
  0
BLOCK
  5
47
330
46
100
AcDbEntity
  8
PIC06
100
AcDbBlockBegin
  2
COMP3
 70
     0
 10
0.0
 20
0.0
 30
0.0
  3
COMP3
  1

  0
LINE
  5
48
330
46
100
AcDbEntity
  8
PIC06
  6
Continuous
 62
     7
100
AcDbLine
 10
117.6842549307073
 20
-55.36858297019808
 30
0.0
 11
122.7709755573032
 21
-50.60531444004209
 31
0.0
  0
INSERT
  5
49
330
46
100
AcDbEntity
  8
PIC06
  6
Continuous
 62
     7
100
AcDbBlockReference
  2
MARK1_1
 10
117.6842549307073
 20
-55.36858297019808
 30
0.0
 41
2.5
 42
2.5
 50
43.0
  0
LINE
  5
4A
330
46
100
AcDbEntity
  8
PIC06
  6
Continuous
 62
     7
100
AcDbLine
 10
117.6842549307073
 20
-55.36858297019808
 30
0.0
 11
116.1027007278681
 21
-56.84956957254053
 31
0.0
  0
LINE
  5
4B
330
46
100
AcDbEntity
  8
PIC06
  6
Continuous
 62
     7
100
AcDbLine
 10
114.5211465250284
 20
-58.33055617488299
 30
0.0
 11
116.1027007278681
 21
-56.84956957254053
 31
0.0
  0
LINE
  5
4C
330
46
100
AcDbEntity
  8
PIC06
  6
Continuous
 62
     7
100
AcDbLine
 10
114.5211465250284
 20
-58.33055617488299
 30
0.0
 11
112.3313445001258
 21
-60.38111388301422
 31
0.0
  0
INSERT
  5
4D
330
46
100
AcDbEntity
  8
PIC06
  6
Continuous
 62
     7
100
AcDbBlockReference
  2
MARK1_1
 10
114.5211465250284
 20
-58.33055617488299
 30
0.0
 41
2.5
 42
2.5
 50
223.0
  0
TEXT
  5
4E
330
46
100
AcDbEntity
  8
PIC06
  6
Continuous
 62
     7
100
AcDbText
 10
119.8277201742766
 20
-52.53520323485189
 30
0.0
 40
2.5
  1
2
 50
43.0
 41
0.6547619344966496
100
AcDbText
  0
TEXT
  5
4F
330
46
100
AcDbEntity
  8
PIC06
  6
Continuous
 62
     7
100
AcDbText
 10
121.084734531954
 20
-51.36301874975885
 30
0.0
 40
2.5
  1
4
 50
43.0
 41
0.6547619344966496
100
AcDbText
  0
ENDBLK
  5
50
330
46
100
AcDbEntity
  8
PIC06
100
AcDbBlockEnd
  0
BLOCK
  5
52
330
51
100
AcDbEntity
  8
PIC06
100
AcDbBlockBegin
  2
COMP4
 70
     0
 10
0.0
 20
0.0
 30
0.0
  3
COMP4
  1

  0
LINE
  5
53
330
51
100
AcDbEntity
  8
PIC06
  6
Continuous
 62
     7
100
AcDbLine
 10
-82.08873116031373
 20
-67.34981992279518
 30
0.0
 11
-82.08873116031373
 21
-53.03348385467234
 31
0.0
  0
INSERT
  5
54
330
51
100
AcDbEntity
  8
PIC06
  6
Continuous
 62
     7
100
AcDbBlockReference
  2
MARK1_1
 10
-82.08873116031373
 20
-67.34981992279518
 30
0.0
 41
2.5
 42
2.5
 50
90.0
  0
LINE
  5
55
330
51
100
AcDbEntity
  8
PIC06
  6
Continuous
 62
     7
100
AcDbLine
 10
-82.08873116031373
 20
-45.01614746103405
 30
0.0
 11
-82.08873116031373
 21
-53.03348385467234
 31
0.0
  0
INSERT
  5
56
330
51
100
AcDbEntity
  8
PIC06
  6
Continuous
 62
     7
100
AcDbBlockReference
  2
MARK1_1
 10
-82.08873116031373
 20
-45.01614746103405
 30
0.0
 41
2.5
 42
2.5
 50
270.0
  0
LINE
  5
57
330
51
100
AcDbEntity
  8
PIC06
  6
Continuous
 62
     7
100
AcDbLine
 10
-64.65576588605381
 20
-67.34981992279518
 30
0.0
 11
-83.08873078241139
 21
-67.34981992279518
 31
0.0
  0
LINE
  5
58
330
51
100
AcDbEntity
  8
PIC06
  6
Continuous
 62
     7
100
AcDbLine
 10
-64.65576588605381
 20
-45.01614746103405
 30
0.0
 11
-83.08873078241139
 21
-45.01614746103405
 31
0.0
  0
TEXT
  5
59
330
51
100
AcDbEntity
  8
PIC06
  6
Continuous
 62
     7
100
AcDbText
 10
-82.68872889902651
 20
-56.23661177687518
 30
0.0
 40
2.5
  1
%%c
 50
90.0
 41
0.6547619344966496
100
AcDbText
  0
TEXT
  5
5A
330
51
100
AcDbEntity
  8
PIC06
  6
Continuous
 62
     7
100
AcDbText
 10
-82.68872833734777
 20
-54.51786177687528
 30
0.0
 40
2.5
  1
1
 50
90.0
 41
0.6547619344966496
100
AcDbText
  0
TEXT
  5
5B
330
51
100
AcDbEntity
  8
PIC06
  6
Continuous
 62
     7
100
AcDbText
 10
-82.68872777566905
 20
-52.79911177687537
 30
0.0
 40
2.5
  1
3
 50
90.0
 41
0.6547619344966496
100
AcDbText
  0
TEXT
  5
5C
330
51
100
AcDbEntity
  8
PIC06
  6
Continuous
 62
     7
100
AcDbText
 10
-82.68872721399032
 20
-51.08036177687544
 30
0.0
 40
2.5
  1
4
 50
90.0
 41
0.6547619344966496
100
AcDbText
  0
ENDBLK
  5
5D
330
51
100
AcDbEntity
  8
PIC06
100
AcDbBlockEnd
  0
BLOCK
  5
5F
330
5E
100
AcDbEntity
  8
PIC06
100
AcDbBlockBegin
  2
COMP5
 70
     0
 10
0.0
 20
0.0
 30
0.0
  3
COMP5
  1

  0
LINE
  5
60
330
5E
100
AcDbEntity
  8
PIC06
  6
Continuous
 62
     7
100
AcDbLine
 10
-75.28704098791695
 20
-63.34984177986278
 30
0.0
 11
-75.28704098791695
 21
-54.85987530298643
 31
0.0
  0
INSERT
  5
61
330
5E
100
AcDbEntity
  8
PIC06
  6
Continuous
 62
     7
100
AcDbBlockReference
  2
MARK1_1
 10
-75.28704098791695
 20
-63.34984177986278
 30
0.0
 41
2.5
 42
2.5
 50
90.0
  0
LINE
  5
62
330
5E
100
AcDbEntity
  8
PIC06
  6
Continuous
 62
     7
100
AcDbLine
 10
-75.28704098791695
 20
-49.01612051760185
 30
0.0
 11
-75.28704098791695
 21
-54.85987530298643
 31
0.0
  0
INSERT
  5
63
330
5E
100
AcDbEntity
  8
PIC06
  6
Continuous
 62
     7
100
AcDbBlockReference
  2
MARK1_1
 10
-75.28704098791695
 20
-49.01612051760185
 30
0.0
 41
2.5
 42
2.5
 50
270.0
  0
LINE
  5
64
330
5E
100
AcDbEntity
  8
PIC06
  6
Continuous
 62
     7
100
AcDbLine
 10
-64.65576588605381
 20
-63.34984177986278
 30
0.0
 11
-76.28704061001463
 21
-63.34984177986278
 31
0.0
  0
LINE
  5
65
330
5E
100
AcDbEntity
  8
PIC06
  6
Continuous
 62
     7
100
AcDbLine
 10
-64.65576588605381
 20
-49.01612051760185
 30
0.0
 11
-76.28704061001463
 21
-49.01612051760185
 31
0.0
  0
TEXT
  5
66
330
5E
100
AcDbEntity
  8
PIC06
  6
Continuous
 62
     7
100
AcDbText
 10
-75.93801935882584
 20
-56.47807167626798
 30
0.0
 40
2.5
  1
%%c
 50
90.0
 41
0.6547619344966496
100
AcDbText
  0
TEXT
  5
67
330
5E
100
AcDbEntity
  8
PIC06
  6
Continuous
 62
     7
100
AcDbText
 10
-75.93801879714709
 20
-54.75932167626807
 30
0.0
 40
2.5
  1
8
 50
90.0
 41
0.6547619344966496
100
AcDbText
  0
TEXT
  5
68
330
5E
100
AcDbEntity
  8
PIC06
  6
Continuous
 62
     7
100
AcDbText
 10
-75.93801823546839
 20
-53.04057167626815
 30
0.0
 40
2.5
  1
6
 50
90.0
 41
0.6547619344966496
100
AcDbText
  0
ENDBLK
  5
69
330
5E
100
AcDbEntity
  8
PIC06
100
AcDbBlockEnd
  0
BLOCK
  5
6B
330
6A
100
AcDbEntity
  8
PIC06
100
AcDbBlockBegin
  2
COMP6
 70
     0
 10
0.0
 20
0.0
 30
0.0
  3
COMP6
  1

  0
LINE
  5
6C
330
6A
100
AcDbEntity
  8
PIC06
  6
Continuous
 62
     7
100
AcDbLine
 10
59.34117612622596
 20
-78.68333886417985
 30
0.0
 11
59.34117612622596
 21
-47.0160398915732
 31
0.0
  0
INSERT
  5
6D
330
6A
100
AcDbEntity
  8
PIC06
  6
Continuous
 62
     7
100
AcDbBlockReference
  2
MARK1_1
 10
59.34117612622596
 20
-78.68333886417985
 30
0.0
 41
2.5
 42
2.5
 50
90.0
  0
LINE
  5
6E
330
6A
100
AcDbEntity
  8
PIC06
  6
Continuous
 62
     7
100
AcDbLine
 10
59.34117612622596
 20
-15.34874219055769
 30
0.0
 11
59.34117612622596
 21
-47.0160398915732
 31
0.0
  0
INSERT
  5
6F
330
6A
100
AcDbEntity
  8
PIC06
  6
Continuous
 62
     7
100
AcDbBlockReference
  2
MARK1_1
 10
59.34117612622596
 20
-15.34874219055769
 30
0.0
 41
2.5
 42
2.5
 50
270.0
  0
LINE
  5
70
330
6A
100
AcDbEntity
  8
PIC06
  6
Continuous
 62
     7
100
AcDbLine
 10
34.84613950393486
 20
-78.68333886417985
 30
0.0
 11
60.34117574832362
 21
-78.68333886417985
 31
0.0
  0
LINE
  5
71
330
6A
100
AcDbEntity
  8
PIC06
  6
Continuous
 62
     7
100
AcDbLine
 10
34.84613950393486
 20
-15.34874219055769
 30
0.0
 11
60.34117574832362
 21
-15.34874219055769
 31
0.0
  0
TEXT
  5
72
330
6A
100
AcDbEntity
  8
PIC06
  6
Continuous
 62
     7
100
AcDbText
 10
58.74117838751317
 20
-49.35979091325135
 30
0.0
 40
2.5
  1
3
 50
90.0
 41
0.6547619344966496
100
AcDbText
  0
TEXT
  5
73
330
6A
100
AcDbEntity
  8
PIC06
  6
Continuous
 62
     7
100
AcDbText
 10
58.74117894919189
 20
-47.64104091325143
 30
0.0
 40
2.5
  1
8
 50
90.0
 41
0.6547619344966496
100
AcDbText
  0
TEXT
  5
74
330
6A
100
AcDbEntity
  8
PIC06
  6
Continuous
 62
     7
100
AcDbText
 10
58.74117951087061
 20
-45.92229091325154
 30
0.0
 40
2.5
  1
0
 50
90.0
 41
0.6547619344966496
100
AcDbText
  0
ENDBLK
  5
75
330
6A
100
AcDbEntity
  8
PIC06
100
AcDbBlockEnd
  0
BLOCK
  5
77
330
76
100
AcDbEntity
  8
PIC06
100
AcDbBlockBegin
  2
COMP7
 70
     0
 10
0.0
 20
0.0
 30
0.0
  3
COMP7
  1

  0
LINE
  5
78
330
76
100
AcDbEntity
  8
PIC06
  6
Continuous
 62
     7
100
AcDbLine
 10
-89.16417456082855
 20
-78.68333886417985
 30
0.0
 11
-89.16417456082855
 21
-68.33518098762853
 31
0.0
  0
INSERT
  5
79
330
76
100
AcDbEntity
  8
PIC06
  6
Continuous
 62
     7
100
AcDbBlockReference
  2
MARK1_1
 10
-89.16417456082855
 20
-78.68333886417985
 30
0.0
 41
2.5
 42
2.5
 50
90.0
  0
LINE
  5
7A
330
76
100
AcDbEntity
  8
PIC06
  6
Continuous
 62
     7
100
AcDbLine
 10
-89.16417456082855
 20
-56.84956448617596
 30
0.0
 11
-89.16417456082855
 21
-68.33518098762853
 31
0.0
  0
INSERT
  5
7B
330
76
100
AcDbEntity
  8
PIC06
  6
Continuous
 62
     7
100
AcDbBlockReference
  2
MARK1_1
 10
-89.16417456082855
 20
-56.84956448617596
 30
0.0
 41
2.5
 42
2.5
 50
270.0
  0
LINE
  5
7C
330
76
100
AcDbEntity
  8
PIC06
  6
Continuous
 62
     7
100
AcDbLine
 10
-67.48915579412915
 20
-78.68333886417985
 30
0.0
 11
-90.16417418292622
 21
-78.68333886417985
 31
0.0
  0
LINE
  5
7D
330
76
100
AcDbEntity
  8
PIC06
  6
Continuous
 62
     7
100
AcDbLine
 10
-89.34610364916443
 20
-56.84956448617596
 30
0.0
 11
-90.16417418292622
 21
-56.84956448617596
 31
0.0
  0
TEXT
  5
7E
330
76
100
AcDbEntity
  8
PIC06
  6
Continuous
 62
     7
100
AcDbText
 10
-89.76417229954131
 20
-70.67893200930666
 30
0.0
 40
2.5
  1
1
 50
90.0
 41
0.6547619344966496
100
AcDbText
  0
TEXT
  5
7F
330
76
100
AcDbEntity
  8
PIC06
  6
Continuous
 62
     7
100
AcDbText
 10
-89.76417173786257
 20
-68.96018200930675
 30
0.0
 40
2.5
  1
3
 50
90.0
 41
0.6547619344966496
100
AcDbText
  0
TEXT
  5
80
330
76
100
AcDbEntity
  8
PIC06
  6
Continuous
 62
     7
100
AcDbText
 10
-89.76417117618385
 20
-67.24143200930685
 30
0.0
 40
2.5
  1
5
 50
90.0
 41
0.6547619344966496
100
AcDbText
  0
ENDBLK
  5
81
330
76
100
AcDbEntity
  8
PIC06
100
AcDbBlockEnd
  0
BLOCK
  5
83
330
82
100
AcDbEntity
  8
PIC06
100
AcDbBlockBegin
  2
COMP8
 70
     0
 10
0.0
 20
0.0
 30
0.0
  3
COMP8
  1

  0
LINE
  5
84
330
82
100
AcDbEntity
  8
PIC06
  6
Continuous
 62
     7
100
AcDbLine
 10
-89.16417456082855
 20
-15.34874091896654
 30
0.0
 11
-89.16417456082855
 21
-38.46894082453991
 31
0.0
  0
INSERT
  5
85
330
82
100
AcDbEntity
  8
PIC06
  6
Continuous
 62
     7
100
AcDbBlockReference
  2
MARK1_1
 10
-89.16417456082855
 20
-15.34874091896654
 30
0.0
 41
2.5
 42
2.5
 50
270.0
  0
LINE
  5
86
330
82
100
AcDbEntity
  8
PIC06
  6
Continuous
 62
     7
100
AcDbLine
 10
-89.16417456082855
 20
-56.84956957254053
 30
0.0
 11
-89.16417456082855
 21
-38.46894082453991
 31
0.0
  0
INSERT
  5
87
330
82
100
AcDbEntity
  8
PIC06
  6
Continuous
 62
     7
100
AcDbBlockReference
  2
MARK1_1
 10
-89.16417456082855
 20
-56.84956957254053
 30
0.0
 41
2.5
 42
2.5
 50
90.0
  0
LINE
  5
88
330
82
100
AcDbEntity
  8
PIC06
  6
Continuous
 62
     7
100
AcDbLine
 10
-67.48915579412915
 20
-15.34874091896654
 30
0.0
 11
-90.16417418292622
 21
-15.34874091896654
 31
0.0
  0
LINE
  5
89
330
82
100
AcDbEntity
  8
PIC06
  6
Continuous
 62
     7
100
AcDbLine
 10
-68.37383735844468
 20
-56.84956957254053
 30
0.0
 11
-90.16417418292622
 21
-56.84956957254053
 31
0.0
  0
TEXT
  5
8A
330
82
100
AcDbEntity
  8
PIC06
  6
Continuous
 62
     7
100
AcDbText
 10
-89.76417229954131
 20
-40.81268930303576
 30
0.0
 40
2.5
  1
2
 50
90.0
 41
0.6547619344966496
100
AcDbText
  0
TEXT
  5
8B
330
82
100
AcDbEntity
  8
PIC06
  6
Continuous
 62
     7
100
AcDbText
 10
-89.76417173786257
 20
-39.09393930303586
 30
0.0
 40
2.5
  1
4
 50
90.0
 41
0.6547619344966496
100
AcDbText
  0
TEXT
  5
8C
330
82
100
AcDbEntity
  8
PIC06
  6
Continuous
 62
     7
100
AcDbText
 10
-89.76417117618385
 20
-37.37518930303596
 30
0.0
 40
2.5
  1
5
 50
90.0
 41
0.6547619344966496
100
AcDbText
  0
ENDBLK
  5
8D
330
82
100
AcDbEntity
  8
PIC06
100
AcDbBlockEnd
  0
BLOCK
  5
8F
330
8E
100
AcDbEntity
  8
PIC06
100
AcDbBlockBegin
  2
COMP9
 70
     0
 10
0.0
 20
0.0
 30
0.0
  3
COMP9
  1

  0
LINE
  5
90
330
8E
100
AcDbEntity
  8
PIC06
  6
Continuous
 62
     7
100
AcDbLine
 10
45.87586006162109
 20
-69.18314917239786
 30
0.0
 11
45.87586006162109
 21
-44.63572808128628
 31
0.0
  0
INSERT
  5
91
330
8E
100
AcDbEntity
  8
PIC06
  6
Continuous
 62
     7
100
AcDbBlockReference
  2
MARK1_1
 10
45.87586006162109
 20
-69.18314917239786
 30
0.0
 41
2.5
 42
2.5
 50
90.0
  0
LINE
  5
92
330
8E
100
AcDbEntity
  8
PIC06
  6
Continuous
 62
     7
100
AcDbLine
 10
45.87586006162109
 20
-15.34874091896654
 30
0.0
 11
45.87586006162109
 21
-44.63572808128628
 31
0.0
  0
INSERT
  5
93
330
8E
100
AcDbEntity
  8
PIC06
  6
Continuous
 62
     7
100
AcDbBlockReference
  2
MARK1_1
 10
45.87586006162109
 20
-15.34874091896654
 30
0.0
 41
2.5
 42
2.5
 50
270.0
  0
LINE
  5
94
330
8E
100
AcDbEntity
  8
PIC06
  6
Continuous
 62
     7
100
AcDbLine
 10
-64.90577087794282
 20
-69.18314917239786
 30
0.0
 11
46.87585968371878
 21
-69.18314917239786
 31
0.0
  0
LINE
  5
95
330
8E
100
AcDbEntity
  8
PIC06
  6
Continuous
 62
     7
100
AcDbLine
 10
36.51283944986153
 20
-15.34874091896654
 30
0.0
 11
46.87585968371878
 21
-15.34874091896654
 31
0.0
  0
TEXT
  5
96
330
8E
100
AcDbEntity
  8
PIC06
  6
Continuous
 62
     7
100
AcDbText
 10
45.27586232290832
 20
-46.97947910296443
 30
0.0
 40
2.5
  1
3
 50
90.0
 41
0.6547619344966496
100
AcDbText
  0
TEXT
  5
97
330
8E
100
AcDbEntity
  8
PIC06
  6
Continuous
 62
     7
100
AcDbText
 10
45.27586288458705
 20
-45.26072910296453
 30
0.0
 40
2.5
  1
2
 50
90.0
 41
0.6547619344966496
100
AcDbText
  0
TEXT
  5
98
330
8E
100
AcDbEntity
  8
PIC06
  6
Continuous
 62
     7
100
AcDbText
 10
45.27586344626575
 20
-43.54197910296462
 30
0.0
 40
2.5
  1
3
 50
90.0
 41
0.6547619344966496
100
AcDbText
  0
ENDBLK
  5
99
330
8E
100
AcDbEntity
  8
PIC06
100
AcDbBlockEnd
  0
BLOCK
  5
9B
330
9A
100
AcDbEntity
  8
PIC06
100
AcDbBlockBegin
  2
COMP10
 70
     0
 10
0.0
 20
0.0
 30
0.0
  3
COMP10
  1

  0
LINE
  5
9C
330
9A
100
AcDbEntity
  8
PIC06
  6
Continuous
 62
     7
100
AcDbLine
 10
52.7208148511445
 20
19.74048612102706
 30
0.0
 11
52.7208148511445
 21
52.24113506659705
 31
0.0
  0
INSERT
  5
9D
330
9A
100
AcDbEntity
  8
PIC06
  6
Continuous
 62
     7
100
AcDbBlockReference
  2
MARK1_1
 10
52.7208148511445
 20
19.74048612102706
 30
0.0
 41
2.5
 42
2.5
 50
90.0
  0
LINE
  5
9E
330
9A
100
AcDbEntity
  8
PIC06
  6
Continuous
 62
     7
100
AcDbLine
 10
52.7208148511445
 20
84.74178401216704
 30
0.0
 11
52.7208148511445
 21
52.24113506659705
 31
0.0
  0
INSERT
  5
9F
330
9A
100
AcDbEntity
  8
PIC06
  6
Continuous
 62
     7
100
AcDbBlockReference
  2
MARK1_1
 10
52.7208148511445
 20
84.74178401216704
 30
0.0
 41
2.5
 42
2.5
 50
270.0
  0
LINE
  5
A0
330
9A
100
AcDbEntity
  8
PIC06
  6
Continuous
 62
     7
100
AcDbLine
 10
-67.48915579412915
 20
19.74048612102706
 30
0.0
 11
53.72081447324217
 21
19.74048612102706
 31
0.0
  0
LINE
  5
A1
330
9A
100
AcDbEntity
  8
PIC06
  6
Continuous
 62
     7
100
AcDbLine
 10
-67.48915579412915
 20
84.74178401216704
 30
0.0
 11
53.72081447324217
 21
84.74178401216704
 31
0.0
  0
TEXT
  5
A2
330
9A
100
AcDbEntity
  8
PIC06
  6
Continuous
 62
     7
100
AcDbText
 10
52.12081711243172
 20
49.89738404491891
 30
0.0
 40
2.5
  1
3
 50
90.0
 41
0.6547619344966496
100
AcDbText
  0
TEXT
  5
A3
330
9A
100
AcDbEntity
  8
PIC06
  6
Continuous
 62
     7
100
AcDbText
 10
52.12081767411045
 20
51.61613404491882
 30
0.0
 40
2.5
  1
9
 50
90.0
 41
0.6547619344966496
100
AcDbText
  0
TEXT
  5
A4
330
9A
100
AcDbEntity
  8
PIC06
  6
Continuous
 62
     7
100
AcDbText
 10
52.12081823578917
 20
53.33488404491872
 30
0.0
 40
2.5
  1
0
 50
90.0
 41
0.6547619344966496
100
AcDbText
  0
ENDBLK
  5
A5
330
9A
100
AcDbEntity
  8
PIC06
100
AcDbBlockEnd
  0
BLOCK
  5
A7
330
A6
100
AcDbEntity
  8
PIC06
100
AcDbBlockBegin
  2
COMP11
 70
     0
 10
0.0
 20
0.0
 30
0.0
  3
COMP11
  1

  0
LINE
  5
A8
330
A6
100
AcDbEntity
  8
PIC06
  6
Continuous
 62
     7
100
AcDbLine
 10
45.87586006162109
 20
29.30508190431692
 30
0.0
 11
45.87586006162109
 21
52.24114015296162
 31
0.0
  0
INSERT
  5
A9
330
A6
100
AcDbEntity
  8
PIC06
  6
Continuous
 62
     7
100
AcDbBlockReference
  2
MARK1_1
 10
45.87586006162109
 20
29.30508190431692
 30
0.0
 41
2.5
 42
2.5
 50
90.0
  0
LINE
  5
AA
330
A6
100
AcDbEntity
  8
PIC06
  6
Continuous
 62
     7
100
AcDbLine
 10
45.87586006162109
 20
75.17719077205949
 30
0.0
 11
45.87586006162109
 21
52.24114523932622
 31
0.0
  0
INSERT
  5
AB
330
A6
100
AcDbEntity
  8
PIC06
  6
Continuous
 62
     7
100
AcDbBlockReference
  2
MARK1_1
 10
45.87586006162109
 20
75.17719077205949
 30
0.0
 41
2.5
 42
2.5
 50
270.0
  0
LINE
  5
AC
330
A6
100
AcDbEntity
  8
PIC06
  6
Continuous
 62
     7
100
AcDbLine
 10
-9.0434703927491
 20
29.30508190431692
 30
0.0
 11
46.87585968371878
 21
29.30508190431692
 31
0.0
  0
LINE
  5
AD
330
A6
100
AcDbEntity
  8
PIC06
  6
Continuous
 62
     7
100
AcDbLine
 10
-9.0434703927491
 20
75.17719077205949
 30
0.0
 11
46.87585968371878
 21
75.17719077205949
 31
0.0
  0
TEXT
  5
AE
330
A6
100
AcDbEntity
  8
PIC06
  6
Continuous
 62
     7
100
AcDbText
 10
45.27586232290832
 20
49.89738913128348
 30
0.0
 40
2.5
  1
2
 50
90.0
 41
0.6547619344966496
100
AcDbText
  0
TEXT
  5
AF
330
A6
100
AcDbEntity
  8
PIC06
  6
Continuous
 62
     7
100
AcDbText
 10
45.27586288458705
 20
51.6161391312834
 30
0.0
 40
2.5
  1
7
 50
90.0
 41
0.6547619344966496
100
AcDbText
  0
TEXT
  5
B0
330
A6
100
AcDbEntity
  8
PIC06
  6
Continuous
 62
     7
100
AcDbText
 10
45.27586344626575
 20
53.33488913128329
 30
0.0
 40
2.5
  1
5
 50
90.0
 41
0.6547619344966496
100
AcDbText
  0
ENDBLK
  5
B1
330
A6
100
AcDbEntity
  8
PIC06
100
AcDbBlockEnd
  0
BLOCK
  5
B3
330
B2
100
AcDbEntity
  8
PIC06
100
AcDbBlockBegin
  2
COMP12
 70
     0
 10
0.0
 20
0.0
 30
0.0
  3
COMP12
  1

  0
LINE
  5
B4
330
B2
100
AcDbEntity
  8
PIC06
  6
Continuous
 62
     7
100
AcDbLine
 10
36.17951471976992
 20
8.218833362313148
 30
0.0
 11
-15.65480782126815
 21
8.218833362313148
 31
0.0
  0
INSERT
  5
B5
330
B2
100
AcDbEntity
  8
PIC06
  6
Continuous
 62
     7
100
AcDbBlockReference
  2
MARK1_1
 10
36.17951471976992
 20
8.218833362313148
 30
0.0
 41
2.5
 42
2.5
 50
180.0
  0
LINE
  5
B6
330
B2
100
AcDbEntity
  8
PIC06
  6
Continuous
 62
     7
100
AcDbLine
 10
-67.48914562139997
 20
8.218833362313148
 30
0.0
 11
-15.65480782126815
 21
8.218833362313148
 31
0.0
  0
INSERT
  5
B7
330
B2
100
AcDbEntity
  8
PIC06
  6
Continuous
 62
     7
100
AcDbBlockReference
  2
MARK1_1
 10
-67.48914562139997
 20
8.218833362313148
 30
0.0
 41
2.5
 42
2.5
  0
LINE
  5
B8
330
B2
100
AcDbEntity
  8
PIC06
  6
Continuous
 62
     7
100
AcDbLine
 10
36.17951471976992
 20
52.24114015296162
 30
0.0
 11
36.17951471976992
 21
7.2188331044199
 31
0.0
  0
LINE
  5
B9
330
B2
100
AcDbEntity
  8
PIC06
  6
Continuous
 62
     7
100
AcDbLine
 10
-67.48914562139997
 20
22.07387621805354
 30
0.0
 11
-67.48914562139997
 21
7.2188331044199
 31
0.0
  0
TEXT
  5
BA
330
B2
100
AcDbEntity
  8
PIC06
  6
Continuous
 62
     7
100
AcDbText
 10
-17.99855629976399
 20
8.818833644208213
 30
0.0
 40
2.5
  1
6
 41
0.6547619344966496
100
AcDbText
  0
TEXT
  5
BB
330
B2
100
AcDbEntity
  8
PIC06
  6
Continuous
 62
     7
100
AcDbText
 10
-16.27980629976399
 20
8.818833644208213
 30
0.0
 40
2.5
  1
2
 41
0.6547619344966496
100
AcDbText
  0
TEXT
  5
BC
330
B2
100
AcDbEntity
  8
PIC06
  6
Continuous
 62
     7
100
AcDbText
 10
-14.56105629976399
 20
8.818833644208213
 30
0.0
 40
2.5
  1
2
 41
0.6547619344966496
100
AcDbText
  0
ENDBLK
  5
BD
330
B2
100
AcDbEntity
  8
PIC06
100
AcDbBlockEnd
  0
BLOCK
  5
BF
330
BE
100
AcDbEntity
  8
PIC06
100
AcDbBlockBegin
  2
COMP13
 70
     0
 10
0.0
 20
0.0
 30
0.0
  3
COMP13
  1

  0
LINE
  5
C0
330
BE
100
AcDbEntity
  8
PIC06
  6
Continuous
 62
     7
100
AcDbLine
 10
36.17951980613452
 20
88.89310184684473
 30
0.0
 11
-2.987885689043196
 21
88.89310184684473
 31
0.0
  0
INSERT
  5
C1
330
BE
100
AcDbEntity
  8
PIC06
  6
Continuous
 62
     7
100
AcDbBlockReference
  2
MARK1_1
 10
36.17951980613452
 20
88.89310184684473
 30
0.0
 41
2.5
 42
2.5
 50
180.0
  0
LINE
  5
C2
330
BE
100
AcDbEntity
  8
PIC06
  6
Continuous
 62
     7
100
AcDbLine
 10
-42.15530898649695
 20
88.89310184684473
 30
0.0
 11
-2.987885689043196
 21
88.89310184684473
 31
0.0
  0
INSERT
  5
C3
330
BE
100
AcDbEntity
  8
PIC06
  6
Continuous
 62
     7
100
AcDbBlockReference
  2
MARK1_1
 10
-42.15530898649695
 20
88.89310184684473
 30
0.0
 41
2.5
 42
2.5
  0
LINE
  5
C4
330
BE
100
AcDbEntity
  8
PIC06
  6
Continuous
 62
     7
100
AcDbLine
 10
36.17951980613452
 20
52.24114015296162
 30
0.0
 11
36.17951980613452
 21
89.89310146894242
 31
0.0
  0
LINE
  5
C5
330
BE
100
AcDbEntity
  8
PIC06
  6
Continuous
 62
     7
100
AcDbLine
 10
-42.15530898649695
 20
67.75011681532578
 30
0.0
 11
-42.15530898649695
 21
89.89310146894242
 31
0.0
  0
TEXT
  5
C6
330
BE
100
AcDbEntity
  8
PIC06
  6
Continuous
 62
     7
100
AcDbText
 10
-5.331635121232409
 20
89.49309958555748
 30
0.0
 40
2.5
  1
4
 41
0.6547619344966496
100
AcDbText
  0
TEXT
  5
C7
330
BE
100
AcDbEntity
  8
PIC06
  6
Continuous
 62
     7
100
AcDbText
 10
-3.612885121232408
 20
89.49309958555748
 30
0.0
 40
2.5
  1
7
 41
0.6547619344966496
100
AcDbText
  0
TEXT
  5
C8
330
BE
100
AcDbEntity
  8
PIC06
  6
Continuous
 62
     7
100
AcDbText
 10
-1.894135121232408
 20
89.49309958555748
 30
0.0
 40
2.5
  1
0
 41
0.6547619344966496
100
AcDbText
  0
ENDBLK
  5
C9
330
BE
100
AcDbEntity
  8
PIC06
100
AcDbBlockEnd
  0
BLOCK
  5
CB
330
CA
100
AcDbEntity
  8
PIC06
100
AcDbBlockBegin
  2
COMP14
 70
     0
 10
0.0
 20
0.0
 30
0.0
  3
COMP14
  1

  0
LINE
  5
CC
330
CA
100
AcDbEntity
  8
PIC06
  6
Continuous
 62
     7
100
AcDbLine
 10
-42.15530898649695
 20
88.89310184684473
 30
0.0
 11
-54.82223620508648
 21
88.89310184684473
 31
0.0
  0
INSERT
  5
CD
330
CA
100
AcDbEntity
  8
PIC06
  6
Continuous
 62
     7
100
AcDbBlockReference
  2
MARK1_1
 10
-42.15530898649695
 20
88.89310184684473
 30
0.0
 41
2.5
 42
2.5
 50
180.0
  0
LINE
  5
CE
330
CA
100
AcDbEntity
  8
PIC06
  6
Continuous
 62
     7
100
AcDbLine
 10
-67.48914562139997
 20
88.89310184684473
 30
0.0
 11
-54.82223620508648
 21
88.89310184684473
 31
0.0
  0
INSERT
  5
CF
330
CA
100
AcDbEntity
  8
PIC06
  6
Continuous
 62
     7
100
AcDbBlockReference
  2
MARK1_1
 10
-67.48914562139997
 20
88.89310184684473
 30
0.0
 41
2.5
 42
2.5
  0
LINE
  5
D0
330
CA
100
AcDbEntity
  8
PIC06
  6
Continuous
 62
     7
100
AcDbLine
 10
-67.48914562139997
 20
84.74178909853163
 30
0.0
 11
-67.48914562139997
 21
89.89310146894242
 31
0.0
  0
TEXT
  5
D1
330
CA
100
AcDbEntity
  8
PIC06
  6
Continuous
 62
     7
100
AcDbText
 10
-57.16598722676462
 20
89.49309958555748
 30
0.0
 40
2.5
  1
1
 41
0.6547619344966496
100
AcDbText
  0
TEXT
  5
D2
330
CA
100
AcDbEntity
  8
PIC06
  6
Continuous
 62
     7
100
AcDbText
 10
-55.44723722676462
 20
89.49309958555748
 30
0.0
 40
2.5
  1
5
 41
0.6547619344966496
100
AcDbText
  0
TEXT
  5
D3
330
CA
100
AcDbEntity
  8
PIC06
  6
Continuous
 62
     7
100
AcDbText
 10
-53.72848722676462
 20
89.49309958555748
 30
0.0
 40
2.5
  1
2
 41
0.6547619344966496
100
AcDbText
  0
ENDBLK
  5
D4
330
CA
100
AcDbEntity
  8
PIC06
100
AcDbBlockEnd
  0
BLOCK
  5
D6
330
D5
100
AcDbEntity
  8
PIC06
100
AcDbBlockBegin
  2
COMP15
 70
     0
 10
0.0
 20
0.0
 30
0.0
  3
COMP15
  1

  0
LINE
  5
D7
330
D5
100
AcDbEntity
  8
PIC06
  6
Continuous
 62
     7
100
AcDbLine
 10
29.51268696105806
 20
14.01191587635435
 30
0.0
 11
-0.9045590770983835
 21
14.01191587635435
 31
0.0
  0
INSERT
  5
D8
330
D5
100
AcDbEntity
  8
PIC06
  6
Continuous
 62
     7
100
AcDbBlockReference
  2
MARK1_1
 10
29.51268696105806
 20
14.01191587635435
 30
0.0
 41
2.5
 42
2.5
 50
180.0
  0
LINE
  5
D9
330
D5
100
AcDbEntity
  8
PIC06
  6
Continuous
 62
     7
100
AcDbLine
 10
-31.32180511525485
 20
14.01191587635435
 30
0.0
 11
-0.9045565339160928
 21
14.01191587635435
 31
0.0
  0
INSERT
  5
DA
330
D5
100
AcDbEntity
  8
PIC06
  6
Continuous
 62
     7
100
AcDbBlockReference
  2
MARK1_1
 10
-31.32180511525485
 20
14.01191587635435
 30
0.0
 41
2.5
 42
2.5
  0
LINE
  5
DB
330
D5
100
AcDbEntity
  8
PIC06
  6
Continuous
 62
     7
100
AcDbLine
 10
29.51268696105806
 20
52.24114015296162
 30
0.0
 11
29.51268696105806
 21
13.01191625425668
 31
0.0
  0
LINE
  5
DC
330
D5
100
AcDbEntity
  8
PIC06
  6
Continuous
 62
     7
100
AcDbLine
 10
-31.32180511525485
 20
52.24114015296162
 30
0.0
 11
-31.32180511525485
 21
13.01191625425668
 31
0.0
  0
TEXT
  5
DD
330
D5
100
AcDbEntity
  8
PIC06
  6
Continuous
 62
     7
100
AcDbText
 10
-3.248307555594236
 20
14.61191488665827
 30
0.0
 40
2.5
  1
3
 41
0.6547619344966496
100
AcDbText
  0
TEXT
  5
DE
330
D5
100
AcDbEntity
  8
PIC06
  6
Continuous
 62
     7
100
AcDbText
 10
-1.529557555594236
 20
14.61191488665827
 30
0.0
 40
2.5
  1
6
 41
0.6547619344966496
100
AcDbText
  0
TEXT
  5
DF
330
D5
100
AcDbEntity
  8
PIC06
  6
Continuous
 62
     7
100
AcDbText
 10
0.189192444405762
 20
14.61191488665827
 30
0.0
 40
2.5
  1
5
 41
0.6547619344966496
100
AcDbText
  0
ENDBLK
  5
E0
330
D5
100
AcDbEntity
  8
PIC06
100
AcDbBlockEnd
  0
BLOCK
  5
E2
330
E1
100
AcDbEntity
  8
PIC06
100
AcDbBlockBegin
  2
COMP16
 70
     0
 10
0.0
 20
0.0
 30
0.0
  3
COMP16
  1

  0
LINE
  5
E3
330
E1
100
AcDbEntity
  8
PIC06
  6
Continuous
 62
     7
100
AcDbLine
 10
-34.05949253055496
 20
40.57423544511038
 30
0.0
 11
-34.05949253055496
 21
48.7654848165048
 31
0.0
  0
INSERT
  5
E4
330
E1
100
AcDbEntity
  8
PIC06
  6
Continuous
 62
     7
100
AcDbBlockReference
  2
MARK1_1
 10
-34.05949253055496
 20
40.57423544511038
 30
0.0
 41
2.5
 42
2.5
 50
90.0
  0
LINE
  5
E5
330
E1
100
AcDbEntity
  8
PIC06
  6
Continuous
 62
     7
100
AcDbLine
 10
-34.05949253055496
 20
63.90803468808371
 30
0.0
 11
-34.05949253055496
 21
48.7654848165048
 31
0.0
  0
INSERT
  5
E6
330
E1
100
AcDbEntity
  8
PIC06
  6
Continuous
 62
     7
100
AcDbBlockReference
  2
MARK1_1
 10
-34.05949253055496
 20
63.90803468808371
 30
0.0
 41
2.5
 42
2.5
 50
270.0
  0
LINE
  5
E7
330
E1
100
AcDbEntity
  8
PIC06
  6
Continuous
 62
     7
100
AcDbLine
 10
-39.14907169404521
 20
40.57423544511038
 30
0.0
 11
-33.05949290845727
 21
40.57423544511038
 31
0.0
  0
LINE
  5
E8
330
E1
100
AcDbEntity
  8
PIC06
  6
Continuous
 62
     7
100
AcDbLine
 10
-38.979919553537
 20
63.90803468808371
 30
0.0
 11
-33.05949290845727
 21
63.90803468808371
 31
0.0
  0
TEXT
  5
E9
330
E1
100
AcDbEntity
  8
PIC06
  6
Continuous
 62
     7
100
AcDbText
 10
-34.65949281245003
 20
46.42173379482665
 30
0.0
 40
2.5
  1
1
 50
90.0
 41
0.6547619344966496
100
AcDbText
  0
TEXT
  5
EA
330
E1
100
AcDbEntity
  8
PIC06
  6
Continuous
 62
     7
100
AcDbText
 10
-34.65949225077128
 20
48.14048379482656
 30
0.0
 40
2.5
  1
4
 50
90.0
 41
0.6547619344966496
100
AcDbText
  0
TEXT
  5
EB
330
E1
100
AcDbEntity
  8
PIC06
  6
Continuous
 62
     7
100
AcDbText
 10
-34.65949168909256
 20
49.85923379482645
 30
0.0
 40
2.5
  1
0
 50
90.0
 41
0.6547619344966496
100
AcDbText
  0
ENDBLK
  5
EC
330
E1
100
AcDbEntity
  8
PIC06
100
AcDbBlockEnd
  0
BLOCK
  5
EE
330
ED
100
AcDbEntity
  8
PIC06
100
AcDbBlockBegin
  2
COMP17
 70
     0
 10
0.0
 20
0.0
 30
0.0
  3
COMP17
  1

  0
LINE
  5
EF
330
ED
100
AcDbEntity
  8
PIC06
  6
Continuous
 62
     7
100
AcDbLine
 10
-41.28178690607227
 20
64.68142150900075
 30
0.0
 11
-35.44389924223195
 21
69.850078382633
 31
0.0
  0
INSERT
  5
F0
330
ED
100
AcDbEntity
  8
PIC06
  6
Continuous
 62
     7
100
AcDbBlockReference
  2
MARK1_1
 10
-41.28178690607227
 20
64.68142150900075
 30
0.0
 41
2.5
 42
2.5
 50
42.0
  0
LINE
  5
F1
330
ED
100
AcDbEntity
  8
PIC06
  6
Continuous
 62
     7
100
AcDbLine
 10
-41.28178690607227
 20
64.68142150900075
 30
0.0
 11
-42.15530898649695
 21
63.90803468808371
 31
0.0
  0
LINE
  5
F2
330
ED
100
AcDbEntity
  8
PIC06
  6
Continuous
 62
     7
100
AcDbLine
 10
-43.02882852373932
 20
63.13464786716668
 30
0.0
 11
-42.15530898649695
 21
63.90803468808371
 31
0.0
  0
LINE
  5
F3
330
ED
100
AcDbEntity
  8
PIC06
  6
Continuous
 62
     7
100
AcDbLine
 10
-43.02882852373932
 20
63.13464786716668
 30
0.0
 11
-45.27498238183578
 21
61.14598104325796
 31
0.0
  0
INSERT
  5
F4
330
ED
100
AcDbEntity
  8
PIC06
  6
Continuous
 62
     7
100
AcDbBlockReference
  2
MARK1_1
 10
-43.02882852373932
 20
63.13464786716668
 30
0.0
 41
2.5
 42
2.5
 50
222.0
  0
TEXT
  5
F5
330
ED
100
AcDbEntity
  8
PIC06
  6
Continuous
 62
     7
100
AcDbText
 10
-38.4342212999095
 20
67.98730416847047
 30
0.0
 40
2.5
  1
1
 50
42.0
 41
0.6547619344966496
100
AcDbText
  0
TEXT
  5
F6
330
ED
100
AcDbEntity
  8
PIC06
  6
Continuous
 62
     7
100
AcDbText
 10
-37.1569409557299
 20
69.13737220335905
 30
0.0
 40
2.5
  1
4
 50
42.0
 41
0.6547619344966496
100
AcDbText
  0
ENDBLK
  5
F7
330
ED
100
AcDbEntity
  8
PIC06
100
AcDbBlockEnd
  0
BLOCK
  5
F9
330
F8
100
AcDbEntity
  8
PIC06
100
AcDbBlockBegin
  2
COMP18
 70
     0
 10
0.0
 20
0.0
 30
0.0
  3
COMP18
  1

  0
LINE
  5
FA
330
F8
100
AcDbEntity
  8
PIC06
  6
Continuous
 62
     7
100
AcDbLine
 10
-45.16694799813374
 20
-17.84879210944769
 30
0.0
 11
-45.16694799813374
 21
-20.848793518923
 31
0.0
  0
INSERT
  5
FB
330
F8
100
AcDbEntity
  8
PIC06
  6
Continuous
 62
     7
100
AcDbBlockReference
  2
MARK1_1
 10
-45.16694799813374
 20
-17.84879210944769
 30
0.0
 41
2.5
 42
2.5
 50
270.0
  0
LINE
  5
FC
330
F8
100
AcDbEntity
  8
PIC06
  6
Continuous
 62
     7
100
AcDbLine
 10
-45.16694799813374
 20
-17.84879210944769
 30
0.0
 11
-45.16694799813374
 21
-16.59876715000269
 31
0.0
  0
LINE
  5
FD
330
F8
100
AcDbEntity
  8
PIC06
  6
Continuous
 62
     7
100
AcDbLine
 10
-45.16694799813374
 20
-15.34874219055769
 30
0.0
 11
-45.16694799813374
 21
-16.59876715000269
 31
0.0
  0
LINE
  5
FE
330
F8
100
AcDbEntity
  8
PIC06
  6
Continuous
 62
     7
100
AcDbLine
 10
-45.16694799813374
 20
-15.34874219055769
 30
0.0
 11
-45.16694799813374
 21
-8.37999228088222
 31
0.0
  0
INSERT
  5
FF
330
F8
100
AcDbEntity
  8
PIC06
  6
Continuous
 62
     7
100
AcDbBlockReference
  2
MARK1_1
 10
-45.16694799813374
 20
-15.34874219055769
 30
0.0
 41
2.5
 42
2.5
 50
90.0
  0
LINE
  5
100
330
F8
100
AcDbEntity
  8
PIC06
  6
Continuous
 62
     7
100
AcDbLine
 10
-44.48869654034115
 20
-17.84879210944769
 30
0.0
 11
-46.16694762023143
 21
-17.84879210944769
 31
0.0
  0
LINE
  5
101
330
F8
100
AcDbEntity
  8
PIC06
  6
Continuous
 62
     7
100
AcDbLine
 10
-47.73896488948138
 20
-15.34874219055769
 30
0.0
 11
-44.16694837603609
 21
-15.34874219055769
 31
0.0
  0
TEXT
  5
102
330
F8
100
AcDbEntity
  8
PIC06
  6
Continuous
 62
     7
100
AcDbText
 10
-45.76694573684654
 20
-11.84874224162467
 30
0.0
 40
2.5
  1
1
 50
90.0
 41
0.6547619344966496
100
AcDbText
  0
TEXT
  5
103
330
F8
100
AcDbEntity
  8
PIC06
  6
Continuous
 62
     7
100
AcDbText
 10
-45.7669451751678
 20
-10.12999224162477
 30
0.0
 40
2.5
  1
5
 50
90.0
 41
0.6547619344966496
100
AcDbText
  0
ENDBLK
  5
104
330
F8
100
AcDbEntity
  8
PIC06
100
AcDbBlockEnd
  0
BLOCK
  5
106
330
105
100
AcDbEntity
  8
PIC06
100
AcDbBlockBegin
  2
COMP19
 70
     0
 10
0.0
 20
0.0
 30
0.0
  3
COMP19
  1

  0
LINE
  5
107
330
105
100
AcDbEntity
  8
PIC06
  6
Continuous
 62
     7
100
AcDbLine
 10
-89.16417456082855
 20
-0.3484420414221177
 30
0.0
 11
-89.16417456082855
 21
-7.848591798092114
 31
0.0
  0
INSERT
  5
108
330
105
100
AcDbEntity
  8
PIC06
  6
Continuous
 62
     7
100
AcDbBlockReference
  2
MARK1_1
 10
-89.16417456082855
 20
-0.3484420414221177
 30
0.0
 41
2.5
 42
2.5
 50
270.0
  0
LINE
  5
109
330
105
100
AcDbEntity
  8
PIC06
  6
Continuous
 62
     7
100
AcDbLine
 10
-89.16417456082855
 20
-15.34874219055769
 30
0.0
 11
-89.16417456082855
 21
-7.848593069683261
 31
0.0
  0
INSERT
  5
10A
330
105
100
AcDbEntity
  8
PIC06
  6
Continuous
 62
     7
100
AcDbBlockReference
  2
MARK1_1
 10
-89.16417456082855
 20
-15.34874219055769
 30
0.0
 41
2.5
 42
2.5
 50
90.0
  0
LINE
  5
10B
330
105
100
AcDbEntity
  8
PIC06
  6
Continuous
 62
     7
100
AcDbLine
 10
-65.489105686288
 20
-0.3484420414221177
 30
0.0
 11
-89.49752472274305
 21
-0.3484420414221177
 31
0.0
  0
LINE
  5
10C
330
105
100
AcDbEntity
  8
PIC06
  6
Continuous
 62
     7
100
AcDbLine
 10
-43.19939467360109
 20
-15.34874219055769
 30
0.0
 11
-48.82210622702132
 21
-15.34874219055769
 31
0.0
  0
TEXT
  5
10D
330
105
100
AcDbEntity
  8
PIC06
  6
Continuous
 62
     7
100
AcDbText
 10
-89.7641824722705
 20
-8.010057170127197
 30
0.0
 40
2.5
  1
9
 50
90.0
 41
0.6547619344966496
100
AcDbText
  0
TEXT
  5
10E
330
105
100
AcDbEntity
  8
PIC06
  6
Continuous
 62
     7
100
AcDbText
 10
-89.76418191059172
 20
-6.291307170127287
 30
0.0
 40
2.5
  1
0
 50
90.0
 41
0.6547619344966496
100
AcDbText
  0
ENDBLK
  5
10F
330
105
100
AcDbEntity
  8
PIC06
100
AcDbBlockEnd
  0
BLOCK
  5
111
330
110
100
AcDbEntity
  8
PIC06
100
AcDbBlockBegin
  2
COMP20
 70
     0
 10
0.0
 20
0.0
 30
0.0
  3
COMP20
  1

  0
LINE
  5
112
330
110
100
AcDbEntity
  8
PIC06
  6
Continuous
 62
     7
100
AcDbLine
 10
-75.28704098791695
 20
-13.43203725274201
 30
0.0
 11
-75.28704098791695
 21
-8.681943042646594
 31
0.0
  0
INSERT
  5
113
330
110
100
AcDbEntity
  8
PIC06
  6
Continuous
 62
     7
100
AcDbBlockReference
  2
MARK1_1
 10
-75.28704098791695
 20
-13.43203725274201
 30
0.0
 41
2.5
 42
2.5
 50
90.0
  0
LINE
  5
114
330
110
100
AcDbEntity
  8
PIC06
  6
Continuous
 62
     7
100
AcDbLine
 10
-75.28704098791695
 20
-3.93184692516445
 30
0.0
 11
-75.28704098791695
 21
-8.681941771055447
 31
0.0
  0
INSERT
  5
115
330
110
100
AcDbEntity
  8
PIC06
  6
Continuous
 62
     7
100
AcDbBlockReference
  2
MARK1_1
 10
-75.28704098791695
 20
-3.93184692516445
 30
0.0
 41
2.5
 42
2.5
 50
270.0
  0
LINE
  5
116
330
110
100
AcDbEntity
  8
PIC06
  6
Continuous
 62
     7
100
AcDbLine
 10
-67.15580563221465
 20
-13.43203725274201
 30
0.0
 11
-75.6203809771023
 21
-13.43203725274201
 31
0.0
  0
LINE
  5
117
330
110
100
AcDbEntity
  8
PIC06
  6
Continuous
 62
     7
100
AcDbLine
 10
-67.15580563221465
 20
-3.93184692516445
 30
0.0
 11
-75.6203809771023
 21
-3.93184692516445
 31
0.0
  0
TEXT
  5
118
330
110
100
AcDbEntity
  8
PIC06
  6
Continuous
 62
     7
100
AcDbText
 10
-76.46568899319574
 20
-8.413302246728108
 30
0.0
 40
2.5
  1
%%c
 50
90.0
 41
0.6547619344966496
100
AcDbText
  0
TEXT
  5
119
330
110
100
AcDbEntity
  8
PIC06
  6
Continuous
 62
     7
100
AcDbText
 10
-76.46568843151698
 20
-6.694552246728197
 30
0.0
 40
2.5
  1
5
 50
90.0
 41
0.6547619344966496
100
AcDbText
  0
TEXT
  5
11A
330
110
100
AcDbEntity
  8
PIC06
  6
Continuous
 62
     7
100
AcDbText
 10
-76.46568786983829
 20
-4.97580224672829
 30
0.0
 40
2.5
  1
7
 50
90.0
 41
0.6547619344966496
100
AcDbText
  0
ENDBLK
  5
11B
330
110
100
AcDbEntity
  8
PIC06
100
AcDbBlockEnd
  0
BLOCK
  5
11D
330
11C
100
AcDbEntity
  8
PIC06
100
AcDbBlockBegin
  2
COMP21
 70
     0
 10
0.0
 20
0.0
 30
0.0
  3
COMP21
  1

  0
LINE
  5
11E
330
11C
100
AcDbEntity
  8
PIC06
  6
Continuous
 62
     7
100
AcDbLine
 10
-48.82210622702132
 20
2.952394308587598
 30
0.0
 11
-57.98895592961798
 21
2.952394308587598
 31
0.0
  0
INSERT
  5
11F
330
11C
100
AcDbEntity
  8
PIC06
  6
Continuous
 62
     7
100
AcDbBlockReference
  2
MARK1_1
 10
-48.82210622702132
 20
2.952394308587598
 30
0.0
 41
2.5
 42
2.5
 50
180.0
  0
LINE
  5
120
330
11C
100
AcDbEntity
  8
PIC06
  6
Continuous
 62
     7
100
AcDbLine
 10
-67.15580563221465
 20
2.952394308587598
 30
0.0
 11
-57.98895592961798
 21
2.952394308587598
 31
0.0
  0
INSERT
  5
121
330
11C
100
AcDbEntity
  8
PIC06
  6
Continuous
 62
     7
100
AcDbBlockReference
  2
MARK1_1
 10
-67.15580563221465
 20
2.952394308587598
 30
0.0
 41
2.5
 42
2.5
  0
LINE
  5
122
330
11C
100
AcDbEntity
  8
PIC06
  6
Continuous
 62
     7
100
AcDbLine
 10
-48.82210622702132
 20
-15.34874091896654
 30
0.0
 11
-48.82210622702132
 21
3.952394248583062
 31
0.0
  0
LINE
  5
123
330
11C
100
AcDbEntity
  8
PIC06
  6
Continuous
 62
     7
100
AcDbLine
 10
-67.15580563221465
 20
-2.015141987348783
 30
0.0
 11
-67.15580563221465
 21
3.952394248583062
 31
0.0
  0
TEXT
  5
124
330
11C
100
AcDbEntity
  8
PIC06
  6
Continuous
 62
     7
100
AcDbText
 10
-60.33270695129613
 20
3.552394590482661
 30
0.0
 40
2.5
  1
1
 41
0.6547619344966496
100
AcDbText
  0
TEXT
  5
125
330
11C
100
AcDbEntity
  8
PIC06
  6
Continuous
 62
     7
100
AcDbText
 10
-58.61395695129613
 20
3.552394590482661
 30
0.0
 40
2.5
  1
1
 41
0.6547619344966496
100
AcDbText
  0
TEXT
  5
126
330
11C
100
AcDbEntity
  8
PIC06
  6
Continuous
 62
     7
100
AcDbText
 10
-56.89520695129613
 20
3.552394590482661
 30
0.0
 40
2.5
  1
0
 41
0.6547619344966496
100
AcDbText
  0
ENDBLK
  5
127
330
11C
100
AcDbEntity
  8
PIC06
100
AcDbBlockEnd
  0
BLOCK
  5
129
330
128
100
AcDbEntity
  8
PIC06
100
AcDbBlockBegin
  2
COMP22
 70
     0
 10
0.0
 20
0.0
 30
0.0
  3
COMP22
  1

  0
LINE
  5
12A
330
128
100
AcDbEntity
  8
PIC06
  6
Continuous
 62
     7
100
AcDbLine
 10
-82.08873116031373
 20
-15.34874091896654
 30
0.0
 11
-82.08873116031373
 21
-12.01534102711321
 31
0.0
  0
INSERT
  5
12B
330
128
100
AcDbEntity
  8
PIC06
  6
Continuous
 62
     7
100
AcDbBlockReference
  2
MARK1_1
 10
-82.08873116031373
 20
-15.34874091896654
 30
0.0
 41
2.5
 42
2.5
 50
90.0
  0
LINE
  5
12C
330
128
100
AcDbEntity
  8
PIC06
  6
Continuous
 62
     7
100
AcDbLine
 10
-82.08873116031373
 20
-8.681941771055447
 30
0.0
 11
-82.08873116031373
 21
-12.01534102711321
 31
0.0
  0
INSERT
  5
12D
330
128
100
AcDbEntity
  8
PIC06
  6
Continuous
 62
     7
100
AcDbBlockReference
  2
MARK1_1
 10
-82.08873116031373
 20
-8.681941771055447
 30
0.0
 41
2.5
 42
2.5
 50
270.0
  0
LINE
  5
12E
330
128
100
AcDbEntity
  8
PIC06
  6
Continuous
 62
     7
100
AcDbLine
 10
-67.48915579412915
 20
-15.34874091896654
 30
0.0
 11
-83.08873078241139
 21
-15.34874091896654
 31
0.0
  0
LINE
  5
12F
330
128
100
AcDbEntity
  8
PIC06
  6
Continuous
 62
     7
100
AcDbLine
 10
-67.90304345282038
 20
-8.681941771055447
 30
0.0
 11
-83.08873078241139
 21
-8.681941771055447
 31
0.0
  0
TEXT
  5
130
330
128
100
AcDbEntity
  8
PIC06
  6
Continuous
 62
     7
100
AcDbText
 10
-83.10596338561209
 20
-13.66358255597515
 30
0.0
 40
2.5
  1
4
 50
90.0
 41
0.6547619344966496
100
AcDbText
  0
TEXT
  5
131
330
128
100
AcDbEntity
  8
PIC06
  6
Continuous
 62
     7
100
AcDbText
 10
-83.10596282393332
 20
-11.94483255597523
 30
0.0
 40
2.5
  1
0
 50
90.0
 41
0.6547619344966496
100
AcDbText
  0
ENDBLK
  5
132
330
128
100
AcDbEntity
  8
PIC06
100
AcDbBlockEnd
  0
BLOCK
  5
134
330
133
100
AcDbEntity
  8
PIC06
100
AcDbBlockBegin
  2
COMP23
 70
     0
 10
0.0
 20
0.0
 30
0.0
  3
COMP23
  1

  0
LINE
  5
135
330
133
100
AcDbEntity
  8
PIC06
  6
Continuous
 62
     7
100
AcDbLine
 10
52.67859293875699
 20
-69.18314917239786
 30
0.0
 11
52.67859293875699
 21
-34.76579528901218
 31
0.0
  0
INSERT
  5
136
330
133
100
AcDbEntity
  8
PIC06
  6
Continuous
 62
     7
100
AcDbBlockReference
  2
MARK1_1
 10
52.67859293875699
 20
-69.18314917239786
 30
0.0
 41
2.5
 42
2.5
 50
90.0
  0
LINE
  5
137
330
133
100
AcDbEntity
  8
PIC06
  6
Continuous
 62
     7
100
AcDbLine
 10
52.67859293875699
 20
-0.3484420414221177
 30
0.0
 11
52.67859293875699
 21
-34.76579528901218
 31
0.0
  0
INSERT
  5
138
330
133
100
AcDbEntity
  8
PIC06
  6
Continuous
 62
     7
100
AcDbBlockReference
  2
MARK1_1
 10
52.67859293875699
 20
-0.3484420414221177
 30
0.0
 41
2.5
 42
2.5
 50
270.0
  0
LINE
  5
139
330
133
100
AcDbEntity
  8
PIC06
  6
Continuous
 62
     7
100
AcDbLine
 10
-64.90577087794282
 20
-69.18314917239786
 30
0.0
 11
53.67859256085464
 21
-69.18314917239786
 31
0.0
  0
LINE
  5
13A
330
133
100
AcDbEntity
  8
PIC06
  6
Continuous
 62
     7
100
AcDbLine
 10
-65.489105686288
 20
-0.3484420414221177
 30
0.0
 11
53.67859256085464
 21
-0.3484420414221177
 31
0.0
  0
TEXT
  5
13B
330
133
100
AcDbEntity
  8
PIC06
  6
Continuous
 62
     7
100
AcDbText
 10
52.07859520004422
 20
-37.10954631069035
 30
0.0
 40
2.5
  1
4
 50
90.0
 41
0.6547619344966496
100
AcDbText
  0
TEXT
  5
13C
330
133
100
AcDbEntity
  8
PIC06
  6
Continuous
 62
     7
100
AcDbText
 10
52.07859576172293
 20
-35.39079631069043
 30
0.0
 40
2.5
  1
1
 50
90.0
 41
0.6547619344966496
100
AcDbText
  0
TEXT
  5
13D
330
133
100
AcDbEntity
  8
PIC06
  6
Continuous
 62
     7
100
AcDbText
 10
52.07859632340166
 20
-33.67204631069053
 30
0.0
 40
2.5
  1
3
 50
90.0
 41
0.6547619344966496
100
AcDbText
  0
ENDBLK
  5
13E
330
133
100
AcDbEntity
  8
PIC06
100
AcDbBlockEnd
  0
BLOCK
  5
140
330
13F
100
AcDbEntity
  8
PIC06
100
AcDbBlockBegin
  2
COMP24
 70
     0
 10
0.0
 20
0.0
 30
0.0
  3
COMP24
  1

  0
LINE
  5
141
330
13F
100
AcDbEntity
  8
PIC06
  6
Continuous
 62
     7
100
AcDbLine
 10
-15.14189118736567
 20
-46.68269990238786
 30
0.0
 11
-15.14189118736567
 21
-42.0159400537932
 31
0.0
  0
INSERT
  5
142
330
13F
100
AcDbEntity
  8
PIC06
  6
Continuous
 62
     7
100
AcDbBlockReference
  2
MARK1_1
 10
-15.14189118736567
 20
-46.68269990238786
 30
0.0
 41
2.5
 42
2.5
 50
90.0
  0
LINE
  5
143
330
13F
100
AcDbEntity
  8
PIC06
  6
Continuous
 62
     7
100
AcDbLine
 10
-15.14189118736567
 20
-37.34918020519855
 30
0.0
 11
-15.14189118736567
 21
-42.0159400537932
 31
0.0
  0
INSERT
  5
144
330
13F
100
AcDbEntity
  8
PIC06
  6
Continuous
 62
     7
100
AcDbBlockReference
  2
MARK1_1
 10
-15.14189118736567
 20
-37.34918020519855
 30
0.0
 41
2.5
 42
2.5
 50
270.0
  0
LINE
  5
145
330
13F
100
AcDbEntity
  8
PIC06
  6
Continuous
 62
     7
100
AcDbLine
 10
-23.988277032714
 20
-46.68269990238786
 30
0.0
 11
-14.14189156526798
 21
-46.68269990238786
 31
0.0
  0
LINE
  5
146
330
13F
100
AcDbEntity
  8
PIC06
  6
Continuous
 62
     7
100
AcDbLine
 10
-15.065836049376
 20
-37.34918020519855
 30
0.0
 11
-16.14189080946335
 21
-37.34918020519855
 31
0.0
  0
TEXT
  5
147
330
13F
100
AcDbEntity
  8
PIC06
  6
Continuous
 62
     7
100
AcDbText
 10
-16.18171831572431
 20
-46.49487571750251
 30
0.0
 40
2.5
  1
5
 50
90.0
 41
0.6547619344966496
100
AcDbText
  0
TEXT
  5
148
330
13F
100
AcDbEntity
  8
PIC06
  6
Continuous
 62
     7
100
AcDbText
 10
-16.18171775404557
 20
-44.7761257175026
 30
0.0
 40
2.5
  1
1
 50
90.0
 41
0.6547619344966496
100
AcDbText
  0
TEXT
  5
149
330
13F
100
AcDbEntity
  8
PIC06
  6
Continuous
 62
     7
100
AcDbText
 10
-16.18171719236685
 20
-43.05737571750269
 30
0.0
 40
2.5
  1
\U+4EE5
 50
90.0
100
AcDbText
  0
TEXT
  5
14A
330
13F
100
AcDbEntity
  8
PIC06
  6
Continuous
 62
     7
100
AcDbText
 10
-16.18171622219451
 20
-40.08862571750285
 30
0.0
 40
2.5
  1
\U+4E0A
 50
90.0
100
AcDbText
  0
ENDBLK
  5
14B
330
13F
100
AcDbEntity
  8
PIC06
100
AcDbBlockEnd
  0
BLOCK
  5
14D
330
14C
100
AcDbEntity
  8
PIC06
100
AcDbBlockBegin
  2
COMP25
 70
     0
 10
0.0
 20
0.0
 30
0.0
  3
COMP25
  1

  0
LINE
  5
14E
330
14C
100
AcDbEntity
  8
PIC06
  6
Continuous
 62
     7
100
AcDbLine
 10
-67.15580563221465
 20
2.952394308587598
 30
0.0
 11
-64.15580676592163
 21
2.952394308587598
 31
0.0
  0
INSERT
  5
14F
330
14C
100
AcDbEntity
  8
PIC06
  6
Continuous
 62
     7
100
AcDbBlockReference
  2
MARK1_1
 10
-67.15580563221465
 20
2.952394308587598
 30
0.0
 41
2.5
 42
2.5
  0
LINE
  5
150
330
14C
100
AcDbEntity
  8
PIC06
  6
Continuous
 62
     7
100
AcDbLine
 10
-67.15580563221465
 20
2.952394308587598
 30
0.0
 11
-67.32247562680732
 21
2.952394308587598
 31
0.0
  0
LINE
  5
151
330
14C
100
AcDbEntity
  8
PIC06
  6
Continuous
 62
     7
100
AcDbLine
 10
-67.48914562139997
 20
2.952394308587598
 30
0.0
 11
-67.32247562680732
 21
2.952394308587598
 31
0.0
  0
LINE
  5
152
330
14C
100
AcDbEntity
  8
PIC06
  6
Continuous
 62
     7
100
AcDbLine
 10
-67.48914562139997
 20
2.952394308587598
 30
0.0
 11
-72.73914363741278
 21
2.952394308587598
 31
0.0
  0
INSERT
  5
153
330
14C
100
AcDbEntity
  8
PIC06
  6
Continuous
 62
     7
100
AcDbBlockReference
  2
MARK1_1
 10
-67.48914562139997
 20
2.952394308587598
 30
0.0
 41
2.5
 42
2.5
 50
180.0
  0
LINE
  5
154
330
14C
100
AcDbEntity
  8
PIC06
  6
Continuous
 62
     7
100
AcDbLine
 10
-67.15580563221465
 20
0.4458001458684748
 30
0.0
 11
-67.15580563221465
 21
3.952394248583062
 31
0.0
  0
LINE
  5
155
330
14C
100
AcDbEntity
  8
PIC06
  6
Continuous
 62
     7
100
AcDbLine
 10
-67.48914562139997
 20
-15.34874091896654
 30
0.0
 11
-67.48914562139997
 21
3.952394248583062
 31
0.0
  0
TEXT
  5
156
330
14C
100
AcDbEntity
  8
PIC06
  6
Continuous
 62
     7
100
AcDbText
 10
-72.23914891272852
 20
3.552394590482661
 30
0.0
 40
2.5
  1
2
 41
0.6547619344966496
100
AcDbText
  0
ENDBLK
  5
157
330
14C
100
AcDbEntity
  8
PIC06
100
AcDbBlockEnd
  0
BLOCK
  5
1CB7
330
1CAC
100
AcDbEntity
  8
0
 62
     0
100
AcDbBlockBegin
  2
COMP26
 70
     0
 10
0.0
 20
0.0
 30
0.0
  3
COMP26
  1

  0
MTEXT
  5
1CAD
330
1CAC
100
AcDbEntity
  8
0
 62
     7
100
AcDbMText
 10
-135.2951728058
 20
101.6767090745999
 30
0.0
 40
2.5
 41
0.0
 71
     1
 72
     5
  1
5
  7
SLDTEXTSTYLE0
 11
0.0
 21
1.0
 31
0.0
 73
     1
 44
1.0
  0
MTEXT
  5
1CAE
330
1CAC
100
AcDbEntity
  8
0
 62
     7
100
AcDbMText
 10
-135.2951722441
 20
103.3954590745999
 30
0.0
 40
2.5
 41
0.0
 71
     1
 72
     5
  1
5
  7
SLDTEXTSTYLE0
 11
0.0
 21
1.0
 31
0.0
 73
     1
 44
1.0
  0
LINE
  5
1CAF
330
1CAC
100
AcDbEntity
  8
PIC55
  6
Continuous
 62
     7
100
AcDbLine
 10
-132.4227298282
 20
96.04937471360001
 30
0.0
 11
-132.4227298282
 21
103.0166818619
 31
0.0
  0
LINE
  5
1CB0
330
1CAC
100
AcDbEntity
  8
0
  6
Continuous
 62
     7
100
AcDbLine
 10
-131.7977298282
 20
98.54937471360001
 30
0.0
 11
-132.4227298282
 21
96.04937471360001
 31
0.0
  0
LINE
  5
1CB1
330
1CAC
100
AcDbEntity
  8
0
  6
Continuous
 62
     7
100
AcDbLine
 10
-132.4227298282
 20
96.04937471360001
 30
0.0
 11
-133.0477298282
 21
98.54937471360001
 31
0.0
  0
LINE
  5
1CB2
330
1CAC
100
AcDbEntity
  8
PIC55
  6
Continuous
 62
     7
100
AcDbLine
 10
-132.4227298282
 20
114.3825250109999
 30
0.0
 11
-132.4227298282
 21
103.0166818619
 31
0.0
  0
LINE
  5
1CB3
330
1CAC
100
AcDbEntity
  8
0
  6
Continuous
 62
     7
100
AcDbLine
 10
-133.0477298282
 20
111.882525011
 30
0.0
 11
-132.4227298282
 21
114.3825250109999
 31
0.0
  0
LINE
  5
1CB4
330
1CAC
100
AcDbEntity
  8
0
  6
Continuous
 62
     7
100
AcDbLine
 10
-132.4227298282
 20
114.3825250109999
 30
0.0
 11
-131.7977298282
 21
111.882525011
 31
0.0
  0
LINE
  5
1CB5
330
1CAC
100
AcDbEntity
  8
PIC55
  6
Continuous
 62
     7
100
AcDbLine
 10
-136.0633083086
 20
96.04937471360001
 30
0.0
 11
-131.7560698174
 21
96.04937471360001
 31
0.0
  0
LINE
  5
1CB6
330
1CAC
100
AcDbEntity
  8
PIC55
  6
Continuous
 62
     7
100
AcDbLine
 10
-136.0633083086
 20
114.3825250109999
 30
0.0
 11
-131.7560698174
 21
114.3825250109999
 31
0.0
  0
ENDBLK
  5
1CB8
330
1CAC
100
AcDbEntity
  8
0
100
AcDbBlockEnd
  0
BLOCK
  5
1CC4
330
1CB9
100
AcDbEntity
  8
0
 62
     0
100
AcDbBlockBegin
  2
COMP27
 70
     0
 10
0.0
 20
0.0
 30
0.0
  3
COMP27
  1

  0
MTEXT
  5
1CBA
330
1CB9
100
AcDbEntity
  8
0
 62
     7
100
AcDbMText
 10
-131.6212592904
 20
106.3576824412999
 30
0.0
 40
2.5
 41
0.0
 71
     1
 72
     5
  1
7
  7
SLDTEXTSTYLE0
 11
0.0
 21
1.0
 31
0.0
 73
     1
 44
1.0
  0
MTEXT
  5
1CBB
330
1CB9
100
AcDbEntity
  8
0
 62
     7
100
AcDbMText
 10
-131.6212587287
 20
108.0764324412999
 30
0.0
 40
2.5
 41
0.0
 71
     1
 72
     5
  1
0
  7
SLDTEXTSTYLE0
 11
0.0
 21
1.0
 31
0.0
 73
     1
 44
1.0
  0
LINE
  5
1CBC
330
1CB9
100
AcDbEntity
  8
PIC55
  6
Continuous
 62
     7
100
AcDbLine
 10
-128.5582257677
 20
93.6117362903
 30
0.0
 11
-128.5582257677
 21
101.5156185605998
 31
0.0
  0
LINE
  5
1CBD
330
1CB9
100
AcDbEntity
  8
0
  6
Continuous
 62
     7
100
AcDbLine
 10
-127.9332257677
 20
96.1117362903
 30
0.0
 11
-128.5582257677
 21
93.6117362903
 31
0.0
  0
LINE
  5
1CBE
330
1CB9
100
AcDbEntity
  8
0
  6
Continuous
 62
     7
100
AcDbLine
 10
-128.5582257677
 20
93.6117362903
 30
0.0
 11
-129.1832257677
 21
96.1117362903
 31
0.0
  0
LINE
  5
1CBF
330
1CB9
100
AcDbEntity
  8
PIC55
  6
Continuous
 62
     7
100
AcDbLine
 10
-128.5582257677
 20
116.8169794655
 30
0.0
 11
-128.5582257677
 21
101.5156185605998
 31
0.0
  0
LINE
  5
1CC0
330
1CB9
100
AcDbEntity
  8
0
  6
Continuous
 62
     7
100
AcDbLine
 10
-129.1832257677
 20
114.3169794654999
 30
0.0
 11
-128.5582257677
 21
116.8169794655
 31
0.0
  0
LINE
  5
1CC1
330
1CB9
100
AcDbEntity
  8
0
  6
Continuous
 62
     7
100
AcDbLine
 10
-128.5582257677
 20
116.8169794655
 30
0.0
 11
-127.9332257677
 21
114.3169794654999
 31
0.0
  0
LINE
  5
1CC2
330
1CB9
100
AcDbEntity
  8
PIC55
  6
Continuous
 62
     7
100
AcDbLine
 10
-134.3926605188
 20
93.6117362903
 30
0.0
 11
-127.8915657569
 21
93.6117362903
 31
0.0
  0
LINE
  5
1CC3
330
1CB9
100
AcDbEntity
  8
PIC55
  6
Continuous
 62
     7
100
AcDbLine
 10
-134.6013884967
 20
116.8169794655
 30
0.0
 11
-127.8915657569
 21
116.8169794655
 31
0.0
  0
ENDBLK
  5
1CC5
330
1CB9
100
AcDbEntity
  8
0
100
AcDbBlockEnd
  0
BLOCK
  5
1CD1
330
1CC6
100
AcDbEntity
  8
0
 62
     0
100
AcDbBlockBegin
  2
COMP28
 70
     0
 10
0.0
 20
0.0
 30
0.0
  3
COMP28
  1

  0
MTEXT
  5
1CC7
330
1CC6
100
AcDbEntity
  8
0
 62
     7
100
AcDbMText
 10
-125.3177943914
 20
101.6394067940999
 30
0.0
 40
2.5
 41
0.0
 71
     1
 72
     5
  1
4
  7
SLDTEXTSTYLE0
 11
0.0
 21
1.0
 31
0.0
 73
     1
 44
1.0
  0
MTEXT
  5
1CC8
330
1CC6
100
AcDbEntity
  8
0
 62
     7
100
AcDbMText
 10
-125.3177938296998
 20
103.3581567941
 30
0.0
 40
2.5
 41
0.0
 71
     1
 72
     5
  1
0
  7
SLDTEXTSTYLE0
 11
0.0
 21
1.0
 31
0.0
 73
     1
 44
1.0
  0
LINE
  5
1CC9
330
1CC6
100
AcDbEntity
  8
PIC55
  6
Continuous
 62
     7
100
AcDbLine
 10
-122.0383527103
 20
98.54944130600001
 30
0.0
 11
-122.0383527103
 21
103.0864952111
 31
0.0
  0
LINE
  5
1CCA
330
1CC6
100
AcDbEntity
  8
0
  6
Continuous
 62
     7
100
AcDbLine
 10
-121.4133527103
 20
101.0494413059999
 30
0.0
 11
-122.0383527103
 21
98.54944130600001
 31
0.0
  0
LINE
  5
1CCB
330
1CC6
100
AcDbEntity
  8
0
  6
Continuous
 62
     7
100
AcDbLine
 10
-122.0383527103
 20
98.54944130600001
 30
0.0
 11
-122.6633527102999
 21
101.0494413059999
 31
0.0
  0
LINE
  5
1CCC
330
1CC6
100
AcDbEntity
  8
PIC55
  6
Continuous
 62
     7
100
AcDbLine
 10
-122.0383527103
 20
111.8824584187
 30
0.0
 11
-122.0383527103
 21
103.0864952111
 31
0.0
  0
LINE
  5
1CCD
330
1CC6
100
AcDbEntity
  8
0
  6
Continuous
 62
     7
100
AcDbLine
 10
-122.6633527102999
 20
109.3824584187
 30
0.0
 11
-122.0383527103
 21
111.8824584187
 31
0.0
  0
LINE
  5
1CCE
330
1CC6
100
AcDbEntity
  8
0
  6
Continuous
 62
     7
100
AcDbLine
 10
-122.0383527103
 20
111.8824584187
 30
0.0
 11
-121.4133527103
 21
109.3824584187
 31
0.0
  0
LINE
  5
1CCF
330
1CC6
100
AcDbEntity
  8
PIC55
  6
Continuous
 62
     7
100
AcDbLine
 10
-110.938559151
 20
98.54944130600001
 30
0.0
 11
-122.7050127211
 21
98.54944130600001
 31
0.0
  0
LINE
  5
1CD0
330
1CC6
100
AcDbEntity
  8
PIC55
  6
Continuous
 62
     7
100
AcDbLine
 10
-111.1385591888
 20
111.8824584187
 30
0.0
 11
-122.7050127211
 21
111.8824584187
 31
0.0
  0
ENDBLK
  5
1CD2
330
1CC6
100
AcDbEntity
  8
0
100
AcDbBlockEnd
  0
BLOCK
  5
1CE0
330
1CD3
100
AcDbEntity
  8
0
 62
     0
100
AcDbBlockBegin
  2
COMP29
 70
     0
 10
0.0
 20
0.0
 30
0.0
  3
COMP29
  1

  0
MTEXT
  5
1CD4
330
1CD3
100
AcDbEntity
  8
0
 62
     7
100
AcDbMText
 10
-118.0632078032999
 20
101.9378046937999
 30
0.0
 40
2.5
 41
0.0
 71
     1
 72
     5
  1
1
  7
SLDTEXTSTYLE0
 11
0.0
 21
1.0
 31
0.0
 73
     1
 44
1.0
  0
MTEXT
  5
1CD5
330
1CD3
100
AcDbEntity
  8
0
 62
     7
100
AcDbMText
 10
-118.0632072417
 20
103.6565546937999
 30
0.0
 40
2.5
 41
0.0
 71
     1
 72
     5
  1
0
  7
SLDTEXTSTYLE0
 11
0.0
 21
1.0
 31
0.0
 73
     1
 44
1.0
  0
LINE
  5
1CD6
330
1CD3
100
AcDbEntity
  8
PIC55
  6
Continuous
 62
     7
100
AcDbLine
 10
-114.7433612523
 20
103.5492998353
 30
0.0
 11
-114.7433612523
 21
101.4437707263998
 31
0.0
  0
LINE
  5
1CD7
330
1CD3
100
AcDbEntity
  8
0
  6
Continuous
 62
     7
100
AcDbLine
 10
-115.3683612522999
 20
101.0492998352999
 30
0.0
 11
-114.7433612523
 21
103.5492998353
 31
0.0
  0
LINE
  5
1CD8
330
1CD3
100
AcDbEntity
  8
0
  6
Continuous
 62
     7
100
AcDbLine
 10
-114.7433612523
 20
103.5492998353
 30
0.0
 11
-114.1183612522999
 21
101.0492998352999
 31
0.0
  0
LINE
  5
1CD9
330
1CD3
100
AcDbEntity
  8
PIC55
  6
Continuous
 62
     7
100
AcDbLine
 10
-114.7433612523
 20
103.5492998353
 30
0.0
 11
-114.7433612523
 21
105.2159498622998
 31
0.0
  0
LINE
  5
1CDA
330
1CD3
100
AcDbEntity
  8
PIC55
  6
Continuous
 62
     7
100
AcDbLine
 10
-114.7433612523
 20
106.8825998894
 30
0.0
 11
-114.7433612523
 21
105.2159498622998
 31
0.0
  0
LINE
  5
1CDB
330
1CD3
100
AcDbEntity
  8
PIC55
  6
Continuous
 62
     7
100
AcDbLine
 10
-114.7433612523
 20
106.8825998894
 30
0.0
 11
-114.7433612523
 21
108.8825799217999
 31
0.0
  0
LINE
  5
1CDC
330
1CD3
100
AcDbEntity
  8
0
  6
Continuous
 62
     7
100
AcDbLine
 10
-114.1183612522999
 20
109.3825998894
 30
0.0
 11
-114.7433612523
 21
106.8825998894
 31
0.0
  0
LINE
  5
1CDD
330
1CD3
100
AcDbEntity
  8
0
  6
Continuous
 62
     7
100
AcDbLine
 10
-114.7433612523
 20
106.8825998894
 30
0.0
 11
-115.3683612522999
 21
109.3825998894
 31
0.0
  0
LINE
  5
1CDE
330
1CD3
100
AcDbEntity
  8
PIC55
  6
Continuous
 62
     7
100
AcDbLine
 10
-112.0635479192999
 20
103.5492998353
 30
0.0
 11
-115.4100212631
 21
103.5492998353
 31
0.0
  0
LINE
  5
1CDF
330
1CD3
100
AcDbEntity
  8
PIC55
  6
Continuous
 62
     7
100
AcDbLine
 10
-112.0635479192999
 20
106.8825998894
 30
0.0
 11
-115.4100212631
 21
106.8825998894
 31
0.0
  0
ENDBLK
  5
1CE1
330
1CD3
100
AcDbEntity
  8
0
100
AcDbBlockEnd
  0
BLOCK
  5
1CEF
330
1CE2
100
AcDbEntity
  8
0
 62
     0
100
AcDbBlockBegin
  2
COMP30
 70
     0
 10
0.0
 20
0.0
 30
0.0
  3
COMP30
  1

  0
MTEXT
  5
1CE3
330
1CE2
100
AcDbEntity
  8
0
 62
     7
100
AcDbMText
 10
-105.9103343445
 20
104.4906254795
 30
0.0
 40
2.5
 41
0.0
 71
     1
 72
     5
  1
1
  7
SLDTEXTSTYLE0
 11
0.0
 21
1.0
 31
0.0
 73
     1
 44
1.0
  0
MTEXT
  5
1CE4
330
1CE2
100
AcDbEntity
  8
0
 62
     7
100
AcDbMText
 10
-105.9103337828
 20
106.2093754795
 30
0.0
 40
2.5
 41
0.0
 71
     1
 72
     5
  1
4
  7
SLDTEXTSTYLE0
 11
0.0
 21
1.0
 31
0.0
 73
     1
 44
1.0
  0
LINE
  5
1CE5
330
1CE2
100
AcDbEntity
  8
PIC55
  6
Continuous
 62
     7
100
AcDbLine
 10
-102.6634647665999
 20
102.8826398245
 30
0.0
 11
-102.6634647665999
 21
99.88263925860001
 31
0.0
  0
LINE
  5
1CE6
330
1CE2
100
AcDbEntity
  8
0
  6
Continuous
 62
     7
100
AcDbLine
 10
-103.2884647666
 20
100.3826398244999
 30
0.0
 11
-102.6634647665999
 21
102.8826398245
 31
0.0
  0
LINE
  5
1CE7
330
1CE2
100
AcDbEntity
  8
0
  6
Continuous
 62
     7
100
AcDbLine
 10
-102.6634647665999
 20
102.8826398245
 30
0.0
 11
-102.0384647666
 21
100.3826398244999
 31
0.0
  0
LINE
  5
1CE8
330
1CE2
100
AcDbEntity
  8
PIC55
  6
Continuous
 62
     7
100
AcDbLine
 10
-102.6634647665999
 20
102.8826398245
 30
0.0
 11
-102.6634647665999
 21
105.2159498622998
 31
0.0
  0
LINE
  5
1CE9
330
1CE2
100
AcDbEntity
  8
PIC55
  6
Continuous
 62
     7
100
AcDbLine
 10
-102.6634647665999
 20
107.5492599002
 30
0.0
 11
-102.6634647665999
 21
105.2159498622998
 31
0.0
  0
LINE
  5
1CEA
330
1CE2
100
AcDbEntity
  8
PIC55
  6
Continuous
 62
     7
100
AcDbLine
 10
-102.6634647665999
 20
107.5492599002
 30
0.0
 11
-102.6634647665999
 21
110.5492604661
 31
0.0
  0
LINE
  5
1CEB
330
1CE2
100
AcDbEntity
  8
0
  6
Continuous
 62
     7
100
AcDbLine
 10
-102.0384647666
 20
110.0492599002
 30
0.0
 11
-102.6634647665999
 21
107.5492599002
 31
0.0
  0
LINE
  5
1CEC
330
1CE2
100
AcDbEntity
  8
0
  6
Continuous
 62
     7
100
AcDbLine
 10
-102.6634647665999
 20
107.5492599002
 30
0.0
 11
-103.2884647666
 21
110.0492599002
 31
0.0
  0
LINE
  5
1CED
330
1CE2
100
AcDbEntity
  8
PIC55
  6
Continuous
 62
     7
100
AcDbLine
 10
-107.8052591347
 20
102.8826398245
 30
0.0
 11
-101.9968047557999
 21
102.8826398245
 31
0.0
  0
LINE
  5
1CEE
330
1CE2
100
AcDbEntity
  8
PIC55
  6
Continuous
 62
     7
100
AcDbLine
 10
-107.8052591347
 20
107.5492599002
 30
0.0
 11
-101.9968047557999
 21
107.5492599002
 31
0.0
  0
ENDBLK
  5
1CF0
330
1CE2
100
AcDbEntity
  8
0
100
AcDbBlockEnd
  0
BLOCK
  5
1CF8
330
1CF1
100
AcDbEntity
  8
0
 62
     0
100
AcDbBlockBegin
  2
COMP31
 70
     0
 10
0.0
 20
0.0
 30
0.0
  3
COMP31
  1

  0
MTEXT
  5
1CF2
330
1CF1
100
AcDbEntity
  8
0
 62
     7
100
AcDbMText
 10
-96.2896319502
 20
108.6465630608
 30
0.0
 40
2.5
 41
0.0
 71
     1
 72
     5
  1
R
  7
SLDTEXTSTYLE0
 11
0.882947592862131
 21
0.4694715627798649
 31
0.0
 73
     1
 44
1.0
  0
MTEXT
  5
1CF3
330
1CF1
100
AcDbEntity
  8
0
 62
     7
100
AcDbMText
 10
-94.77206569290002
 20
109.4534671551
 30
0.0
 40
2.5
 41
0.0
 71
     1
 72
     5
  1
2
  7
SLDTEXTSTYLE0
 11
0.882947592862131
 21
0.4694715627798649
 31
0.0
 73
     1
 44
1.0
  0
MTEXT
  5
1CF4
330
1CF1
100
AcDbEntity
  8
0
 62
     7
100
AcDbMText
 10
-93.25449943569999
 20
110.2603712493
 30
0.0
 40
2.5
 41
0.0
 71
     1
 72
     5
  1
9
  7
SLDTEXTSTYLE0
 11
0.882947592862131
 21
0.4694715627798649
 31
0.0
 73
     1
 44
1.0
  0
LINE
  5
1CF5
330
1CF1
100
AcDbEntity
  8
PIC55
  6
Continuous
 62
     7
100
AcDbLine
 10
-87.6043804955
 20
109.7517830764999
 30
0.0
 11
-95.2761178667
 21
105.6753772416
 31
0.0
  0
LINE
  5
1CF6
330
1CF1
100
AcDbEntity
  8
0
  6
Continuous
 62
     7
100
AcDbLine
 10
-90.1051692044
 20
109.1299464151
 30
0.0
 11
-87.6043804955
 21
109.7517830764999
 31
0.0
  0
LINE
  5
1CF7
330
1CF1
100
AcDbEntity
  8
0
  6
Continuous
 62
     7
100
AcDbLine
 10
-87.6043804955
 20
109.7517830764999
 30
0.0
 11
-89.51832975090002
 21
108.0262619239998
 31
0.0
  0
ENDBLK
  5
1CF9
330
1CF1
100
AcDbEntity
  8
0
100
AcDbBlockEnd
  0
BLOCK
  5
1D01
330
1CFA
100
AcDbEntity
  8
0
 62
     0
100
AcDbBlockBegin
  2
COMP32
 70
     0
 10
0.0
 20
0.0
 30
0.0
  3
COMP32
  1

  0
MTEXT
  5
1CFB
330
1CFA
100
AcDbEntity
  8
0
 62
     7
100
AcDbMText
 10
-106.3066381889
 20
117.2070937716
 30
0.0
 40
2.5
 41
0.0
 71
     1
 72
     5
  1
R
  7
SLDTEXTSTYLE0
 11
0.6691306063703385
 21
0.7431448254670575
 31
0.0
 73
     1
 44
1.0
  0
MTEXT
  5
1CFC
330
1CFA
100
AcDbEntity
  8
0
 62
     7
100
AcDbMText
 10
-105.1565697366
 20
118.4843737398999
 30
0.0
 40
2.5
 41
0.0
 71
     1
 72
     5
  1
2
  7
SLDTEXTSTYLE0
 11
0.6691306063703385
 21
0.7431448254670575
 31
0.0
 73
     1
 44
1.0
  0
MTEXT
  5
1CFD
330
1CFA
100
AcDbEntity
  8
0
 62
     7
100
AcDbMText
 10
-104.0065012843
 20
119.7616537083
 30
0.0
 40
2.5
 41
0.0
 71
     1
 72
     5
  1
4
  7
SLDTEXTSTYLE0
 11
0.6691306063703385
 21
0.7431448254670575
 31
0.0
 73
     1
 44
1.0
  0
LINE
  5
1CFE
330
1CFA
100
AcDbEntity
  8
PIC55
  6
Continuous
 62
     7
100
AcDbLine
 10
-95.38142280489999
 20
123.3378697654
 30
0.0
 11
-100.7229934173997
 21
117.3824950596997
 31
0.0
  0
LINE
  5
1CFF
330
1CFA
100
AcDbEntity
  8
0
  6
Continuous
 62
     7
100
AcDbLine
 10
-97.51871483670001
 20
121.8982143307
 30
0.0
 11
-95.38142280489999
 21
123.3378697654
 31
0.0
  0
LINE
  5
1D00
330
1CFA
100
AcDbEntity
  8
0
  6
Continuous
 62
     7
100
AcDbLine
 10
-95.38142280489999
 20
123.3378697654
 30
0.0
 11
-96.58978380489999
 21
121.0618010727
 31
0.0
  0
ENDBLK
  5
1D02
330
1CFA
100
AcDbEntity
  8
0
100
AcDbBlockEnd
  0
BLOCK
  5
1D0C
330
1D03
100
AcDbEntity
  8
0
 62
     0
100
AcDbBlockBegin
  2
COMP33
 70
     0
 10
0.0
 20
0.0
 30
0.0
  3
COMP33
  1

  0
MTEXT
  5
1D04
330
1D03
100
AcDbEntity
  8
0
 62
     7
100
AcDbMText
 10
-96.17140409139999
 20
127.7289613787999
 30
0.0
 40
2.5
 41
0.0
 71
     1
 72
     5
  1
2
  7
SLDTEXTSTYLE0
 11
0.6691306063703385
 21
0.7431448254670575
 31
0.0
 73
     1
 44
1.0
  0
MTEXT
  5
1D05
330
1D03
100
AcDbEntity
  8
0
 62
     7
100
AcDbMText
 10
-95.0213356391
 20
129.0062413471
 30
0.0
 40
2.5
 41
0.0
 71
     1
 72
     5
  1
5
  7
SLDTEXTSTYLE0
 11
0.6691306063703385
 21
0.7431448254670575
 31
0.0
 73
     1
 44
1.0
  0
LINE
  5
1D06
330
1D03
100
AcDbEntity
  8
PIC55
  6
Continuous
 62
     7
100
AcDbLine
 10
-95.38142280489999
 20
123.3378697654
 30
0.0
 11
-92.5993664335
 21
126.4396149209999
 31
0.0
  0
LINE
  5
1D07
330
1D03
100
AcDbEntity
  8
0
  6
Continuous
 62
     7
100
AcDbLine
 10
-93.2441307731
 20
124.7775252001
 30
0.0
 11
-95.38142280489999
 21
123.3378697654
 31
0.0
  0
LINE
  5
1D08
330
1D03
100
AcDbEntity
  8
0
  6
Continuous
 62
     7
100
AcDbLine
 10
-95.38142280489999
 20
123.3378697654
 30
0.0
 11
-94.17306180489999
 21
125.6139384581
 31
0.0
  0
LINE
  5
1D09
330
1D03
100
AcDbEntity
  8
PIC55
  6
Continuous
 62
     7
100
AcDbLine
 10
-89.81729988959999
 20
129.5413702489998
 30
0.0
 11
-92.5993664335
 21
126.4396149209999
 31
0.0
  0
LINE
  5
1D0A
330
1D03
100
AcDbEntity
  8
0
  6
Continuous
 62
     7
100
AcDbLine
 10
-91.9545919215
 20
128.1017148143
 30
0.0
 11
-89.81729988959999
 21
129.5413702489998
 31
0.0
  0
LINE
  5
1D0B
330
1D03
100
AcDbEntity
  8
0
  6
Continuous
 62
     7
100
AcDbLine
 10
-89.81729988959999
 20
129.5413702489998
 30
0.0
 11
-91.02566088959999
 21
127.2653015563999
 31
0.0
  0
ENDBLK
  5
1D0D
330
1D03
100
AcDbEntity
  8
0
100
AcDbBlockEnd
  0
BLOCK
  5
1D18
330
1D0E
100
AcDbEntity
  8
0
 62
     0
100
AcDbBlockBegin
  2
COMP34
 70
     0
 10
0.0
 20
0.0
 30
0.0
  3
COMP34
  1

  0
MTEXT
  5
1D0F
330
1D0E
100
AcDbEntity
  8
0
 62
     7
100
AcDbMText
 10
-89.9024644011
 20
134.7987658761
 30
0.0
 40
2.5
 41
0.0
 71
     1
 72
     5
  1
8
  7
SLDTEXTSTYLE0
 11
0.6691306063703385
 21
0.7431448254670575
 31
0.0
 73
     1
 44
1.0
  0
LINE
  5
1D10
330
1D0E
100
AcDbEntity
  8
PIC55
  6
Continuous
 62
     7
100
AcDbLine
 10
-89.81729988959999
 20
129.5413702489998
 30
0.0
 11
-91.15269508590001
 21
128.0525240295
 31
0.0
  0
LINE
  5
1D11
330
1D0E
100
AcDbEntity
  8
0
  6
Continuous
 62
     7
100
AcDbLine
 10
-91.9545919215
 20
128.1017148143
 30
0.0
 11
-89.81729988959999
 21
129.5413702489998
 31
0.0
  0
LINE
  5
1D12
330
1D0E
100
AcDbEntity
  8
0
  6
Continuous
 62
     7
100
AcDbLine
 10
-89.81729988959999
 20
129.5413702489998
 30
0.0
 11
-91.02566088959999
 21
127.2653015563999
 31
0.0
  0
LINE
  5
1D13
330
1D0E
100
AcDbEntity
  8
PIC55
  6
Continuous
 62
     7
100
AcDbLine
 10
-89.81729988959999
 20
129.5413702489998
 30
0.0
 11
-88.9270296439
 21
130.5339445678
 31
0.0
  0
LINE
  5
1D14
330
1D0E
100
AcDbEntity
  8
PIC55
  6
Continuous
 62
     7
100
AcDbLine
 10
-88.03676957049999
 20
131.5265087141
 30
0.0
 11
-88.92703981629999
 21
130.5339343953999
 31
0.0
  0
LINE
  5
1D15
330
1D0E
100
AcDbEntity
  8
PIC55
  6
Continuous
 62
     7
100
AcDbLine
 10
-88.03676957049999
 20
131.5265087141
 30
0.0
 11
-86.7013743743
 21
133.0153549337
 31
0.0
  0
LINE
  5
1D16
330
1D0E
100
AcDbEntity
  8
0
  6
Continuous
 62
     7
100
AcDbLine
 10
-85.89947753870001
 20
132.9661641488999
 30
0.0
 11
-88.03676957049999
 21
131.5265087141
 31
0.0
  0
LINE
  5
1D17
330
1D0E
100
AcDbEntity
  8
0
  6
Continuous
 62
     7
100
AcDbLine
 10
-88.03676957049999
 20
131.5265087141
 30
0.0
 11
-86.82840857059998
 21
133.8025774067999
 31
0.0
  0
ENDBLK
  5
1D19
330
1D0E
100
AcDbEntity
  8
0
100
AcDbBlockEnd
  0
BLOCK
  5
1D24
330
1D1A
100
AcDbEntity
  8
0
 62
     0
100
AcDbBlockBegin
  2
COMP35
 70
     0
 10
0.0
 20
0.0
 30
0.0
  3
COMP35
  1

  0
MTEXT
  5
1D1B
330
1D1A
100
AcDbEntity
  8
0
 62
     7
100
AcDbMText
 10
-128.6987319092999
 20
121.7929633145999
 30
0.0
 40
2.5
 41
0.0
 71
     1
 72
     5
  1
9
  7
SLDTEXTSTYLE0
 11
0.0
 21
1.0
 31
0.0
 73
     1
 44
1.0
  0
MTEXT
  5
1D1C
330
1D1A
100
AcDbEntity
  8
0
 62
     7
100
AcDbMText
 10
-128.6987313475999
 20
123.5117133145999
 30
0.0
 40
2.5
 41
0.0
 71
     1
 72
     5
  1
0
  7
SLDTEXTSTYLE0
 11
0.0
 21
1.0
 31
0.0
 73
     1
 44
1.0
  0
LINE
  5
1D1D
330
1D1A
100
AcDbEntity
  8
PIC55
  6
Continuous
 62
     7
100
AcDbLine
 10
-125.5987317961
 20
105.2159498622998
 30
0.0
 11
-125.5987317961
 21
122.6158717654
 31
0.0
  0
LINE
  5
1D1E
330
1D1A
100
AcDbEntity
  8
0
  6
Continuous
 62
     7
100
AcDbLine
 10
-124.9737317961
 20
107.7159498622998
 30
0.0
 11
-125.5987317961
 21
105.2159498622998
 31
0.0
  0
LINE
  5
1D1F
330
1D1A
100
AcDbEntity
  8
0
  6
Continuous
 62
     7
100
AcDbLine
 10
-125.5987317961
 20
105.2159498622998
 30
0.0
 11
-126.2237317961
 21
107.7159498622998
 31
0.0
  0
LINE
  5
1D20
330
1D1A
100
AcDbEntity
  8
PIC55
  6
Continuous
 62
     7
100
AcDbLine
 10
-125.5987317961
 20
135.2157113836
 30
0.0
 11
-125.5987317961
 21
122.6158717654
 31
0.0
  0
LINE
  5
1D21
330
1D1A
100
AcDbEntity
  8
0
  6
Continuous
 62
     7
100
AcDbLine
 10
-126.2237317961
 20
132.7157113835999
 30
0.0
 11
-125.5987317961
 21
135.2157113836
 31
0.0
  0
LINE
  5
1D22
330
1D1A
100
AcDbEntity
  8
0
  6
Continuous
 62
     7
100
AcDbLine
 10
-125.5987317961
 20
135.2157113836
 30
0.0
 11
-124.9737317961
 21
132.7157113835999
 31
0.0
  0
LINE
  5
1D23
330
1D1A
100
AcDbEntity
  8
PIC55
  6
Continuous
 62
     7
100
AcDbLine
 10
-113.3525263426
 20
135.2157113836
 30
0.0
 11
-126.2653918068999
 21
135.2157113836
 31
0.0
  0
ENDBLK
  5
1D25
330
1D1A
100
AcDbEntity
  8
0
100
AcDbBlockEnd
  0
BLOCK
  5
1D31
330
1D26
100
AcDbEntity
  8
0
 62
     0
100
AcDbBlockBegin
  2
COMP36
 70
     0
 10
0.0
 20
0.0
 30
0.0
  3
COMP36
  1

  0
MTEXT
  5
1D27
330
1D26
100
AcDbEntity
  8
0
 62
     7
100
AcDbMText
 10
-55.3738283459
 20
53.4485613278
 30
0.0
 40
2.5
 41
0.0
 71
     1
 72
     5
  1
3
  7
SLDTEXTSTYLE0
 11
0.8987940462950236
 21
0.438371146797573
 31
0.0
 73
     1
 44
1.0
  0
MTEXT
  5
1D28
330
1D26
100
AcDbEntity
  8
0
 62
     7
100
AcDbMText
 10
-53.8290260077
 20
54.2020115905
 30
0.0
 40
2.5
 41
0.0
 71
     1
 72
     5
  1
0
  7
SLDTEXTSTYLE0
 11
0.8987940462950236
 21
0.438371146797573
 31
0.0
 73
     1
 44
1.0
  0
LINE
  5
1D29
330
1D26
100
AcDbEntity
  8
PIC55
  6
Continuous
 62
     7
100
AcDbLine
 10
-57.7718790639
 20
48.8363959683
 30
0.0
 11
-53.27526054609999
 21
51.02303999
 31
0.0
  0
LINE
  5
1D2A
330
1D26
100
AcDbEntity
  8
0
  6
Continuous
 62
     7
100
AcDbLine
 10
-55.2509119814
 20
49.3705775564
 30
0.0
 11
-57.7718790639
 21
48.8363959683
 31
0.0
  0
LINE
  5
1D2B
330
1D26
100
AcDbEntity
  8
0
  6
Continuous
 62
     7
100
AcDbLine
 10
-57.7718790639
 20
48.8363959683
 30
0.0
 11
-55.79887591489999
 21
50.4940701142
 31
0.0
  0
LINE
  5
1D2C
330
1D26
100
AcDbEntity
  8
PIC55
  6
Continuous
 62
     7
100
AcDbLine
 10
-48.7786369421
 20
53.2096840117
 30
0.0
 11
-53.27526054609999
 21
51.02303999
 31
0.0
  0
LINE
  5
1D2D
330
1D26
100
AcDbEntity
  8
0
  6
Continuous
 62
     7
100
AcDbLine
 10
-51.2996040246
 20
52.67550242359999
 30
0.0
 11
-48.7786369421
 21
53.2096840117
 31
0.0
  0
LINE
  5
1D2E
330
1D26
100
AcDbEntity
  8
0
  6
Continuous
 62
     7
100
AcDbLine
 10
-48.7786369421
 20
53.2096840117
 30
0.0
 11
-50.75164009109999
 21
51.5520098658
 31
0.0
  0
LINE
  5
1D2F
330
1D26
100
AcDbEntity
  8
PIC55
  6
Continuous
 62
     7
100
AcDbLine
 10
-64.2023619412
 20
62.06004934540001
 30
0.0
 11
-57.4803373782
 21
48.2368637867
 31
0.0
  0
LINE
  5
1D30
330
1D26
100
AcDbEntity
  8
PIC55
  6
Continuous
 62
     7
100
AcDbLine
 10
-55.20911473319999
 20
66.4333373887
 30
0.0
 11
-48.4870952565
 21
52.61015183
 31
0.0
  0
ENDBLK
  5
1D32
330
1D26
100
AcDbEntity
  8
0
100
AcDbBlockEnd
  0
BLOCK
  5
1D3A
330
1D33
100
AcDbEntity
  8
0
 62
     0
100
AcDbBlockBegin
  2
COMP37
 70
     0
 10
0.0
 20
0.0
 30
0.0
  3
COMP37
  1

  0
MTEXT
  5
1D34
330
1D33
100
AcDbEntity
  8
0
 62
     7
100
AcDbMText
 10
-54.25906328109999
 20
109.1883748439999
 30
0.0
 40
2.5
 41
0.0
 71
     1
 72
     5
  1
R
  7
SLDTEXTSTYLE0
 11
0.9396926207958065
 21
0.3420201432984737
 31
0.0
 73
     1
 44
1.0
  0
MTEXT
  5
1D35
330
1D33
100
AcDbEntity
  8
0
 62
     7
100
AcDbMText
 10
-52.6439665464
 20
109.7762218479997
 30
0.0
 40
2.5
 41
0.0
 71
     1
 72
     5
  1
3
  7
SLDTEXTSTYLE0
 11
0.9396926207958065
 21
0.3420201432984737
 31
0.0
 73
     1
 44
1.0
  0
MTEXT
  5
1D36
330
1D33
100
AcDbEntity
  8
0
 62
     7
100
AcDbMText
 10
-51.0288698117
 20
110.3640688520999
 30
0.0
 40
2.5
 41
0.0
 71
     1
 72
     5
  1
5
  7
SLDTEXTSTYLE0
 11
0.9396926207958065
 21
0.3420201432984737
 31
0.0
 73
     1
 44
1.0
  0
LINE
  5
1D37
330
1D33
100
AcDbEntity
  8
PIC55
  6
Continuous
 62
     7
100
AcDbLine
 10
-44.4223877098
 20
109.1875186905
 30
0.0
 11
-55.3921319083
 21
105.2159498622998
 31
0.0
  0
LINE
  5
1D38
330
1D33
100
AcDbEntity
  8
0
  6
Continuous
 62
     7
100
AcDbLine
 10
-46.9853818513
 20
108.9197762202
 30
0.0
 11
-44.4223877098
 21
109.1875186905
 31
0.0
  0
LINE
  5
1D39
330
1D33
100
AcDbEntity
  8
0
  6
Continuous
 62
     7
100
AcDbLine
 10
-44.4223877098
 20
109.1875186905
 30
0.0
 11
-46.55785667209999
 21
107.7451604441999
 31
0.0
  0
ENDBLK
  5
1D3B
330
1D33
100
AcDbEntity
  8
0
100
AcDbBlockEnd
  0
BLOCK
  5
1D47
330
1D3C
100
AcDbEntity
  8
0
 62
     0
100
AcDbBlockBegin
  2
COMP38
 70
     0
 10
0.0
 20
0.0
 30
0.0
  3
COMP38
  1

  0
MTEXT
  5
1D3D
330
1D3C
100
AcDbEntity
  8
0
 62
     7
100
AcDbMText
 10
-215.5847616906
 20
30.9071921755
 30
0.0
 40
2.5
 41
0.0
 71
     1
 72
     5
  1
7
  7
SLDTEXTSTYLE0
 73
     1
 44
1.0
  0
MTEXT
  5
1D3E
330
1D3C
100
AcDbEntity
  8
0
 62
     7
100
AcDbMText
 10
-213.8660116906
 20
30.9071921755
 30
0.0
 40
2.5
 41
0.0
 71
     1
 72
     5
  1
0
  7
SLDTEXTSTYLE0
 73
     1
 44
1.0
  0
LINE
  5
1D3F
330
1D3C
100
AcDbEntity
  8
PIC55
  6
Continuous
 62
     7
100
AcDbLine
 10
-226.428403429
 20
27.8071920623
 30
0.0
 11
-214.7618532397999
 21
27.8071920623
 31
0.0
  0
LINE
  5
1D40
330
1D3C
100
AcDbEntity
  8
0
  6
Continuous
 62
     7
100
AcDbLine
 10
-223.928403429
 20
27.1821920623
 30
0.0
 11
-226.428403429
 21
27.8071920623
 31
0.0
  0
LINE
  5
1D41
330
1D3C
100
AcDbEntity
  8
0
  6
Continuous
 62
     7
100
AcDbLine
 10
-226.428403429
 20
27.8071920623
 30
0.0
 11
-223.928403429
 21
28.4321920623
 31
0.0
  0
LINE
  5
1D42
330
1D3C
100
AcDbEntity
  8
PIC55
  6
Continuous
 62
     7
100
AcDbLine
 10
-203.0953030504999
 20
27.8071920623
 30
0.0
 11
-214.7618532397999
 21
27.8071920623
 31
0.0
  0
LINE
  5
1D43
330
1D3C
100
AcDbEntity
  8
0
  6
Continuous
 62
     7
100
AcDbLine
 10
-205.5953030505
 20
28.4321920623
 30
0.0
 11
-203.0953030504999
 21
27.8071920623
 31
0.0
  0
LINE
  5
1D44
330
1D3C
100
AcDbEntity
  8
0
  6
Continuous
 62
     7
100
AcDbLine
 10
-203.0953030504999
 20
27.8071920623
 30
0.0
 11
-205.5953030505
 21
27.1821920623
 31
0.0
  0
LINE
  5
1D45
330
1D3C
100
AcDbEntity
  8
PIC55
  6
Continuous
 62
     7
100
AcDbLine
 10
-226.428403429
 20
38.5499487809
 30
0.0
 11
-226.428403429
 21
27.14053205149998
 31
0.0
  0
LINE
  5
1D46
330
1D3C
100
AcDbEntity
  8
PIC55
  6
Continuous
 62
     7
100
AcDbLine
 10
-203.0953030504999
 20
95.7160447082
 30
0.0
 11
-203.0953030504999
 21
27.14053205149998
 31
0.0
  0
ENDBLK
  5
1D48
330
1D3C
100
AcDbEntity
  8
0
100
AcDbBlockEnd
  0
BLOCK
  5
1D55
330
1D49
100
AcDbEntity
  8
0
 62
     0
100
AcDbBlockBegin
  2
COMP39
 70
     0
 10
0.0
 20
0.0
 30
0.0
  3
COMP39
  1

  0
MTEXT
  5
1D4A
330
1D49
100
AcDbEntity
  8
0
 62
     7
100
AcDbMText
 10
-191.6579579297
 20
24.1076155914
 30
0.0
 40
2.5
 41
0.0
 71
     1
 72
     5
  1
2
  7
SLDTEXTSTYLE0
 73
     1
 44
1.0
  0
MTEXT
  5
1D4B
330
1D49
100
AcDbEntity
  8
0
 62
     7
100
AcDbMText
 10
-189.9392079297
 20
24.1076155914
 30
0.0
 40
2.5
 41
0.0
 71
     1
 72
     5
  1
1
  7
SLDTEXTSTYLE0
 73
     1
 44
1.0
  0
MTEXT
  5
1D4C
330
1D49
100
AcDbEntity
  8
0
 62
     7
100
AcDbMText
 10
-188.2204579297
 20
24.1076155914
 30
0.0
 40
2.5
 41
0.0
 71
     1
 72
     5
  1
7
  7
SLDTEXTSTYLE0
 73
     1
 44
1.0
  0
LINE
  5
1D4D
330
1D49
100
AcDbEntity
  8
PIC55
  6
Continuous
 62
     7
100
AcDbLine
 10
-226.428403429
 20
21.00761547819999
 30
0.0
 11
-190.2621385319998
 21
21.00761547819999
 31
0.0
  0
LINE
  5
1D4E
330
1D49
100
AcDbEntity
  8
0
  6
Continuous
 62
     7
100
AcDbLine
 10
-223.928403429
 20
20.38261547819999
 30
0.0
 11
-226.428403429
 21
21.00761547819999
 31
0.0
  0
LINE
  5
1D4F
330
1D49
100
AcDbEntity
  8
0
  6
Continuous
 62
     7
100
AcDbLine
 10
-226.428403429
 20
21.00761547819999
 30
0.0
 11
-223.928403429
 21
21.6326154782
 31
0.0
  0
LINE
  5
1D50
330
1D49
100
AcDbEntity
  8
PIC55
  6
Continuous
 62
     7
100
AcDbLine
 10
-154.0958939798999
 20
21.00761547819999
 30
0.0
 11
-190.2621385319998
 21
21.00761547819999
 31
0.0
  0
LINE
  5
1D51
330
1D49
100
AcDbEntity
  8
0
  6
Continuous
 62
     7
100
AcDbLine
 10
-156.5958939798998
 20
21.6326154782
 30
0.0
 11
-154.0958939798999
 21
21.00761547819999
 31
0.0
  0
LINE
  5
1D52
330
1D49
100
AcDbEntity
  8
0
  6
Continuous
 62
     7
100
AcDbLine
 10
-154.0958939798999
 20
21.00761547819999
 30
0.0
 11
-156.5958939798998
 21
20.38261547819999
 31
0.0
  0
LINE
  5
1D53
330
1D49
100
AcDbEntity
  8
PIC55
  6
Continuous
 62
     7
100
AcDbLine
 10
-226.428403429
 20
38.5499487809
 30
0.0
 11
-226.428403429
 21
20.3409554674
 31
0.0
  0
LINE
  5
1D54
330
1D49
100
AcDbEntity
  8
PIC55
  6
Continuous
 62
     7
100
AcDbLine
 10
-154.0958939798999
 20
105.2159498622998
 30
0.0
 11
-154.0958939798999
 21
20.3409554674
 31
0.0
  0
ENDBLK
  5
1D56
330
1D49
100
AcDbEntity
  8
0
100
AcDbBlockEnd
  0
BLOCK
  5
1D62
330
1D57
100
AcDbEntity
  8
0
 62
     0
100
AcDbBlockBegin
  2
COMP40
 70
     0
 10
0.0
 20
0.0
 30
0.0
  3
COMP40
  1

  0
MTEXT
  5
1D58
330
1D57
100
AcDbEntity
  8
0
 62
     7
100
AcDbMText
 10
-92.9923983982
 20
24.1076155914
 30
0.0
 40
2.5
 41
0.0
 71
     1
 72
     5
  1
3
  7
SLDTEXTSTYLE0
 73
     1
 44
1.0
  0
MTEXT
  5
1D59
330
1D57
100
AcDbEntity
  8
0
 62
     7
100
AcDbMText
 10
-91.2736483982
 20
24.1076155914
 30
0.0
 40
2.5
 41
0.0
 71
     1
 72
     5
  1
7
  7
SLDTEXTSTYLE0
 73
     1
 44
1.0
  0
MTEXT
  5
1D5A
330
1D57
100
AcDbEntity
  8
0
 62
     7
100
AcDbMText
 10
-89.5548983982
 20
24.1076155914
 30
0.0
 40
2.5
 41
0.0
 71
     1
 72
     5
  1
5
  7
SLDTEXTSTYLE0
 73
     1
 44
1.0
  0
LINE
  5
1D5B
330
1D57
100
AcDbEntity
  8
PIC55
  6
Continuous
 62
     7
100
AcDbLine
 10
-154.0958939798999
 20
21.00761547819999
 30
0.0
 11
-91.59657900049998
 21
21.00761547819999
 31
0.0
  0
LINE
  5
1D5C
330
1D57
100
AcDbEntity
  8
0
  6
Continuous
 62
     7
100
AcDbLine
 10
-151.5958939798998
 20
20.38261547819999
 30
0.0
 11
-154.0958939798999
 21
21.00761547819999
 31
0.0
  0
LINE
  5
1D5D
330
1D57
100
AcDbEntity
  8
0
  6
Continuous
 62
     7
100
AcDbLine
 10
-154.0958939798999
 20
21.00761547819999
 30
0.0
 11
-151.5958939798998
 21
21.6326154782
 31
0.0
  0
LINE
  5
1D5E
330
1D57
100
AcDbEntity
  8
PIC55
  6
Continuous
 62
     7
100
AcDbLine
 10
-29.09724621949999
 20
21.00761547819999
 30
0.0
 11
-91.59657900049998
 21
21.00761547819999
 31
0.0
  0
LINE
  5
1D5F
330
1D57
100
AcDbEntity
  8
0
  6
Continuous
 62
     7
100
AcDbLine
 10
-31.59724621949999
 20
21.6326154782
 30
0.0
 11
-29.09724621949999
 21
21.00761547819999
 31
0.0
  0
LINE
  5
1D60
330
1D57
100
AcDbEntity
  8
0
  6
Continuous
 62
     7
100
AcDbLine
 10
-29.09724621949999
 20
21.00761547819999
 30
0.0
 11
-31.59724621949999
 21
20.38261547819999
 31
0.0
  0
LINE
  5
1D61
330
1D57
100
AcDbEntity
  8
PIC55
  6
Continuous
 62
     7
100
AcDbLine
 10
-29.09724621949999
 20
105.2159498622998
 30
0.0
 11
-29.09724621949999
 21
20.3409554674
 31
0.0
  0
ENDBLK
  5
1D63
330
1D57
100
AcDbEntity
  8
0
100
AcDbBlockEnd
  0
BLOCK
  5
1D6E
330
1D64
100
AcDbEntity
  8
0
 62
     0
100
AcDbBlockBegin
  2
COMP41
 70
     0
 10
0.0
 20
0.0
 30
0.0
  3
COMP41
  1

  0
MTEXT
  5
1D65
330
1D64
100
AcDbEntity
  8
0
 62
     7
100
AcDbMText
 10
-23.2535215018
 20
24.1076155914
 30
0.0
 40
2.5
 41
0.0
 71
     1
 72
     5
  1
4
  7
SLDTEXTSTYLE0
 73
     1
 44
1.0
  0
MTEXT
  5
1D66
330
1D64
100
AcDbEntity
  8
0
 62
     7
100
AcDbMText
 10
-21.5347715018
 20
24.1076155914
 30
0.0
 40
2.5
 41
0.0
 71
     1
 72
     5
  1
0
  7
SLDTEXTSTYLE0
 73
     1
 44
1.0
  0
LINE
  5
1D67
330
1D64
100
AcDbEntity
  8
PIC55
  6
Continuous
 62
     7
100
AcDbLine
 10
-29.09724621949999
 20
21.00761547819999
 30
0.0
 11
-22.43061813719998
 21
21.00761547819999
 31
0.0
  0
LINE
  5
1D68
330
1D64
100
AcDbEntity
  8
0
  6
Continuous
 62
     7
100
AcDbLine
 10
-26.59724621949999
 20
20.38261547819999
 30
0.0
 11
-29.09724621949999
 21
21.00761547819999
 31
0.0
  0
LINE
  5
1D69
330
1D64
100
AcDbEntity
  8
0
  6
Continuous
 62
     7
100
AcDbLine
 10
-29.09724621949999
 20
21.00761547819999
 30
0.0
 11
-26.59724621949999
 21
21.6326154782
 31
0.0
  0
LINE
  5
1D6A
330
1D64
100
AcDbEntity
  8
PIC55
  6
Continuous
 62
     7
100
AcDbLine
 10
-15.7639887833
 20
21.00761547819999
 30
0.0
 11
-22.43061813719998
 21
21.00761547819999
 31
0.0
  0
LINE
  5
1D6B
330
1D64
100
AcDbEntity
  8
0
  6
Continuous
 62
     7
100
AcDbLine
 10
-18.2639887833
 20
21.6326154782
 30
0.0
 11
-15.7639887833
 21
21.00761547819999
 31
0.0
  0
LINE
  5
1D6C
330
1D64
100
AcDbEntity
  8
0
  6
Continuous
 62
     7
100
AcDbLine
 10
-15.7639887833
 20
21.00761547819999
 30
0.0
 11
-18.2639887833
 21
20.38261547819999
 31
0.0
  0
LINE
  5
1D6D
330
1D64
100
AcDbEntity
  8
PIC55
  6
Continuous
 62
     7
100
AcDbLine
 10
-15.7639887833
 20
105.2159498622998
 30
0.0
 11
-15.7639887833
 21
20.3409554674
 31
0.0
  0
ENDBLK
  5
1D6F
330
1D64
100
AcDbEntity
  8
0
100
AcDbBlockEnd
  0
BLOCK
  5
1D7C
330
1D70
100
AcDbEntity
  8
0
 62
     0
100
AcDbBlockBegin
  2
COMP42
 70
     0
 10
0.0
 20
0.0
 30
0.0
  3
COMP42
  1

  0
MTEXT
  5
1D71
330
1D70
100
AcDbEntity
  8
0
 62
     7
100
AcDbMText
 10
-94.15904324469998
 20
30.9071921755
 30
0.0
 40
2.5
 41
0.0
 71
     1
 72
     5
  1
3
  7
SLDTEXTSTYLE0
 73
     1
 44
1.0
  0
MTEXT
  5
1D72
330
1D70
100
AcDbEntity
  8
0
 62
     7
100
AcDbMText
 10
-92.44029324469998
 20
30.9071921755
 30
0.0
 40
2.5
 41
0.0
 71
     1
 72
     5
  1
6
  7
SLDTEXTSTYLE0
 73
     1
 44
1.0
  0
MTEXT
  5
1D73
330
1D70
100
AcDbEntity
  8
0
 62
     7
100
AcDbMText
 10
-90.72154324469998
 20
30.9071921755
 30
0.0
 40
2.5
 41
0.0
 71
     1
 72
     5
  1
8
  7
SLDTEXTSTYLE0
 73
     1
 44
1.0
  0
LINE
  5
1D74
330
1D70
100
AcDbEntity
  8
PIC55
  6
Continuous
 62
     7
100
AcDbLine
 10
-154.0958939798999
 20
27.8071920623
 30
0.0
 11
-92.7632340195
 21
27.8071920623
 31
0.0
  0
LINE
  5
1D75
330
1D70
100
AcDbEntity
  8
0
  6
Continuous
 62
     7
100
AcDbLine
 10
-151.5958939798998
 20
27.1821920623
 30
0.0
 11
-154.0958939798999
 21
27.8071920623
 31
0.0
  0
LINE
  5
1D76
330
1D70
100
AcDbEntity
  8
0
  6
Continuous
 62
     7
100
AcDbLine
 10
-154.0958939798999
 20
27.8071920623
 30
0.0
 11
-151.5958939798998
 21
28.4321920623
 31
0.0
  0
LINE
  5
1D77
330
1D70
100
AcDbEntity
  8
PIC55
  6
Continuous
 62
     7
100
AcDbLine
 10
-31.4305562573
 20
27.8071920623
 30
0.0
 11
-92.763223847
 21
27.8071920623
 31
0.0
  0
LINE
  5
1D78
330
1D70
100
AcDbEntity
  8
0
  6
Continuous
 62
     7
100
AcDbLine
 10
-33.93055625729999
 20
28.4321920623
 30
0.0
 11
-31.4305562573
 21
27.8071920623
 31
0.0
  0
LINE
  5
1D79
330
1D70
100
AcDbEntity
  8
0
  6
Continuous
 62
     7
100
AcDbLine
 10
-31.4305562573
 20
27.8071920623
 30
0.0
 11
-33.93055625729999
 21
27.1821920623
 31
0.0
  0
LINE
  5
1D7A
330
1D70
100
AcDbEntity
  8
PIC55
  6
Continuous
 62
     7
100
AcDbLine
 10
-154.0958939798999
 20
105.2159498622998
 30
0.0
 11
-154.0958939798999
 21
27.14053205149998
 31
0.0
  0
LINE
  5
1D7B
330
1D70
100
AcDbEntity
  8
PIC55
  6
Continuous
 62
     7
100
AcDbLine
 10
-31.4305562573
 20
105.2159498622998
 30
0.0
 11
-31.4305562573
 21
27.14053205149998
 31
0.0
  0
ENDBLK
  5
1D7D
330
1D70
100
AcDbEntity
  8
0
100
AcDbBlockEnd
  0
BLOCK
  5
1D86
330
1D7E
100
AcDbEntity
  8
0
 62
     0
100
AcDbBlockBegin
  2
COMP43
 70
     0
 10
0.0
 20
0.0
 30
0.0
  3
COMP43
  1

  0
MTEXT
  5
1D7F
330
1D7E
100
AcDbEntity
  8
0
 62
     7
100
AcDbMText
 10
-30.5138936562
 20
30.9071921755
 30
0.0
 40
2.5
 41
0.0
 71
     1
 72
     5
  1
7
  7
SLDTEXTSTYLE0
 73
     1
 44
1.0
  0
LINE
  5
1D80
330
1D7E
100
AcDbEntity
  8
PIC55
  6
Continuous
 62
     7
100
AcDbLine
 10
-31.4305562573
 20
27.8071920623
 30
0.0
 11
-30.26390123840001
 21
27.8071920623
 31
0.0
  0
LINE
  5
1D81
330
1D7E
100
AcDbEntity
  8
PIC55
  6
Continuous
 62
     7
100
AcDbLine
 10
-29.09724621949999
 20
27.8071920623
 30
0.0
 11
-30.26390123840001
 21
27.8071920623
 31
0.0
  0
LINE
  5
1D82
330
1D7E
100
AcDbEntity
  8
PIC55
  6
Continuous
 62
     7
100
AcDbLine
 10
-29.09724621949999
 20
27.8071920623
 30
0.0
 11
-27.09726618699999
 21
27.8071920623
 31
0.0
  0
LINE
  5
1D83
330
1D7E
100
AcDbEntity
  8
0
  6
Continuous
 62
     7
100
AcDbLine
 10
-26.59724621949999
 20
27.1821920623
 30
0.0
 11
-29.09724621949999
 21
27.8071920623
 31
0.0
  0
LINE
  5
1D84
330
1D7E
100
AcDbEntity
  8
0
  6
Continuous
 62
     7
100
AcDbLine
 10
-29.09724621949999
 20
27.8071920623
 30
0.0
 11
-26.59724621949999
 21
28.4321920623
 31
0.0
  0
LINE
  5
1D85
330
1D7E
100
AcDbEntity
  8
PIC55
  6
Continuous
 62
     7
100
AcDbLine
 10
-29.09724621949999
 20
105.2138950326
 30
0.0
 11
-29.09724621949999
 21
27.14053205149998
 31
0.0
  0
ENDBLK
  5
1D87
330
1D7E
100
AcDbEntity
  8
0
100
AcDbBlockEnd
  0
BLOCK
  5
1D94
330
1D88
100
AcDbEntity
  8
0
 62
     0
100
AcDbBlockBegin
  2
COMP44
 70
     0
 10
0.0
 20
0.0
 30
0.0
  3
COMP44
  1

  0
MTEXT
  5
1D89
330
1D88
100
AcDbEntity
  8
0
 62
     7
100
AcDbMText
 10
-122.4920123249
 20
17.4095254717
 30
0.0
 40
2.5
 41
0.0
 71
     1
 72
     5
  1
6
  7
SLDTEXTSTYLE0
 73
     1
 44
1.0
  0
MTEXT
  5
1D8A
330
1D88
100
AcDbEntity
  8
0
 62
     7
100
AcDbMText
 10
-120.7732623248999
 20
17.4095254717
 30
0.0
 40
2.5
 41
0.0
 71
     1
 72
     5
  1
3
  7
SLDTEXTSTYLE0
 73
     1
 44
1.0
  0
MTEXT
  5
1D8B
330
1D88
100
AcDbEntity
  8
0
 62
     7
100
AcDbMText
 10
-119.0545123249
 20
17.4095254717
 30
0.0
 40
2.5
 41
0.0
 71
     1
 72
     5
  1
2
  7
SLDTEXTSTYLE0
 73
     1
 44
1.0
  0
LINE
  5
1D8C
330
1D88
100
AcDbEntity
  8
PIC55
  6
Continuous
 62
     7
100
AcDbLine
 10
-226.428403429
 20
14.30952535849999
 30
0.0
 11
-121.0961929273
 21
14.30952535849999
 31
0.0
  0
LINE
  5
1D8D
330
1D88
100
AcDbEntity
  8
0
  6
Continuous
 62
     7
100
AcDbLine
 10
-223.928403429
 20
13.68452535849999
 30
0.0
 11
-226.428403429
 21
14.30952535849999
 31
0.0
  0
LINE
  5
1D8E
330
1D88
100
AcDbEntity
  8
0
  6
Continuous
 62
     7
100
AcDbLine
 10
-226.428403429
 20
14.30952535849999
 30
0.0
 11
-223.928403429
 21
14.93452535849999
 31
0.0
  0
LINE
  5
1D8F
330
1D88
100
AcDbEntity
  8
PIC55
  6
Continuous
 62
     7
100
AcDbLine
 10
-15.7639887833
 20
14.30952535849999
 30
0.0
 11
-121.0961929273
 21
14.30952535849999
 31
0.0
  0
LINE
  5
1D90
330
1D88
100
AcDbEntity
  8
0
  6
Continuous
 62
     7
100
AcDbLine
 10
-18.2639887833
 20
14.93452535849999
 30
0.0
 11
-15.7639887833
 21
14.30952535849999
 31
0.0
  0
LINE
  5
1D91
330
1D88
100
AcDbEntity
  8
0
  6
Continuous
 62
     7
100
AcDbLine
 10
-15.7639887833
 20
14.30952535849999
 30
0.0
 11
-18.2639887833
 21
13.68452535849999
 31
0.0
  0
LINE
  5
1D92
330
1D88
100
AcDbEntity
  8
PIC55
  6
Continuous
 62
     7
100
AcDbLine
 10
-226.428403429
 20
38.5499487809
 30
0.0
 11
-226.428403429
 21
13.64286534769999
 31
0.0
  0
LINE
  5
1D93
330
1D88
100
AcDbEntity
  8
PIC55
  6
Continuous
 62
     7
100
AcDbLine
 10
-15.7639887833
 20
105.2159498622998
 30
0.0
 11
-15.7639887833
 21
13.64286534769999
 31
0.0
  0
ENDBLK
  5
1D95
330
1D88
100
AcDbEntity
  8
0
100
AcDbBlockEnd
  0
BLOCK
  5
1DA2
330
1D96
100
AcDbEntity
  8
0
 62
     0
100
AcDbBlockBegin
  2
COMP45
 70
     0
 10
0.0
 20
0.0
 30
0.0
  3
COMP45
  1

  0
MTEXT
  5
1D97
330
1D96
100
AcDbEntity
  8
0
 62
     7
100
AcDbMText
 10
-250.2055957852999
 20
103.8201304647
 30
0.0
 40
2.5
 41
0.0
 71
     1
 72
     5
  1
4
  7
SLDTEXTSTYLE0
 11
0.0
 21
1.0
 31
0.0
 73
     1
 44
1.0
  0
MTEXT
  5
1D98
330
1D96
100
AcDbEntity
  8
0
 62
     7
100
AcDbMText
 10
-250.2055952236
 20
105.5388804646999
 30
0.0
 40
2.5
 41
0.0
 71
     1
 72
     5
  1
0
  7
SLDTEXTSTYLE0
 11
0.0
 21
1.0
 31
0.0
 73
     1
 44
1.0
  0
MTEXT
  5
1D99
330
1D96
100
AcDbEntity
  8
0
 62
     7
100
AcDbMText
 10
-250.2055946618999
 20
107.2576304647
 30
0.0
 40
2.5
 41
0.0
 71
     1
 72
     5
  1
0
  7
SLDTEXTSTYLE0
 11
0.0
 21
1.0
 31
0.0
 73
     1
 44
1.0
  0
LINE
  5
1D9A
330
1D96
100
AcDbEntity
  8
PIC55
  6
Continuous
 62
     7
100
AcDbLine
 10
-247.1055854997
 20
38.5499487809
 30
0.0
 11
-247.1055854997
 21
105.2159498622998
 31
0.0
  0
LINE
  5
1D9B
330
1D96
100
AcDbEntity
  8
0
  6
Continuous
 62
     7
100
AcDbLine
 10
-246.4805854997
 20
41.0499487809
 30
0.0
 11
-247.1055854997
 21
38.5499487809
 31
0.0
  0
LINE
  5
1D9C
330
1D96
100
AcDbEntity
  8
0
  6
Continuous
 62
     7
100
AcDbLine
 10
-247.1055854997
 20
38.5499487809
 30
0.0
 11
-247.7305854997
 21
41.0499487809
 31
0.0
  0
LINE
  5
1D9D
330
1D96
100
AcDbEntity
  8
PIC55
  6
Continuous
 62
     7
100
AcDbLine
 10
-247.1055854997
 20
171.8819509438
 30
0.0
 11
-247.1055854997
 21
105.2159498622998
 31
0.0
  0
LINE
  5
1D9E
330
1D96
100
AcDbEntity
  8
0
  6
Continuous
 62
     7
100
AcDbLine
 10
-247.7305854997
 20
169.3819509437999
 30
0.0
 11
-247.1055854997
 21
171.8819509438
 31
0.0
  0
LINE
  5
1D9F
330
1D96
100
AcDbEntity
  8
0
  6
Continuous
 62
     7
100
AcDbLine
 10
-247.1055854997
 20
171.8819509438
 30
0.0
 11
-246.4805854997
 21
169.3819509437999
 31
0.0
  0
LINE
  5
1DA0
330
1D96
100
AcDbEntity
  8
PIC55
  6
Continuous
 62
     7
100
AcDbLine
 10
-226.428403429
 20
38.5499487809
 30
0.0
 11
-247.7722455104998
 21
38.5499487809
 31
0.0
  0
LINE
  5
1DA1
330
1D96
100
AcDbEntity
  8
PIC55
  6
Continuous
 62
     7
100
AcDbLine
 10
-226.428403429
 20
171.8819509438
 30
0.0
 11
-247.7722455104998
 21
171.8819509438
 31
0.0
  0
ENDBLK
  5
1DA3
330
1D96
100
AcDbEntity
  8
0
100
AcDbBlockEnd
  0
BLOCK
  5
1DB0
330
1DA4
100
AcDbEntity
  8
0
 62
     0
100
AcDbBlockBegin
  2
COMP46
 70
     0
 10
0.0
 20
0.0
 30
0.0
  3
COMP46
  1

  0
MTEXT
  5
1DA5
330
1DA4
100
AcDbEntity
  8
0
 62
     7
100
AcDbMText
 10
-200.8244923886999
 20
187.265529998
 30
0.0
 40
2.5
 41
0.0
 71
     1
 72
     5
  1
1
  7
SLDTEXTSTYLE0
 73
     1
 44
1.0
  0
MTEXT
  5
1DA6
330
1DA4
100
AcDbEntity
  8
0
 62
     7
100
AcDbMText
 10
-199.1057423886999
 20
187.265529998
 30
0.0
 40
2.5
 41
0.0
 71
     1
 72
     5
  1
6
  7
SLDTEXTSTYLE0
 73
     1
 44
1.0
  0
MTEXT
  5
1DA7
330
1DA4
100
AcDbEntity
  8
0
 62
     7
100
AcDbMText
 10
-197.3869923886999
 20
187.265529998
 30
0.0
 40
2.5
 41
0.0
 71
     1
 72
     5
  1
2
  7
SLDTEXTSTYLE0
 73
     1
 44
1.0
  0
LINE
  5
1DA8
330
1DA4
100
AcDbEntity
  8
PIC55
  6
Continuous
 62
     7
100
AcDbLine
 10
-226.428403429
 20
184.1655400573
 30
0.0
 11
-199.4286729909999
 21
184.1655400573
 31
0.0
  0
LINE
  5
1DA9
330
1DA4
100
AcDbEntity
  8
0
  6
Continuous
 62
     7
100
AcDbLine
 10
-223.928403429
 20
183.5405400573
 30
0.0
 11
-226.428403429
 21
184.1655400573
 31
0.0
  0
LINE
  5
1DAA
330
1DA4
100
AcDbEntity
  8
0
  6
Continuous
 62
     7
100
AcDbLine
 10
-226.428403429
 20
184.1655400573
 30
0.0
 11
-223.928403429
 21
184.7905400572999
 31
0.0
  0
LINE
  5
1DAB
330
1DA4
100
AcDbEntity
  8
PIC55
  6
Continuous
 62
     7
100
AcDbLine
 10
-172.4289425529999
 20
184.1655400573
 30
0.0
 11
-199.4286729909999
 21
184.1655400573
 31
0.0
  0
LINE
  5
1DAC
330
1DA4
100
AcDbEntity
  8
0
  6
Continuous
 62
     7
100
AcDbLine
 10
-174.9289425529999
 20
184.7905400572999
 30
0.0
 11
-172.4289425529999
 21
184.1655400573
 31
0.0
  0
LINE
  5
1DAD
330
1DA4
100
AcDbEntity
  8
0
  6
Continuous
 62
     7
100
AcDbLine
 10
-172.4289425529999
 20
184.1655400573
 30
0.0
 11
-174.9289425529999
 21
183.5405400573
 31
0.0
  0
LINE
  5
1DAE
330
1DA4
100
AcDbEntity
  8
PIC55
  6
Continuous
 62
     7
100
AcDbLine
 10
-226.428403429
 20
171.8819509438
 30
0.0
 11
-226.428403429
 21
184.8322000681
 31
0.0
  0
LINE
  5
1DAF
330
1DA4
100
AcDbEntity
  8
PIC55
  6
Continuous
 62
     7
100
AcDbLine
 10
-172.4289425529999
 20
135.5485022504999
 30
0.0
 11
-172.4289425529999
 21
184.8322000681
 31
0.0
  0
ENDBLK
  5
1DB1
330
1DA4
100
AcDbEntity
  8
0
100
AcDbBlockEnd
  0
BLOCK
  5
1DBF
330
1DB2
100
AcDbEntity
  8
0
 62
     0
100
AcDbBlockBegin
  2
COMP47
 70
     0
 10
0.0
 20
0.0
 30
0.0
  3
COMP47
  1

  0
MTEXT
  5
1DB3
330
1DB2
100
AcDbEntity
  8
0
 62
     7
100
AcDbMText
 10
-96.81518534590001
 20
187.265529998
 30
0.0
 40
2.5
 41
0.0
 71
     1
 72
     5
  1
4
  7
SLDTEXTSTYLE0
 73
     1
 44
1.0
  0
MTEXT
  5
1DB4
330
1DB2
100
AcDbEntity
  8
0
 62
     7
100
AcDbMText
 10
-95.09643534590001
 20
187.265529998
 30
0.0
 40
2.5
 41
0.0
 71
     1
 72
     5
  1
7
  7
SLDTEXTSTYLE0
 73
     1
 44
1.0
  0
MTEXT
  5
1DB5
330
1DB2
100
AcDbEntity
  8
0
 62
     7
100
AcDbMText
 10
-93.37768534590001
 20
187.265529998
 30
0.0
 40
2.5
 41
0.0
 71
     1
 72
     5
  1
0
  7
SLDTEXTSTYLE0
 73
     1
 44
1.0
  0
MTEXT
  5
1DB6
330
1DB2
100
AcDbEntity
  8
0
 62
     7
100
AcDbMText
 10
-91.1276810941
 20
187.265529998
 30
0.0
 40
2.5
 41
0.0
 71
     1
 72
     5
  1
%%p
  7
SLDTEXTSTYLE0
 73
     1
 44
1.0
  0
MTEXT
  5
1DB7
330
1DB2
100
AcDbEntity
  8
0
 62
     7
100
AcDbMText
 10
-89.4089310941
 20
187.265529998
 30
0.0
 40
2.5
 41
0.0
 71
     1
 72
     5
  1
7
  7
SLDTEXTSTYLE0
 73
     1
 44
1.0
  0
LINE
  5
1DB8
330
1DB2
100
AcDbEntity
  8
PIC55
  6
Continuous
 62
     7
100
AcDbLine
 10
-172.4289425529999
 20
184.1655400573
 30
0.0
 11
-94.09645231689999
 21
184.1655400573
 31
0.0
  0
LINE
  5
1DB9
330
1DB2
100
AcDbEntity
  8
0
  6
Continuous
 62
     7
100
AcDbLine
 10
-169.9289425529999
 20
183.5405400573
 30
0.0
 11
-172.4289425529999
 21
184.1655400573
 31
0.0
  0
LINE
  5
1DBA
330
1DB2
100
AcDbEntity
  8
0
  6
Continuous
 62
     7
100
AcDbLine
 10
-172.4289425529999
 20
184.1655400573
 30
0.0
 11
-169.9289425529999
 21
184.7905400572999
 31
0.0
  0
LINE
  5
1DBB
330
1DB2
100
AcDbEntity
  8
PIC55
  6
Continuous
 62
     7
100
AcDbLine
 10
-15.7639887833
 20
184.1655400573
 30
0.0
 11
-94.0964624893
 21
184.1655400573
 31
0.0
  0
LINE
  5
1DBC
330
1DB2
100
AcDbEntity
  8
0
  6
Continuous
 62
     7
100
AcDbLine
 10
-18.2639887833
 20
184.7905400572999
 30
0.0
 11
-15.7639887833
 21
184.1655400573
 31
0.0
  0
LINE
  5
1DBD
330
1DB2
100
AcDbEntity
  8
0
  6
Continuous
 62
     7
100
AcDbLine
 10
-15.7639887833
 20
184.1655400573
 30
0.0
 11
-18.2639887833
 21
183.5405400573
 31
0.0
  0
LINE
  5
1DBE
330
1DB2
100
AcDbEntity
  8
PIC55
  6
Continuous
 62
     7
100
AcDbLine
 10
-15.7639887833
 20
105.2159498622998
 30
0.0
 11
-15.7639887833
 21
184.8322000681
 31
0.0
  0
ENDBLK
  5
1DC0
330
1DB2
100
AcDbEntity
  8
0
100
AcDbBlockEnd
  0
BLOCK
  5
1DCD
330
1DC1
100
AcDbEntity
  8
0
 62
     0
100
AcDbBlockBegin
  2
COMP48
 70
     0
 10
0.0
 20
0.0
 30
0.0
  3
COMP48
  1

  0
MTEXT
  5
1DC2
330
1DC1
100
AcDbEntity
  8
0
 62
     7
100
AcDbMText
 10
-0.5304657161000002
 20
103.8201304647
 30
0.0
 40
2.5
 41
0.0
 71
     1
 72
     5
  1
2
  7
SLDTEXTSTYLE0
 11
0.0
 21
1.0
 31
0.0
 73
     1
 44
1.0
  0
MTEXT
  5
1DC3
330
1DC1
100
AcDbEntity
  8
0
 62
     7
100
AcDbMText
 10
-0.5304651545
 20
105.5388804646999
 30
0.0
 40
2.5
 41
0.0
 71
     1
 72
     5
  1
9
  7
SLDTEXTSTYLE0
 11
0.0
 21
1.0
 31
0.0
 73
     1
 44
1.0
  0
MTEXT
  5
1DC4
330
1DC1
100
AcDbEntity
  8
0
 62
     7
100
AcDbMText
 10
-0.5304645928000003
 20
107.2576304647
 30
0.0
 40
2.5
 41
0.0
 71
     1
 72
     5
  1
3
  7
SLDTEXTSTYLE0
 11
0.0
 21
1.0
 31
0.0
 73
     1
 44
1.0
  0
LINE
  5
1DC5
330
1DC1
100
AcDbEntity
  8
PIC55
  6
Continuous
 62
     7
100
AcDbLine
 10
2.569533284399998
 20
56.4628101022
 30
0.0
 11
2.569533284399998
 21
105.2159498622998
 31
0.0
  0
LINE
  5
1DC6
330
1DC1
100
AcDbEntity
  8
0
  6
Continuous
 62
     7
100
AcDbLine
 10
3.194533284399998
 20
58.9628101022
 30
0.0
 11
2.569533284399998
 21
56.4628101022
 31
0.0
  0
LINE
  5
1DC7
330
1DC1
100
AcDbEntity
  8
0
  6
Continuous
 62
     7
100
AcDbLine
 10
2.569533284399998
 20
56.4628101022
 30
0.0
 11
1.9445332844
 21
58.9628101022
 31
0.0
  0
LINE
  5
1DC8
330
1DC1
100
AcDbEntity
  8
PIC55
  6
Continuous
 62
     7
100
AcDbLine
 10
2.569533284399998
 20
153.9690947086999
 30
0.0
 11
2.569533284399998
 21
105.2159498622998
 31
0.0
  0
LINE
  5
1DC9
330
1DC1
100
AcDbEntity
  8
0
  6
Continuous
 62
     7
100
AcDbLine
 10
1.9445332844
 20
151.4690947086999
 30
0.0
 11
2.569533284399998
 21
153.9690947086999
 31
0.0
  0
LINE
  5
1DCA
330
1DC1
100
AcDbEntity
  8
0
  6
Continuous
 62
     7
100
AcDbLine
 10
2.569533284399998
 20
153.9690947086999
 30
0.0
 11
3.194533284399998
 21
151.4690947086999
 31
0.0
  0
LINE
  5
1DCB
330
1DC1
100
AcDbEntity
  8
PIC55
  6
Continuous
 62
     7
100
AcDbLine
 10
-15.7639887833
 20
56.4628101022
 30
0.0
 11
3.2361934542
 21
56.4628101022
 31
0.0
  0
LINE
  5
1DCC
330
1DC1
100
AcDbEntity
  8
PIC55
  6
Continuous
 62
     7
100
AcDbLine
 10
-15.7639887833
 20
153.9690947086999
 30
0.0
 11
3.2361934542
 21
153.9690947086999
 31
0.0
  0
ENDBLK
  5
1DCE
330
1DC1
100
AcDbEntity
  8
0
100
AcDbBlockEnd
  0
BLOCK
  5
1DDB
330
1DCF
100
AcDbEntity
  8
0
 62
     0
100
AcDbBlockBegin
  2
COMP49
 70
     0
 10
0.0
 20
0.0
 30
0.0
  3
COMP49
  1

  0
MTEXT
  5
1DD0
330
1DCF
100
AcDbEntity
  8
0
 62
     7
100
AcDbMText
 10
-6.6418075307
 20
103.8201304647
 30
0.0
 40
2.5
 41
0.0
 71
     1
 72
     5
  1
2
  7
SLDTEXTSTYLE0
 11
0.0
 21
1.0
 31
0.0
 73
     1
 44
1.0
  0
MTEXT
  5
1DD1
330
1DCF
100
AcDbEntity
  8
0
 62
     7
100
AcDbMText
 10
-6.641806969099997
 20
105.5388804646999
 30
0.0
 40
2.5
 41
0.0
 71
     1
 72
     5
  1
7
  7
SLDTEXTSTYLE0
 11
0.0
 21
1.0
 31
0.0
 73
     1
 44
1.0
  0
MTEXT
  5
1DD2
330
1DCF
100
AcDbEntity
  8
0
 62
     7
100
AcDbMText
 10
-6.641806407399996
 20
107.2576304647
 30
0.0
 40
2.5
 41
0.0
 71
     1
 72
     5
  1
5
  7
SLDTEXTSTYLE0
 11
0.0
 21
1.0
 31
0.0
 73
     1
 44
1.0
  0
LINE
  5
1DD3
330
1DCF
100
AcDbEntity
  8
PIC55
  6
Continuous
 62
     7
100
AcDbLine
 10
-3.541807417599998
 20
151.0488256059
 30
0.0
 11
-3.541807417599998
 21
105.2159498622998
 31
0.0
  0
LINE
  5
1DD4
330
1DCF
100
AcDbEntity
  8
0
  6
Continuous
 62
     7
100
AcDbLine
 10
-4.1668074176
 20
148.5488256058999
 30
0.0
 11
-3.541807417599998
 21
151.0488256059
 31
0.0
  0
LINE
  5
1DD5
330
1DCF
100
AcDbEntity
  8
0
  6
Continuous
 62
     7
100
AcDbLine
 10
-3.541807417599998
 20
151.0488256059
 30
0.0
 11
-2.916807417599996
 21
148.5488256058999
 31
0.0
  0
LINE
  5
1DD6
330
1DCF
100
AcDbEntity
  8
PIC55
  6
Continuous
 62
     7
100
AcDbLine
 10
-3.541807417599998
 20
59.3830741188
 30
0.0
 11
-3.541807417599998
 21
105.2159498622998
 31
0.0
  0
LINE
  5
1DD7
330
1DCF
100
AcDbEntity
  8
0
  6
Continuous
 62
     7
100
AcDbLine
 10
-2.916807417599996
 20
61.8830741188
 30
0.0
 11
-3.541807417599998
 21
59.3830741188
 31
0.0
  0
LINE
  5
1DD8
330
1DCF
100
AcDbEntity
  8
0
  6
Continuous
 62
     7
100
AcDbLine
 10
-3.541807417599998
 20
59.3830741188
 30
0.0
 11
-4.1668074176
 21
61.8830741188
 31
0.0
  0
LINE
  5
1DD9
330
1DCF
100
AcDbEntity
  8
PIC55
  6
Continuous
 62
     7
100
AcDbLine
 10
-103.4331307476999
 20
151.0488256059
 30
0.0
 11
-2.8751474067
 21
151.0488256059
 31
0.0
  0
LINE
  5
1DDA
330
1DCF
100
AcDbEntity
  8
PIC55
  6
Continuous
 62
     7
100
AcDbLine
 10
-103.4331002304998
 20
59.3830741188
 30
0.0
 11
-2.8751474067
 21
59.3830741188
 31
0.0
  0
ENDBLK
  5
1DDC
330
1DCF
100
AcDbEntity
  8
0
100
AcDbBlockEnd
  0
BLOCK
  5
1DE9
330
1DDD
100
AcDbEntity
  8
0
 62
     0
100
AcDbBlockBegin
  2
COMP50
 70
     0
 10
0.0
 20
0.0
 30
0.0
  3
COMP50
  1

  0
MTEXT
  5
1DDE
330
1DDD
100
AcDbEntity
  8
0
 62
     7
100
AcDbMText
 10
-135.1591120136999
 20
81.82939800779999
 30
0.0
 40
2.5
 41
0.0
 71
     1
 72
     5
  1
1
  7
SLDTEXTSTYLE0
 73
     1
 44
1.0
  0
MTEXT
  5
1DDF
330
1DDD
100
AcDbEntity
  8
0
 62
     7
100
AcDbMText
 10
-133.4403620136999
 20
81.82939800779999
 30
0.0
 40
2.5
 41
0.0
 71
     1
 72
     5
  1
6
  7
SLDTEXTSTYLE0
 73
     1
 44
1.0
  0
MTEXT
  5
1DE0
330
1DDD
100
AcDbEntity
  8
0
 62
     7
100
AcDbMText
 10
-131.7216120137
 20
81.82939800779999
 30
0.0
 40
2.5
 41
0.0
 71
     1
 72
     5
  1
0
  7
SLDTEXTSTYLE0
 73
     1
 44
1.0
  0
LINE
  5
1DE1
330
1DDD
100
AcDbEntity
  8
PIC55
  6
Continuous
 62
     7
100
AcDbLine
 10
-154.0958939798999
 20
78.6938503572
 30
0.0
 11
-127.4294935472999
 21
78.6938503572
 31
0.0
  0
LINE
  5
1DE2
330
1DDD
100
AcDbEntity
  8
0
  6
Continuous
 62
     7
100
AcDbLine
 10
-151.5958939798998
 20
78.0688503572
 30
0.0
 11
-154.0958939798999
 21
78.6938503572
 31
0.0
  0
LINE
  5
1DE3
330
1DDD
100
AcDbEntity
  8
0
  6
Continuous
 62
     7
100
AcDbLine
 10
-154.0958939798999
 20
78.6938503572
 30
0.0
 11
-151.5958939798998
 21
79.3188503572
 31
0.0
  0
LINE
  5
1DE4
330
1DDD
100
AcDbEntity
  8
PIC55
  6
Continuous
 62
     7
100
AcDbLine
 10
-100.7630931146999
 20
78.6938503572
 30
0.0
 11
-127.4294935472999
 21
78.6938503572
 31
0.0
  0
LINE
  5
1DE5
330
1DDD
100
AcDbEntity
  8
0
  6
Continuous
 62
     7
100
AcDbLine
 10
-103.2630931147
 20
79.3188503572
 30
0.0
 11
-100.7630931146999
 21
78.6938503572
 31
0.0
  0
LINE
  5
1DE6
330
1DDD
100
AcDbEntity
  8
0
  6
Continuous
 62
     7
100
AcDbLine
 10
-100.7630931146999
 20
78.6938503572
 30
0.0
 11
-103.2630931147
 21
78.0688503572
 31
0.0
  0
LINE
  5
1DE7
330
1DDD
100
AcDbEntity
  8
PIC55
  6
Continuous
 62
     7
100
AcDbLine
 10
-154.0958939798999
 20
105.2159498622998
 30
0.0
 11
-154.0958939798999
 21
78.0271903464
 31
0.0
  0
LINE
  5
1DE8
330
1DDD
100
AcDbEntity
  8
PIC55
  6
Continuous
 62
     7
100
AcDbLine
 10
-100.7630931146999
 20
105.2159498622998
 30
0.0
 11
-100.7630931146999
 21
78.0271903464
 31
0.0
  0
ENDBLK
  5
1DEA
330
1DDD
100
AcDbEntity
  8
0
100
AcDbBlockEnd
  0
BLOCK
  5
1DF6
330
1DEB
100
AcDbEntity
  8
0
 62
     0
100
AcDbBlockBegin
  2
COMP51
 70
     0
 10
0.0
 20
0.0
 30
0.0
  3
COMP51
  1

  0
MTEXT
  5
1DEC
330
1DEB
100
AcDbEntity
  8
0
 62
     7
100
AcDbMText
 10
-110.7525767142
 20
143.4281482478
 30
0.0
 40
2.5
 41
0.0
 71
     1
 72
     5
  1
5
  7
SLDTEXTSTYLE0
 73
     1
 44
1.0
  0
MTEXT
  5
1DED
330
1DEB
100
AcDbEntity
  8
0
 62
     7
100
AcDbMText
 10
-109.0338267142
 20
143.4281482478
 30
0.0
 40
2.5
 41
0.0
 71
     1
 72
     5
  1
5
  7
SLDTEXTSTYLE0
 73
     1
 44
1.0
  0
LINE
  5
1DEE
330
1DEB
100
AcDbEntity
  8
PIC55
  6
Continuous
 62
     7
100
AcDbLine
 10
-100.7630931146999
 20
140.3281481345999
 30
0.0
 11
-109.9296682634
 21
140.3281481345999
 31
0.0
  0
LINE
  5
1DEF
330
1DEB
100
AcDbEntity
  8
0
  6
Continuous
 62
     7
100
AcDbLine
 10
-103.2630931147
 20
140.9531481345999
 30
0.0
 11
-100.7630931146999
 21
140.3281481345999
 31
0.0
  0
LINE
  5
1DF0
330
1DEB
100
AcDbEntity
  8
0
  6
Continuous
 62
     7
100
AcDbLine
 10
-100.7630931146999
 20
140.3281481345999
 30
0.0
 11
-103.2630931147
 21
139.7031481345999
 31
0.0
  0
LINE
  5
1DF1
330
1DEB
100
AcDbEntity
  8
PIC55
  6
Continuous
 62
     7
100
AcDbLine
 10
-119.0962434120999
 20
140.3281481345999
 30
0.0
 11
-109.9296682634
 21
140.3281481345999
 31
0.0
  0
LINE
  5
1DF2
330
1DEB
100
AcDbEntity
  8
0
  6
Continuous
 62
     7
100
AcDbLine
 10
-116.5962434120999
 20
139.7031481345999
 30
0.0
 11
-119.0962434120999
 21
140.3281481345999
 31
0.0
  0
LINE
  5
1DF3
330
1DEB
100
AcDbEntity
  8
0
  6
Continuous
 62
     7
100
AcDbLine
 10
-119.0962434120999
 20
140.3281481345999
 30
0.0
 11
-116.5962434120999
 21
140.9531481345999
 31
0.0
  0
LINE
  5
1DF4
330
1DEB
100
AcDbEntity
  8
PIC55
  6
Continuous
 62
     7
100
AcDbLine
 10
-100.7630931146999
 20
102.8826398245
 30
0.0
 11
-100.7630931146999
 21
140.9948081454
 31
0.0
  0
LINE
  5
1DF5
330
1DEB
100
AcDbEntity
  8
PIC55
  6
Continuous
 62
     7
100
AcDbLine
 10
-119.0962434120999
 20
135.4033417531
 30
0.0
 11
-119.0962434120999
 21
140.9948081454
 31
0.0
  0
ENDBLK
  5
1DF7
330
1DEB
100
AcDbEntity
  8
0
100
AcDbBlockEnd
  0
BLOCK
  5
1DFF
330
1DF8
100
AcDbEntity
  8
0
 62
     0
100
AcDbBlockBegin
  2
COMP52
 70
     0
 10
0.0
 20
0.0
 30
0.0
  3
COMP52
  1

  0
MTEXT
  5
1DF9
330
1DF8
100
AcDbEntity
  8
0
 62
     7
100
AcDbMText
 10
-121.8425948057999
 20
121.7833692307999
 30
0.0
 40
2.5
 41
0.0
 71
     1
 72
     5
  1
R
  7
SLDTEXTSTYLE0
 11
-0.0174524063992504
 21
0.9998476951570552
 31
0.0
 73
     1
 44
1.0
  0
MTEXT
  5
1DFA
330
1DF8
100
AcDbEntity
  8
0
 62
     7
100
AcDbMText
 10
-121.8725905614999
 20
123.5018574667
 30
0.0
 40
2.5
 41
0.0
 71
     1
 72
     5
  1
5
  7
SLDTEXTSTYLE0
 11
-0.0174524063992504
 21
0.9998476951570552
 31
0.0
 73
     1
 44
1.0
  0
MTEXT
  5
1DFB
330
1DF8
100
AcDbEntity
  8
0
 62
     7
100
AcDbMText
 10
-121.9025863172999
 20
125.2203457026999
 30
0.0
 40
2.5
 41
0.0
 71
     1
 72
     5
  1
0
  7
SLDTEXTSTYLE0
 11
-0.0174524063992504
 21
0.9998476951570552
 31
0.0
 73
     1
 44
1.0
  0
LINE
  5
1DFC
330
1DF8
100
AcDbEntity
  8
PIC55
  6
Continuous
 62
     7
100
AcDbLine
 10
-118.6369889639999
 20
118.3389572715999
 30
0.0
 11
-119.0561844045
 21
135.0003204675999
 31
0.0
  0
LINE
  5
1DFD
330
1DF8
100
AcDbEntity
  8
0
  6
Continuous
 62
     7
100
AcDbLine
 10
-118.0557151706999
 20
120.8494842634999
 30
0.0
 11
-118.6369889639999
 21
118.3389572715999
 31
0.0
  0
LINE
  5
1DFE
330
1DF8
100
AcDbEntity
  8
0
  6
Continuous
 62
     7
100
AcDbLine
 10
-118.6369889639999
 20
118.3389572715999
 30
0.0
 11
-119.3055247895999
 21
120.8276687554
 31
0.0
  0
ENDBLK
  5
1E00
330
1DF8
100
AcDbEntity
  8
0
100
AcDbBlockEnd
  0
BLOCK
  5
1E08
330
1E01
100
AcDbEntity
  8
0
 62
     0
100
AcDbBlockBegin
  2
COMP53
 70
     0
 10
0.0
 20
0.0
 30
0.0
  3
COMP53
  1

  0
MTEXT
  5
1E02
330
1E01
100
AcDbEntity
  8
0
 62
     7
100
AcDbMText
 10
-111.8072329524
 20
67.1756401596
 30
0.0
 40
2.5
 41
0.0
 71
     1
 72
     5
  1
R
  7
SLDTEXTSTYLE0
 11
0.6427876097037834
 21
0.7660444431045087
 31
0.0
 73
     1
 44
1.0
  0
MTEXT
  5
1E03
330
1E01
100
AcDbEntity
  8
0
 62
     7
100
AcDbMText
 10
-110.7024415092
 20
68.4922788456
 30
0.0
 40
2.5
 41
0.0
 71
     1
 72
     5
  1
1
  7
SLDTEXTSTYLE0
 11
0.6427876097037834
 21
0.7660444431045087
 31
0.0
 73
     1
 44
1.0
  0
MTEXT
  5
1E04
330
1E01
100
AcDbEntity
  8
0
 62
     7
100
AcDbMText
 10
-109.5976500661
 20
69.8089175317
 30
0.0
 40
2.5
 41
0.0
 71
     1
 72
     5
  1
0
  7
SLDTEXTSTYLE0
 11
0.6427876097037834
 21
0.7660444431045087
 31
0.0
 73
     1
 44
1.0
  0
LINE
  5
1E05
330
1E01
100
AcDbEntity
  8
PIC55
  6
Continuous
 62
     7
100
AcDbLine
 10
-111.0584615184
 20
63.2839649417
 30
0.0
 11
-107.3074105081999
 21
67.69671181959999
 31
0.0
  0
LINE
  5
1E06
330
1E01
100
AcDbEntity
  8
0
  6
Continuous
 62
     7
100
AcDbLine
 10
-108.9727147172
 20
64.7973337934
 30
0.0
 11
-111.0584615184
 21
63.2839649417
 31
0.0
  0
LINE
  5
1E07
330
1E01
100
AcDbEntity
  8
0
  6
Continuous
 62
     7
100
AcDbLine
 10
-111.0584615184
 20
63.2839649417
 30
0.0
 11
-109.9302702711
 21
65.6008183056
 31
0.0
  0
ENDBLK
  5
1E09
330
1E01
100
AcDbEntity
  8
0
100
AcDbBlockEnd
  0
BLOCK
  5
1E15
330
1E0A
100
AcDbEntity
  8
0
 62
     0
100
AcDbBlockBegin
  2
COMP54
 70
     0
 10
0.0
 20
0.0
 30
0.0
  3
COMP54
  1

  0
MTEXT
  5
1E0B
330
1E0A
100
AcDbEntity
  8
0
 62
     7
100
AcDbMText
 10
-161.5853008146
 20
155.1580929863999
 30
0.0
 40
2.5
 41
0.0
 71
     1
 72
     5
  1
7
  7
SLDTEXTSTYLE0
 73
     1
 44
1.0
  0
MTEXT
  5
1E0C
330
1E0A
100
AcDbEntity
  8
0
 62
     7
100
AcDbMText
 10
-159.8665508146
 20
155.1580929863999
 30
0.0
 40
2.5
 41
0.0
 71
     1
 72
     5
  1
0
  7
SLDTEXTSTYLE0
 73
     1
 44
1.0
  0
LINE
  5
1E0D
330
1E0A
100
AcDbEntity
  8
PIC55
  6
Continuous
 62
     7
100
AcDbLine
 10
-172.4289425529999
 20
152.0580928732
 30
0.0
 11
-160.7623923637999
 21
152.0580928732
 31
0.0
  0
LINE
  5
1E0E
330
1E0A
100
AcDbEntity
  8
0
  6
Continuous
 62
     7
100
AcDbLine
 10
-169.9289425529999
 20
151.4330928731999
 30
0.0
 11
-172.4289425529999
 21
152.0580928732
 31
0.0
  0
LINE
  5
1E0F
330
1E0A
100
AcDbEntity
  8
0
  6
Continuous
 62
     7
100
AcDbLine
 10
-172.4289425529999
 20
152.0580928732
 30
0.0
 11
-169.9289425529999
 21
152.6830928732
 31
0.0
  0
LINE
  5
1E10
330
1E0A
100
AcDbEntity
  8
PIC55
  6
Continuous
 62
     7
100
AcDbLine
 10
-149.0958421744999
 20
152.0580928732
 30
0.0
 11
-160.7623923637999
 21
152.0580928732
 31
0.0
  0
LINE
  5
1E11
330
1E0A
100
AcDbEntity
  8
0
  6
Continuous
 62
     7
100
AcDbLine
 10
-151.5958421745
 20
152.6830928732
 30
0.0
 11
-149.0958421744999
 21
152.0580928732
 31
0.0
  0
LINE
  5
1E12
330
1E0A
100
AcDbEntity
  8
0
  6
Continuous
 62
     7
100
AcDbLine
 10
-149.0958421744999
 20
152.0580928732
 30
0.0
 11
-151.5958421745
 21
151.4330928731999
 31
0.0
  0
LINE
  5
1E13
330
1E0A
100
AcDbEntity
  8
PIC55
  6
Continuous
 62
     7
100
AcDbLine
 10
-172.4289425529999
 20
143.3822354814997
 30
0.0
 11
-172.4289425529999
 21
152.724752884
 31
0.0
  0
LINE
  5
1E14
330
1E0A
100
AcDbEntity
  8
PIC55
  6
Continuous
 62
     7
100
AcDbLine
 10
-149.0958421744999
 20
146.8822005382999
 30
0.0
 11
-149.0958421744999
 21
152.724752884
 31
0.0
  0
ENDBLK
  5
1E16
330
1E0A
100
AcDbEntity
  8
0
100
AcDbBlockEnd
  0
BLOCK
  5
1E23
330
1E17
100
AcDbEntity
  8
0
 62
     0
100
AcDbBlockBegin
  2
COMP55
 70
     0
 10
0.0
 20
0.0
 30
0.0
  3
COMP55
  1

  0
MTEXT
  5
1E18
330
1E17
100
AcDbEntity
  8
0
 62
     7
100
AcDbMText
 10
-144.0823775558999
 20
121.4582600318
 30
0.0
 40
2.5
 41
0.0
 71
     1
 72
     5
  1
1
  7
SLDTEXTSTYLE0
 11
0.0
 21
1.0
 31
0.0
 73
     1
 44
1.0
  0
MTEXT
  5
1E19
330
1E17
100
AcDbEntity
  8
0
 62
     7
100
AcDbMText
 10
-144.0823769941999
 20
123.1770100318
 30
0.0
 40
2.5
 41
0.0
 71
     1
 72
     5
  1
2
  7
SLDTEXTSTYLE0
 11
0.0
 21
1.0
 31
0.0
 73
     1
 44
1.0
  0
MTEXT
  5
1E1A
330
1E17
100
AcDbEntity
  8
0
 62
     7
100
AcDbMText
 10
-144.0823764325
 20
124.8957600318
 30
0.0
 40
2.5
 41
0.0
 71
     1
 72
     5
  1
5
  7
SLDTEXTSTYLE0
 11
0.0
 21
1.0
 31
0.0
 73
     1
 44
1.0
  0
LINE
  5
1E1B
330
1E17
100
AcDbEntity
  8
PIC55
  6
Continuous
 62
     7
100
AcDbLine
 10
-140.7961915573999
 20
105.2159498622998
 30
0.0
 11
-140.7961915573999
 21
126.0490752003
 31
0.0
  0
LINE
  5
1E1C
330
1E17
100
AcDbEntity
  8
0
  6
Continuous
 62
     7
100
AcDbLine
 10
-140.1711915573999
 20
107.7159498622998
 30
0.0
 11
-140.7961915573999
 21
105.2159498622998
 31
0.0
  0
LINE
  5
1E1D
330
1E17
100
AcDbEntity
  8
0
  6
Continuous
 62
     7
100
AcDbLine
 10
-140.7961915573999
 20
105.2159498622998
 30
0.0
 11
-141.4211915574
 21
107.7159498622998
 31
0.0
  0
LINE
  5
1E1E
330
1E17
100
AcDbEntity
  8
PIC55
  6
Continuous
 62
     7
100
AcDbLine
 10
-140.7961915573999
 20
146.8822005382999
 30
0.0
 11
-140.7961915573999
 21
126.0490752003
 31
0.0
  0
LINE
  5
1E1F
330
1E17
100
AcDbEntity
  8
0
  6
Continuous
 62
     7
100
AcDbLine
 10
-141.4211915574
 20
144.3822005382999
 30
0.0
 11
-140.7961915573999
 21
146.8822005382999
 31
0.0
  0
LINE
  5
1E20
330
1E17
100
AcDbEntity
  8
0
  6
Continuous
 62
     7
100
AcDbLine
 10
-140.7961915573999
 20
146.8822005382999
 30
0.0
 11
-140.1711915573999
 21
144.3822005382999
 31
0.0
  0
LINE
  5
1E21
330
1E17
100
AcDbEntity
  8
PIC55
  6
Continuous
 62
     7
100
AcDbLine
 10
-154.0958838073999
 20
105.2159498622998
 30
0.0
 11
-140.1295315465999
 21
105.2159498622998
 31
0.0
  0
LINE
  5
1E22
330
1E17
100
AcDbEntity
  8
PIC55
  6
Continuous
 62
     7
100
AcDbLine
 10
-149.0958421744999
 20
146.8822005382999
 30
0.0
 11
-140.1295315465999
 21
146.8822005382999
 31
0.0
  0
ENDBLK
  5
1E24
330
1E17
100
AcDbEntity
  8
0
100
AcDbBlockEnd
  0
BLOCK
  5
1E2C
330
1E25
100
AcDbEntity
  8
0
 62
     0
100
AcDbBlockBegin
  2
COMP56
 70
     0
 10
0.0
 20
0.0
 30
0.0
  3
COMP56
  1

  0
MTEXT
  5
1E26
330
1E25
100
AcDbEntity
  8
0
 62
     7
100
AcDbMText
 10
-153.4040383099998
 20
133.5634774277
 30
0.0
 40
2.5
 41
0.0
 71
     1
 72
     5
  1
R
  7
SLDTEXTSTYLE0
 11
0.1045284632963484
 21
0.9945218953652574
 31
0.0
 73
     1
 44
1.0
  0
MTEXT
  5
1E27
330
1E25
100
AcDbEntity
  8
0
 62
     7
100
AcDbMText
 10
-153.2243794923997
 20
135.2728118804997
 30
0.0
 40
2.5
 41
0.0
 71
     1
 72
     5
  1
5
  7
SLDTEXTSTYLE0
 11
0.1045284632963484
 21
0.9945218953652574
 31
0.0
 73
     1
 44
1.0
  0
MTEXT
  5
1E28
330
1E25
100
AcDbEntity
  8
0
 62
     7
100
AcDbMText
 10
-153.0447206748
 20
136.9821463334
 30
0.0
 40
2.5
 41
0.0
 71
     1
 72
     5
  1
0
  7
SLDTEXTSTYLE0
 11
0.1045284632963484
 21
0.9945218953652574
 31
0.0
 73
     1
 44
1.0
  0
LINE
  5
1E29
330
1E25
100
AcDbEntity
  8
PIC55
  6
Continuous
 62
     7
100
AcDbLine
 10
-150.7733156611999
 20
130.3001517358999
 30
0.0
 11
-149.0958014848
 21
146.8822005382999
 31
0.0
  0
LINE
  5
1E2A
330
1E25
100
AcDbEntity
  8
0
  6
Continuous
 62
     7
100
AcDbLine
 10
-149.8904183184
 20
132.7211261848
 30
0.0
 11
-150.7733156611999
 21
130.3001517358999
 31
0.0
  0
LINE
  5
1E2B
330
1E25
100
AcDbEntity
  8
0
  6
Continuous
 62
     7
100
AcDbLine
 10
-150.7733156611999
 20
130.3001517358999
 30
0.0
 11
-151.1335706876
 21
132.8517867638999
 31
0.0
  0
ENDBLK
  5
1E2D
330
1E25
100
AcDbEntity
  8
0
100
AcDbBlockEnd
  0
BLOCK
  5
1E36
330
1E2E
100
AcDbEntity
  8
0
 62
     0
100
AcDbBlockBegin
  2
COMP57
 70
     0
 10
0.0
 20
0.0
 30
0.0
  3
COMP57
  1

  0
MTEXT
  5
1E2F
330
1E2E
100
AcDbEntity
  8
0
 62
     7
100
AcDbMText
 10
-173.9863612589998
 20
142.9093782105999
 30
0.0
 40
2.5
 41
0.0
 71
     1
 72
     5
  1
R
  7
SLDTEXTSTYLE0
 11
0.3090169943961834
 21
-0.9510565162882535
 31
0.0
 73
     1
 44
1.0
  0
MTEXT
  5
1E30
330
1E2E
100
AcDbEntity
  8
0
 62
     7
100
AcDbMText
 10
-173.4552400093
 20
141.2747492678
 30
0.0
 40
2.5
 41
0.0
 71
     1
 72
     5
  1
2
  7
SLDTEXTSTYLE0
 11
0.3090169943961834
 21
-0.9510565162882535
 31
0.0
 73
     1
 44
1.0
  0
MTEXT
  5
1E31
330
1E2E
100
AcDbEntity
  8
0
 62
     7
100
AcDbMText
 10
-172.9241187595999
 20
139.6401203249999
 30
0.0
 40
2.5
 41
0.0
 71
     1
 72
     5
  1
5
  7
SLDTEXTSTYLE0
 11
0.3090169943961834
 21
-0.9510565162882535
 31
0.0
 73
     1
 44
1.0
  0
LINE
  5
1E32
330
1E2E
100
AcDbEntity
  8
PIC55
  6
Continuous
 62
     7
100
AcDbLine
 10
-174.8591347616
 20
135.1531611454
 30
0.0
 11
-176.6233586843
 21
140.6695245278
 31
0.0
  0
LINE
  5
1E33
330
1E2E
100
AcDbEntity
  8
0
  6
Continuous
 62
     7
100
AcDbLine
 10
-175.0372669249
 20
137.7239380576
 30
0.0
 11
-174.8591347616
 21
135.1531611454
 31
0.0
  0
LINE
  5
1E34
330
1E2E
100
AcDbEntity
  8
0
  6
Continuous
 62
     7
100
AcDbLine
 10
-174.8591347616
 20
135.1531611454
 30
0.0
 11
-176.2260875703
 21
137.3376668146998
 31
0.0
  0
LINE
  5
1E35
330
1E2E
100
AcDbEntity
  8
PIC55
  6
Continuous
 62
     7
100
AcDbLine
 10
-174.8591347616
 20
135.1531611454
 30
0.0
 11
-172.3206062323
 21
127.2157302192
 31
0.0
  0
ENDBLK
  5
1E37
330
1E2E
100
AcDbEntity
  8
0
100
AcDbBlockEnd
  0
BLOCK
  5
1E44
330
1E38
100
AcDbEntity
  8
0
 62
     0
100
AcDbBlockBegin
  2
COMP58
 70
     0
 10
0.0
 20
0.0
 30
0.0
  3
COMP58
  1

  0
MTEXT
  5
1E39
330
1E38
100
AcDbEntity
  8
0
 62
     7
100
AcDbMText
 10
-88.15946379679997
 20
94.42850059680001
 30
0.0
 40
2.5
 41
0.0
 71
     1
 72
     5
  1
2
  7
SLDTEXTSTYLE0
 11
0.0
 21
1.0
 31
0.0
 73
     1
 44
1.0
  0
MTEXT
  5
1E3A
330
1E38
100
AcDbEntity
  8
0
 62
     7
100
AcDbMText
 10
-88.15946323510003
 20
96.14725059680001
 30
0.0
 40
2.5
 41
0.0
 71
     1
 72
     5
  1
6
  7
SLDTEXTSTYLE0
 11
0.0
 21
1.0
 31
0.0
 73
     1
 44
1.0
  0
MTEXT
  5
1E3B
330
1E38
100
AcDbEntity
  8
0
 62
     7
100
AcDbMText
 10
-88.1594626735
 20
97.86600059680001
 30
0.0
 40
2.5
 41
0.0
 71
     1
 72
     5
  1
0
  7
SLDTEXTSTYLE0
 11
0.0
 21
1.0
 31
0.0
 73
     1
 44
1.0
  0
LINE
  5
1E3C
330
1E38
100
AcDbEntity
  8
PIC55
  6
Continuous
 62
     7
100
AcDbLine
 10
-85.0594585974
 20
61.88304915939999
 30
0.0
 11
-85.0594585974
 21
95.8243199944
 31
0.0
  0
LINE
  5
1E3D
330
1E38
100
AcDbEntity
  8
0
  6
Continuous
 62
     7
100
AcDbLine
 10
-84.4344585974
 20
64.3830491594
 30
0.0
 11
-85.0594585974
 21
61.88304915939999
 31
0.0
  0
LINE
  5
1E3E
330
1E38
100
AcDbEntity
  8
0
  6
Continuous
 62
     7
100
AcDbLine
 10
-85.0594585974
 20
61.88304915939999
 30
0.0
 11
-85.6844585974
 21
64.3830491594
 31
0.0
  0
LINE
  5
1E3F
330
1E38
100
AcDbEntity
  8
PIC55
  6
Continuous
 62
     7
100
AcDbLine
 10
-85.0594585974
 20
148.5488505653
 30
0.0
 11
-85.0594585974
 21
95.8243199944
 31
0.0
  0
LINE
  5
1E40
330
1E38
100
AcDbEntity
  8
0
  6
Continuous
 62
     7
100
AcDbLine
 10
-85.6844585974
 20
146.0488505652999
 30
0.0
 11
-85.0594585974
 21
148.5488505653
 31
0.0
  0
LINE
  5
1E41
330
1E38
100
AcDbEntity
  8
0
  6
Continuous
 62
     7
100
AcDbLine
 10
-85.0594585974
 20
148.5488505653
 30
0.0
 11
-84.4344585974
 21
146.0488505652999
 31
0.0
  0
LINE
  5
1E42
330
1E38
100
AcDbEntity
  8
PIC55
  6
Continuous
 62
     7
100
AcDbLine
 10
-107.1630638047998
 20
61.88304915939999
 30
0.0
 11
-84.39279858659999
 21
61.88304915939999
 31
0.0
  0
LINE
  5
1E43
330
1E38
100
AcDbEntity
  8
PIC55
  6
Continuous
 62
     7
100
AcDbLine
 10
-107.1331161870999
 20
148.5488505653
 30
0.0
 11
-84.39279858659999
 21
148.5488505653
 31
0.0
  0
ENDBLK
  5
1E45
330
1E38
100
AcDbEntity
  8
0
100
AcDbBlockEnd
  0
BLOCK
  5
1E59
330
1E46
100
AcDbEntity
  8
0
 62
     0
100
AcDbBlockBegin
  2
MARK25_2
 70
     0
 10
0.0
 20
0.0
 30
0.0
  3
MARK25_2
  1

  0
LINE
  5
1E47
330
1E46
100
AcDbEntity
  8
0
  6
Continuous
 62
     7
100
AcDbLine
 10
0.0
 20
0.0
 30
0.0
 11
-0.5
 21
0.0
 31
0.0
  0
LINE
  5
1E48
330
1E46
100
AcDbEntity
  8
0
  6
Continuous
 62
     7
100
AcDbLine
 10
-0.5
 20
0.9375
 30
0.0
 11
-0.65625
 21
0.3125
 31
0.0
  0
LINE
  5
1E49
330
1E46
100
AcDbEntity
  8
0
  6
Continuous
 62
     7
100
AcDbLine
 10
-0.5
 20
0.84375
 30
0.0
 11
-0.625
 21
0.375
 31
0.0
  0
LINE
  5
1E4A
330
1E46
100
AcDbEntity
  8
0
  6
Continuous
 62
     7
100
AcDbLine
 10
-0.5
 20
0.75
 30
0.0
 11
-0.578125
 21
0.4375
 31
0.0
  0
LINE
  5
1E4B
330
1E46
100
AcDbEntity
  8
0
  6
Continuous
 62
     7
100
AcDbLine
 10
-0.5
 20
0.65625
 30
0.0
 11
-0.53125
 21
0.5
 31
0.0
  0
LINE
  5
1E4C
330
1E46
100
AcDbEntity
  8
0
  6
Continuous
 62
     7
100
AcDbLine
 10
-0.46875
 20
0.5
 30
0.0
 11
-0.5
 21
0.65625
 31
0.0
  0
LINE
  5
1E4D
330
1E46
100
AcDbEntity
  8
0
  6
Continuous
 62
     7
100
AcDbLine
 10
-0.421875
 20
0.4375
 30
0.0
 11
-0.5
 21
0.75
 31
0.0
  0
LINE
  5
1E4E
330
1E46
100
AcDbEntity
  8
0
  6
Continuous
 62
     7
100
AcDbLine
 10
-0.375
 20
0.375
 30
0.0
 11
-0.5
 21
0.84375
 31
0.0
  0
LINE
  5
1E4F
330
1E46
100
AcDbEntity
  8
0
  6
Continuous
 62
     7
100
AcDbLine
 10
-0.34375
 20
0.3125
 30
0.0
 11
-0.5
 21
0.9375
 31
0.0
  0
LINE
  5
1E50
330
1E46
100
AcDbEntity
  8
0
  6
Continuous
 62
     7
100
AcDbLine
 10
-0.53125
 20
0.5
 30
0.0
 11
-0.46875
 21
0.5
 31
0.0
  0
LINE
  5
1E51
330
1E46
100
AcDbEntity
  8
0
  6
Continuous
 62
     7
100
AcDbLine
 10
-0.578125
 20
0.4375
 30
0.0
 11
-0.421875
 21
0.4375
 31
0.0
  0
LINE
  5
1E52
330
1E46
100
AcDbEntity
  8
0
  6
Continuous
 62
     7
100
AcDbLine
 10
-0.625
 20
0.375
 30
0.0
 11
-0.375
 21
0.375
 31
0.0
  0
LINE
  5
1E53
330
1E46
100
AcDbEntity
  8
0
  6
Continuous
 62
     7
100
AcDbLine
 10
-0.65625
 20
0.3125
 30
0.0
 11
-0.34375
 21
0.3125
 31
0.0
  0
LINE
  5
1E54
330
1E46
100
AcDbEntity
  8
0
  6
Continuous
 62
     7
100
AcDbLine
 10
0.0
 20
0.015625
 30
0.0
 11
-0.484375
 21
0.015625
 31
0.0
  0
LINE
  5
1E55
330
1E46
100
AcDbEntity
  8
0
  6
Continuous
 62
     7
100
AcDbLine
 10
-0.484375
 20
0.015625
 30
0.0
 11
-0.484375
 21
0.3125
 31
0.0
  0
LINE
  5
1E56
330
1E46
100
AcDbEntity
  8
0
  6
Continuous
 62
     7
100
AcDbLine
 10
0.0
 20
-0.015625
 30
0.0
 11
-0.515625
 21
-0.015625
 31
0.0
  0
LINE
  5
1E57
330
1E46
100
AcDbEntity
  8
0
  6
Continuous
 62
     7
100
AcDbLine
 10
-0.515625
 20
-0.015625
 30
0.0
 11
-0.515625
 21
0.3125
 31
0.0
  0
LINE
  5
1E58
330
1E46
100
AcDbEntity
  8
0
  6
Continuous
 62
     7
100
AcDbLine
 10
-0.5
 20
0.0
 30
0.0
 11
-0.5
 21
0.3125
 31
0.0
  0
ENDBLK
  5
1E5A
330
1E46
100
AcDbEntity
  8
0
100
AcDbBlockEnd
  0
BLOCK
  5
1E6E
330
1E5B
100
AcDbEntity
  8
0
 62
     0
100
AcDbBlockBegin
  2
MARK25_2_0
 70
     0
 10
0.0
 20
0.0
 30
0.0
  3
MARK25_2_0
  1

  0
LINE
  5
1E5C
330
1E5B
100
AcDbEntity
  8
0
  6
Continuous
 62
     7
100
AcDbLine
 10
77.0522803126
 20
357.1690701982999
 30
0.0
 11
74.5522803126
 21
357.1690701982999
 31
0.0
  0
LINE
  5
1E5D
330
1E5B
100
AcDbEntity
  8
0
  6
Continuous
 62
     7
100
AcDbLine
 10
74.5522803126
 20
352.4815701982999
 30
0.0
 11
73.7710303126
 21
355.6065701982999
 31
0.0
  0
LINE
  5
1E5E
330
1E5B
100
AcDbEntity
  8
0
  6
Continuous
 62
     7
100
AcDbLine
 10
74.5522803126
 20
352.9503201983
 30
0.0
 11
73.9272803126
 21
355.2940701983
 31
0.0
  0
LINE
  5
1E5F
330
1E5B
100
AcDbEntity
  8
0
  6
Continuous
 62
     7
100
AcDbLine
 10
74.5522803126
 20
353.4190701983
 30
0.0
 11
74.1616553126
 21
354.9815701983
 31
0.0
  0
LINE
  5
1E60
330
1E5B
100
AcDbEntity
  8
0
  6
Continuous
 62
     7
100
AcDbLine
 10
74.5522803126
 20
353.8878201983
 30
0.0
 11
74.3960303126
 21
354.6690701983
 31
0.0
  0
LINE
  5
1E61
330
1E5B
100
AcDbEntity
  8
0
  6
Continuous
 62
     7
100
AcDbLine
 10
74.7085303126
 20
354.6690701983
 30
0.0
 11
74.5522803126
 21
353.8878201983
 31
0.0
  0
LINE
  5
1E62
330
1E5B
100
AcDbEntity
  8
0
  6
Continuous
 62
     7
100
AcDbLine
 10
74.9429053126
 20
354.9815701983
 30
0.0
 11
74.5522803126
 21
353.4190701983
 31
0.0
  0
LINE
  5
1E63
330
1E5B
100
AcDbEntity
  8
0
  6
Continuous
 62
     7
100
AcDbLine
 10
75.1772803126
 20
355.2940701983
 30
0.0
 11
74.5522803126
 21
352.9503201983
 31
0.0
  0
LINE
  5
1E64
330
1E5B
100
AcDbEntity
  8
0
  6
Continuous
 62
     7
100
AcDbLine
 10
75.3335303126
 20
355.6065701982999
 30
0.0
 11
74.5522803126
 21
352.4815701982999
 31
0.0
  0
LINE
  5
1E65
330
1E5B
100
AcDbEntity
  8
0
  6
Continuous
 62
     7
100
AcDbLine
 10
74.3960303126
 20
354.6690701983
 30
0.0
 11
74.7085303126
 21
354.6690701983
 31
0.0
  0
LINE
  5
1E66
330
1E5B
100
AcDbEntity
  8
0
  6
Continuous
 62
     7
100
AcDbLine
 10
74.1616553126
 20
354.9815701983
 30
0.0
 11
74.9429053126
 21
354.9815701983
 31
0.0
  0
LINE
  5
1E67
330
1E5B
100
AcDbEntity
  8
0
  6
Continuous
 62
     7
100
AcDbLine
 10
73.9272803126
 20
355.2940701983
 30
0.0
 11
75.1772803126
 21
355.2940701983
 31
0.0
  0
LINE
  5
1E68
330
1E5B
100
AcDbEntity
  8
0
  6
Continuous
 62
     7
100
AcDbLine
 10
73.7710303126
 20
355.6065701982999
 30
0.0
 11
75.3335303126
 21
355.6065701982999
 31
0.0
  0
LINE
  5
1E69
330
1E5B
100
AcDbEntity
  8
0
  6
Continuous
 62
     7
100
AcDbLine
 10
77.0522803126
 20
357.0909451983
 30
0.0
 11
74.6304053126
 21
357.0909451983
 31
0.0
  0
LINE
  5
1E6A
330
1E5B
100
AcDbEntity
  8
0
  6
Continuous
 62
     7
100
AcDbLine
 10
74.6304053126
 20
357.0909451983
 30
0.0
 11
74.6304053126
 21
355.6065701982999
 31
0.0
  0
LINE
  5
1E6B
330
1E5B
100
AcDbEntity
  8
0
  6
Continuous
 62
     7
100
AcDbLine
 10
77.0522803126
 20
357.2471951983
 30
0.0
 11
74.4741553126
 21
357.2471951983
 31
0.0
  0
LINE
  5
1E6C
330
1E5B
100
AcDbEntity
  8
0
  6
Continuous
 62
     7
100
AcDbLine
 10
74.4741553126
 20
357.2471951983
 30
0.0
 11
74.4741553126
 21
355.6065701982999
 31
0.0
  0
LINE
  5
1E6D
330
1E5B
100
AcDbEntity
  8
0
  6
Continuous
 62
     7
100
AcDbLine
 10
74.5522803126
 20
357.1690701982999
 30
0.0
 11
74.5522803126
 21
355.6065701982999
 31
0.0
  0
ENDBLK
  5
1E6F
330
1E5B
100
AcDbEntity
  8
0
100
AcDbBlockEnd
  0
BLOCK
  5
1E7A
330
1E70
100
AcDbEntity
  8
0
 62
     0
100
AcDbBlockBegin
  2
COMP281
 70
     0
 10
0.0
 20
0.0
 30
0.0
  3
COMP281
  1

  0
MTEXT
  5
1E71
330
1E70
100
AcDbEntity
  8
0
 62
     7
100
AcDbMText
 10
-148.9998714061
 20
90.80164647870001
 30
0.0
 40
2.5
 41
0.0
 71
     1
 72
     5
  1
R
  7
SLDTEXTSTYLE0
 11
0.9135454576265614
 21
0.406736643111826
 31
0.0
 73
     1
 44
1.0
  0
MTEXT
  5
1E72
330
1E70
100
AcDbEntity
  8
0
 62
     7
100
AcDbMText
 10
-147.4297150898
 20
91.5007249471
 30
0.0
 40
2.5
 41
0.0
 71
     1
 72
     5
  1
1
  7
SLDTEXTSTYLE0
 11
0.9135454576265614
 21
0.406736643111826
 31
0.0
 73
     1
 44
1.0
  0
MTEXT
  5
1E73
330
1E70
100
AcDbEntity
  8
0
 62
     7
100
AcDbMText
 10
-145.8595587736
 20
92.19980341560001
 30
0.0
 40
2.5
 41
0.0
 71
     1
 72
     5
  1
3
  7
SLDTEXTSTYLE0
 11
0.9135454576265614
 21
0.406736643111826
 31
0.0
 73
     1
 44
1.0
  0
MTEXT
  5
1E74
330
1E70
100
AcDbEntity
  8
0
 62
     7
100
AcDbMText
 10
-144.2894024572999
 20
92.89888188399999
 30
0.0
 40
2.5
 41
0.0
 71
     1
 72
     5
  1
7
  7
SLDTEXTSTYLE0
 11
0.9135454576265614
 21
0.406736643111826
 31
0.0
 73
     1
 44
1.0
  0
MTEXT
  5
1E75
330
1E70
100
AcDbEntity
  8
0
 62
     7
100
AcDbMText
 10
-142.7192461411
 20
93.59796035249999
 30
0.0
 40
2.5
 41
0.0
 71
     1
 72
     5
  1
.
  7
SLDTEXTSTYLE0
 11
0.9135454576265614
 21
0.406736643111826
 31
0.0
 73
     1
 44
1.0
  0
MTEXT
  5
1E76
330
1E70
100
AcDbEntity
  8
0
 62
     7
100
AcDbMText
 10
-141.1490898248
 20
94.297038821
 30
0.0
 40
2.5
 41
0.0
 71
     1
 72
     5
  1
5
  7
SLDTEXTSTYLE0
 11
0.9135454576265614
 21
0.406736643111826
 31
0.0
 73
     1
 44
1.0
  0
LINE
  5
1E77
330
1E70
100
AcDbEntity
  8
PIC55
  6
Continuous
 62
     7
100
AcDbLine
 10
-150.2341669912999
 20
86.80194913520002
 30
0.0
 11
-137.1581358383
 21
92.5387794733
 31
0.0
  0
LINE
  5
1E78
330
1E70
100
AcDbEntity
  8
0
  6
Continuous
 62
     7
100
AcDbLine
 10
-147.6960929452
 20
87.2478248318
 30
0.0
 11
-150.2341669912999
 21
86.80194913520002
 31
0.0
  0
LINE
  5
1E79
330
1E70
100
AcDbEntity
  8
0
  6
Continuous
 62
     7
100
AcDbLine
 10
-150.2341669912999
 20
86.80194913520002
 30
0.0
 11
-148.2045137491
 21
88.3897566539
 31
0.0
  0
ENDBLK
  5
1E7B
330
1E70
100
AcDbEntity
  8
0
100
AcDbBlockEnd
  0
BLOCK
  5
1E83
330
1E7C
100
AcDbEntity
  8
0
 62
     0
100
AcDbBlockBegin
  2
COMP282
 70
     0
 10
0.0
 20
0.0
 30
0.0
  3
COMP282
  1

  0
MTEXT
  5
1E7D
330
1E7C
100
AcDbEntity
  8
0
 62
     7
100
AcDbMText
 10
-99.96815620459999
 20
108.1827070880999
 30
0.0
 40
2.5
 41
0.0
 71
     1
 72
     5
  1
R
  7
SLDTEXTSTYLE0
 11
-0.0348994967006691
 21
0.9993908270191598
 31
0.0
 73
     1
 44
1.0
  0
MTEXT
  5
1E7E
330
1E7C
100
AcDbEntity
  8
0
 62
     7
100
AcDbMText
 10
-100.0281391406999
 20
109.9004100920999
 30
0.0
 40
2.5
 41
0.0
 71
     1
 72
     5
  1
2
  7
SLDTEXTSTYLE0
 11
-0.0348994967006691
 21
0.9993908270191598
 31
0.0
 73
     1
 44
1.0
  0
MTEXT
  5
1E7F
330
1E7C
100
AcDbEntity
  8
0
 62
     7
100
AcDbMText
 10
-100.0881220769
 20
111.6181130961
 30
0.0
 40
2.5
 41
0.0
 71
     1
 72
     5
  1
0
  7
SLDTEXTSTYLE0
 11
-0.0348994967006691
 21
0.9993908270191598
 31
0.0
 73
     1
 44
1.0
  0
LINE
  5
1E80
330
1E7C
100
AcDbEntity
  8
PIC55
  6
Continuous
 62
     7
100
AcDbLine
 10
-99.43636482409999
 20
107.8019225795
 30
0.0
 11
-99.19922526459998
 21
101.3309280217
 31
0.0
  0
LINE
  5
1E81
330
1E7C
100
AcDbEntity
  8
0
  6
Continuous
 62
     7
100
AcDbLine
 10
-98.6548662839
 20
103.6600977635
 30
0.0
 11
-99.192236809
 21
101.1398085104999
 31
0.0
  0
LINE
  5
1E82
330
1E7C
100
AcDbEntity
  8
0
  6
Continuous
 62
     7
100
AcDbLine
 10
-99.192236809
 20
101.1398085104999
 30
0.0
 11
-99.90410481760001
 21
103.6164733926
 31
0.0
  0
ENDBLK
  5
1E84
330
1E7C
100
AcDbEntity
  8
0
100
AcDbBlockEnd
  0
BLOCK
  5
1E92
330
1E85
100
AcDbEntity
  8
0
 62
     0
100
AcDbBlockBegin
  2
COMP283
 70
     0
 10
0.0
 20
0.0
 30
0.0
  3
COMP283
  1

  0
MTEXT
  5
1E86
330
1E85
100
AcDbEntity
  8
0
 62
     7
100
AcDbMText
 10
-115.0041313537999
 20
155.3551430209999
 30
0.0
 40
2.5
 41
0.0
 71
     1
 72
     5
  1
1
  7
SLDTEXTSTYLE0
 73
     1
 44
1.0
  0
MTEXT
  5
1E87
330
1E85
100
AcDbEntity
  8
0
 62
     7
100
AcDbMText
 10
-113.2853813537999
 20
155.3551430209999
 30
0.0
 40
2.5
 41
0.0
 71
     1
 72
     5
  1
0
  7
SLDTEXTSTYLE0
 73
     1
 44
1.0
  0
LINE
  5
1E88
330
1E85
100
AcDbEntity
  8
PIC55
  6
Continuous
 62
     7
100
AcDbLine
 10
-115.4894272086
 20
152.0806451382999
 30
0.0
 11
-117.489407241
 21
152.0806451382999
 31
0.0
  0
LINE
  5
1E89
330
1E85
100
AcDbEntity
  8
0
  6
Continuous
 62
     7
100
AcDbLine
 10
-117.9894272086
 20
152.7056451382998
 30
0.0
 11
-115.4894272086
 21
152.0806451382999
 31
0.0
  0
LINE
  5
1E8A
330
1E85
100
AcDbEntity
  8
0
  6
Continuous
 62
     7
100
AcDbLine
 10
-115.4894272086
 20
152.0806451382999
 30
0.0
 11
-117.9894272086
 21
151.4556451382999
 31
0.0
  0
LINE
  5
1E8B
330
1E85
100
AcDbEntity
  8
PIC55
  6
Continuous
 62
     7
100
AcDbLine
 10
-115.4894272086
 20
152.0806451382999
 30
0.0
 11
-113.8499070376
 21
152.0806451382999
 31
0.0
  0
LINE
  5
1E8C
330
1E85
100
AcDbEntity
  8
PIC55
  6
Continuous
 62
     7
100
AcDbLine
 10
-112.2103766943
 20
152.0806451382999
 30
0.0
 11
-113.8498968652
 21
152.0806451382999
 31
0.0
  0
LINE
  5
1E8D
330
1E85
100
AcDbEntity
  8
PIC55
  6
Continuous
 62
     7
100
AcDbLine
 10
-112.2103766943
 20
152.0806451382999
 30
0.0
 11
-109.9225373937999
 21
152.0806451382999
 31
0.0
  0
LINE
  5
1E8E
330
1E85
100
AcDbEntity
  8
0
  6
Continuous
 62
     7
100
AcDbLine
 10
-109.7103766943
 20
151.4556451382999
 30
0.0
 11
-112.2103766943
 21
152.0806451382999
 31
0.0
  0
LINE
  5
1E8F
330
1E85
100
AcDbEntity
  8
0
  6
Continuous
 62
     7
100
AcDbLine
 10
-112.2103766943
 20
152.0806451382999
 30
0.0
 11
-109.7103766943
 21
152.7056451382998
 31
0.0
  0
LINE
  5
1E90
330
1E85
100
AcDbEntity
  8
PIC55
  6
Continuous
 62
     7
100
AcDbLine
 10
-115.4894272086
 20
116.9166285356999
 30
0.0
 11
-115.4894272086
 21
152.7473051490999
 31
0.0
  0
LINE
  5
1E91
330
1E85
100
AcDbEntity
  8
PIC55
  6
Continuous
 62
     7
100
AcDbLine
 10
-112.2103766943
 20
144.9948699345
 30
0.0
 11
-112.2103766943
 21
152.7473051490999
 31
0.0
  0
ENDBLK
  5
1E93
330
1E85
100
AcDbEntity
  8
0
100
AcDbBlockEnd
  0
BLOCK
  5
1E9A
330
1E94
100
AcDbEntity
  8
0
 62
     0
100
AcDbBlockBegin
  2
COMP293
 70
     0
 10
0.0
 20
0.0
 30
0.0
  3
COMP293
  1

  0
MTEXT
  5
1E95
330
1E94
100
AcDbEntity
  8
0
 62
     7
100
AcDbMText
 10
-224.656899077
 20
92.39926769809999
 30
0.0
 40
2.5
 41
0.0
 71
     1
 72
     5
  1
R
  7
SLDTEXTSTYLE0
 11
0.7071067811865476
 21
0.7071067811865476
 31
0.0
 73
     1
 44
1.0
  0
MTEXT
  5
1E96
330
1E94
100
AcDbEntity
  8
0
 62
     7
100
AcDbMText
 10
-223.4415590983
 20
93.61460727969999
 30
0.0
 40
2.5
 41
0.0
 71
     1
 72
     5
  1
5
  7
SLDTEXTSTYLE0
 11
0.7071067811865476
 21
0.7071067811865476
 31
0.0
 73
     1
 44
1.0
  0
LINE
  5
1E97
330
1E94
100
AcDbEntity
  8
PIC55
  6
Continuous
 62
     7
100
AcDbLine
 10
-225.2735891122
 20
89.03760389799998
 30
0.0
 11
-223.6794481268999
 21
90.6317550558
 31
0.0
  0
LINE
  5
1E98
330
1E94
100
AcDbEntity
  8
0
  6
Continuous
 62
     7
100
AcDbLine
 10
-223.0638804209998
 20
90.36342911270001
 30
0.0
 11
-225.2735891122
 21
89.03760389799998
 31
0.0
  0
LINE
  5
1E99
330
1E94
100
AcDbEntity
  8
0
  6
Continuous
 62
     7
100
AcDbLine
 10
-225.2735891122
 20
89.03760389799998
 30
0.0
 11
-223.9477638974999
 21
91.2473125892
 31
0.0
  0
ENDBLK
  5
1E9B
330
1E94
100
AcDbEntity
  8
0
100
AcDbBlockEnd
  0
BLOCK
  5
1EA3
330
1E9C
100
AcDbEntity
  8
0
 62
     0
100
AcDbBlockBegin
  2
COMP294
 70
     0
 10
0.0
 20
0.0
 30
0.0
  3
COMP294
  1

  0
MTEXT
  5
1E9D
330
1E9C
100
AcDbEntity
  8
0
 62
     7
100
AcDbMText
 10
-209.5767937231999
 20
98.06964970660001
 30
0.0
 40
2.5
 41
0.0
 71
     1
 72
     5
  1
R
  7
SLDTEXTSTYLE0
 11
0.7431448254670575
 21
-0.6691306063703385
 31
0.0
 73
     1
 44
1.0
  0
MTEXT
  5
1E9E
330
1E9C
100
AcDbEntity
  8
0
 62
     7
100
AcDbMText
 10
-208.2995148823
 20
96.9195800021
 30
0.0
 40
2.5
 41
0.0
 71
     1
 72
     5
  1
2
  7
SLDTEXTSTYLE0
 11
0.7431448254670575
 21
-0.6691306063703385
 31
0.0
 73
     1
 44
1.0
  0
MTEXT
  5
1E9F
330
1E9C
100
AcDbEntity
  8
0
 62
     7
100
AcDbMText
 10
-207.0222360415
 20
95.76951029760001
 30
0.0
 40
2.5
 41
0.0
 71
     1
 72
     5
  1
0
  7
SLDTEXTSTYLE0
 11
0.7431448254670575
 21
-0.6691306063703385
 31
0.0
 73
     1
 44
1.0
  0
LINE
  5
1EA0
330
1E9C
100
AcDbEntity
  8
PIC55
  6
Continuous
 62
     7
100
AcDbLine
 10
-204.1064623887999
 20
91.49327802989999
 30
0.0
 11
-206.2877964049
 21
93.42684230290002
 31
0.0
  0
LINE
  5
1EA1
330
1E9C
100
AcDbEntity
  8
0
  6
Continuous
 62
     7
100
AcDbLine
 10
-205.5461178234998
 20
93.6305700618
 30
0.0
 11
-204.1064623887999
 21
91.49327802989999
 31
0.0
  0
LINE
  5
1EA2
330
1E9C
100
AcDbEntity
  8
0
  6
Continuous
 62
     7
100
AcDbLine
 10
-204.1064623887999
 20
91.49327802989999
 30
0.0
 11
-206.3825310815
 21
92.70163902989999
 31
0.0
  0
ENDBLK
  5
1EA4
330
1E9C
100
AcDbEntity
  8
0
100
AcDbBlockEnd
  0
BLOCK
  5
1EAC
330
1EA5
100
AcDbEntity
  8
0
 62
     0
100
AcDbBlockBegin
  2
COMP295
 70
     0
 10
0.0
 20
0.0
 30
0.0
  3
COMP295
  1

  0
MTEXT
  5
1EA6
330
1EA5
100
AcDbEntity
  8
0
 62
     7
100
AcDbMText
 10
-191.9744557745999
 20
98.16492367910001
 30
0.0
 40
2.5
 41
0.0
 71
     1
 72
     5
  1
R
  7
SLDTEXTSTYLE0
 11
0.484809620227596
 21
-0.8746197071497842
 31
0.0
 73
     1
 44
1.0
  0
MTEXT
  5
1EA7
330
1EA5
100
AcDbEntity
  8
0
 62
     7
100
AcDbMText
 10
-191.1411908718
 20
96.66167015280002
 30
0.0
 40
2.5
 41
0.0
 71
     1
 72
     5
  1
2
  7
SLDTEXTSTYLE0
 11
0.484809620227596
 21
-0.8746197071497842
 31
0.0
 73
     1
 44
1.0
  0
MTEXT
  5
1EA8
330
1EA5
100
AcDbEntity
  8
0
 62
     7
100
AcDbMText
 10
-190.3079259691
 20
95.1584166265
 30
0.0
 40
2.5
 41
0.0
 71
     1
 72
     5
  1
0
  7
SLDTEXTSTYLE0
 11
0.484809620227596
 21
-0.8746197071497842
 31
0.0
 73
     1
 44
1.0
  0
LINE
  5
1EA9
330
1EA5
100
AcDbEntity
  8
PIC55
  6
Continuous
 62
     7
100
AcDbLine
 10
-190.8387929309999
 20
89.10255482830001
 30
0.0
 11
-193.6679679725999
 21
94.15611358639999
 31
0.0
  0
LINE
  5
1EAA
330
1EA5
100
AcDbEntity
  8
0
  6
Continuous
 62
     7
100
AcDbLine
 10
-191.5041796647
 20
91.59211010879998
 30
0.0
 11
-190.8387929309999
 21
89.10255482830001
 31
0.0
  0
LINE
  5
1EAB
330
1EA5
100
AcDbEntity
  8
0
  6
Continuous
 62
     7
100
AcDbLine
 10
-190.8387929309999
 20
89.10255482830001
 30
0.0
 11
-192.5974542986
 21
90.98609808350001
 31
0.0
  0
ENDBLK
  5
1EAD
330
1EA5
100
AcDbEntity
  8
0
100
AcDbBlockEnd
  0
BLOCK
  5
1EB5
330
1EAE
100
AcDbEntity
  8
0
 62
     0
100
AcDbBlockBegin
  2
COMP300
 70
     0
 10
0.0
 20
0.0
 30
0.0
  3
COMP300
  1

  0
MTEXT
  5
1EAF
330
1EAE
100
AcDbEntity
  8
0
 62
     7
100
AcDbMText
 10
-116.5485134802999
 20
92.6456863119
 30
0.0
 40
2.5
 41
0.0
 71
     1
 72
     5
  1
R
  7
SLDTEXTSTYLE0
 11
0.6156614753129867
 21
0.7880107536166224
 31
0.0
 73
     1
 44
1.0
  0
MTEXT
  5
1EB0
330
1EAE
100
AcDbEntity
  8
0
 62
     7
100
AcDbMText
 10
-115.4903450638
 20
94.0000795949
 30
0.0
 40
2.5
 41
0.0
 71
     1
 72
     5
  1
1
  7
SLDTEXTSTYLE0
 11
0.6156614753129867
 21
0.7880107536166224
 31
0.0
 73
     1
 44
1.0
  0
MTEXT
  5
1EB1
330
1EAE
100
AcDbEntity
  8
0
 62
     7
100
AcDbMText
 10
-114.4321766473999
 20
95.3544728778
 30
0.0
 40
2.5
 41
0.0
 71
     1
 72
     5
  1
0
  7
SLDTEXTSTYLE0
 11
0.6156614753129867
 21
0.7880107536166224
 31
0.0
 73
     1
 44
1.0
  0
LINE
  5
1EB2
330
1EAE
100
AcDbEntity
  8
PIC55
  6
Continuous
 62
     7
100
AcDbLine
 10
-116.2935878811
 20
91.88852758320001
 30
0.0
 11
-117.7778361647998
 21
89.99345576440003
 31
0.0
  0
LINE
  5
1EB3
330
1EAE
100
AcDbEntity
  8
0
  6
Continuous
 62
     7
100
AcDbLine
 10
-118.3252482904
 20
90.30328912120001
 30
0.0
 11
-116.2935878811
 21
91.88852758320001
 31
0.0
  0
LINE
  5
1EB4
330
1EAE
100
AcDbEntity
  8
0
  6
Continuous
 62
     7
100
AcDbLine
 10
-116.2935878811
 20
91.88852758320001
 30
0.0
 11
-117.3402348483999
 21
89.53371227709999
 31
0.0
  0
ENDBLK
  5
1EB6
330
1EAE
100
AcDbEntity
  8
0
100
AcDbBlockEnd
  0
BLOCK
  5
1EC2
330
1EB7
100
AcDbEntity
  8
0
 62
     0
100
AcDbBlockBegin
  2
COMP301
 70
     0
 10
0.0
 20
0.0
 30
0.0
  3
COMP301
  1

  0
MTEXT
  5
1EB8
330
1EB7
100
AcDbEntity
  8
0
 62
     7
100
AcDbMText
 10
-121.6149708456
 20
105.6557139451
 30
0.0
 40
2.5
 41
0.0
 71
     1
 72
     5
  1
3
  7
SLDTEXTSTYLE0
 11
0.0
 21
1.0
 31
0.0
 73
     1
 44
1.0
  0
MTEXT
  5
1EB9
330
1EB7
100
AcDbEntity
  8
0
 62
     7
100
AcDbMText
 10
-121.6149702839
 20
107.3744639450999
 30
0.0
 40
2.5
 41
0.0
 71
     1
 72
     5
  1
5
  7
SLDTEXTSTYLE0
 11
0.0
 21
1.0
 31
0.0
 73
     1
 44
1.0
  0
LINE
  5
1EBA
330
1EB7
100
AcDbEntity
  8
PIC55
  6
Continuous
 62
     7
100
AcDbLine
 10
-118.3872254256999
 20
111.0492859915
 30
0.0
 11
-118.3872254256999
 21
105.2159498622998
 31
0.0
  0
LINE
  5
1EBB
330
1EB7
100
AcDbEntity
  8
0
  6
Continuous
 62
     7
100
AcDbLine
 10
-119.0122254257
 20
108.5492859914999
 30
0.0
 11
-118.3872254256999
 21
111.0492859915
 31
0.0
  0
LINE
  5
1EBC
330
1EB7
100
AcDbEntity
  8
0
  6
Continuous
 62
     7
100
AcDbLine
 10
-118.3872254256999
 20
111.0492859915
 30
0.0
 11
-117.7622254257
 21
108.5492859914999
 31
0.0
  0
LINE
  5
1EBD
330
1EB7
100
AcDbEntity
  8
PIC55
  6
Continuous
 62
     7
100
AcDbLine
 10
-118.3872254256999
 20
99.38261373320001
 30
0.0
 11
-118.3872254256999
 21
105.2159498622998
 31
0.0
  0
LINE
  5
1EBE
330
1EB7
100
AcDbEntity
  8
0
  6
Continuous
 62
     7
100
AcDbLine
 10
-117.7622254257
 20
101.8826137332
 30
0.0
 11
-118.3872254256999
 21
99.38261373320001
 31
0.0
  0
LINE
  5
1EBF
330
1EB7
100
AcDbEntity
  8
0
  6
Continuous
 62
     7
100
AcDbLine
 10
-118.3872254256999
 20
99.38261373320001
 30
0.0
 11
-119.0122254257
 21
101.8826137332
 31
0.0
  0
LINE
  5
1EC0
330
1EB7
100
AcDbEntity
  8
PIC55
  6
Continuous
 62
     7
100
AcDbLine
 10
-112.0635479192999
 20
111.0492859915
 30
0.0
 11
-119.0538854366
 21
111.0492859915
 31
0.0
  0
LINE
  5
1EC1
330
1EB7
100
AcDbEntity
  8
PIC55
  6
Continuous
 62
     7
100
AcDbLine
 10
-112.0635479192999
 20
99.38261373320001
 30
0.0
 11
-119.0538854366
 21
99.38261373320001
 31
0.0
  0
ENDBLK
  5
1EC3
330
1EB7
100
AcDbEntity
  8
0
100
AcDbBlockEnd
  0
BLOCK
  5
1ECA
330
1EC4
100
AcDbEntity
  8
0
 62
     0
100
AcDbBlockBegin
  2
COMP302
 70
     0
 10
0.0
 20
0.0
 30
0.0
  3
COMP302
  1

  0
MTEXT
  5
1EC5
330
1EC4
100
AcDbEntity
  8
0
 62
     7
100
AcDbMText
 10
-112.0356394282
 20
113.7640464323
 30
0.0
 40
2.5
 41
0.0
 71
     1
 72
     5
  1
R
  7
SLDTEXTSTYLE0
 11
0.6156614753129867
 21
0.7880107536166224
 31
0.0
 73
     1
 44
1.0
  0
MTEXT
  5
1EC6
330
1EC4
100
AcDbEntity
  8
0
 62
     7
100
AcDbMText
 10
-110.9774710117
 20
115.1184397153
 30
0.0
 40
2.5
 41
0.0
 71
     1
 72
     5
  1
3
  7
SLDTEXTSTYLE0
 11
0.6156614753129867
 21
0.7880107536166224
 31
0.0
 73
     1
 44
1.0
  0
LINE
  5
1EC7
330
1EC4
100
AcDbEntity
  8
PIC55
  6
Continuous
 62
     7
100
AcDbLine
 10
-111.5168004483
 20
111.9790964512
 30
0.0
 11
-113.3144000956999
 21
109.7146842444
 31
0.0
  0
LINE
  5
1EC8
330
1EC4
100
AcDbEntity
  8
0
  6
Continuous
 62
     7
100
AcDbLine
 10
-113.5484608575999
 20
110.3938579893
 30
0.0
 11
-111.5168004483
 21
111.9790964512
 31
0.0
  0
LINE
  5
1EC9
330
1EC4
100
AcDbEntity
  8
0
  6
Continuous
 62
     7
100
AcDbLine
 10
-111.5168004483
 20
111.9790964512
 30
0.0
 11
-112.5634474156
 21
109.6242811451999
 31
0.0
  0
ENDBLK
  5
1ECB
330
1EC4
100
AcDbEntity
  8
0
100
AcDbBlockEnd
  0
BLOCK
  5
1ED2
330
1ECC
100
AcDbEntity
  8
0
 62
     0
100
AcDbBlockBegin
  2
COMP303
 70
     0
 10
0.0
 20
0.0
 30
0.0
  3
COMP303
  1

  0
MTEXT
  5
1ECD
330
1ECC
100
AcDbEntity
  8
0
 62
     7
100
AcDbMText
 10
-136.6944942451
 20
120.5163207532999
 30
0.0
 40
2.5
 41
0.0
 71
     1
 72
     5
  1
R
  7
SLDTEXTSTYLE0
 11
0.6560590290071895
 21
-0.7547095802082705
 31
0.0
 73
     1
 44
1.0
  0
MTEXT
  5
1ECE
330
1ECC
100
AcDbEntity
  8
0
 62
     7
100
AcDbMText
 10
-135.5668942537999
 20
119.2191623889998
 30
0.0
 40
2.5
 41
0.0
 71
     1
 72
     5
  1
5
  7
SLDTEXTSTYLE0
 11
0.6560590290071895
 21
-0.7547095802082705
 31
0.0
 73
     1
 44
1.0
  0
LINE
  5
1ECF
330
1ECC
100
AcDbEntity
  8
PIC55
  6
Continuous
 62
     7
100
AcDbLine
 10
-135.5623876098997
 20
116.4155247333999
 30
0.0
 11
-134.0049792494
 21
114.6164093946999
 31
0.0
  0
LINE
  5
1ED0
330
1ECC
100
AcDbEntity
  8
0
  6
Continuous
 62
     7
100
AcDbLine
 10
-134.3939335249999
 20
114.1187138896998
 30
0.0
 11
-135.5623876098997
 21
116.4155247333999
 31
0.0
  0
LINE
  5
1ED1
330
1ECC
100
AcDbEntity
  8
0
  6
Continuous
 62
     7
100
AcDbLine
 10
-135.5623876098997
 20
116.4155247333999
 30
0.0
 11
-133.4505465498
 21
114.9387876759
 31
0.0
  0
ENDBLK
  5
1ED3
330
1ECC
100
AcDbEntity
  8
0
100
AcDbBlockEnd
  0
BLOCK
  5
1EDF
330
1ED4
100
AcDbEntity
  8
0
 62
     0
100
AcDbBlockBegin
  2
COMP304
 70
     0
 10
0.0
 20
0.0
 30
0.0
  3
COMP304
  1

  0
MTEXT
  5
1ED5
330
1ED4
100
AcDbEntity
  8
0
 62
     7
100
AcDbMText
 10
-95.07404726899999
 20
100.8979896357
 30
0.0
 40
2.5
 41
0.0
 71
     1
 72
     5
  1
2
  7
SLDTEXTSTYLE0
 11
0.0
 21
1.0
 31
0.0
 73
     1
 44
1.0
  0
MTEXT
  5
1ED6
330
1ED4
100
AcDbEntity
  8
0
 62
     7
100
AcDbMText
 10
-95.0740467073
 20
102.6167396356999
 30
0.0
 40
2.5
 41
0.0
 71
     1
 72
     5
  1
1
  7
SLDTEXTSTYLE0
 11
0.0
 21
1.0
 31
0.0
 73
     1
 44
1.0
  0
LINE
  5
1ED7
330
1ED4
100
AcDbEntity
  8
PIC55
  6
Continuous
 62
     7
100
AcDbLine
 10
-91.9740573282
 20
98.22584631079999
 30
0.0
 11
-91.9740573282
 21
101.7208980866
 31
0.0
  0
LINE
  5
1ED8
330
1ED4
100
AcDbEntity
  8
0
  6
Continuous
 62
     7
100
AcDbLine
 10
-91.3490573282
 20
100.7258463107999
 30
0.0
 11
-91.9740573282
 21
98.22584631079999
 31
0.0
  0
LINE
  5
1ED9
330
1ED4
100
AcDbEntity
  8
0
  6
Continuous
 62
     7
100
AcDbLine
 10
-91.9740573282
 20
98.22584631079999
 30
0.0
 11
-92.5990573282
 21
100.7258463107999
 31
0.0
  0
LINE
  5
1EDA
330
1ED4
100
AcDbEntity
  8
PIC55
  6
Continuous
 62
     7
100
AcDbLine
 10
-91.9740573282
 20
105.2159498622998
 30
0.0
 11
-91.9740573282
 21
101.7208980866
 31
0.0
  0
LINE
  5
1EDB
330
1ED4
100
AcDbEntity
  8
0
  6
Continuous
 62
     7
100
AcDbLine
 10
-92.5990573282
 20
102.7159498622999
 30
0.0
 11
-91.9740573282
 21
105.2159498622998
 31
0.0
  0
LINE
  5
1EDC
330
1ED4
100
AcDbEntity
  8
0
  6
Continuous
 62
     7
100
AcDbLine
 10
-91.9740573282
 20
105.2159498622998
 30
0.0
 11
-91.3490573282
 21
102.7159498622999
 31
0.0
  0
LINE
  5
1EDD
330
1ED4
100
AcDbEntity
  8
PIC55
  6
Continuous
 62
     7
100
AcDbLine
 10
-99.43634447930001
 20
98.22584631079999
 30
0.0
 11
-91.3073973174
 21
98.22584631079999
 31
0.0
  0
LINE
  5
1EDE
330
1ED4
100
AcDbEntity
  8
PIC55
  6
Continuous
 62
     7
100
AcDbLine
 10
-80.2702811516
 20
105.2159498622998
 30
0.0
 11
-92.64071733899999
 21
105.2159498622998
 31
0.0
  0
ENDBLK
  5
1EE0
330
1ED4
100
AcDbEntity
  8
0
100
AcDbBlockEnd
  0
BLOCK
  5
1EED
330
1EE1
100
AcDbEntity
  8
0
 62
     0
100
AcDbBlockBegin
  2
COMP305
 70
     0
 10
0.0
 20
0.0
 30
0.0
  3
COMP305
  1

  0
MTEXT
  5
1EE2
330
1EE1
100
AcDbEntity
  8
0
 62
     7
100
AcDbMText
 10
-97.50958555830001
 20
81.9448295946
 30
0.0
 40
2.5
 41
0.0
 71
     1
 72
     5
  1
4
  7
SLDTEXTSTYLE0
 73
     1
 44
1.0
  0
LINE
  5
1EE3
330
1EE1
100
AcDbEntity
  8
PIC55
  6
Continuous
 62
     7
100
AcDbLine
 10
-99.43632413440001
 20
78.6938503572
 30
0.0
 11
-97.43634410200002
 21
78.6938503572
 31
0.0
  0
LINE
  5
1EE4
330
1EE1
100
AcDbEntity
  8
0
  6
Continuous
 62
     7
100
AcDbLine
 10
-96.93632413440001
 20
78.0688503572
 30
0.0
 11
-99.43632413440001
 21
78.6938503572
 31
0.0
  0
LINE
  5
1EE5
330
1EE1
100
AcDbEntity
  8
0
  6
Continuous
 62
     7
100
AcDbLine
 10
-99.43632413440001
 20
78.6938503572
 30
0.0
 11
-96.93632413440001
 21
79.3188503572
 31
0.0
  0
LINE
  5
1EE6
330
1EE1
100
AcDbEntity
  8
PIC55
  6
Continuous
 62
     7
100
AcDbLine
 10
-99.43632413440001
 20
78.6938503572
 30
0.0
 11
-100.0997086245999
 21
78.6938503572
 31
0.0
  0
LINE
  5
1EE7
330
1EE1
100
AcDbEntity
  8
PIC55
  6
Continuous
 62
     7
100
AcDbLine
 10
-100.7630931146999
 20
78.6938503572
 30
0.0
 11
-100.0997086245999
 21
78.6938503572
 31
0.0
  0
LINE
  5
1EE8
330
1EE1
100
AcDbEntity
  8
PIC55
  6
Continuous
 62
     7
100
AcDbLine
 10
-100.7630931146999
 20
78.6938503572
 30
0.0
 11
-107.7005238521999
 21
78.6938503572
 31
0.0
  0
LINE
  5
1EE9
330
1EE1
100
AcDbEntity
  8
0
  6
Continuous
 62
     7
100
AcDbLine
 10
-103.2630931147
 20
79.3188503572
 30
0.0
 11
-100.7630931146999
 21
78.6938503572
 31
0.0
  0
LINE
  5
1EEA
330
1EE1
100
AcDbEntity
  8
0
  6
Continuous
 62
     7
100
AcDbLine
 10
-100.7630931146999
 20
78.6938503572
 30
0.0
 11
-103.2630931147
 21
78.0688503572
 31
0.0
  0
LINE
  5
1EEB
330
1EE1
100
AcDbEntity
  8
PIC55
  6
Continuous
 62
     7
100
AcDbLine
 10
-99.43632413440001
 20
107.8008646472998
 30
0.0
 11
-99.43632413440001
 21
78.0271903464
 31
0.0
  0
LINE
  5
1EEC
330
1EE1
100
AcDbEntity
  8
PIC55
  6
Continuous
 62
     7
100
AcDbLine
 10
-100.7630931146999
 20
80.5940185607
 30
0.0
 11
-100.7630931146999
 21
78.0271903464
 31
0.0
  0
ENDBLK
  5
1EEE
330
1EE1
100
AcDbEntity
  8
0
100
AcDbBlockEnd
  0
BLOCK
  5
1EF6
330
1EEF
100
AcDbEntity
  8
0
 62
     0
100
AcDbBlockBegin
  2
COMP307
 70
     0
 10
0.0
 20
0.0
 30
0.0
  3
COMP307
  1

  0
MTEXT
  5
1EF0
330
1EEF
100
AcDbEntity
  8
0
 62
     7
100
AcDbMText
 10
-164.0069453564999
 20
123.1126896883
 30
0.0
 40
2.5
 41
0.0
 71
     1
 72
     5
  1
R
  7
SLDTEXTSTYLE0
 11
0.6560590290071895
 21
-0.7547095802082705
 31
0.0
 73
     1
 44
1.0
  0
MTEXT
  5
1EF1
330
1EEF
100
AcDbEntity
  8
0
 62
     7
100
AcDbMText
 10
-162.8793453652999
 20
121.8155313238999
 30
0.0
 40
2.5
 41
0.0
 71
     1
 72
     5
  1
1
  7
SLDTEXTSTYLE0
 11
0.6560590290071895
 21
-0.7547095802082705
 31
0.0
 73
     1
 44
1.0
  0
MTEXT
  5
1EF2
330
1EEF
100
AcDbEntity
  8
0
 62
     7
100
AcDbMText
 10
-161.7517453739999
 20
120.5183729595999
 30
0.0
 40
2.5
 41
0.0
 71
     1
 72
     5
  1
0
  7
SLDTEXTSTYLE0
 11
0.6560590290071895
 21
-0.7547095802082705
 31
0.0
 73
     1
 44
1.0
  0
LINE
  5
1EF3
330
1EEF
100
AcDbEntity
  8
PIC55
  6
Continuous
 62
     7
100
AcDbLine
 10
-165.7375929361
 20
123.0430220417999
 30
0.0
 11
-167.8733748354
 21
125.4780664969
 31
0.0
  0
LINE
  5
1EF4
330
1EEF
100
AcDbEntity
  8
0
  6
Continuous
 62
     7
100
AcDbLine
 10
-166.9060470209999
 20
125.3398328854999
 30
0.0
 11
-165.7375929361
 21
123.0430220417999
 31
0.0
  0
LINE
  5
1EF5
330
1EEF
100
AcDbEntity
  8
0
  6
Continuous
 62
     7
100
AcDbLine
 10
-165.7375929361
 20
123.0430220417999
 30
0.0
 11
-167.8494339962
 21
124.5197590992
 31
0.0
  0
ENDBLK
  5
1EF7
330
1EEF
100
AcDbEntity
  8
0
100
AcDbBlockEnd
  0
BLOCK
  5
1F03
330
1EF8
100
AcDbEntity
  8
0
 62
     0
100
AcDbBlockBegin
  2
COMP340
 70
     0
 10
0.0
 20
0.0
 30
0.0
  3
COMP340
  1

  0
MTEXT
  5
1EF9
330
1EF8
100
AcDbEntity
  8
0
 62
     7
100
AcDbMText
 10
-12.55568028589999
 20
95.4137882744
 30
0.0
 40
2.5
 41
0.0
 71
     1
 72
     5
  1
3
  7
SLDTEXTSTYLE0
 11
0.1908089954080736
 21
0.9816271834415355
 31
0.0
 73
     1
 44
1.0
  0
MTEXT
  5
1EFA
330
1EF8
100
AcDbEntity
  8
0
 62
     7
100
AcDbMText
 10
-12.22772684109999
 20
97.10095990190001
 30
0.0
 40
2.5
 41
0.0
 71
     1
 72
     5
  1
3
  7
SLDTEXTSTYLE0
 11
0.1908089954080736
 21
0.9816271834415355
 31
0.0
 73
     1
 44
1.0
  0
LINE
  5
1EFB
330
1EF8
100
AcDbEntity
  8
PIC55
  6
Continuous
 62
     7
100
AcDbLine
 10
-8.1640420264
 20
101.6751526937
 30
0.0
 11
-9.229403857000001
 21
96.27937323120001
 31
0.0
  0
LINE
  5
1EFC
330
1EF8
100
AcDbEntity
  8
0
  6
Continuous
 62
     7
100
AcDbLine
 10
-9.2545815045
 20
99.34034035719999
 30
0.0
 11
-8.1640420264
 21
101.6751526937
 31
0.0
  0
LINE
  5
1EFD
330
1EF8
100
AcDbEntity
  8
0
  6
Continuous
 62
     7
100
AcDbLine
 10
-8.1640420264
 20
101.6751526937
 30
0.0
 11
-8.027547525099999
 21
99.10182911299999
 31
0.0
  0
LINE
  5
1EFE
330
1EF8
100
AcDbEntity
  8
PIC55
  6
Continuous
 62
     7
100
AcDbLine
 10
-10.29476505179999
 20
90.88360394110001
 30
0.0
 11
-9.2294032212
 21
96.27938340360001
 31
0.0
  0
LINE
  5
1EFF
330
1EF8
100
AcDbEntity
  8
0
  6
Continuous
 62
     7
100
AcDbLine
 10
-9.2042255737
 20
93.21841627759999
 30
0.0
 11
-10.29476505179999
 21
90.88360394110001
 31
0.0
  0
LINE
  5
1F00
330
1EF8
100
AcDbEntity
  8
0
  6
Continuous
 62
     7
100
AcDbLine
 10
-10.29476505179999
 20
90.88360394110001
 30
0.0
 11
-10.431259553
 21
93.45692752179999
 31
0.0
  0
LINE
  5
1F01
330
1EF8
100
AcDbEntity
  8
PIC55
  6
Continuous
 62
     7
100
AcDbLine
 10
-26.0972405673
 20
105.2159498622998
 30
0.0
 11
-7.182981620499999
 21
101.4814493867
 31
0.0
  0
LINE
  5
1F02
330
1EF8
100
AcDbEntity
  8
PIC55
  6
Continuous
 62
     7
100
AcDbLine
 10
-28.2279616854
 20
94.4244011097
 30
0.0
 11
-9.313705281699999
 21
90.6899006341
 31
0.0
  0
ENDBLK
  5
1F04
330
1EF8
100
AcDbEntity
  8
0
100
AcDbBlockEnd
  0
BLOCK
  5
1F13
330
1F05
100
AcDbEntity
  8
0
 62
     0
100
AcDbBlockBegin
  2
COMP341
 70
     0
 10
0.0
 20
0.0
 30
0.0
  3
COMP341
  1

  0
MTEXT
  5
1F06
330
1F05
100
AcDbEntity
  8
0
 62
     7
100
AcDbMText
 10
-16.78058577259999
 20
84.38277971879998
 30
0.0
 40
2.5
 41
0.0
 71
     1
 72
     5
  1
1
  7
SLDTEXTSTYLE0
 11
0.406736643111826
 21
0.9135454576265614
 31
0.0
 73
     1
 44
1.0
  0
MTEXT
  5
1F07
330
1F05
100
AcDbEntity
  8
0
 62
     7
100
AcDbMText
 10
-16.08150679099998
 20
85.95293580659998
 30
0.0
 40
2.5
 41
0.0
 71
     1
 72
     5
  1
6
  7
SLDTEXTSTYLE0
 11
0.406736643111826
 21
0.9135454576265614
 31
0.0
 73
     1
 44
1.0
  0
MTEXT
  5
1F08
330
1F05
100
AcDbEntity
  8
0
 62
     7
100
AcDbMText
 10
-15.3824278094
 20
87.52309189440003
 30
0.0
 40
2.5
 41
0.0
 71
     1
 72
     5
  1
.
  7
SLDTEXTSTYLE0
 11
0.406736643111826
 21
0.9135454576265614
 31
0.0
 73
     1
 44
1.0
  0
MTEXT
  5
1F09
330
1F05
100
AcDbEntity
  8
0
 62
     7
100
AcDbMText
 10
-14.68334882789999
 20
89.0932479822
 30
0.0
 40
2.5
 41
0.0
 71
     1
 72
     5
  1
5
  7
SLDTEXTSTYLE0
 11
0.406736643111826
 21
0.9135454576265614
 31
0.0
 73
     1
 44
1.0
  0
LINE
  5
1F0A
330
1F05
100
AcDbEntity
  8
PIC55
  6
Continuous
 62
     7
100
AcDbLine
 10
-11.5284455398
 20
87.12087498749998
 30
0.0
 11
-12.630367064
 21
84.60132820229999
 31
0.0
  0
LINE
  5
1F0B
330
1F05
100
AcDbEntity
  8
0
  6
Continuous
 62
     7
100
AcDbLine
 10
-13.11625305859998
 20
85.0912217453
 30
0.0
 11
-11.5284455398
 21
87.12087498749998
 31
0.0
  0
LINE
  5
1F0C
330
1F05
100
AcDbEntity
  8
0
  6
Continuous
 62
     7
100
AcDbLine
 10
-11.5284455398
 20
87.12087498749998
 30
0.0
 11
-11.9743212365
 21
84.5828009415
 31
0.0
  0
LINE
  5
1F0D
330
1F05
100
AcDbEntity
  8
PIC55
  6
Continuous
 62
     7
100
AcDbLine
 10
-13.73228985979999
 20
82.08178141700001
 30
0.0
 11
-12.630367064
 21
84.60132820229999
 31
0.0
  0
LINE
  5
1F0E
330
1F05
100
AcDbEntity
  8
0
  6
Continuous
 62
     7
100
AcDbLine
 10
-12.144482341
 20
84.1114346592
 30
0.0
 11
-13.73228985979999
 21
82.08178141700001
 31
0.0
  0
LINE
  5
1F0F
330
1F05
100
AcDbEntity
  8
0
  6
Continuous
 62
     7
100
AcDbLine
 10
-13.73228985979999
 20
82.08178141700001
 30
0.0
 11
-13.28641416309999
 21
84.61985546300001
 31
0.0
  0
LINE
  5
1F10
330
1F05
100
AcDbEntity
  8
PIC55
  6
Continuous
 62
     7
100
AcDbLine
 10
-13.73228985979999
 20
82.08178141700001
 30
0.0
 11
-13.779397086
 21
81.9740707004
 31
0.0
  0
LINE
  5
1F11
330
1F05
100
AcDbEntity
  8
PIC55
  6
Continuous
 62
     7
100
AcDbLine
 10
-28.2279642285
 20
94.4244011097
 30
0.0
 11
-10.61223815479999
 21
86.7201730148
 31
0.0
  0
LINE
  5
1F12
330
1F05
100
AcDbEntity
  8
PIC55
  6
Continuous
 62
     7
100
AcDbLine
 10
-30.43180982
 20
89.3853075392
 30
0.0
 11
-12.8160824747
 21
81.68107944419999
 31
0.0
  0
ENDBLK
  5
1F14
330
1F05
100
AcDbEntity
  8
0
100
AcDbBlockEnd
  0
BLOCK
  5
1F23
330
1F15
100
AcDbEntity
  8
0
 62
     0
100
AcDbBlockBegin
  2
COMP342
 70
     0
 10
0.0
 20
0.0
 30
0.0
  3
COMP342
  1

  0
MTEXT
  5
1F16
330
1F15
100
AcDbEntity
  8
0
 62
     7
100
AcDbMText
 10
-23.39253263199998
 20
74.11812420629998
 30
0.0
 40
2.5
 41
0.0
 71
     1
 72
     5
  1
1
  7
SLDTEXTSTYLE0
 11
0.5446390350252061
 21
0.8386705679388139
 31
0.0
 73
     1
 44
1.0
  0
MTEXT
  5
1F17
330
1F15
100
AcDbEntity
  8
0
 62
     7
100
AcDbMText
 10
-22.4564339922
 20
75.55958905129998
 30
0.0
 40
2.5
 41
0.0
 71
     1
 72
     5
  1
6
  7
SLDTEXTSTYLE0
 11
0.5446390350252061
 21
0.8386705679388139
 31
0.0
 73
     1
 44
1.0
  0
MTEXT
  5
1F18
330
1F15
100
AcDbEntity
  8
0
 62
     7
100
AcDbMText
 10
-21.52033535239997
 20
77.0010538962
 30
0.0
 40
2.5
 41
0.0
 71
     1
 72
     5
  1
.
  7
SLDTEXTSTYLE0
 11
0.5446390350252061
 21
0.8386705679388139
 31
0.0
 73
     1
 44
1.0
  0
MTEXT
  5
1F19
330
1F15
100
AcDbEntity
  8
0
 62
     7
100
AcDbMText
 10
-20.58423671259999
 20
78.4425187411
 30
0.0
 40
2.5
 41
0.0
 71
     1
 72
     5
  1
5
  7
SLDTEXTSTYLE0
 11
0.5446390350252061
 21
0.8386705679388139
 31
0.0
 73
     1
 44
1.0
  0
LINE
  5
1F1A
330
1F15
100
AcDbEntity
  8
PIC55
  6
Continuous
 62
     7
100
AcDbLine
 10
-15.5369873163
 20
79.6804229456
 30
0.0
 11
-17.0382184627
 21
77.37636880050001
 31
0.0
  0
LINE
  5
1F1B
330
1F15
100
AcDbEntity
  8
0
  6
Continuous
 62
     7
100
AcDbLine
 10
-17.4227540088
 20
77.9241459226
 30
0.0
 11
-15.5369873163
 21
79.6804229456
 31
0.0
  0
LINE
  5
1F1C
330
1F15
100
AcDbEntity
  8
0
  6
Continuous
 62
     7
100
AcDbLine
 10
-15.5369873163
 20
79.6804229456
 30
0.0
 11
-16.37441579889999
 21
77.2433471288
 31
0.0
  0
LINE
  5
1F1D
330
1F15
100
AcDbEntity
  8
PIC55
  6
Continuous
 62
     7
100
AcDbLine
 10
-18.53944833739999
 20
75.0723197417
 30
0.0
 11
-17.0382184627
 21
77.37636880050001
 31
0.0
  0
LINE
  5
1F1E
330
1F15
100
AcDbEntity
  8
0
  6
Continuous
 62
     7
100
AcDbLine
 10
-16.6536816449
 20
76.82859676470001
 30
0.0
 11
-18.53944833739999
 21
75.0723197417
 31
0.0
  0
LINE
  5
1F1F
330
1F15
100
AcDbEntity
  8
0
  6
Continuous
 62
     7
100
AcDbLine
 10
-18.53944833739999
 20
75.0723197417
 30
0.0
 11
-17.7020198549
 21
77.5093955584
 31
0.0
  0
LINE
  5
1F20
330
1F15
100
AcDbEntity
  8
PIC55
  6
Continuous
 62
     7
100
AcDbLine
 10
-18.53944833739999
 20
75.0723197417
 30
0.0
 11
-18.6259864241
 21
74.9395034815
 31
0.0
  0
LINE
  5
1F21
330
1F15
100
AcDbEntity
  8
PIC55
  6
Continuous
 62
     7
100
AcDbLine
 10
-30.43180982
 20
89.3853075392
 30
0.0
 11
-14.6991432032
 21
79.1345146996
 31
0.0
  0
LINE
  5
1F22
330
1F15
100
AcDbEntity
  8
PIC55
  6
Continuous
 62
     7
100
AcDbLine
 10
-33.4342670264
 20
84.77719924909999
 30
0.0
 11
-17.7016054959
 21
74.5264114957
 31
0.0
  0
ENDBLK
  5
1F24
330
1F15
100
AcDbEntity
  8
0
100
AcDbBlockEnd
  0
BLOCK
  5
1F32
330
1F25
100
AcDbEntity
  8
0
 62
     0
100
AcDbBlockBegin
  2
COMP343
 70
     0
 10
0.0
 20
0.0
 30
0.0
  3
COMP343
  1

  0
MTEXT
  5
1F26
330
1F25
100
AcDbEntity
  8
0
 62
     7
100
AcDbMText
 10
-26.45815782510001
 20
66.9154690657
 30
0.0
 40
2.5
 41
0.0
 71
     1
 72
     5
  1
1
  7
SLDTEXTSTYLE0
 11
0.694658370499528
 21
0.7193398002995112
 31
0.0
 73
     1
 44
1.0
  0
MTEXT
  5
1F27
330
1F25
100
AcDbEntity
  8
0
 62
     7
100
AcDbMText
 10
-25.2642135443
 20
68.1518341481
 30
0.0
 40
2.5
 41
0.0
 71
     1
 72
     5
  1
3
  7
SLDTEXTSTYLE0
 11
0.694658370499528
 21
0.7193398002995112
 31
0.0
 73
     1
 44
1.0
  0
LINE
  5
1F28
330
1F25
100
AcDbEntity
  8
PIC55
  6
Continuous
 62
     7
100
AcDbLine
 10
-24.7072499689
 20
64.2761832256
 30
0.0
 11
-26.7982910022
 21
62.1250104481
 31
0.0
  0
LINE
  5
1F29
330
1F25
100
AcDbEntity
  8
0
  6
Continuous
 62
     7
100
AcDbLine
 10
-26.8934832703
 20
62.9119952063
 30
0.0
 11
-24.7072499689
 21
64.2761832256
 31
0.0
  0
LINE
  5
1F2A
330
1F25
100
AcDbEntity
  8
0
  6
Continuous
 62
     7
100
AcDbLine
 10
-24.7072499689
 20
64.2761832256
 30
0.0
 11
-25.9943085198
 21
62.0436722432
 31
0.0
  0
LINE
  5
1F2B
330
1F25
100
AcDbEntity
  8
PIC55
  6
Continuous
 62
     7
100
AcDbLine
 10
-24.7072499689
 20
64.2761832256
 30
0.0
 11
-23.1970696321
 21
65.8297921856
 31
0.0
  0
LINE
  5
1F2C
330
1F25
100
AcDbEntity
  8
PIC55
  6
Continuous
 62
     7
100
AcDbLine
 10
-21.6868867523
 20
67.3834062318
 30
0.0
 11
-23.1970696321
 21
65.8297921856
 31
0.0
  0
LINE
  5
1F2D
330
1F25
100
AcDbEntity
  8
PIC55
  6
Continuous
 62
     7
100
AcDbLine
 10
-21.6868867523
 20
67.3834062318
 30
0.0
 11
-19.59584571899998
 21
69.53457900930001
 31
0.0
  0
LINE
  5
1F2E
330
1F25
100
AcDbEntity
  8
0
  6
Continuous
 62
     7
100
AcDbLine
 10
-19.50065345089997
 20
68.74759425109999
 30
0.0
 11
-21.6868867523
 21
67.3834062318
 31
0.0
  0
LINE
  5
1F2F
330
1F25
100
AcDbEntity
  8
0
  6
Continuous
 62
     7
100
AcDbLine
 10
-21.6868867523
 20
67.3834062318
 30
0.0
 11
-20.3998282013
 21
69.61591721419999
 31
0.0
  0
LINE
  5
1F30
330
1F25
100
AcDbEntity
  8
PIC55
  6
Continuous
 62
     7
100
AcDbLine
 10
-39.2542899951
 20
78.41659075559999
 30
0.0
 11
-23.99019322409999
 21
63.5791737864
 31
0.0
  0
LINE
  5
1F31
330
1F25
100
AcDbEntity
  8
PIC55
  6
Continuous
 62
     7
100
AcDbLine
 10
-36.2339293215
 20
81.52381376180001
 30
0.0
 11
-20.9698287359
 21
66.6863917063
 31
0.0
  0
ENDBLK
  5
1F33
330
1F25
100
AcDbEntity
  8
0
100
AcDbBlockEnd
  0
BLOCK
  5
1F41
330
1F34
100
AcDbEntity
  8
0
 62
     0
100
AcDbBlockBegin
  2
COMP344
 70
     0
 10
0.0
 20
0.0
 30
0.0
  3
COMP344
  1

  0
MTEXT
  5
1F35
330
1F34
100
AcDbEntity
  8
0
 62
     7
100
AcDbMText
 10
-33.83748850149999
 20
66.60702233800001
 30
0.0
 40
2.5
 41
0.0
 71
     1
 72
     5
  1
1
  7
SLDTEXTSTYLE0
 11
0.7431448254670575
 21
0.6691306063703385
 31
0.0
 73
     1
 44
1.0
  0
MTEXT
  5
1F36
330
1F34
100
AcDbEntity
  8
0
 62
     7
100
AcDbMText
 10
-32.5602081573
 20
67.75709037289999
 30
0.0
 40
2.5
 41
0.0
 71
     1
 72
     5
  1
5
  7
SLDTEXTSTYLE0
 11
0.7431448254670575
 21
0.6691306063703385
 31
0.0
 73
     1
 44
1.0
  0
LINE
  5
1F37
330
1F34
100
AcDbEntity
  8
PIC55
  6
Continuous
 62
     7
100
AcDbLine
 10
-32.5062469134
 20
63.61083037140001
 30
0.0
 11
-34.72167635329999
 21
61.5879929011
 31
0.0
  0
LINE
  5
1F38
330
1F34
100
AcDbEntity
  8
0
  6
Continuous
 62
     7
100
AcDbLine
 10
-34.7823156061
 20
62.4024693714
 30
0.0
 11
-32.5062469134
 21
63.61083037140001
 31
0.0
  0
LINE
  5
1F39
330
1F34
100
AcDbEntity
  8
0
  6
Continuous
 62
     7
100
AcDbLine
 10
-32.5062469134
 20
63.61083037140001
 30
0.0
 11
-33.94590234809999
 21
61.47353833949999
 31
0.0
  0
LINE
  5
1F3A
330
1F34
100
AcDbEntity
  8
PIC55
  6
Continuous
 62
     7
100
AcDbLine
 10
-32.5062469134
 20
63.61083037140001
 30
0.0
 11
-30.6600764823
 21
65.2965130046
 31
0.0
  0
LINE
  5
1F3B
330
1F34
100
AcDbEntity
  8
PIC55
  6
Continuous
 62
     7
100
AcDbLine
 10
-28.813903508
 20
66.9821956378
 30
0.0
 11
-30.6600764823
 21
65.2965130046
 31
0.0
  0
LINE
  5
1F3C
330
1F34
100
AcDbEntity
  8
PIC55
  6
Continuous
 62
     7
100
AcDbLine
 10
-28.813903508
 20
66.9821956378
 30
0.0
 11
-26.59847406809999
 21
69.00503310810001
 31
0.0
  0
LINE
  5
1F3D
330
1F34
100
AcDbEntity
  8
0
  6
Continuous
 62
     7
100
AcDbLine
 10
-26.5378348153
 20
68.1905566378
 30
0.0
 11
-28.813903508
 21
66.9821956378
 31
0.0
  0
LINE
  5
1F3E
330
1F34
100
AcDbEntity
  8
0
  6
Continuous
 62
     7
100
AcDbLine
 10
-28.813903508
 20
66.9821956378
 30
0.0
 11
-27.3742480732
 21
69.11948766970001
 31
0.0
  0
LINE
  5
1F3F
330
1F34
100
AcDbEntity
  8
PIC55
  6
Continuous
 62
     7
100
AcDbLine
 10
-42.94663848679999
 20
75.0452305753
 30
0.0
 11
-31.83196775669998
 21
62.8723581299
 31
0.0
  0
LINE
  5
1F40
330
1F34
100
AcDbEntity
  8
PIC55
  6
Continuous
 62
     7
100
AcDbLine
 10
-39.2542899951
 20
78.41659075559999
 30
0.0
 11
-28.13962180809999
 21
66.24371831020001
 31
0.0
  0
ENDBLK
  5
1F42
330
1F34
100
AcDbEntity
  8
0
100
AcDbBlockEnd
  0
BLOCK
  5
1F50
330
1F43
100
AcDbEntity
  8
0
 62
     0
100
AcDbBlockBegin
  2
COMP345
 70
     0
 10
0.0
 20
0.0
 30
0.0
  3
COMP345
  1

  0
MTEXT
  5
1F44
330
1F43
100
AcDbEntity
  8
0
 62
     7
100
AcDbMText
 10
-35.66938594079999
 20
59.58566607329998
 30
0.0
 40
2.5
 41
0.0
 71
     1
 72
     5
  1
1
  7
SLDTEXTSTYLE0
 11
0.7771459614983863
 21
0.6293203909986938
 31
0.0
 73
     1
 44
1.0
  0
MTEXT
  5
1F45
330
1F43
100
AcDbEntity
  8
0
 62
     7
100
AcDbMText
 10
-34.3336661664
 20
60.6673103062
 30
0.0
 40
2.5
 41
0.0
 71
     1
 72
     5
  1
5
  7
SLDTEXTSTYLE0
 11
0.7771459614983863
 21
0.6293203909986938
 31
0.0
 73
     1
 44
1.0
  0
LINE
  5
1F46
330
1F43
100
AcDbEntity
  8
PIC55
  6
Continuous
 62
     7
100
AcDbLine
 10
-34.5148684205
 20
56.5461883795
 30
0.0
 11
-36.8548286808
 21
54.6688013207
 31
0.0
  0
LINE
  5
1F47
330
1F43
100
AcDbEntity
  8
0
  6
Continuous
 62
     7
100
AcDbLine
 10
-36.8510585685
 20
55.4586036277
 30
0.0
 11
-34.5148684205
 21
56.5461883795
 31
0.0
  0
LINE
  5
1F48
330
1F43
100
AcDbEntity
  8
0
  6
Continuous
 62
     7
100
AcDbLine
 10
-34.5148684205
 20
56.5461883795
 30
0.0
 11
-36.06440807969999
 21
54.4871711759
 31
0.0
  0
LINE
  5
1F49
330
1F43
100
AcDbEntity
  8
PIC55
  6
Continuous
 62
     7
100
AcDbLine
 10
-34.5148684205
 20
56.5461883795
 30
0.0
 11
-32.56491891469998
 21
58.1106614888
 31
0.0
  0
LINE
  5
1F4A
330
1F43
100
AcDbEntity
  8
PIC55
  6
Continuous
 62
     7
100
AcDbLine
 10
-30.6149719521
 20
59.6751345981
 30
0.0
 11
-32.56491891469998
 21
58.1106614888
 31
0.0
  0
LINE
  5
1F4B
330
1F43
100
AcDbEntity
  8
PIC55
  6
Continuous
 62
     7
100
AcDbLine
 10
-30.6149719521
 20
59.6751345981
 30
0.0
 11
-28.2750116917
 21
61.5525216569
 31
0.0
  0
LINE
  5
1F4C
330
1F43
100
AcDbEntity
  8
0
  6
Continuous
 62
     7
100
AcDbLine
 10
-28.27878180409999
 20
60.76271934979999
 30
0.0
 11
-30.6149719521
 21
59.6751345981
 31
0.0
  0
LINE
  5
1F4D
330
1F43
100
AcDbEntity
  8
0
  6
Continuous
 62
     7
100
AcDbLine
 10
-30.6149719521
 20
59.6751345981
 30
0.0
 11
-29.06543229289999
 21
61.7341518017
 31
0.0
  0
LINE
  5
1F4E
330
1F43
100
AcDbEntity
  8
PIC55
  6
Continuous
 62
     7
100
AcDbLine
 10
-46.84653241199998
 20
71.9162843566
 30
0.0
 11
-33.88907358189998
 21
55.7662024737
 31
0.0
  0
LINE
  5
1F4F
330
1F43
100
AcDbEntity
  8
PIC55
  6
Continuous
 62
     7
100
AcDbLine
 10
-42.94663848679999
 20
75.0452305753
 30
0.0
 11
-29.98917711349998
 21
58.8951486924
 31
0.0
  0
ENDBLK
  5
1F51
330
1F43
100
AcDbEntity
  8
0
100
AcDbBlockEnd
  0
BLOCK
  5
1F5D
330
1F52
100
AcDbEntity
  8
0
 62
     0
100
AcDbBlockBegin
  2
COMP346
 70
     0
 10
0.0
 20
0.0
 30
0.0
  3
COMP346
  1

  0
MTEXT
  5
1F53
330
1F52
100
AcDbEntity
  8
0
 62
     7
100
AcDbMText
 10
-45.14997368289999
 20
58.7338825674
 30
0.0
 40
2.5
 41
0.0
 71
     1
 72
     5
  1
3
  7
SLDTEXTSTYLE0
 11
0.8386705679388139
 21
0.5446390350252061
 31
0.0
 73
     1
 44
1.0
  0
MTEXT
  5
1F54
330
1F52
100
AcDbEntity
  8
0
 62
     7
100
AcDbMText
 10
-43.70850853199999
 20
59.6699807361
 30
0.0
 40
2.5
 41
0.0
 71
     1
 72
     5
  1
0
  7
SLDTEXTSTYLE0
 11
0.8386705679388139
 21
0.5446390350252061
 31
0.0
 73
     1
 44
1.0
  0
LINE
  5
1F55
330
1F52
100
AcDbEntity
  8
PIC55
  6
Continuous
 62
     7
100
AcDbLine
 10
-38.5901578318
 20
59.32366715989999
 30
0.0
 11
-42.7714489923
 21
56.5821936759
 31
0.0
  0
LINE
  5
1F56
330
1F52
100
AcDbEntity
  8
0
  6
Continuous
 62
     7
100
AcDbLine
 10
-41.0272336485
 20
58.48623867729999
 30
0.0
 11
-38.5901578318
 21
59.32366715989999
 31
0.0
  0
LINE
  5
1F57
330
1F52
100
AcDbEntity
  8
0
  6
Continuous
 62
     7
100
AcDbLine
 10
-38.5901578318
 20
59.32366715989999
 30
0.0
 11
-40.3464348547
 21
57.4379004674
 31
0.0
  0
LINE
  5
1F58
330
1F52
100
AcDbEntity
  8
PIC55
  6
Continuous
 62
     7
100
AcDbLine
 10
-46.952742696
 20
53.840720192
 30
0.0
 11
-42.7714489923
 21
56.5821936759
 31
0.0
  0
LINE
  5
1F59
330
1F52
100
AcDbEntity
  8
0
  6
Continuous
 62
     7
100
AcDbLine
 10
-44.5156668793
 20
54.6781486745
 30
0.0
 11
-46.952742696
 21
53.840720192
 31
0.0
  0
LINE
  5
1F5A
330
1F52
100
AcDbEntity
  8
0
  6
Continuous
 62
     7
100
AcDbLine
 10
-46.952742696
 20
53.840720192
 30
0.0
 11
-45.1964656731
 21
55.7264868845
 31
0.0
  0
LINE
  5
1F5B
330
1F52
100
AcDbEntity
  8
PIC55
  6
Continuous
 62
     7
100
AcDbLine
 10
-46.84653241199998
 20
71.9162843566
 30
0.0
 11
-38.22462193039999
 21
58.7661521775
 31
0.0
  0
LINE
  5
1F5C
330
1F52
100
AcDbEntity
  8
PIC55
  6
Continuous
 62
     7
100
AcDbLine
 10
-55.20911473319999
 20
66.4333373887
 30
0.0
 11
-46.5872067947
 21
53.28321029579999
 31
0.0
  0
ENDBLK
  5
1F5E
330
1F52
100
AcDbEntity
  8
0
100
AcDbBlockEnd
  0
ENDSEC
  0
SECTION
  2
ENTITIES
  0
TEXT
  5
3A9
330
1E
100
AcDbEntity
  8
PIC52
  6
Continuous
 62
     7
100
AcDbText
 10
2503.723544184209
 20
-339.2181822168276
 30
0.0
 40
16.79968021402496
  1

 50
90.0
 41
0.6547619344966496
100
AcDbText
  0
TEXT
  5
3C3
330
1E
100
AcDbEntity
  8
PIC52
  6
Continuous
 62
     7
100
AcDbText
 10
2511.325927479667
 20
145.9668540192781
 30
0.0
 40
17.99965737216961
  1

 50
90.0
 41
0.6547619344966496
100
AcDbText
  0
TEXT
  5
3F4
330
1E
100
AcDbEntity
  8
PIC52
  6
Continuous
 62
     7
100
AcDbText
 10
2587.142967077326
 20
110.5360251577736
 30
0.0
 40
23.99954316289281
  1

 50
90.0
 41
0.6547619344966496
100
AcDbText
  0
TEXT
  5
3F6
330
1E
100
AcDbEntity
  8
PIC52
  6
Continuous
 62
     7
100
AcDbText
 10
2587.142977861355
 20
143.5353970067489
 30
0.0
 40
23.99954316289281
  1

 50
90.0
 41
0.6547619344966496
100
AcDbText
  0
ARC
  5
7A3
330
1E
100
AcDbEntity
  8
PIC06
  6
Continuous
 62
     7
100
AcDbCircle
 10
-1402.231152404013
 20
4527.240162900163
 30
0.0
 40
5000.001046089572
100
AcDbArc
 50
278.377978313056
 51
282.4973962085458
  0
LINE
  5
7A8
330
1E
100
AcDbEntity
  8
PIC06
  6
Continuous
 62
     7
100
AcDbLine
 10
-638.8845684982316
 20
-22.4959324748884
 30
0.0
 11
-608.5649752271294
 21
-90.71506026789416
 31
0.0
  0
ARC
  5
7AB
330
1E
100
AcDbEntity
  8
PIC06
  6
Continuous
 62
     7
100
AcDbCircle
 10
-589.7788906107773
 20
-275.2244319823887
 30
0.0
 40
38.57061818258824
100
AcDbArc
 50
31.0601396915548
 51
179.0263190346314
  0
LINE
  5
7AE
330
1E
100
AcDbEntity
  8
PIC06
  6
Continuous
 62
     7
100
AcDbLine
 10
-628.345647911516
 20
-274.6787046759123
 30
0.0
 11
-629.7766111197816
 21
-358.8749277460055
 31
0.0
  0
LINE
  5
7B2
330
1E
100
AcDbEntity
  8
PIC06
  6
Continuous
 62
     7
100
AcDbLine
 10
-717.9256933007815
 20
-96.65368327829696
 30
0.0
 11
-717.9256933007815
 21
-419.6539844100516
 31
0.0
  0
LINE
  5
7B3
330
1E
100
AcDbEntity
  8
PIC06
  6
Continuous
 62
     7
100
AcDbLine
 10
-672.925651347441
 20
-131.6537065857084
 30
0.0
 11
-672.925651347441
 21
-404.6539704256049
 31
0.0
  0
ARC
  5
7BE
330
1E
100
AcDbEntity
  8
PIC06
  6
Continuous
 62
     7
100
AcDbCircle
 10
-687.9256653318882
 20
-404.6539704256046
 30
0.0
 40
15.00001398444691
100
AcDbArc
 50
270.0
 51
359.999999999999
  0
LINE
  5
7BF
330
1E
100
AcDbEntity
  8
PIC06
  6
Continuous
 62
     7
100
AcDbLine
 10
-702.4256948795592
 20
-419.6539844100516
 30
0.0
 11
-674.4333491602587
 21
-419.6539844100516
 31
0.0
  0
LINE
  5
7C3
330
1E
100
AcDbEntity
  8
PIC06
  6
Continuous
 62
     7
100
AcDbLine
 10
-717.9256933007815
 20
-419.6539844100516
 30
0.0
 11
-702.4256710376786
 21
-419.6539844100516
 31
0.0
  0
ARC
  5
7CD
330
1E
100
AcDbEntity
  8
PIC06
  6
Continuous
 62
     7
100
AcDbCircle
 10
-673.425644001082
 20
-421.3815658901975
 30
0.0
 40
2.000001864592908
100
AcDbArc
 50
98.37797831305415
 51
120.2551824657934
  0
ARC
  5
7CE
330
1E
100
AcDbEntity
  8
PIC06
  6
Continuous
 62
     7
100
AcDbCircle
 10
-691.1196683096427
 20
-319.6538911804061
 30
0.0
 40
62.00060445370572
100
AcDbArc
 50
287.0645574377364
 51
302.9959738068005
  0
LINE
  5
7D1
330
1E
100
AcDbEntity
  8
PIC06
  6
CENTER
 62
     7
100
AcDbLine
 10
-723.2336982494111
 20
-345.6539154201141
 30
0.0
 11
-668.9666476564797
 21
-345.6539154201141
 31
0.0
  0
LINE
  5
7D2
330
1E
100
AcDbEntity
  8
PIC06
  6
DASHED
 62
     7
100
AcDbLine
 10
-672.925651347441
 20
-357.0829260753301
 30
0.0
 11
-717.9256933007815
 21
-358.0829270076267
 31
0.0
  0
LINE
  5
7D3
330
1E
100
AcDbEntity
  8
PIC06
  6
DASHED
 62
     7
100
AcDbLine
 10
-672.925651347441
 20
-334.22590476583
 30
0.0
 11
-717.9256933007815
 21
-333.2259038335337
 31
0.0
  0
LINE
  5
7E4
330
1E
100
AcDbEntity
  8
PIC06
  6
Continuous
 62
     7
100
AcDbLine
 10
-642.7746232377698
 20
-371.6539396598217
 30
0.0
 11
-657.3556368315852
 21
-371.6539396598217
 31
0.0
  0
ARC
  5
7E7
330
1E
100
AcDbEntity
  8
PIC06
  6
Continuous
 62
     7
100
AcDbCircle
 10
-642.7746232377698
 20
-358.653927539968
 30
0.0
 40
13.0000121198539
100
AcDbArc
 50
270.0
 51
359.0259157331492
  0
LINE
  5
7EB
330
1E
100
AcDbEntity
  8
PIC06
  6
Continuous
 62
     7
100
AcDbLine
 10
-715.9256914361883
 20
-16.6536086945815
 30
0.0
 11
-715.9256914361883
 21
-96.65368327829703
 31
0.0
  0
LINE
  5
806
330
1E
100
AcDbEntity
  8
PIC06
  6
CENTER
 62
     7
100
AcDbLine
 10
-723.2336982494111
 20
-155.6537382837878
 30
0.0
 11
-668.9666476564797
 21
-155.6537382837878
 31
0.0
  0
LINE
  5
807
330
1E
100
AcDbEntity
  8
PIC06
  6
DASHED
 62
     7
100
AcDbLine
 10
-672.925651347441
 20
-144.2257276295038
 30
0.0
 11
-717.9256933007815
 21
-143.2257266972074
 31
0.0
  0
LINE
  5
808
330
1E
100
AcDbEntity
  8
PIC06
  6
DASHED
 62
     7
100
AcDbLine
 10
-672.925651347441
 20
-167.0827489390039
 30
0.0
 11
-717.9256933007815
 21
-168.0827498713004
 31
0.0
  0
LINE
  5
824
330
1E
100
AcDbEntity
  8
PIC06
  6
Continuous
 62
     7
100
AcDbLine
 10
-717.9256933007815
 20
-96.65368327829696
 30
0.0
 11
-715.9256914361883
 21
-96.65368327829696
 31
0.0
  0
LINE
  5
82D
330
1E
100
AcDbEntity
  8
PIC06
  6
Continuous
 62
     7
100
AcDbLine
 10
-705.925682113224
 20
-6.653599371616124
 30
0.0
 11
-655.565912474153
 21
-10.68238094274225
 31
0.0
  0
ARC
  5
832
330
1E
100
AcDbEntity
  8
PIC06
  6
Continuous
 62
     7
100
AcDbCircle
 10
-705.925682113224
 20
-16.6536086945815
 30
0.0
 40
10.00000932296453
100
AcDbArc
 50
90.0
 51
180.0
  0
ARC
  5
834
330
1E
100
AcDbEntity
  8
PIC06
  6
Continuous
 62
     7
100
AcDbCircle
 10
-657.160818406734
 20
-30.61870510001122
 30
0.0
 40
20.00001864592909
100
AcDbArc
 50
23.96247559203092
 51
85.42607874009886
  0
ARC
  5
83C
330
1E
100
AcDbEntity
  8
PIC06
  6
Continuous
 62
     7
100
AcDbCircle
 10
-618.0984079118136
 20
132.3148724001916
 30
0.0
 40
574.1517140249412
100
AcDbArc
 50
303.6445376614574
 51
335.2562807124933
  0
LINE
  5
83F
330
1E
100
AcDbEntity
  8
PIC06
  6
Continuous
 62
     7
100
AcDbLine
 10
-556.8100852791863
 20
-255.2056792241726
 30
0.0
 11
-523.8695123830598
 21
-309.897882084922
 31
0.0
  0
ARC
  5
840
330
1E
100
AcDbEntity
  8
PIC06
  6
Continuous
 62
     7
100
AcDbCircle
 10
-456.8414498930937
 20
-254.499830437563
 30
0.0
 40
47.99999421890606
100
AcDbArc
 50
211.060175728087
 51
258.9510873961385
  0
ARC
  5
847
330
1E
100
AcDbEntity
  8
PIC06
  6
Continuous
 62
     7
100
AcDbCircle
 10
-457.0524500898086
 20
-269.6538445655835
 30
0.0
 40
78.0006562110747
100
AcDbArc
 50
211.0606315663384
 51
270.0
  0
LINE
  5
84D
330
1E
100
AcDbEntity
  8
PIC06
  6
Continuous
 62
     7
100
AcDbLine
 10
-368.4259739471849
 20
-347.6539172847068
 30
0.0
 11
-457.0524500898086
 21
-347.6539172847068
 31
0.0
  0
LINE
  5
84E
330
1E
100
AcDbEntity
  8
PIC06
  6
Continuous
 62
     7
100
AcDbLine
 10
-466.040458469288
 20
-301.6098743580492
 30
0.0
 11
-375.6683742157945
 21
-319.2568908102846
 31
0.0
  0
LINE
  5
85F
330
1E
100
AcDbEntity
  8
PIC06
  6
Continuous
 62
     7
100
AcDbLine
 10
-369.5465501648582
 20
-343.6493751606541
 30
0.0
 11
-376.0021789461171
 21
-305.3525893221959
 31
0.0
  0
ARC
  5
866
330
1E
100
AcDbEntity
  8
PIC06
  6
Continuous
 62
     7
100
AcDbCircle
 10
-376.2423747509314
 20
-322.2018935558975
 30
0.0
 40
3.000419601656881
100
AcDbArc
 50
9.672713525215892
 51
78.97094529839616
  0
ARC
  5
86D
330
1E
100
AcDbEntity
  8
PIC06
  6
Continuous
 62
     7
100
AcDbCircle
 10
-333.23842190023
 20
-295.7116640239523
 30
0.0
 40
60.00005593778729
100
AcDbArc
 50
282.4973962085458
 51
303.6445376614574
  0
LINE
  5
876
330
1E
100
AcDbEntity
  8
PIC06
  6
Continuous
 62
     7
100
AcDbLine
 10
-662.9256513474408
 20
-121.6537065857084
 30
0.0
 11
-492.6248667743183
 21
-121.6537065857084
 31
0.0
  0
LINE
  5
878
330
1E
100
AcDbEntity
  8
PIC06
  6
Continuous
 62
     7
100
AcDbLine
 10
-715.9256914361882
 20
-96.65368327829693
 30
0.0
 11
-103.9256208712248
 21
-96.65368327829696
 31
0.0
  0
ARC
  5
87B
330
1E
100
AcDbEntity
  8
PIC06
  6
Continuous
 62
     7
100
AcDbCircle
 10
-599.4268502728782
 20
-86.65367395533261
 30
0.0
 40
10.00000932296448
100
AcDbArc
 50
203.9624755920311
 51
270.0
  0
LINE
  5
881
330
1E
100
AcDbEntity
  8
PIC06
  6
Continuous
 62
     7
100
AcDbLine
 10
-527.4375157094937
 20
-230.3208078955671
 30
0.0
 11
-497.9594882272595
 21
-279.2648535258846
 31
0.0
  0
ARC
  5
8B2
330
1E
100
AcDbEntity
  8
PIC06
  6
Continuous
 62
     7
100
AcDbCircle
 10
-103.9256208712248
 20
-104.6536907366685
 30
0.0
 40
8.000007458371642
100
AcDbArc
 50
332.3388590148346
 51
90.0
  0
ARC
  5
8D0
330
1E
100
AcDbEntity
  8
PIC06
  6
Continuous
 62
     7
100
AcDbCircle
 10
-772.8798441261236
 20
-4316.684208701579
 30
0.0
 40
5000.004661482268
100
AcDbArc
 50
84.98745826610337
 51
89.37025986618731
  0
ARC
  5
8D1
330
1E
100
AcDbEntity
  8
PIC06
  6
Continuous
 62
     7
100
AcDbCircle
 10
-733.6032343498064
 20
-4319.961637544149
 30
0.0
 40
5000.004661482268
100
AcDbArc
 50
85.47257326033635
 51
89.82034862596414
  0
ARC
  5
8D2
330
1E
100
AcDbEntity
  8
PIC06
  6
Continuous
 62
     7
100
AcDbCircle
 10
-733.6032343498064
 20
5295.998170361447
 30
0.0
 40
5000.004661482268
100
AcDbArc
 50
270.1796513740359
 51
274.5274267396637
  0
ARC
  5
8D3
330
1E
100
AcDbEntity
  8
PIC06
  6
Continuous
 62
     7
100
AcDbCircle
 10
-772.8798441261236
 20
5292.720741518877
 30
0.0
 40
5000.004661482268
100
AcDbArc
 50
270.6297401338127
 51
275.0125417338966
  0
ARC
  5
8D4
330
1E
100
AcDbEntity
  8
PIC06
  6
Continuous
 62
     7
100
AcDbCircle
 10
-625.9256197378618
 20
456.9013912390456
 30
0.0
 40
20.00001864592907
100
AcDbArc
 50
272.6052512650571
 51
0.0
  0
ARC
  5
8D5
330
1E
100
AcDbEntity
  8
PIC06
  6
Continuous
 62
     7
100
AcDbCircle
 10
-625.9256197378618
 20
519.1331793120844
 30
0.0
 40
20.00001864592907
100
AcDbArc
 50
0.0
 51
87.39940583631733
  0
LINE
  5
8D7
330
1E
100
AcDbEntity
  8
PIC06
  6
Continuous
 62
     7
100
AcDbLine
 10
-645.9256383837903
 20
516.3072309444961
 30
0.0
 11
-645.9256383837903
 21
459.7293018728032
 31
0.0
  0
LINE
  5
8D8
330
1E
100
AcDbEntity
  8
PIC06
  6
Continuous
 62
     7
100
AcDbLine
 10
-715.9257036445419
 20
538.0093720388663
 30
0.0
 11
-715.9257036445419
 21
438.0182197938267
 31
0.0
  0
LINE
  5
8DC
330
1E
100
AcDbEntity
  8
PIC06
  6
Continuous
 62
     7
100
AcDbLine
 10
-717.9257055091347
 20
683.0184482064573
 30
0.0
 11
-717.9257055091347
 21
293.0180846108401
 31
0.0
  0
LINE
  5
8E9
330
1E
100
AcDbEntity
  8
PIC06
  6
Continuous
 62
     7
100
AcDbLine
 10
-625.0165279812282
 20
436.9220444525375
 30
0.0
 11
-710.6984260439012
 21
433.0233830971994
 31
0.0
  0
LINE
  5
8EA
330
1E
100
AcDbEntity
  8
PIC06
  6
Continuous
 62
     7
100
AcDbLine
 10
-710.9256989830599
 20
438.0182197938267
 30
0.0
 11
-665.0035608378849
 21
440.1377030928347
 31
0.0
  0
ARC
  5
8ED
330
1E
100
AcDbEntity
  8
PIC06
  6
Continuous
 62
     7
100
AcDbCircle
 10
-710.9256989830599
 20
438.0182197938267
 30
0.0
 40
5.000004661482268
100
AcDbArc
 50
180.0
 51
270.0
  0
ARC
  5
8EE
330
1E
100
AcDbEntity
  8
PIC06
  6
Continuous
 62
     7
100
AcDbCircle
 10
-710.9256989830599
 20
443.0182244553088
 30
0.0
 40
5.000004661482268
100
AcDbArc
 50
180.0
 51
270.0
  0
ARC
  5
8EF
330
1E
100
AcDbEntity
  8
PIC06
  6
Continuous
 62
     7
100
AcDbCircle
 10
-625.9256197378618
 20
459.7293018728032
 30
0.0
 40
20.00001864592907
100
AcDbArc
 50
212.8264087677151
 51
266.1859251657094
  0
ARC
  5
8F0
330
1E
100
AcDbEntity
  8
PIC06
  6
Continuous
 62
     7
100
AcDbCircle
 10
-665.9256570297194
 20
460.1164539159101
 30
0.0
 40
20.00001864592907
100
AcDbArc
 50
272.6425452940647
 51
0.0
  0
LINE
  5
8F5
330
1E
100
AcDbEntity
  8
PIC06
  6
Continuous
 62
     7
100
AcDbLine
 10
-627.2560011886457
 20
439.7735801110399
 30
0.0
 11
-618.8813064920449
 21
439.215267131267
 31
0.0
  0
LINE
  5
8FA
330
1E
100
AcDbEntity
  8
PIC06
  6
Continuous
 62
     7
100
AcDbLine
 10
-710.9256989830599
 20
538.0183130234712
 30
0.0
 11
-665.0035608378849
 21
535.898829724464
 31
0.0
  0
LINE
  5
8FB
330
1E
100
AcDbEntity
  8
PIC06
  6
Continuous
 62
     7
100
AcDbLine
 10
-710.6988320337323
 20
543.004227192136
 30
0.0
 11
-625.0181519405522
 21
539.112599925165
 31
0.0
  0
ARC
  5
8FD
330
1E
100
AcDbEntity
  8
PIC06
  6
Continuous
 62
     7
100
AcDbCircle
 10
-710.9256989830599
 20
533.0183083619896
 30
0.0
 40
5.000004661482268
100
AcDbArc
 50
90.0
 51
180.0
  0
ARC
  5
8FE
330
1E
100
AcDbEntity
  8
PIC06
  6
Continuous
 62
     7
100
AcDbCircle
 10
-710.9256989830599
 20
538.0093720388663
 30
0.0
 40
5.000004661482257
100
AcDbArc
 50
87.39940583631733
 51
180.0
  0
ARC
  5
901
330
1E
100
AcDbEntity
  8
PIC06
  6
Continuous
 62
     7
100
AcDbCircle
 10
-665.9256570297194
 20
515.9200789013891
 30
0.0
 40
20.00001864592904
100
AcDbArc
 50
0.0
 51
87.35745470593517
  0
ARC
  5
905
330
1E
100
AcDbEntity
  8
PIC06
  6
Continuous
 62
     7
100
AcDbCircle
 10
-625.9256197378618
 20
516.3072309444961
 30
0.0
 40
20.00001864592907
100
AcDbArc
 50
93.81407483429041
 51
145.9353807426674
  0
LINE
  5
906
330
1E
100
AcDbEntity
  8
PIC06
  6
Continuous
 62
     7
100
AcDbLine
 10
-627.2560011886457
 20
536.2629527062591
 30
0.0
 11
-617.9608136527043
 21
536.8826318753215
 31
0.0
  0
ARC
  5
90E
330
1E
100
AcDbEntity
  8
PIC06
  6
Continuous
 62
     7
100
AcDbCircle
 10
-222.9252440223913
 20
488.0182664086492
 30
0.0
 40
79.99946354331304
100
AcDbArc
 50
324.0172264807607
 51
35.98277351923933
  0
ARC
  5
90F
330
1E
100
AcDbEntity
  8
PIC06
  6
Continuous
 62
     7
100
AcDbCircle
 10
-213.9252356317232
 20
488.0182664086492
 30
0.0
 40
77.99946279309316
100
AcDbArc
 50
312.4904119801561
 51
47.50958801984373
  0
LINE
  5
910
330
1E
100
AcDbEntity
  8
PIC06
  6
Continuous
 62
     7
100
AcDbLine
 10
-379.8273903015683
 20
503.300280656004
 30
0.0
 11
-379.8273903015683
 21
493.0182710701318
 31
0.0
  0
LINE
  5
911
330
1E
100
AcDbEntity
  8
PIC06
  6
Continuous
 62
     7
100
AcDbLine
 10
-452.0524576366791
 20
458.1992386085012
 30
0.0
 11
-452.0524576366791
 21
517.8372942087961
 31
0.0
  0
LINE
  5
912
330
1E
100
AcDbEntity
  8
PIC06
  6
Continuous
 62
     7
100
AcDbLine
 10
-377.0523877144452
 20
505.9582831340474
 30
0.0
 11
-377.0523877144452
 21
470.0782496832517
 31
0.0
  0
LINE
  5
913
330
1E
100
AcDbEntity
  8
PIC06
  6
Continuous
 62
     7
100
AcDbLine
 10
-605.925601091932
 20
519.1331793120844
 30
0.0
 11
-605.925601091932
 21
456.9013912390456
 31
0.0
  0
ARC
  5
914
330
1E
100
AcDbEntity
  8
PIC06
  6
Continuous
 62
     7
100
AcDbCircle
 10
-215.9252374963147
 20
488.0182664086492
 30
0.0
 40
119.9996736962409
100
AcDbArc
 50
312.1937636423806
 51
48.11148485118927
  0
ARC
  5
915
330
1E
100
AcDbEntity
  8
PIC06
  6
Continuous
 62
     7
100
AcDbCircle
 10
-362.9256572529584
 20
488.0182664086492
 30
0.0
 40
138.0001286569104
100
AcDbArc
 50
99.53297392050837
 51
260.4670260794957
  0
ARC
  5
918
330
1E
100
AcDbEntity
  8
PIC06
  6
Continuous
 62
     7
100
AcDbCircle
 10
-367.2583785835344
 20
655.4044224620228
 30
0.0
 40
304.9998547841413
100
AcDbArc
 50
269.9105278499013
 51
312.4908985580356
  0
CIRCLE
  5
91A
330
1E
100
AcDbEntity
  8
PIC06
  6
Continuous
 62
     7
100
AcDbCircle
 10
-565.9255638000744
 20
418.0182011478978
 30
0.0
 40
7.000006526075225
  0
ARC
  5
91B
330
1E
100
AcDbEntity
  8
PIC06
  6
Continuous
 62
     7
100
AcDbCircle
 10
-367.5628868764348
 20
460.4049079881196
 30
0.0
 40
110.0001025526098
100
AcDbArc
 50
260.4670260794957
 51
269.9105278499013
  0
ARC
  5
91C
330
1E
100
AcDbEntity
  8
PIC06
  6
Continuous
 62
     7
100
AcDbCircle
 10
-445.4024514369088
 20
680.518445875714
 30
0.0
 40
220.0005747075245
100
AcDbArc
 50
270.0
 51
286.7599856650924
  0
ARC
  5
91D
330
1E
100
AcDbEntity
  8
PIC06
  6
Continuous
 62
     7
100
AcDbCircle
 10
-457.055462300959
 20
672.9564388256907
 30
0.0
 40
220.0000982369123
100
AcDbArc
 50
272.7264844209299
 51
290.7842620734401
  0
ARC
  5
91E
330
1E
100
AcDbEntity
  8
PIC06
  6
Continuous
 62
     7
100
AcDbCircle
 10
-447.0524529751973
 20
458.1992386085012
 30
0.0
 40
4.999625146725295
100
AcDbArc
 50
180.0
 51
272.7170443306321
  0
LINE
  5
91F
330
1E
100
AcDbEntity
  8
PIC06
  6
Continuous
 62
     7
100
AcDbLine
 10
-451.8274574269137
 20
460.5182407704969
 30
0.0
 11
-445.4024514369088
 21
460.5182407704969
 31
0.0
  0
ARC
  5
920
330
1E
100
AcDbEntity
  8
PIC06
  6
Continuous
 62
     7
100
AcDbCircle
 10
-382.8273930984583
 20
472.7362521612954
 30
0.0
 40
3.000395104937602
100
AcDbArc
 50
286.755945545568
 51
0.0
  0
ARC
  5
921
330
1E
100
AcDbEntity
  8
PIC06
  6
Continuous
 62
     7
100
AcDbCircle
 10
-380.0523905113345
 20
470.0782496832517
 30
0.0
 40
3.00002296350704
100
AcDbArc
 50
290.7728704412613
 51
0.0
  0
ARC
  5
922
330
1E
100
AcDbEntity
  8
PIC06
  6
Continuous
 62
     7
100
AcDbCircle
 10
-445.4024514372926
 20
680.5184458769651
 30
0.0
 40
220.0005747088329
100
AcDbArc
 50
286.7599856650942
 51
287.3415804738131
  0
ARC
  5
923
330
1E
100
AcDbEntity
  8
PIC06
  6
Continuous
 62
     7
100
AcDbCircle
 10
-457.0554623028303
 20
672.9564388305544
 30
0.0
 40
220.0000982421235
100
AcDbArc
 50
290.7842620734463
 51
291.3245358552959
  0
LINE
  5
924
330
1E
100
AcDbEntity
  8
PIC06
  6
Continuous
 62
     7
100
AcDbLine
 10
-378.8563893963082
 20
493.0182710701318
 30
0.0
 11
-378.8563893963082
 21
483.0182617471669
 31
0.0
  0
LINE
  5
925
330
1E
100
AcDbEntity
  8
PIC06
  6
Continuous
 62
     7
100
AcDbLine
 10
-379.8273903015683
 20
493.0182710701318
 30
0.0
 11
-378.8563893963082
 21
493.0182710701318
 31
0.0
  0
LINE
  5
926
330
1E
100
AcDbEntity
  8
PIC06
  6
Continuous
 62
     7
100
AcDbLine
 10
-379.8273903015683
 20
483.0182617471669
 30
0.0
 11
-378.8563893963082
 21
483.0182617471669
 31
0.0
  0
LINE
  5
927
330
1E
100
AcDbEntity
  8
PIC06
  6
Continuous
 62
     7
100
AcDbLine
 10
-379.8273903015683
 20
483.0182617471669
 30
0.0
 11
-379.8273903015683
 21
472.7362521612954
 31
0.0
  0
ARC
  5
928
330
1E
100
AcDbEntity
  8
PIC06
  6
Continuous
 62
     7
100
AcDbCircle
 10
-366.1543775542783
 20
655.5184225683047
 30
0.0
 40
344.9997257127419
100
AcDbArc
 50
275.0125440931473
 51
311.8885694791383
  0
ARC
  5
929
330
1E
100
AcDbEntity
  8
PIC06
  6
Continuous
 62
     7
100
AcDbCircle
 10
-295.7533119196767
 20
540.8963157066201
 30
0.0
 40
169.9994519853292
100
AcDbArc
 50
301.9825544975002
 51
324.0175515284195
  0
ARC
  5
92A
330
1E
100
AcDbEntity
  8
PIC06
  6
Continuous
 62
     7
100
AcDbCircle
 10
-367.2583785835344
 20
320.6321103552744
 30
0.0
 40
304.9998547841415
100
AcDbArc
 50
47.50910144196445
 51
90.08947215009905
  0
CIRCLE
  5
92C
330
1E
100
AcDbEntity
  8
PIC06
  6
Continuous
 62
     7
100
AcDbCircle
 10
-565.9255638000744
 20
558.0183316694017
 30
0.0
 40
7.000006526075225
  0
ARC
  5
92D
330
1E
100
AcDbEntity
  8
PIC06
  6
Continuous
 62
     7
100
AcDbCircle
 10
-457.055462300959
 20
303.0800939916082
 30
0.0
 40
220.0000982369124
100
AcDbArc
 50
69.21573792655987
 51
87.2735155790701
  0
ARC
  5
92E
330
1E
100
AcDbEntity
  8
PIC06
  6
Continuous
 62
     7
100
AcDbCircle
 10
-445.4024514369088
 20
295.5180869415814
 30
0.0
 40
220.0005747075266
100
AcDbArc
 50
73.2400143349077
 51
90.0
  0
ARC
  5
92F
330
1E
100
AcDbEntity
  8
PIC06
  6
Continuous
 62
     7
100
AcDbCircle
 10
-447.0524529751973
 20
517.8372942087961
 30
0.0
 40
4.9996251467253
100
AcDbArc
 50
87.28295566936784
 51
180.0
  0
LINE
  5
930
330
1E
100
AcDbEntity
  8
PIC06
  6
Continuous
 62
     7
100
AcDbLine
 10
-451.8274574269137
 20
515.5182920468019
 30
0.0
 11
-445.4024514369088
 21
515.5182920468019
 31
0.0
  0
ARC
  5
931
330
1E
100
AcDbEntity
  8
PIC06
  6
Continuous
 62
     7
100
AcDbCircle
 10
-382.8273930984583
 20
503.300280656004
 30
0.0
 40
3.000395104937478
100
AcDbArc
 50
359.9999999999988
 51
73.24405445443135
  0
ARC
  5
932
330
1E
100
AcDbEntity
  8
PIC06
  6
Continuous
 62
     7
100
AcDbCircle
 10
-380.0523905113345
 20
505.9582831340474
 30
0.0
 40
3.000022963506915
100
AcDbArc
 50
359.9999999999977
 51
69.22712955873774
  0
ARC
  5
933
330
1E
100
AcDbEntity
  8
PIC06
  6
Continuous
 62
     7
100
AcDbCircle
 10
-445.4024514382838
 20
295.5180869370821
 30
0.0
 40
220.000574712232
100
AcDbArc
 50
72.65841952619277
 51
73.24001433490237
  0
ARC
  5
934
330
1E
100
AcDbEntity
  8
PIC06
  6
Continuous
 62
     7
100
AcDbCircle
 10
-457.0554623011163
 20
303.0800939911959
 30
0.0
 40
220.0000982373539
100
AcDbArc
 50
68.67546414469824
 51
69.21573792655961
  0
ARC
  5
935
330
1E
100
AcDbEntity
  8
PIC06
  6
Continuous
 62
     7
100
AcDbCircle
 10
-367.5628868764373
 20
515.6316248291791
 30
0.0
 40
110.0001025526098
100
AcDbArc
 50
90.08947215009909
 51
99.5329739205084
  0
ARC
  5
936
330
1E
100
AcDbEntity
  8
PIC06
  6
Continuous
 62
     7
100
AcDbCircle
 10
-366.1543775542783
 20
320.5181102489924
 30
0.0
 40
344.9997257127425
100
AcDbArc
 50
48.11143052086134
 51
84.98745844095623
  0
ARC
  5
937
330
1E
100
AcDbEntity
  8
PIC06
  6
Continuous
 62
     7
100
AcDbCircle
 10
-295.7533119196762
 20
435.1402171106788
 30
0.0
 40
169.9994519853275
100
AcDbArc
 50
35.98244847158039
 51
58.01744550249942
  0
ARC
  5
938
330
1E
100
AcDbEntity
  8
PIC06
  6
Continuous
 62
     7
100
AcDbCircle
 10
496.4185553617489
 20
-406.6539765435892
 30
0.0
 40
400.0003729185816
100
AcDbArc
 50
85.29777712933359
 51
94.70222287066645
  0
ARC
  5
939
330
1E
100
AcDbEntity
  8
PIC06
  6
Continuous
 62
     7
100
AcDbCircle
 10
496.4185553617489
 20
-411.6539812050714
 30
0.0
 40
400.0003729185813
100
AcDbArc
 50
85.82698412957148
 51
94.17301587042853
  0
CIRCLE
  5
93A
330
1E
100
AcDbEntity
  8
PIC06
  6
DASHED
 62
     7
 48
10.0
100
AcDbCircle
 10
496.4185553617489
 20
-56.6536498011397
 30
0.0
 40
28.50002657044893
  0
LINE
  5
93B
330
1E
100
AcDbEntity
  8
PIC06
  6
CENTER
 62
     7
100
AcDbLine
 10
462.9185241298168
 20
-56.6536498011397
 30
0.0
 11
529.9185865936791
 21
-56.6536498011397
 31
0.0
  0
LINE
  5
93C
330
1E
100
AcDbEntity
  8
PIC06
  6
Continuous
 62
     7
100
AcDbLine
 10
675.215836067336
 20
-96.65368753168841
 30
0.0
 11
315.7726575763985
 21
-96.65368753168841
 31
0.0
  0
ARC
  5
93D
330
1E
100
AcDbEntity
  8
PIC06
  6
Continuous
 62
     7
100
AcDbCircle
 10
496.4185553617489
 20
-282.0378603645391
 30
0.0
 40
78.00055707704038
100
AcDbArc
 50
260.4611156882878
 51
279.5388843117111
  0
CIRCLE
  5
940
330
1E
100
AcDbEntity
  8
PIC06
  6
DASHED
 62
     7
 48
10.0
100
AcDbCircle
 10
496.4185553617489
 20
-341.6539159443195
 30
0.0
 40
32.00002983348652
  0
CIRCLE
  5
941
330
1E
100
AcDbEntity
  8
PIC06
  6
DASHED
 62
     7
 48
10.0
100
AcDbCircle
 10
496.4185553617489
 20
-341.6539159443195
 30
0.0
 40
42.00003915645105
  0
ARC
  5
942
330
1E
100
AcDbEntity
  8
PIC06
  6
Continuous
 62
     7
100
AcDbCircle
 10
496.4185553617489
 20
-341.6539159443195
 30
0.0
 40
78.00078838958436
100
AcDbArc
 50
262.5882584128743
 51
277.4117415871255
  0
LINE
  5
943
330
1E
100
AcDbEntity
  8
PIC06
  6
Continuous
 62
     7
100
AcDbLine
 10
485.9185455726353
 20
-423.6540107955801
 30
0.0
 11
506.9185651508608
 21
-423.6540107955801
 31
0.0
  0
LINE
  5
944
330
1E
100
AcDbEntity
  8
PIC06
  6
CENTER
 62
     7
100
AcDbLine
 10
413.4555822637818
 20
-341.6539159443195
 30
0.0
 11
578.6844960715939
 21
-341.6539159443195
 31
0.0
  0
CIRCLE
  5
946
330
1E
100
AcDbEntity
  8
PIC06
  6
DASHED
 62
     7
 48
5.0
100
AcDbCircle
 10
496.4185553617489
 20
-341.6539159443195
 30
0.0
 40
68.00006339615885
  0
CIRCLE
  5
947
330
1E
100
AcDbEntity
  8
PIC06
  6
DASHED
 62
     7
 48
5.0
100
AcDbCircle
 10
496.4185553617489
 20
-341.6539159443195
 30
0.0
 40
78.00007271912334
  0
ARC
  5
948
330
1E
100
AcDbEntity
  8
PIC06
  6
Continuous
 62
     7
100
AcDbCircle
 10
1001.146829458615
 20
-132.1545401296424
 30
0.0
 40
700.0006526075168
100
AcDbArc
 50
181.6217023711164
 51
199.0233196329459
  0
ARC
  5
949
330
1E
100
AcDbEntity
  8
PIC06
  6
Continuous
 62
     7
100
AcDbCircle
 10
625.4166756261268
 20
-98.75268948857758
 30
0.0
 40
300.0009013972065
100
AcDbArc
 50
213.0986485688148
 51
238.7178091185194
  0
LINE
  5
94A
330
1E
100
AcDbEntity
  8
PIC06
  6
CENTER
 62
     7
100
AcDbLine
 10
496.4185553617489
 20
-436.7942856434035
 30
0.0
 11
496.4185553617489
 21
-2.636169612237649
 31
0.0
  0
CIRCLE
  5
94B
330
1E
100
AcDbEntity
  8
PIC06
  6
DASHED
 62
     7
 48
5.0
100
AcDbCircle
 10
381.918448613806
 20
-345.6539196735054
 30
0.0
 40
24.00002237511488
  0
ARC
  5
94C
330
1E
100
AcDbEntity
  8
PIC06
  6
Continuous
 62
     7
100
AcDbCircle
 10
381.918448613806
 20
-345.6539196735054
 30
0.0
 40
45.00006275335499
100
AcDbArc
 50
199.023319632946
 51
248.2052105858588
  0
LINE
  5
94D
330
1E
100
AcDbEntity
  8
PIC06
  6
CENTER
 62
     7
100
AcDbLine
 10
352.9184215772072
 20
-345.6539196735054
 30
0.0
 11
410.9184756504014
 21
-345.6539196735054
 31
0.0
  0
LINE
  5
94E
330
1E
100
AcDbEntity
  8
PIC06
  6
Continuous
 62
     7
100
AcDbLine
 10
466.4185273928545
 20
-358.6376397837661
 30
0.0
 11
466.4185273928545
 21
-403.9938174810409
 31
0.0
  0
ARC
  5
94F
330
1E
100
AcDbEntity
  8
PIC06
  6
Continuous
 62
     7
100
AcDbCircle
 10
550.859606116899
 20
76.81967419675945
 30
0.0
 40
500.000757170252
100
AcDbArc
 50
248.2043231047017
 51
262.5878476934083
  0
ARC
  5
950
330
1E
100
AcDbEntity
  8
PIC06
  6
Continuous
 62
     7
100
AcDbCircle
 10
456.41851806989
 20
-403.9938174810409
 30
0.0
 40
10.00000932296453
100
AcDbArc
 50
258.8874665169825
 51
0.0
  0
ARC
  5
951
330
1E
100
AcDbEntity
  8
PIC06
  6
DASHED
 62
     7
100
AcDbCircle
 10
565.5486198117395
 20
74.64527217154075
 30
0.0
 40
500.0006420169945
100
AcDbArc
 50
259.9874425570285
 51
260.5716590944745
  0
ARC
  5
952
330
1E
100
AcDbEntity
  8
PIC06
  6
Continuous
 62
     7
100
AcDbCircle
 10
481.9185418434496
 20
-420.4246420401686
 30
0.0
 40
2.000001864592908
100
AcDbArc
 50
0.0
 51
82.10647603593287
  0
ARC
  5
953
330
1E
100
AcDbEntity
  8
PIC06
  6
Continuous
 62
     7
100
AcDbCircle
 10
485.9185455726353
 20
-421.6540089309871
 30
0.0
 40
2.000001864592908
100
AcDbArc
 50
180.0
 51
270.0
  0
LINE
  5
954
330
1E
100
AcDbEntity
  8
PIC06
  6
Continuous
 62
     7
100
AcDbLine
 10
483.9185437080422
 20
-421.6540089309871
 30
0.0
 11
483.9185437080422
 21
-420.4246420401686
 31
0.0
  0
CIRCLE
  5
955
330
1E
100
AcDbEntity
  8
PIC06
  6
Continuous
 62
     7
100
AcDbCircle
 10
381.918448613806
 20
-345.6539196735054
 30
0.0
 40
13.0000121198539
  0
LINE
  5
956
330
1E
100
AcDbEntity
  8
PIC06
  6
CENTER
 62
     7
100
AcDbLine
 10
381.918448613806
 20
-374.6539467101024
 30
0.0
 11
381.918448613806
 21
-316.6538926369081
 31
0.0
  0
ARC
  5
957
330
1E
100
AcDbEntity
  8
PIC06
  6
Continuous
 62
     7
100
AcDbCircle
 10
456.41851806989
 20
-358.6376397837661
 30
0.0
 40
10.00000932296453
100
AcDbArc
 50
0.0
 51
56.96482932053295
  0
ARC
  5
958
330
1E
100
AcDbEntity
  8
PIC06
  6
DASHED
 62
     7
100
AcDbCircle
 10
496.4185553617489
 20
-346.6539206058018
 30
0.0
 40
36.99991322438672
100
AcDbArc
 50
180.3948807385904
 51
187.0606714676822
  0
ARC
  5
963
330
1E
100
AcDbEntity
  8
PIC06
  6
Continuous
 62
     7
100
AcDbCircle
 10
566.3526205609688
 20
134.1275276246179
 30
0.0
 40
500.0010353174336
100
AcDbArc
 50
259.6390893875262
 51
260.4609476836066
  0
ARC
  5
964
330
1E
100
AcDbEntity
  8
PIC06
  6
Continuous
 62
     7
100
AcDbCircle
 10
480.0255400786133
 20
-338.0469125815263
 30
0.0
 40
19.99915207634764
100
AcDbArc
 50
238.7173773100256
 51
259.638523240357
  0
ARC
  5
965
330
1E
100
AcDbEntity
  8
PIC06
  6
Continuous
 62
     7
100
AcDbCircle
 10
436.7766808863217
 20
-86.65367820872388
 30
0.0
 40
10.00000932296452
100
AcDbArc
 50
270.0
 51
357.9105812212994
  0
ARC
  5
966
330
1E
100
AcDbEntity
  8
PIC06
  6
Continuous
 62
     7
100
AcDbCircle
 10
431.9586306119786
 20
-86.65367820872388
 30
0.0
 40
10.00000932296454
100
AcDbArc
 50
270.0
 51
356.8201698801359
  0
ARC
  5
967
330
1E
100
AcDbEntity
  8
PIC06
  6
Continuous
 62
     7
100
AcDbCircle
 10
315.7726575763985
 20
-108.6536987192458
 30
0.0
 40
12.00001118755744
100
AcDbArc
 50
90.0
 51
176.8313923174801
  0
CIRCLE
  5
968
330
1E
100
AcDbEntity
  8
PIC06
  6
DASHED
 62
     7
 48
5.0
100
AcDbCircle
 10
381.918448613806
 20
-155.6537425371791
 30
0.0
 40
24.00002237511488
  0
ARC
  5
969
330
1E
100
AcDbEntity
  8
PIC06
  6
Continuous
 62
     7
100
AcDbCircle
 10
667.3027146762954
 20
-71.44846403296985
 30
0.0
 40
350.0005113447966
100
AcDbArc
 50
189.7640993409756
 51
213.0987127366468
  0
LINE
  5
96A
330
1E
100
AcDbEntity
  8
PIC06
  6
CENTER
 62
     7
100
AcDbLine
 10
352.9184215772072
 20
-155.6537425371791
 30
0.0
 11
410.9184756504014
 21
-155.6537425371791
 31
0.0
  0
LINE
  5
96B
330
1E
100
AcDbEntity
  8
PIC06
  6
Continuous
 62
     7
100
AcDbLine
 10
301.4491735926557
 20
-150.2927375391379
 30
0.0
 11
303.7909918035781
 21
-107.9904085791755
 31
0.0
  0
LINE
  5
96C
330
1E
100
AcDbEntity
  8
PIC06
  6
Continuous
 62
     7
100
AcDbLine
 10
302.7578082153653
 20
-126.6537155005819
 30
0.0
 11
317.4446098692844
 21
-126.6537155005819
 31
0.0
  0
ARC
  5
96D
330
1E
100
AcDbEntity
  8
PIC06
  6
Continuous
 62
     7
100
AcDbCircle
 10
317.4446098692844
 20
-131.6537201620643
 30
0.0
 40
5.000004661482268
100
AcDbArc
 50
9.764099340975036
 51
90.0
  0
CIRCLE
  5
96E
330
1E
100
AcDbEntity
  8
PIC06
  6
DASHED
 62
     7
 48
5.0
100
AcDbCircle
 10
381.918448613806
 20
-155.6537425371791
 30
0.0
 40
13.0000121198539
  0
LINE
  5
96F
330
1E
100
AcDbEntity
  8
PIC06
  6
CENTER
 62
     7
100
AcDbLine
 10
381.918448613806
 20
-184.6537695737761
 30
0.0
 11
381.918448613806
 21
-126.6537155005821
 31
0.0
  0
LINE
  5
970
330
1E
100
AcDbEntity
  8
PIC06
  6
Continuous
 62
     7
100
AcDbLine
 10
446.7700416430176
 20
-87.01827009825649
 30
0.0
 11
448.7797811484417
 21
-31.9318776651981
 31
0.0
  0
LINE
  5
971
330
1E
100
AcDbEntity
  8
PIC06
  6
Continuous
 62
     7
100
AcDbLine
 10
441.943243452643
 20
-87.20837892209415
 30
0.0
 11
445.2979743194027
 21
-26.82322332042227
 31
0.0
  0
ARC
  5
972
330
1E
100
AcDbEntity
  8
PIC06
  6
Continuous
 62
     7
100
AcDbCircle
 10
468.7665026618331
 20
-32.66106144426308
 30
0.0
 40
20.00001864592904
100
AcDbArc
 50
94.17301587042876
 51
177.9105812212986
  0
ARC
  5
973
330
1E
100
AcDbEntity
  8
PIC06
  6
Continuous
 62
     7
100
AcDbCircle
 10
465.2672000007322
 20
-27.93262474716186
 30
0.0
 40
20.00001864592907
100
AcDbArc
 50
94.70222287066631
 51
176.8201698801358
  0
ARC
  5
974
330
1E
100
AcDbEntity
  8
PIC06
  6
Continuous
 62
     7
100
AcDbCircle
 10
367.42043509737
 20
-98.75268948857758
 30
0.0
 40
300.0009013972065
100
AcDbArc
 50
301.2821908814804
 51
326.9013514311851
  0
ARC
  5
975
330
1E
100
AcDbEntity
  8
PIC06
  6
Continuous
 62
     7
100
AcDbCircle
 10
-8.309718735118025
 20
-132.1545401296424
 30
0.0
 40
700.0006526075168
100
AcDbArc
 50
340.9766803670537
 51
358.3782976288836
  0
LINE
  5
978
330
1E
100
AcDbEntity
  8
PIC06
  6
CENTER
 62
     7
100
AcDbLine
 10
581.9186350730948
 20
-345.6539196735054
 30
0.0
 11
639.9186891462894
 21
-345.6539196735054
 31
0.0
  0
ARC
  5
979
330
1E
100
AcDbEntity
  8
PIC06
  6
Continuous
 62
     7
100
AcDbCircle
 10
610.9186621096921
 20
-345.6539196735054
 30
0.0
 40
45.00006275335499
100
AcDbArc
 50
291.7947894141409
 51
340.9766803670537
  0
LINE
  5
97A
330
1E
100
AcDbEntity
  8
PIC06
  6
Continuous
 62
     7
100
AcDbLine
 10
526.4185833306417
 20
-358.6376397837661
 30
0.0
 11
526.4185833306417
 21
-403.9938174810409
 31
0.0
  0
ARC
  5
97B
330
1E
100
AcDbEntity
  8
PIC06
  6
Continuous
 62
     7
100
AcDbCircle
 10
441.9775046065975
 20
76.81967419675945
 30
0.0
 40
500.000757170252
100
AcDbArc
 50
277.4121523065915
 51
291.7956768952981
  0
ARC
  5
97C
330
1E
100
AcDbEntity
  8
PIC06
  6
Continuous
 62
     7
100
AcDbCircle
 10
536.4185926536062
 20
-403.9938174810409
 30
0.0
 40
10.00000932296453
100
AcDbArc
 50
180.0
 51
281.1125334830172
  0
ARC
  5
97D
330
1E
100
AcDbEntity
  8
PIC06
  6
Continuous
 62
     7
100
AcDbCircle
 10
506.9185651508608
 20
-421.6540089309871
 30
0.0
 40
2.000001864592908
100
AcDbArc
 50
270.0
 51
0.0
  0
LINE
  5
97E
330
1E
100
AcDbEntity
  8
PIC06
  6
Continuous
 62
     7
100
AcDbLine
 10
508.9185670154537
 20
-421.6540089309871
 30
0.0
 11
508.9185670154537
 21
-420.4246420401686
 31
0.0
  0
ARC
  5
97F
330
1E
100
AcDbEntity
  8
PIC06
  6
Continuous
 62
     7
100
AcDbCircle
 10
510.9185688800463
 20
-420.4246420401686
 30
0.0
 40
2.000001864592908
100
AcDbArc
 50
97.89352396406712
 51
180.0
  0
ARC
  5
988
330
1E
100
AcDbEntity
  8
PIC06
  6
Continuous
 62
     7
100
AcDbCircle
 10
426.4844901625282
 20
134.1275276246179
 30
0.0
 40
500.0010353174336
100
AcDbArc
 50
279.5390523163934
 51
280.3609106124739
  0
ARC
  5
989
330
1E
100
AcDbEntity
  8
PIC06
  6
Continuous
 62
     7
100
AcDbCircle
 10
512.8115706448843
 20
-338.0469125815263
 30
0.0
 40
19.99915207634764
100
AcDbArc
 50
280.3614767596416
 51
301.2826226899741
  0
ARC
  5
98A
330
1E
100
AcDbEntity
  8
PIC06
  6
Continuous
 62
     7
100
AcDbCircle
 10
536.4185926536062
 20
-358.6376397837661
 30
0.0
 40
10.00000932296453
100
AcDbArc
 50
123.0351706794669
 51
180.0
  0
LINE
  5
98B
330
1E
100
AcDbEntity
  8
PIC06
  6
CENTER
 62
     7
100
AcDbLine
 10
610.9186621096921
 20
-374.6539467101024
 30
0.0
 11
610.9186621096921
 21
-316.6538926369081
 31
0.0
  0
CIRCLE
  5
98C
330
1E
100
AcDbEntity
  8
PIC06
  6
Continuous
 62
     7
100
AcDbCircle
 10
610.9186621096921
 20
-345.6539196735054
 30
0.0
 40
13.0000121198539
  0
CIRCLE
  5
98D
330
1E
100
AcDbEntity
  8
PIC06
  6
DASHED
 62
     7
 48
5.0
100
AcDbCircle
 10
610.9186621096921
 20
-345.6539196735054
 30
0.0
 40
24.00002237511488
  0
ARC
  5
98E
330
1E
100
AcDbEntity
  8
PIC06
  6
Continuous
 62
     7
100
AcDbCircle
 10
560.8784801115181
 20
-86.65367820872388
 30
0.0
 40
10.00000932296454
100
AcDbArc
 50
183.179830119864
 51
270.0
  0
ARC
  5
98F
330
1E
100
AcDbEntity
  8
PIC06
  6
Continuous
 62
     7
100
AcDbCircle
 10
556.0604298371742
 20
-86.65367820872388
 30
0.0
 40
10.00000932296452
100
AcDbArc
 50
182.0894187787006
 51
270.0
  0
ARC
  5
990
330
1E
100
AcDbEntity
  8
PIC06
  6
Continuous
 62
     7
100
AcDbCircle
 10
677.0644531470987
 20
-108.6536987192458
 30
0.0
 40
12.00001118755744
100
AcDbArc
 50
3.168607682520056
 51
90.0
  0
LINE
  5
991
330
1E
100
AcDbEntity
  8
PIC06
  6
CENTER
 62
     7
100
AcDbLine
 10
581.9186350730948
 20
-155.6537425371791
 30
0.0
 11
639.9186891462894
 21
-155.6537425371791
 31
0.0
  0
ARC
  5
992
330
1E
100
AcDbEntity
  8
PIC06
  6
Continuous
 62
     7
100
AcDbCircle
 10
325.5343960472016
 20
-71.44846403296985
 30
0.0
 40
350.0005113447966
100
AcDbArc
 50
326.9012872633532
 51
350.2359006590241
  0
LINE
  5
993
330
1E
100
AcDbEntity
  8
PIC06
  6
CENTER
 62
     7
100
AcDbLine
 10
610.9186621096921
 20
-184.6537695737761
 30
0.0
 11
610.9186621096921
 21
-126.6537155005821
 31
0.0
  0
CIRCLE
  5
994
330
1E
100
AcDbEntity
  8
PIC06
  6
DASHED
 62
     7
 48
5.0
100
AcDbCircle
 10
610.9186621096921
 20
-155.6537425371791
 30
0.0
 40
24.00002237511488
  0
CIRCLE
  5
995
330
1E
100
AcDbEntity
  8
PIC06
  6
DASHED
 62
     7
 48
5.0
100
AcDbCircle
 10
610.9186621096921
 20
-155.6537425371791
 30
0.0
 40
13.0000121198539
  0
LINE
  5
996
330
1E
100
AcDbEntity
  8
PIC06
  6
Continuous
 62
     7
100
AcDbLine
 10
691.3879371308417
 20
-150.2927375391379
 30
0.0
 11
689.0461189199197
 21
-107.9904085791755
 31
0.0
  0
ARC
  5
997
330
1E
100
AcDbEntity
  8
PIC06
  6
Continuous
 62
     7
100
AcDbCircle
 10
675.392500854214
 20
-131.6537201620643
 30
0.0
 40
5.000004661482268
100
AcDbArc
 50
90.0
 51
170.2359006590249
  0
LINE
  5
998
330
1E
100
AcDbEntity
  8
PIC06
  6
Continuous
 62
     7
100
AcDbLine
 10
675.392500854214
 20
-126.6537155005819
 30
0.0
 11
690.0793025081314
 21
-126.6537155005819
 31
0.0
  0
LINE
  5
999
330
1E
100
AcDbEntity
  8
PIC06
  6
Continuous
 62
     7
100
AcDbLine
 10
546.0670690804793
 20
-87.01827009825649
 30
0.0
 11
544.0573295750547
 21
-31.9318776651981
 31
0.0
  0
LINE
  5
99A
330
1E
100
AcDbEntity
  8
PIC06
  6
Continuous
 62
     7
100
AcDbLine
 10
550.893867270854
 20
-87.20837892209415
 30
0.0
 11
547.5391364040947
 21
-26.82322332042227
 31
0.0
  0
ARC
  5
99B
330
1E
100
AcDbEntity
  8
PIC06
  6
Continuous
 62
     7
100
AcDbCircle
 10
524.0706080616636
 20
-32.66106144426308
 30
0.0
 40
20.00001864592904
100
AcDbArc
 50
2.089418778701332
 51
85.82698412957119
  0
ARC
  5
99C
330
1E
100
AcDbEntity
  8
PIC06
  6
Continuous
 62
     7
100
AcDbCircle
 10
527.5699107227648
 20
-27.93262474716186
 30
0.0
 40
20.00001864592907
100
AcDbArc
 50
3.179830119864162
 51
85.29777712933368
  0
ARC
  5
2AA9
330
1E
100
AcDbEntity
  8
PIC06
  6
Continuous
 62
     7
100
AcDbCircle
 10
-349.8304552934072
 20
-340.291347635833
 30
0.0
 40
20.00001864592904
100
AcDbArc
 50
189.6658138961669
 51
282.2000352381525
  0
ARC
  5
2AAF
330
1E
100
AcDbEntity
  8
PIC06
  6
Continuous
 62
     7
100
AcDbCircle
 10
-662.9256513474408
 20
-131.6537065857084
 30
0.0
 40
10.0
100
AcDbArc
 50
90.0
 51
180.0
  0
ARC
  5
2AB2
330
1E
100
AcDbEntity
  8
DIM
100
AcDbCircle
 10
-287.847396482025
 20
-117.380678535793
 30
0.0
 40
264.8752499786177
100
AcDbArc
 50
180.9243487021301
 51
205.2386708317252
  0
MTEXT
  5
2B7B
330
1E
100
AcDbEntity
  8
DIM
100
AcDbMText
 10
-495.320947087892
 20
928.00297611108
 30
0.0
 40
55.0
 41
372.3643759320348
 71
     1
 72
     5
  1
{\fArial|b1|i0|c0|p34;CT708V, CT708EV}
 73
     1
 44
1.0
1001
ACAD
1000
ACAD_MTEXT_DEFINED_HEIGHT_BEGIN
1070
    46
1040
56.91336971350602
1000
ACAD_MTEXT_DEFINED_HEIGHT_END
  0
ENDSEC
  0
SECTION
  2
OBJECTS
  0
DICTIONARY
  5
C
330
0
100
AcDbDictionary
281
     1
  3
ACAD_CIP_PREVIOUS_PRODUCT_INFO
350
2BD1
  3
ACAD_COLOR
350
2A8A
  3
ACAD_GROUP
350
D
  3
ACAD_LAYOUT
350
19
  3
ACAD_MATERIAL
350
2A89
  3
ACAD_MLEADERSTYLE
350
2BCA
  3
ACAD_MLINESTYLE
350
16
  3
ACAD_PLOTSETTINGS
350
18
  3
ACAD_PLOTSTYLENAME
350
E
  3
ACAD_SCALELIST
350
2BB8
  3
ACAD_TABLESTYLE
350
2A8B
  3
ACAD_VISUALSTYLE
350
2B9F
  3
ACDB_RECOMPOSE_DATA
350
2C34
  3
ACDBVARIABLEDICTIONARY
350
419
  3
ASE_INDEX_DICTIONARY
350
2A92
  0
DICTIONARY
  5
2BD3
330
10
100
AcDbDictionary
280
     1
281
     1
  3
ADSK_XREC_LAYER_RECONCILED
360
2BD4
  0
DICTIONARY
  5
2BD5
330
25
100
AcDbDictionary
280
     1
281
     1
  3
ADSK_XREC_LAYER_RECONCILED
360
2BD6
  0
DICTIONARY
  5
2BD7
330
26
100
AcDbDictionary
280
     1
281
     1
  3
ADSK_XREC_LAYER_RECONCILED
360
2BD8
  0
DICTIONARY
  5
2BD9
330
46A
100
AcDbDictionary
280
     1
281
     1
  3
ADSK_XREC_LAYER_RECONCILED
360
2BDA
  0
DICTIONARY
  5
2BDB
330
1F62
100
AcDbDictionary
280
     1
281
     1
  3
ADSK_XREC_LAYER_RECONCILED
360
2BDC
  0
DICTIONARY
  5
43E
330
1E
100
AcDbDictionary
280
     1
281
     1
  3
ACAD_LAYOUTSELFREF
360
2A84
  3
ACAD_SORTENTS
360
2AB0
  0
DICTIONARY
  5
43C
330
1A
100
AcDbDictionary
280
     1
281
     1
  3
ACAD_LAYOUTSELFREF
360
2A83
  0
XRECORD
  5
2BD1
102
{ACAD_REACTORS
330
C
102
}
330
C
100
AcDbXrecord
280
     1
300
ACD
300
2012
300
85730ACD_2012_0F
  0
DICTIONARY
  5
2A8A
102
{ACAD_REACTORS
330
C
102
}
330
C
100
AcDbDictionary
281
     1
  0
DICTIONARY
  5
D
102
{ACAD_REACTORS
330
C
102
}
330
C
100
AcDbDictionary
281
     1
  0
DICTIONARY
  5
19
102
{ACAD_REACTORS
330
C
102
}
330
C
100
AcDbDictionary
281
     1
  3
Layout1
350
2A8E
  3
Model
350
2A8D
  0
DICTIONARY
  5
2A89
102
{ACAD_REACTORS
330
C
102
}
330
C
100
AcDbDictionary
281
     1
  3
ByBlock
350
2B8F
  3
ByLayer
350
2B87
  3
Global
350
2B97
  0
DICTIONARY
  5
2BCA
102
{ACAD_REACTORS
330
C
102
}
330
C
100
AcDbDictionary
281
     1
  3
Standard
350
2BCB
  0
DICTIONARY
  5
16
102
{ACAD_REACTORS
330
C
102
}
330
C
100
AcDbDictionary
281
     1
  3
STANDARD
350
17
  0
DICTIONARY
  5
18
102
{ACAD_REACTORS
330
C
102
}
330
C
100
AcDbDictionary
281
     1
  0
ACDBDICTIONARYWDFLT
  5
E
102
{ACAD_REACTORS
330
C
102
}
330
C
100
AcDbDictionary
281
     1
  3
Normal
350
F
100
AcDbDictionaryWithDefault
340
F
  0
DICTIONARY
  5
2BB8
102
{ACAD_REACTORS
330
C
102
}
330
C
100
AcDbDictionary
281
     1
  3
A0
350
2BB9
  3
A1
350
2BBA
  3
A2
350
2BBB
  3
A3
350
2BBC
  3
A4
350
2BBD
  3
A5
350
2BBE
  3
A6
350
2BBF
  3
A7
350
2BC0
  3
A8
350
2BC1
  3
A9
350
2BC2
  3
B0
350
2BC3
  3
B1
350
2BC4
  3
B2
350
2BC5
  3
B3
350
2BC6
  3
B4
350
2BC7
  3
B5
350
2BC8
  3
B6
350
2BC9
  0
DICTIONARY
  5
2A8B
102
{ACAD_REACTORS
330
C
102
}
330
C
100
AcDbDictionary
281
     1
  3
Standard
350
2A8C
  0
DICTIONARY
  5
2B9F
102
{ACAD_REACTORS
330
C
102
}
330
C
100
AcDbDictionary
281
     1
  3
2dWireframe
350
2BA5
  3
Basic
350
2BA4
  3
Brighten
350
2BAB
  3
ColorChange
350
2BAF
  3
Conceptual
350
2BA8
  3
Dim
350
2BAA
  3
EdgeColorOff
350
2BB7
  3
Facepattern
350
2BAE
  3
Flat
350
2BA0
  3
FlatWithEdges
350
2BA1
  3
Gouraud
350
2BA2
  3
GouraudWithEdges
350
2BA3
  3
Hidden
350
2BA7
  3
JitterOff
350
2BB5
  3
Linepattern
350
2BAD
  3
OverhangOff
350
2BB6
  3
Realistic
350
2BA9
  3
Shaded
350
2BB4
  3
Shaded with edges
350
2BB3
  3
Shades of Gray
350
2BB0
  3
Sketchy
350
2BB1
  3
Thicken
350
2BAC
  3
Wireframe
350
2BA6
  3
X-Ray
350
2BB2
  0
XRECORD
  5
2C34
102
{ACAD_REACTORS
330
C
102
}
330
C
100
AcDbXrecord
280
     1
 90
        1
330
2A8C
  0
DICTIONARY
  5
419
102
{ACAD_REACTORS
330
C
102
}
330
C
100
AcDbDictionary
281
     1
  3
CANNOSCALE
350
2BDE
  3
CMLEADERSTYLE
350
2BDD
  3
CTABLESTYLE
350
2A96
  3
DIMASSOC
350
41A
  0
DICTIONARY
  5
2A92
102
{ACAD_REACTORS
330
C
102
}
330
C
100
AcDbDictionary
281
     1
  3
ASEBlockHierarchyIndexRecord
350
2A94
1001
DCO15
1040
1728813096.036
  0
XRECORD
  5
2BD4
102
{ACAD_REACTORS
330
2BD3
102
}
330
2BD3
100
AcDbXrecord
280
     1
290
     1
  0
XRECORD
  5
2BD6
102
{ACAD_REACTORS
330
2BD5
102
}
330
2BD5
100
AcDbXrecord
280
     1
290
     1
  0
XRECORD
  5
2BD8
102
{ACAD_REACTORS
330
2BD7
102
}
330
2BD7
100
AcDbXrecord
280
     1
290
     1
  0
XRECORD
  5
2BDA
102
{ACAD_REACTORS
330
2BD9
102
}
330
2BD9
100
AcDbXrecord
280
     1
290
     1
  0
XRECORD
  5
2BDC
102
{ACAD_REACTORS
330
2BDB
102
}
330
2BDB
100
AcDbXrecord
280
     1
290
     1
  0
XRECORD
  5
2A84
102
{ACAD_REACTORS
330
43E
102
}
330
43E
100
AcDbXrecord
280
     1
340
1E
  0
SORTENTSTABLE
  5
2AB0
102
{ACAD_REACTORS
330
43E
102
}
330
43E
100
AcDbSortentsTable
330
1E
331
92C
  5
92D
331
967
  5
968
331
928
  5
929
331
924
  5
925
331
963
  5
964
331
920
  5
921
331
866
  5
86D
331
8ED
  5
8EE
331
8E9
  5
8EA
331
91C
  5
91D
331
957
  5
958
331
99A
  5
99B
331
918
  5
919
331
953
  5
954
331
807
  5
808
331
996
  5
997
331
914
  5
915
331
910
  5
911
331
992
  5
993
331
84E
  5
85F
331
8D5
  5
8D6
331
7A8
  5
7A8
331
8D1
  5
8D2
331
94F
  5
950
331
94B
  5
94C
331
98E
  5
98F
331
98A
  5
98B
331
7EB
  5
804
331
947
  5
948
331
943
  5
944
331
7E7
  5
7EB
331
97E
  5
97F
331
97A
  5
97B
331
3F4
  5
3F4
331
881
  5
888
331
93B
  5
93C
331
972
  5
973
331
7D3
  5
7E4
331
937
  5
938
331
933
  5
934
331
832
  5
834
331
96E
  5
96F
331
8F0
  5
8F1
331
96A
  5
96B
331
92F
  5
930
331
966
  5
967
331
86D
  5
876
331
7C3
  5
7CD
331
927
  5
928
331
923
  5
924
331
7BF
  5
7C3
331
2AA9
  5
2AAD
331
91F
  5
920
331
91B
  5
91C
331
956
  5
957
331
999
  5
99A
331
8DC
  5
8DD
331
7B3
  5
7B3
331
913
  5
914
331
952
  5
953
331
806
  5
807
331
995
  5
996
331
8D8
  5
8D9
331
7AB
  5
7AB
331
991
  5
992
331
84D
  5
84E
331
8D4
  5
8D5
331
8D0
  5
8D1
331
90F
  5
910
331
94E
  5
94F
331
94A
  5
94B
331
98D
  5
98E
331
946
  5
947
331
989
  5
98A
331
7A3
  5
7A3
331
942
  5
943
331
97D
  5
97E
331
979
  5
97A
331
8FB
  5
8FC
331
93A
  5
93B
331
975
  5
978
331
971
  5
972
331
3C3
  5
3C3
331
7D2
  5
7D3
331
936
  5
937
331
932
  5
933
331
7CE
  5
7D1
331
96D
  5
96E
331
878
  5
87B
331
82D
  5
832
331
969
  5
96A
331
92E
  5
92F
331
92A
  5
92B
331
965
  5
966
331
926
  5
927
331
922
  5
923
331
8EF
  5
8F0
331
7BE
  5
7BF
331
91E
  5
91F
331
99C
  5
B4F
331
91A
  5
91B
331
955
  5
956
331
998
  5
999
331
7B2
  5
7B2
331
912
  5
913
331
951
  5
952
331
994
  5
995
331
8D7
  5
8D8
331
7AE
  5
7AE
331
990
  5
991
331
8D3
  5
8D4
331
90E
  5
90F
331
94D
  5
94E
331
949
  5
94A
331
98C
  5
98D
331
988
  5
989
331
906
  5
907
331
941
  5
942
331
97C
  5
97D
331
840
  5
847
331
3F6
  5
3F6
331
83C
  5
83F
331
978
  5
979
331
8FE
  5
8FF
331
93D
  5
93E
331
8FA
  5
8FB
331
939
  5
93A
331
974
  5
975
331
935
  5
936
331
970
  5
971
331
87B
  5
87F
331
7D1
  5
7D2
331
834
  5
83C
331
931
  5
932
331
7CD
  5
7CE
331
96C
  5
96D
331
968
  5
969
331
92D
  5
92E
331
929
  5
92A
331
964
  5
965
331
2AAF
  5
7BE
331
925
  5
926
331
921
  5
922
331
824
  5
82D
331
8EE
  5
8EF
331
8EA
  5
8EB
331
91D
  5
91E
331
99B
  5
99C
331
85F
  5
866
331
958
  5
959
331
954
  5
955
331
808
  5
824
331
997
  5
998
331
915
  5
916
331
911
  5
912
331
950
  5
951
331
993
  5
994
331
8D2
  5
8D3
331
94C
  5
94D
331
98F
  5
990
331
98B
  5
98C
331
847
  5
84D
331
948
  5
949
331
944
  5
946
331
97F
  5
980
331
8B2
  5
8D0
331
905
  5
906
331
901
  5
902
331
940
  5
941
331
7E4
  5
7E7
331
83F
  5
840
331
97B
  5
97C
331
8FD
  5
8FE
331
93C
  5
93D
331
938
  5
939
331
973
  5
974
331
934
  5
935
331
96F
  5
970
331
8F5
  5
8F6
331
930
  5
931
331
96B
  5
96C
331
876
  5
878
331
3A9
  5
3A9
  0
XRECORD
  5
2A83
102
{ACAD_REACTORS
330
43C
102
}
330
43C
100
AcDbXrecord
280
     1
340
1A
  0
LAYOUT
  5
2A8E
102
{ACAD_REACTORS
330
19
102
}
330
19
100
AcDbPlotSettings
  1

  2
SHARP MX-3100N PCL6
  4

  6

 40
0.0
 41
0.0
 42
0.0
 43
0.0
 44
0.0
 45
0.0
 46
0.0
 47
0.0
 48
0.0
 49
0.0
140
0.0
141
0.0
142
1.0
143
1.0
 70
   688
 72
     0
 73
     0
 74
     5
  7

 75
    16
147
1.0
 76
     0
 77
     2
 78
   300
148
0.0
149
0.0
100
AcDbLayout
  1
Layout1
 70
     1
 71
     1
 10
0.0
 20
0.0
 11
12.0
 21
9.0
 12
0.0
 22
0.0
 32
0.0
 14
1.000000000000000E+20
 24
1.000000000000000E+20
 34
1.000000000000000E+20
 15
-1.000000000000000E+20
 25
-1.000000000000000E+20
 35
-1.000000000000000E+20
146
0.0
 13
0.0
 23
0.0
 33
0.0
 16
1.0
 26
0.0
 36
0.0
 17
0.0
 27
1.0
 37
0.0
 76
     0
330
1A
  0
LAYOUT
  5
2A8D
102
{ACAD_REACTORS
330
19
102
}
330
19
100
AcDbPlotSettings
  1

  2
SHARP MX-3100N PCL6
  4

  6

 40
0.0
 41
0.0
 42
0.0
 43
0.0
 44
0.0
 45
0.0
 46
0.0
 47
0.0
 48
0.0
 49
0.0
140
0.0
141
0.0
142
1.0
143
1.0
 70
  1712
 72
     0
 73
     0
 74
     0
  7

 75
     0
147
1.0
 76
     0
 77
     2
 78
   300
148
0.0
149
0.0
100
AcDbLayout
  1
Model
 70
     1
 71
     0
 10
0.0
 20
0.0
 11
12.0
 21
9.0
 12
0.0
 22
0.0
 32
0.0
 14
0.0
 24
0.0
 34
0.0
 15
0.0
 25
0.0
 35
0.0
146
0.0
 13
0.0
 23
0.0
 33
0.0
 16
1.0
 26
0.0
 36
0.0
 17
0.0
 27
1.0
 37
0.0
 76
     0
330
1E
331
2B85
  0
MATERIAL
  5
2B8F
102
{ACAD_XDICTIONARY
360
2B90
102
}
102
{ACAD_REACTORS
330
2A89
102
}
330
2A89
100
AcDbMaterial
  1
ByBlock
 72
     0
 43
0.0208333333333333
 43
0.0
 43
0.0
 43
0.0
 43
0.0
 43
0.0208333333333333
 43
0.0
 43
0.0
 43
0.0
 43
0.0
 43
1.0
 43
0.0
 43
0.0
 43
0.0
 43
0.0
 43
1.0
 77
     0
 47
0.0208333333333333
 47
0.0
 47
0.0
 47
0.0
 47
0.0
 47
0.0208333333333333
 47
0.0
 47
0.0
 47
0.0
 47
0.0
 47
1.0
 47
0.0
 47
0.0
 47
0.0
 47
0.0
 47
1.0
171
     0
 49
0.0208333333333333
 49
0.0
 49
0.0
 49
0.0
 49
0.0
 49
0.0208333333333333
 49
0.0
 49
0.0
 49
0.0
 49
0.0
 49
1.0
 49
0.0
 49
0.0
 49
0.0
 49
0.0
 49
1.0
175
     0
142
0.0208333333333333
142
0.0
142
0.0
142
0.0
142
0.0
142
0.0208333333333333
142
0.0
142
0.0
142
0.0
142
0.0
142
1.0
142
0.0
142
0.0
142
0.0
142
0.0
142
1.0
179
     0
144
0.0208333333333333
144
0.0
144
0.0
144
0.0
144
0.0
144
0.0208333333333333
144
0.0
144
0.0
144
0.0
144
0.0
144
1.0
144
0.0
144
0.0
144
0.0
144
0.0
144
1.0
147
0.0208333333333333
147
0.0
147
0.0
147
0.0
147
0.0
147
0.0208333333333333
147
0.0
147
0.0
147
0.0
147
0.0
147
1.0
147
0.0
147
0.0
147
0.0
147
0.0
147
1.0
  0
MATERIAL
  5
2B87
102
{ACAD_XDICTIONARY
360
2B88
102
}
102
{ACAD_REACTORS
330
2A89
102
}
330
2A89
100
AcDbMaterial
  1
ByLayer
 72
     0
 43
0.0208333333333333
 43
0.0
 43
0.0
 43
0.0
 43
0.0
 43
0.0208333333333333
 43
0.0
 43
0.0
 43
0.0
 43
0.0
 43
1.0
 43
0.0
 43
0.0
 43
0.0
 43
0.0
 43
1.0
 77
     0
 47
0.0208333333333333
 47
0.0
 47
0.0
 47
0.0
 47
0.0
 47
0.0208333333333333
 47
0.0
 47
0.0
 47
0.0
 47
0.0
 47
1.0
 47
0.0
 47
0.0
 47
0.0
 47
0.0
 47
1.0
171
     0
 49
0.0208333333333333
 49
0.0
 49
0.0
 49
0.0
 49
0.0
 49
0.0208333333333333
 49
0.0
 49
0.0
 49
0.0
 49
0.0
 49
1.0
 49
0.0
 49
0.0
 49
0.0
 49
0.0
 49
1.0
175
     0
142
0.0208333333333333
142
0.0
142
0.0
142
0.0
142
0.0
142
0.0208333333333333
142
0.0
142
0.0
142
0.0
142
0.0
142
1.0
142
0.0
142
0.0
142
0.0
142
0.0
142
1.0
179
     0
144
0.0208333333333333
144
0.0
144
0.0
144
0.0
144
0.0
144
0.0208333333333333
144
0.0
144
0.0
144
0.0
144
0.0
144
1.0
144
0.0
144
0.0
144
0.0
144
0.0
144
1.0
147
0.0208333333333333
147
0.0
147
0.0
147
0.0
147
0.0
147
0.0208333333333333
147
0.0
147
0.0
147
0.0
147
0.0
147
1.0
147
0.0
147
0.0
147
0.0
147
0.0
147
1.0
  0
MATERIAL
  5
2B97
102
{ACAD_XDICTIONARY
360
2B98
102
}
102
{ACAD_REACTORS
330
2A89
102
}
330
2A89
100
AcDbMaterial
  1
Global
 72
     0
 43
0.0208333333333333
 43
0.0
 43
0.0
 43
0.0
 43
0.0
 43
0.0208333333333333
 43
0.0
 43
0.0
 43
0.0
 43
0.0
 43
1.0
 43
0.0
 43
0.0
 43
0.0
 43
0.0
 43
1.0
 77
     0
 47
0.0208333333333333
 47
0.0
 47
0.0
 47
0.0
 47
0.0
 47
0.0208333333333333
 47
0.0
 47
0.0
 47
0.0
 47
0.0
 47
1.0
 47
0.0
 47
0.0
 47
0.0
 47
0.0
 47
1.0
171
     0
 49
0.0208333333333333
 49
0.0
 49
0.0
 49
0.0
 49
0.0
 49
0.0208333333333333
 49
0.0
 49
0.0
 49
0.0
 49
0.0
 49
1.0
 49
0.0
 49
0.0
 49
0.0
 49
0.0
 49
1.0
175
     0
142
0.0208333333333333
142
0.0
142
0.0
142
0.0
142
0.0
142
0.0208333333333333
142
0.0
142
0.0
142
0.0
142
0.0
142
1.0
142
0.0
142
0.0
142
0.0
142
0.0
142
1.0
179
     0
144
0.0208333333333333
144
0.0
144
0.0
144
0.0
144
0.0
144
0.0208333333333333
144
0.0
144
0.0
144
0.0
144
0.0
144
1.0
144
0.0
144
0.0
144
0.0
144
0.0
144
1.0
147
0.0208333333333333
147
0.0
147
0.0
147
0.0
147
0.0
147
0.0208333333333333
147
0.0
147
0.0
147
0.0
147
0.0
147
1.0
147
0.0
147
0.0
147
0.0
147
0.0
147
1.0
  0
MLEADERSTYLE
  5
2BCB
102
{ACAD_XDICTIONARY
360
2C32
102
}
102
{ACAD_REACTORS
330
2BCA
102
}
330
2BCA
100
AcDbMLeaderStyle
170
     2
171
     1
172
     0
 90
        2
 40
0.0
 41
0.0
173
     1
 91
-1056964608
340
13
 92
       -2
290
     1
 42
0.09
291
     1
 43
0.36
  3
Standard
 44
0.18
300

342
11
174
     1
178
     6
175
     1
176
     0
 93
-1056964608
 45
0.18
292
     0
297
     0
 46
0.18
 94
-1056964608
 47
1.0
 49
1.0
140
1.0
293
     1
141
0.0
294
     1
177
     0
142
1.0
295
     0
296
     0
143
0.125
1001
ACAD_MLEADERVER
1070
     2
  0
MLINESTYLE
  5
17
102
{ACAD_REACTORS
330
16
102
}
330
16
100
AcDbMlineStyle
  2
STANDARD
 70
     0
  3

 62
   256
 51
90.0
 52
90.0
 71
     2
 49
0.5
 62
   256
  6
BYLAYER
 49
-0.5
 62
   256
  6
BYLAYER
  0
ACDBPLACEHOLDER
  5
F
102
{ACAD_REACTORS
330
E
102
}
330
E
  0
SCALE
  5
2BB9
102
{ACAD_REACTORS
330
2BB8
102
}
330
2BB8
100
AcDbScale
 70
     0
300
1:1
140
1.0
141
1.0
290
     1
  0
SCALE
  5
2BBA
102
{ACAD_REACTORS
330
2BB8
102
}
330
2BB8
100
AcDbScale
 70
     0
300
1/128" = 1'-0"
140
0.0078125
141
12.0
290
     0
  0
SCALE
  5
2BBB
102
{ACAD_REACTORS
330
2BB8
102
}
330
2BB8
100
AcDbScale
 70
     0
300
1/64" = 1'-0"
140
0.015625
141
12.0
290
     0
  0
SCALE
  5
2BBC
102
{ACAD_REACTORS
330
2BB8
102
}
330
2BB8
100
AcDbScale
 70
     0
300
1/32" = 1'-0"
140
0.03125
141
12.0
290
     0
  0
SCALE
  5
2BBD
102
{ACAD_REACTORS
330
2BB8
102
}
330
2BB8
100
AcDbScale
 70
     0
300
1/16" = 1'-0"
140
0.0625
141
12.0
290
     0
  0
SCALE
  5
2BBE
102
{ACAD_REACTORS
330
2BB8
102
}
330
2BB8
100
AcDbScale
 70
     0
300
3/32" = 1'-0"
140
0.09375
141
12.0
290
     0
  0
SCALE
  5
2BBF
102
{ACAD_REACTORS
330
2BB8
102
}
330
2BB8
100
AcDbScale
 70
     0
300
1/8" = 1'-0"
140
0.125
141
12.0
290
     0
  0
SCALE
  5
2BC0
102
{ACAD_REACTORS
330
2BB8
102
}
330
2BB8
100
AcDbScale
 70
     0
300
3/16" = 1'-0"
140
0.1875
141
12.0
290
     0
  0
SCALE
  5
2BC1
102
{ACAD_REACTORS
330
2BB8
102
}
330
2BB8
100
AcDbScale
 70
     0
300
1/4" = 1'-0"
140
0.25
141
12.0
290
     0
  0
SCALE
  5
2BC2
102
{ACAD_REACTORS
330
2BB8
102
}
330
2BB8
100
AcDbScale
 70
     0
300
3/8" = 1'-0"
140
0.375
141
12.0
290
     0
  0
SCALE
  5
2BC3
102
{ACAD_REACTORS
330
2BB8
102
}
330
2BB8
100
AcDbScale
 70
     0
300
1/2" = 1'-0"
140
0.5
141
12.0
290
     0
  0
SCALE
  5
2BC4
102
{ACAD_REACTORS
330
2BB8
102
}
330
2BB8
100
AcDbScale
 70
     0
300
3/4" = 1'-0"
140
0.75
141
12.0
290
     0
  0
SCALE
  5
2BC5
102
{ACAD_REACTORS
330
2BB8
102
}
330
2BB8
100
AcDbScale
 70
     0
300
1" = 1'-0"
140
1.0
141
12.0
290
     0
  0
SCALE
  5
2BC6
102
{ACAD_REACTORS
330
2BB8
102
}
330
2BB8
100
AcDbScale
 70
     0
300
1-1/2" = 1'-0"
140
1.5
141
12.0
290
     0
  0
SCALE
  5
2BC7
102
{ACAD_REACTORS
330
2BB8
102
}
330
2BB8
100
AcDbScale
 70
     0
300
3" = 1'-0"
140
3.0
141
12.0
290
     0
  0
SCALE
  5
2BC8
102
{ACAD_REACTORS
330
2BB8
102
}
330
2BB8
100
AcDbScale
 70
     0
300
6" = 1'-0"
140
6.0
141
12.0
290
     0
  0
SCALE
  5
2BC9
102
{ACAD_REACTORS
330
2BB8
102
}
330
2BB8
100
AcDbScale
 70
     0
300
1'-0" = 1'-0"
140
12.0
141
12.0
290
     0
  0
TABLESTYLE
  5
2A8C
102
{ACAD_XDICTIONARY
360
2BE0
102
}
102
{ACAD_REACTORS
330
2A8B
102
}
330
2A8B
100
AcDbTableStyle
  3
Standard
 70
     0
 71
     0
 40
0.06
 41
0.06
280
     0
281
     0
  7
STANDARD
140
0.18
170
     2
 62
     0
 63
     7
283
     0
274
    -2
284
     1
 64
     0
275
    -2
285
     1
 65
     0
276
    -2
286
     1
 66
     0
277
    -2
287
     1
 67
     0
278
    -2
288
     1
 68
     0
279
    -2
289
     1
 69
     0
  7
STANDARD
140
0.25
170
     5
 62
     0
 63
     7
283
     0
274
    -2
284
     1
 64
     0
275
    -2
285
     1
 65
     0
276
    -2
286
     1
 66
     0
277
    -2
287
     1
 67
     0
278
    -2
288
     1
 68
     0
279
    -2
289
     1
 69
     0
  7
STANDARD
140
0.18
170
     5
 62
     0
 63
     7
283
     0
274
    -2
284
     1
 64
     0
275
    -2
285
     1
 65
     0
276
    -2
286
     1
 66
     0
277
    -2
287
     1
 67
     0
278
    -2
288
     1
 68
     0
279
    -2
289
     1
 69
     0
  0
VISUALSTYLE
  5
2BA5
102
{ACAD_XDICTIONARY
360
2C40
102
}
102
{ACAD_REACTORS
330
2B9F
102
}
330
2B9F
100
AcDbVisualStyle
  2

 70
     4
 71
     0
 72
     2
 73
     0
 90
        0
 40
-0.6
 41
-30.0
 62
     5
 63
     7
421
 16777215
 74
     1
 91
        4
 64
     7
 65
   257
 75
     1
175
     1
 42
1.0
 92
        0
 66
   257
 43
1.0
 76
     1
 77
     6
 78
     2
 67
     7
 79
     5
170
     0
171
     0
290
     0
174
     0
 93
        1
 44
0.0
173
     0
291
     0
 45
0.0
1001
ACAD
1000
AcDbSavedByObjectVersion
1070
     0
  0
VISUALSTYLE
  5
2BA4
102
{ACAD_XDICTIONARY
360
2C3E
102
}
102
{ACAD_REACTORS
330
2B9F
102
}
330
2B9F
100
AcDbVisualStyle
  2

 70
     7
 71
     1
 72
     0
 73
     1
 90
        0
 40
-0.6
 41
-30.0
 62
     5
 63
     7
421
 16777215
 74
     0
 91
        4
 64
     7
 65
   257
 75
     1
175
     1
 42
1.0
 92
        8
 66
     7
 43
1.0
 76
     1
 77
     6
 78
     2
 67
     7
 79
     5
170
     0
171
     0
290
     0
174
     0
 93
        1
 44
0.0
173
     0
291
     1
 45
0.0
1001
ACAD
1000
AcDbSavedByObjectVersion
1070
     0
  0
VISUALSTYLE
  5
2BAB
102
{ACAD_XDICTIONARY
360
2C4C
102
}
102
{ACAD_REACTORS
330
2B9F
102
}
330
2B9F
100
AcDbVisualStyle
  2

 70
    12
 71
     2
 72
     2
 73
     0
 90
        0
 40
-0.6
 41
-30.0
 62
     5
 63
     7
421
 16777215
 74
     1
 91
        4
 64
     7
 65
   257
 75
     1
175
     1
 42
1.0
 92
        8
 66
     7
 43
1.0
 76
     1
 77
     6
 78
     2
 67
     7
 79
     5
170
     0
171
     0
290
     0
174
     0
 93
        1
 44
50.0
173
     0
291
     1
 45
0.0
1001
ACAD
1000
AcDbSavedByObjectVersion
1070
     0
  0
VISUALSTYLE
  5
2BAF
102
{ACAD_XDICTIONARY
360
2C54
102
}
102
{ACAD_REACTORS
330
2B9F
102
}
330
2B9F
100
AcDbVisualStyle
  2

 70
    16
 71
     2
 72
     2
 73
     3
 90
        0
 40
-0.6
 41
-30.0
 62
     5
 63
     8
421
  8421504
 74
     1
 91
        4
 64
     7
 65
   257
 75
     1
175
     1
 42
1.0
 92
        8
 66
     8
424
  8421504
 43
1.0
 76
     1
 77
     6
 78
     2
 67
     7
 79
     5
170
     0
171
     0
290
     0
174
     0
 93
        1
 44
0.0
173
     0
291
     1
 45
0.0
1001
ACAD
1000
AcDbSavedByObjectVersion
1070
     0
  0
VISUALSTYLE
  5
2BA8
102
{ACAD_XDICTIONARY
360
2C46
102
}
102
{ACAD_REACTORS
330
2B9F
102
}
330
2B9F
100
AcDbVisualStyle
  2

 70
     9
 71
     3
 72
     2
 73
     0
 90
        0
 40
-0.6
 41
-30.0
 62
     5
 63
     7
421
 16777215
 74
     2
 91
        2
 64
     7
 65
   257
 75
     1
175
     1
 42
179.0
 92
        8
 66
     7
 43
1.0
 76
     1
 77
     6
 78
     2
 67
     7
 79
     3
170
     0
171
     0
290
     0
174
     0
 93
        1
 44
0.0
173
     0
291
     0
 45
0.0
1001
ACAD
1000
AcDbSavedByObjectVersion
1070
     0
  0
VISUALSTYLE
  5
2BAA
102
{ACAD_XDICTIONARY
360
2C4A
102
}
102
{ACAD_REACTORS
330
2B9F
102
}
330
2B9F
100
AcDbVisualStyle
  2

 70
    11
 71
     2
 72
     2
 73
     0
 90
        0
 40
-0.6
 41
-30.0
 62
     5
 63
     7
421
 16777215
 74
     1
 91
        4
 64
     7
 65
   257
 75
     1
175
     1
 42
1.0
 92
        8
 66
     7
 43
1.0
 76
     1
 77
     6
 78
     2
 67
     7
 79
     5
170
     0
171
     0
290
     0
174
     0
 93
        1
 44
-50.0
173
     0
291
     1
 45
0.0
1001
ACAD
1000
AcDbSavedByObjectVersion
1070
     0
  0
VISUALSTYLE
  5
2BB7
102
{ACAD_XDICTIONARY
360
2C64
102
}
102
{ACAD_REACTORS
330
2B9F
102
}
330
2B9F
100
AcDbVisualStyle
  2

 70
    22
 71
     2
 72
     2
 73
     0
 90
        0
 40
-0.6
 41
-30.0
 62
     5
 63
     7
421
 16777215
 74
     1
 91
        4
 64
     7
 65
   257
 75
     1
175
     1
 42
1.0
 92
        8
 66
     7
 43
1.0
 76
     1
 77
     6
 78
     2
 67
     7
 79
     5
170
     0
171
     0
290
     0
174
     0
 93
        1
 44
0.0
173
     0
291
     1
 45
0.0
1001
ACAD
1000
AcDbSavedByObjectVersion
1070
     0
  0
VISUALSTYLE
  5
2BAE
102
{ACAD_XDICTIONARY
360
2C52
102
}
102
{ACAD_REACTORS
330
2B9F
102
}
330
2B9F
100
AcDbVisualStyle
  2

 70
    15
 71
     2
 72
     2
 73
     0
 90
        0
 40
-0.6
 41
-30.0
 62
     5
 63
     7
421
 16777215
 74
     1
 91
        4
 64
     7
 65
   257
 75
     1
175
     1
 42
1.0
 92
        8
 66
     7
 43
1.0
 76
     1
 77
     6
 78
     2
 67
     7
 79
     5
170
     0
171
     0
290
     0
174
     0
 93
        1
 44
0.0
173
     0
291
     1
 45
0.0
1001
ACAD
1000
AcDbSavedByObjectVersion
1070
     0
  0
VISUALSTYLE
  5
2BA0
102
{ACAD_XDICTIONARY
360
2C36
102
}
102
{ACAD_REACTORS
330
2B9F
102
}
330
2B9F
100
AcDbVisualStyle
  2

 70
     0
 71
     2
 72
     1
 73
     1
 90
        2
 40
-0.6
 41
30.0
 62
     5
 63
     7
421
 16777215
 74
     0
 91
        0
 64
     7
 65
   257
 75
     1
175
     1
 42
1.0
 92
        8
 66
     7
 43
1.0
 76
     1
 77
     6
 78
     2
 67
     7
 79
     5
170
     0
171
     0
290
     0
174
     0
 93
       13
 44
0.0
173
     0
291
     1
 45
0.0
1001
ACAD
1000
AcDbSavedByObjectVersion
1070
     0
  0
VISUALSTYLE
  5
2BA1
102
{ACAD_XDICTIONARY
360
2C38
102
}
102
{ACAD_REACTORS
330
2B9F
102
}
330
2B9F
100
AcDbVisualStyle
  2

 70
     1
 71
     2
 72
     1
 73
     1
 90
        2
 40
-0.6
 41
30.0
 62
     5
 63
     7
421
 16777215
 74
     1
 91
        0
 64
     7
 65
   257
 75
     1
175
     1
 42
1.0
 92
        0
 66
   257
 43
1.0
 76
     1
 77
     6
 78
     2
 67
     7
 79
     5
170
     0
171
     0
290
     0
174
     0
 93
       13
 44
0.0
173
     0
291
     1
 45
0.0
1001
ACAD
1000
AcDbSavedByObjectVersion
1070
     0
  0
VISUALSTYLE
  5
2BA2
102
{ACAD_XDICTIONARY
360
2C3A
102
}
102
{ACAD_REACTORS
330
2B9F
102
}
330
2B9F
100
AcDbVisualStyle
  2

 70
     2
 71
     2
 72
     2
 73
     1
 90
        2
 40
-0.6
 41
30.0
 62
     5
 63
     7
421
 16777215
 74
     0
 91
        0
 64
     7
 65
   257
 75
     1
175
     1
 42
1.0
 92
        0
 66
     7
 43
1.0
 76
     1
 77
     6
 78
     2
 67
     7
 79
     5
170
     0
171
     0
290
     0
174
     0
 93
       13
 44
0.0
173
     0
291
     1
 45
0.0
1001
ACAD
1000
AcDbSavedByObjectVersion
1070
     0
  0
VISUALSTYLE
  5
2BA3
102
{ACAD_XDICTIONARY
360
2C3C
102
}
102
{ACAD_REACTORS
330
2B9F
102
}
330
2B9F
100
AcDbVisualStyle
  2

 70
     3
 71
     2
 72
     2
 73
     1
 90
        2
 40
-0.6
 41
30.0
 62
     5
 63
     7
421
 16777215
 74
     1
 91
        0
 64
     7
 65
   257
 75
     1
175
     1
 42
1.0
 92
        0
 66
   257
 43
1.0
 76
     1
 77
     6
 78
     2
 67
     7
 79
     5
170
     0
171
     0
290
     0
174
     0
 93
       13
 44
0.0
173
     0
291
     1
 45
0.0
1001
ACAD
1000
AcDbSavedByObjectVersion
1070
     0
  0
VISUALSTYLE
  5
2BA7
102
{ACAD_XDICTIONARY
360
2C44
102
}
102
{ACAD_REACTORS
330
2B9F
102
}
330
2B9F
100
AcDbVisualStyle
  2

 70
     6
 71
     1
 72
     2
 73
     2
 90
        0
 40
-0.6
 41
-30.0
 62
     5
 63
     7
421
 16777215
 74
     2
 91
        2
 64
     7
 65
   257
 75
     2
175
     1
 42
40.0
 92
        0
 66
   257
 43
1.0
 76
     1
 77
     6
 78
     2
 67
     7
 79
     3
170
     0
171
     0
290
     0
174
     0
 93
        1
 44
0.0
173
     0
291
     0
 45
0.0
1001
ACAD
1000
AcDbSavedByObjectVersion
1070
     0
  0
VISUALSTYLE
  5
2BB5
102
{ACAD_XDICTIONARY
360
2C60
102
}
102
{ACAD_REACTORS
330
2B9F
102
}
330
2B9F
100
AcDbVisualStyle
  2

 70
    20
 71
     2
 72
     2
 73
     0
 90
        0
 40
-0.6
 41
-30.0
 62
     5
 63
     7
421
 16777215
 74
     1
 91
        4
 64
     7
 65
   257
 75
     1
175
     1
 42
1.0
 92
       10
 66
     7
 43
1.0
 76
     1
 77
     6
 78
     2
 67
     7
 79
     5
170
     0
171
     0
290
     0
174
     0
 93
        1
 44
0.0
173
     0
291
     1
 45
0.0
1001
ACAD
1000
AcDbSavedByObjectVersion
1070
     0
  0
VISUALSTYLE
  5
2BAD
102
{ACAD_XDICTIONARY
360
2C50
102
}
102
{ACAD_REACTORS
330
2B9F
102
}
330
2B9F
100
AcDbVisualStyle
  2

 70
    14
 71
     2
 72
     2
 73
     0
 90
        0
 40
-0.6
 41
-30.0
 62
     5
 63
     7
421
 16777215
 74
     1
 91
        4
 64
     7
 65
   257
 75
     7
175
     7
 42
1.0
 92
        8
 66
     7
 43
1.0
 76
     1
 77
     6
 78
     2
 67
     7
 79
     5
170
     0
171
     0
290
     0
174
     0
 93
        1
 44
0.0
173
     0
291
     1
 45
0.0
1001
ACAD
1000
AcDbSavedByObjectVersion
1070
     0
  0
VISUALSTYLE
  5
2BB6
102
{ACAD_XDICTIONARY
360
2C62
102
}
102
{ACAD_REACTORS
330
2B9F
102
}
330
2B9F
100
AcDbVisualStyle
  2

 70
    21
 71
     2
 72
     2
 73
     0
 90
        0
 40
-0.6
 41
-30.0
 62
     5
 63
     7
421
 16777215
 74
     1
 91
        4
 64
     7
 65
   257
 75
     1
175
     1
 42
1.0
 92
        9
 66
     7
 43
1.0
 76
     1
 77
     6
 78
     2
 67
     7
 79
     5
170
     0
171
     0
290
     0
174
     0
 93
        1
 44
0.0
173
     0
291
     1
 45
0.0
1001
ACAD
1000
AcDbSavedByObjectVersion
1070
     0
  0
VISUALSTYLE
  5
2BA9
102
{ACAD_XDICTIONARY
360
2C48
102
}
102
{ACAD_REACTORS
330
2B9F
102
}
330
2B9F
100
AcDbVisualStyle
  2

 70
     8
 71
     2
 72
     3
 73
     0
 90
        2
 40
-0.6
 41
30.0
 62
     5
 63
     7
421
 16777215
 74
     0
 91
        0
 64
     7
 65
   257
 75
     1
175
     1
 42
1.0
 92
        8
 66
   257
 43
1.0
 76
     1
 77
     6
 78
     2
 67
     7
 79
     3
170
     0
171
     0
290
     0
174
     0
 93
       13
 44
0.0
173
     0
291
     0
 45
0.0
1001
ACAD
1000
AcDbSavedByObjectVersion
1070
     0
  0
VISUALSTYLE
  5
2BB4
102
{ACAD_XDICTIONARY
360
2C5E
102
}
102
{ACAD_REACTORS
330
2B9F
102
}
330
2B9F
100
AcDbVisualStyle
  2

 70
    27
 71
     2
 72
     2
 73
     1
 90
        2
 40
-0.6
 41
30.0
 62
     5
 63
     7
421
 16777215
 74
     0
 91
        4
 64
     7
 65
   257
 75
     1
175
     1
 42
1.0
 92
        8
 66
   257
 43
1.0
 76
     1
 77
     6
 78
     2
 67
     8
425
  7895160
 79
     3
170
     0
171
     0
290
     0
174
     0
 93
        5
 44
0.0
173
     0
291
     0
 45
0.0
1001
ACAD
1000
AcDbSavedByObjectVersion
1070
     0
  0
VISUALSTYLE
  5
2BB3
102
{ACAD_XDICTIONARY
360
2C5C
102
}
102
{ACAD_REACTORS
330
2B9F
102
}
330
2B9F
100
AcDbVisualStyle
  2

 70
    26
 71
     2
 72
     2
 73
     1
 90
        2
 40
-0.6
 41
30.0
 62
     5
 63
     7
421
 16777215
 74
     1
 91
       10
 64
     7
 65
   257
 75
     2
175
     1
 42
1.0
 92
        8
 66
   257
 43
1.0
 76
     1
 77
     6
 78
     2
 67
     7
 79
     3
170
     0
171
     0
290
     0
174
     0
 93
        5
 44
0.0
173
     0
291
     0
 45
0.0
1001
ACAD
1000
AcDbSavedByObjectVersion
1070
     0
  0
VISUALSTYLE
  5
2BB0
102
{ACAD_XDICTIONARY
360
2C56
102
}
102
{ACAD_REACTORS
330
2B9F
102
}
330
2B9F
100
AcDbVisualStyle
  2

 70
    23
 71
     2
 72
     2
 73
     3
 90
        0
 40
-0.6
 41
-30.0
 62
     5
 63
     7
421
 16777215
 74
     2
 91
        2
 64
     7
 65
     7
 75
     1
175
     1
 42
40.0
 92
        8
 66
     7
 43
1.0
 76
     1
 77
     6
 78
     2
 67
     7
 79
     3
170
     0
171
     0
290
     0
174
     0
 93
        1
 44
0.0
173
     0
291
     0
 45
0.0
1001
ACAD
1000
AcDbSavedByObjectVersion
1070
     0
  0
VISUALSTYLE
  5
2BB1
102
{ACAD_XDICTIONARY
360
2C58
102
}
102
{ACAD_REACTORS
330
2B9F
102
}
330
2B9F
100
AcDbVisualStyle
  2

 70
    24
 71
     1
 72
     2
 73
     2
 90
        0
 40
-0.6
 41
-30.0
 62
     5
 63
     7
421
 16777215
 74
     2
 91
        2
 64
     7
 65
     7
 75
     1
175
     1
 42
40.0
 92
       11
 66
     7
 43
1.0
 76
     1
 77
     6
 78
     2
 67
     7
 79
     6
170
     0
171
     0
290
     0
174
     0
 93
        1
 44
0.0
173
     0
291
     0
 45
0.0
1001
ACAD
1000
AcDbSavedByObjectVersion
1070
     0
  0
VISUALSTYLE
  5
2BAC
102
{ACAD_XDICTIONARY
360
2C4E
102
}
102
{ACAD_REACTORS
330
2B9F
102
}
330
2B9F
100
AcDbVisualStyle
  2

 70
    13
 71
     2
 72
     2
 73
     0
 90
        0
 40
-0.6
 41
-30.0
 62
     5
 63
     7
421
 16777215
 74
     1
 91
        4
 64
     7
 65
   257
 75
     1
175
     1
 42
1.0
 92
       12
 66
     7
 43
1.0
 76
     1
 77
     6
 78
     2
 67
     7
 79
     5
170
     0
171
     0
290
     0
174
     0
 93
        1
 44
0.0
173
     0
291
     1
 45
0.0
1001
ACAD
1000
AcDbSavedByObjectVersion
1070
     0
  0
VISUALSTYLE
  5
2BA6
102
{ACAD_XDICTIONARY
360
2C42
102
}
102
{ACAD_REACTORS
330
2B9F
102
}
330
2B9F
100
AcDbVisualStyle
  2

 70
     5
 71
     0
 72
     2
 73
     0
 90
        0
 40
-0.6
 41
-30.0
 62
     5
 63
     7
421
 16777215
 74
     1
 91
        4
 64
     7
 65
   257
 75
     1
175
     1
 42
1.0
 92
        0
 66
   257
 43
1.0
 76
     1
 77
     6
 78
     2
 67
     7
 79
     3
170
     0
171
     0
290
     0
174
     0
 93
        1
 44
0.0
173
     0
291
     0
 45
0.0
1001
ACAD
1000
AcDbSavedByObjectVersion
1070
     0
  0
VISUALSTYLE
  5
2BB2
102
{ACAD_XDICTIONARY
360
2C5A
102
}
102
{ACAD_REACTORS
330
2B9F
102
}
330
2B9F
100
AcDbVisualStyle
  2

 70
    25
 71
     2
 72
     2
 73
     1
 90
        1
 40
0.5
 41
-30.0
 62
     5
 63
     7
421
 16777215
 74
     1
 91
        0
 64
     7
 65
   257
 75
     1
175
     1
 42
1.0
 92
        8
 66
     7
 43
1.0
 76
     1
 77
     6
 78
     2
 67
     7
 79
     3
170
     0
171
     0
290
     0
174
     0
 93
       13
 44
0.0
173
     0
291
     0
 45
0.0
1001
ACAD
1000
AcDbSavedByObjectVersion
1070
     0
  0
DICTIONARYVAR
  5
2BDE
102
{ACAD_REACTORS
330
419
102
}
330
419
100
DictionaryVariables
280
     0
  1
1:1
  0
DICTIONARYVAR
  5
2BDD
102
{ACAD_REACTORS
330
419
102
}
330
419
100
DictionaryVariables
280
     0
  1
STANDARD
  0
DICTIONARYVAR
  5
2A96
102
{ACAD_REACTORS
330
419
102
}
330
419
100
DictionaryVariables
280
     0
  1
STANDARD
  0
DICTIONARYVAR
  5
41A
102
{ACAD_REACTORS
330
419
102
}
330
419
100
DictionaryVariables
280
     0
  1
1
  0
XRECORD
  5
2A94
102
{ACAD_REACTORS
330
2A92
102
}
330
2A92
100
AcDbXrecord
280
     1
330
31
330
33
330
3D
330
3F
330
49
330
4D
330
54
330
56
330
61
330
63
330
6D
330
6F
330
79
330
7B
330
85
330
87
330
91
330
93
330
9D
330
9F
330
A9
330
AB
330
B5
330
B7
330
C1
330
C3
330
CD
330
CF
330
D8
330
DA
330
E4
330
E6
330
F0
330
F4
330
FB
330
FF
330
108
330
10A
330
113
330
115
330
11F
330
121
330
12B
330
12D
330
136
330
138
330
142
330
144
330
14F
330
153
  0
DICTIONARY
  5
2B90
330
2B8F
100
AcDbDictionary
280
     1
281
     1
  3
ACAD_XREC_ROUNDTRIP
360
2BF5
  3
BUMPTILE
360
2B92
  3
DIFFUSETILE
360
2B91
  3
OPACITYTILE
360
2B95
  3
REFLECTIONTILE
360
2B94
  3
REFRACTIONTILE
360
2B96
  3
SPECULARTILE
360
2B93
  0
DICTIONARY
  5
2B88
330
2B87
100
AcDbDictionary
280
     1
281
     1
  3
ACAD_XREC_ROUNDTRIP
360
2BF4
  3
BUMPTILE
360
2B8A
  3
DIFFUSETILE
360
2B89
  3
OPACITYTILE
360
2B8D
  3
REFLECTIONTILE
360
2B8C
  3
REFRACTIONTILE
360
2B8E
  3
SPECULARTILE
360
2B8B
  0
DICTIONARY
  5
2B98
330
2B97
100
AcDbDictionary
280
     1
281
     1
  3
ACAD_XREC_ROUNDTRIP
360
2BF6
  3
BUMPTILE
360
2B9A
  3
DIFFUSETILE
360
2B99
  3
OPACITYTILE
360
2B9D
  3
REFLECTIONTILE
360
2B9C
  3
REFRACTIONTILE
360
2B9E
  3
SPECULARTILE
360
2B9B
  0
DICTIONARY
  5
2C32
330
2BCB
100
AcDbDictionary
280
     1
281
     1
  3
ACAD_XREC_ROUNDTRIP
360
2C33
  0
DICTIONARY
  5
2BE0
330
2A8C
100
AcDbDictionary
280
     1
281
     1
  3
ACAD_ROUNDTRIP_2008_TABLESTYLE_CELLSTYLEMAP
360
2C31
  3
ACAD_XREC_ROUNDTRIP
360
2C35
  0
DICTIONARY
  5
2C40
330
2BA5
100
AcDbDictionary
280
     1
281
     1
  3
ACAD_XREC_ROUNDTRIP
360
2C41
  0
DICTIONARY
  5
2C3E
330
2BA4
100
AcDbDictionary
280
     1
281
     1
  3
ACAD_XREC_ROUNDTRIP
360
2C3F
  0
DICTIONARY
  5
2C4C
330
2BAB
100
AcDbDictionary
280
     1
281
     1
  3
ACAD_XREC_ROUNDTRIP
360
2C4D
  0
DICTIONARY
  5
2C54
330
2BAF
100
AcDbDictionary
280
     1
281
     1
  3
ACAD_XREC_ROUNDTRIP
360
2C55
  0
DICTIONARY
  5
2C46
330
2BA8
100
AcDbDictionary
280
     1
281
     1
  3
ACAD_XREC_ROUNDTRIP
360
2C47
  0
DICTIONARY
  5
2C4A
330
2BAA
100
AcDbDictionary
280
     1
281
     1
  3
ACAD_XREC_ROUNDTRIP
360
2C4B
  0
DICTIONARY
  5
2C64
330
2BB7
100
AcDbDictionary
280
     1
281
     1
  3
ACAD_XREC_ROUNDTRIP
360
2C65
  0
DICTIONARY
  5
2C52
330
2BAE
100
AcDbDictionary
280
     1
281
     1
  3
ACAD_XREC_ROUNDTRIP
360
2C53
  0
DICTIONARY
  5
2C36
330
2BA0
100
AcDbDictionary
280
     1
281
     1
  3
ACAD_XREC_ROUNDTRIP
360
2C37
  0
DICTIONARY
  5
2C38
330
2BA1
100
AcDbDictionary
280
     1
281
     1
  3
ACAD_XREC_ROUNDTRIP
360
2C39
  0
DICTIONARY
  5
2C3A
330
2BA2
100
AcDbDictionary
280
     1
281
     1
  3
ACAD_XREC_ROUNDTRIP
360
2C3B
  0
DICTIONARY
  5
2C3C
330
2BA3
100
AcDbDictionary
280
     1
281
     1
  3
ACAD_XREC_ROUNDTRIP
360
2C3D
  0
DICTIONARY
  5
2C44
330
2BA7
100
AcDbDictionary
280
     1
281
     1
  3
ACAD_XREC_ROUNDTRIP
360
2C45
  0
DICTIONARY
  5
2C60
330
2BB5
100
AcDbDictionary
280
     1
281
     1
  3
ACAD_XREC_ROUNDTRIP
360
2C61
  0
DICTIONARY
  5
2C50
330
2BAD
100
AcDbDictionary
280
     1
281
     1
  3
ACAD_XREC_ROUNDTRIP
360
2C51
  0
DICTIONARY
  5
2C62
330
2BB6
100
AcDbDictionary
280
     1
281
     1
  3
ACAD_XREC_ROUNDTRIP
360
2C63
  0
DICTIONARY
  5
2C48
330
2BA9
100
AcDbDictionary
280
     1
281
     1
  3
ACAD_XREC_ROUNDTRIP
360
2C49
  0
DICTIONARY
  5
2C5E
330
2BB4
100
AcDbDictionary
280
     1
281
     1
  3
ACAD_XREC_ROUNDTRIP
360
2C5F
  0
DICTIONARY
  5
2C5C
330
2BB3
100
AcDbDictionary
280
     1
281
     1
  3
ACAD_XREC_ROUNDTRIP
360
2C5D
  0
DICTIONARY
  5
2C56
330
2BB0
100
AcDbDictionary
280
     1
281
     1
  3
ACAD_XREC_ROUNDTRIP
360
2C57
  0
DICTIONARY
  5
2C58
330
2BB1
100
AcDbDictionary
280
     1
281
     1
  3
ACAD_XREC_ROUNDTRIP
360
2C59
  0
DICTIONARY
  5
2C4E
330
2BAC
100
AcDbDictionary
280
     1
281
     1
  3
ACAD_XREC_ROUNDTRIP
360
2C4F
  0
DICTIONARY
  5
2C42
330
2BA6
100
AcDbDictionary
280
     1
281
     1
  3
ACAD_XREC_ROUNDTRIP
360
2C43
  0
DICTIONARY
  5
2C5A
330
2BB2
100
AcDbDictionary
280
     1
281
     1
  3
ACAD_XREC_ROUNDTRIP
360
2C5B
  0
XRECORD
  5
2BF5
102
{ACAD_REACTORS
330
2B90
102
}
330
2B90
100
AcDbXrecord
280
     1
102
MATERIAL
148
0.0
149
0.0
149
0.0
 93
        0
 94
      127
282
     0
 72
     0
 77
     0
171
     0
175
     0
179
     0
273
     0
  0
XRECORD
  5
2B92
102
{ACAD_REACTORS
330
2B90
102
}
330
2B90
100
AcDbXrecord
280
     1
270
     1
271
     1
  0
XRECORD
  5
2B91
102
{ACAD_REACTORS
330
2B90
102
}
330
2B90
100
AcDbXrecord
280
     1
270
     1
271
     1
  0
XRECORD
  5
2B95
102
{ACAD_REACTORS
330
2B90
102
}
330
2B90
100
AcDbXrecord
280
     1
270
     1
271
     1
  0
XRECORD
  5
2B94
102
{ACAD_REACTORS
330
2B90
102
}
330
2B90
100
AcDbXrecord
280
     1
270
     1
271
     1
  0
XRECORD
  5
2B96
102
{ACAD_REACTORS
330
2B90
102
}
330
2B90
100
AcDbXrecord
280
     1
270
     1
271
     1
  0
XRECORD
  5
2B93
102
{ACAD_REACTORS
330
2B90
102
}
330
2B90
100
AcDbXrecord
280
     1
270
     1
271
     1
  0
XRECORD
  5
2BF4
102
{ACAD_REACTORS
330
2B88
102
}
330
2B88
100
AcDbXrecord
280
     1
102
MATERIAL
148
0.0
149
0.0
149
0.0
 93
        0
 94
      127
282
     0
 72
     0
 77
     0
171
     0
175
     0
179
     0
273
     0
  0
XRECORD
  5
2B8A
102
{ACAD_REACTORS
330
2B88
102
}
330
2B88
100
AcDbXrecord
280
     1
270
     1
271
     1
  0
XRECORD
  5
2B89
102
{ACAD_REACTORS
330
2B88
102
}
330
2B88
100
AcDbXrecord
280
     1
270
     1
271
     1
  0
XRECORD
  5
2B8D
102
{ACAD_REACTORS
330
2B88
102
}
330
2B88
100
AcDbXrecord
280
     1
270
     1
271
     1
  0
XRECORD
  5
2B8C
102
{ACAD_REACTORS
330
2B88
102
}
330
2B88
100
AcDbXrecord
280
     1
270
     1
271
     1
  0
XRECORD
  5
2B8E
102
{ACAD_REACTORS
330
2B88
102
}
330
2B88
100
AcDbXrecord
280
     1
270
     1
271
     1
  0
XRECORD
  5
2B8B
102
{ACAD_REACTORS
330
2B88
102
}
330
2B88
100
AcDbXrecord
280
     1
270
     1
271
     1
  0
XRECORD
  5
2BF6
102
{ACAD_REACTORS
330
2B98
102
}
330
2B98
100
AcDbXrecord
280
     1
102
MATERIAL
148
0.0
149
0.0
149
0.0
 93
        0
 94
      127
282
     0
 72
     0
 77
     0
171
     0
175
     0
179
     0
273
     0
  0
XRECORD
  5
2B9A
102
{ACAD_REACTORS
330
2B98
102
}
330
2B98
100
AcDbXrecord
280
     1
270
     1
271
     1
  0
XRECORD
  5
2B99
102
{ACAD_REACTORS
330
2B98
102
}
330
2B98
100
AcDbXrecord
280
     1
270
     1
271
     1
  0
XRECORD
  5
2B9D
102
{ACAD_REACTORS
330
2B98
102
}
330
2B98
100
AcDbXrecord
280
     1
270
     1
271
     1
  0
XRECORD
  5
2B9C
102
{ACAD_REACTORS
330
2B98
102
}
330
2B98
100
AcDbXrecord
280
     1
270
     1
271
     1
  0
XRECORD
  5
2B9E
102
{ACAD_REACTORS
330
2B98
102
}
330
2B98
100
AcDbXrecord
280
     1
270
     1
271
     1
  0
XRECORD
  5
2B9B
102
{ACAD_REACTORS
330
2B98
102
}
330
2B98
100
AcDbXrecord
280
     1
270
     1
271
     1
  0
XRECORD
  5
2C33
102
{ACAD_REACTORS
330
2C32
102
}
330
2C32
100
AcDbXrecord
280
     1
102
ACAD_ROUNDTRIP_2012_MLEADER_STYLE
298
     1
  0
CELLSTYLEMAP
  5
2C31
102
{ACAD_REACTORS
330
2BE0
102
}
330
2BE0
100
AcDbCellStyleMap
 90
        3
300
CELLSTYLE
  1
TABLEFORMAT_BEGIN
 90
        5
170
     1
 91
        0
 92
    32768
 62
   257
 93
        1
300
CONTENTFORMAT
  1
CONTENTFORMAT_BEGIN
 90
        0
 91
        0
 92
        4
 93
        0
300

 40
0.0
140
1.0
 94
        5
 62
     0
340
11
144
0.25
309
CONTENTFORMAT_END
171
     1
301
MARGIN
  1
CELLMARGIN_BEGIN
 40
0.06
 40
0.06
 40
0.06
 40
0.06
 40
0.18
 40
0.18
309
CELLMARGIN_END
 94
        6
 95
        1
302
GRIDFORMAT
  1
GRIDFORMAT_BEGIN
 90
        0
 91
        1
 62
     0
 92
       -2
340
0
 93
        0
 40
0.045
309
GRIDFORMAT_END
 95
        2
302
GRIDFORMAT
  1
GRIDFORMAT_BEGIN
 90
        0
 91
        1
 62
     0
 92
       -2
340
0
 93
        0
 40
0.045
309
GRIDFORMAT_END
 95
        4
302
GRIDFORMAT
  1
GRIDFORMAT_BEGIN
 90
        0
 91
        1
 62
     0
 92
       -2
340
0
 93
        0
 40
0.045
309
GRIDFORMAT_END
 95
        8
302
GRIDFORMAT
  1
GRIDFORMAT_BEGIN
 90
        0
 91
        1
 62
     0
 92
       -2
340
0
 93
        0
 40
0.045
309
GRIDFORMAT_END
 95
       16
302
GRIDFORMAT
  1
GRIDFORMAT_BEGIN
 90
        0
 91
        1
 62
     0
 92
       -2
340
0
 93
        0
 40
0.045
309
GRIDFORMAT_END
 95
       32
302
GRIDFORMAT
  1
GRIDFORMAT_BEGIN
 90
        0
 91
        1
 62
     0
 92
       -2
340
0
 93
        0
 40
0.045
309
GRIDFORMAT_END
309
TABLEFORMAT_END
  1
CELLSTYLE_BEGIN
 90
        1
 91
        1
300
_TITLE
309
CELLSTYLE_END
300
CELLSTYLE
  1
TABLEFORMAT_BEGIN
 90
        5
170
     1
 91
        0
 92
        0
 62
   257
 93
        1
300
CONTENTFORMAT
  1
CONTENTFORMAT_BEGIN
 90
        0
 91
        0
 92
        4
 93
        0
300

 40
0.0
140
1.0
 94
        5
 62
     0
340
11
144
0.18
309
CONTENTFORMAT_END
171
     1
301
MARGIN
  1
CELLMARGIN_BEGIN
 40
0.06
 40
0.06
 40
0.06
 40
0.06
 40
0.18
 40
0.18
309
CELLMARGIN_END
 94
        6
 95
        1
302
GRIDFORMAT
  1
GRIDFORMAT_BEGIN
 90
        0
 91
        1
 62
     0
 92
       -2
340
0
 93
        0
 40
0.045
309
GRIDFORMAT_END
 95
        2
302
GRIDFORMAT
  1
GRIDFORMAT_BEGIN
 90
        0
 91
        1
 62
     0
 92
       -2
340
0
 93
        0
 40
0.045
309
GRIDFORMAT_END
 95
        4
302
GRIDFORMAT
  1
GRIDFORMAT_BEGIN
 90
        0
 91
        1
 62
     0
 92
       -2
340
0
 93
        0
 40
0.045
309
GRIDFORMAT_END
 95
        8
302
GRIDFORMAT
  1
GRIDFORMAT_BEGIN
 90
        0
 91
        1
 62
     0
 92
       -2
340
0
 93
        0
 40
0.045
309
GRIDFORMAT_END
 95
       16
302
GRIDFORMAT
  1
GRIDFORMAT_BEGIN
 90
        0
 91
        1
 62
     0
 92
       -2
340
0
 93
        0
 40
0.045
309
GRIDFORMAT_END
 95
       32
302
GRIDFORMAT
  1
GRIDFORMAT_BEGIN
 90
        0
 91
        1
 62
     0
 92
       -2
340
0
 93
        0
 40
0.045
309
GRIDFORMAT_END
309
TABLEFORMAT_END
  1
CELLSTYLE_BEGIN
 90
        2
 91
        1
300
_HEADER
309
CELLSTYLE_END
300
CELLSTYLE
  1
TABLEFORMAT_BEGIN
 90
        5
170
     1
 91
        0
 92
        0
 62
   257
 93
        1
300
CONTENTFORMAT
  1
CONTENTFORMAT_BEGIN
 90
        0
 91
        0
 92
        4
 93
        0
300

 40
0.0
140
1.0
 94
        2
 62
     0
340
11
144
0.18
309
CONTENTFORMAT_END
171
     1
301
MARGIN
  1
CELLMARGIN_BEGIN
 40
0.06
 40
0.06
 40
0.06
 40
0.06
 40
0.18
 40
0.18
309
CELLMARGIN_END
 94
        6
 95
        1
302
GRIDFORMAT
  1
GRIDFORMAT_BEGIN
 90
        0
 91
        1
 62
     0
 92
       -2
340
0
 93
        0
 40
0.045
309
GRIDFORMAT_END
 95
        2
302
GRIDFORMAT
  1
GRIDFORMAT_BEGIN
 90
        0
 91
        1
 62
     0
 92
       -2
340
0
 93
        0
 40
0.045
309
GRIDFORMAT_END
 95
        4
302
GRIDFORMAT
  1
GRIDFORMAT_BEGIN
 90
        0
 91
        1
 62
     0
 92
       -2
340
0
 93
        0
 40
0.045
309
GRIDFORMAT_END
 95
        8
302
GRIDFORMAT
  1
GRIDFORMAT_BEGIN
 90
        0
 91
        1
 62
     0
 92
       -2
340
0
 93
        0
 40
0.045
309
GRIDFORMAT_END
 95
       16
302
GRIDFORMAT
  1
GRIDFORMAT_BEGIN
 90
        0
 91
        1
 62
     0
 92
       -2
340
0
 93
        0
 40
0.045
309
GRIDFORMAT_END
 95
       32
302
GRIDFORMAT
  1
GRIDFORMAT_BEGIN
 90
        0
 91
        1
 62
     0
 92
       -2
340
0
 93
        0
 40
0.045
309
GRIDFORMAT_END
309
TABLEFORMAT_END
  1
CELLSTYLE_BEGIN
 90
        3
 91
        2
300
_DATA
309
CELLSTYLE_END
  0
XRECORD
  5
2C35
102
{ACAD_REACTORS
330
2BE0
102
}
330
2BE0
100
AcDbXrecord
280
     1
102
ACAD_ROUNDTRIP_PRE2007_TABLESTYLE
 90
        4
 91
        0
  1

 92
        4
 93
        0
  2

 94
        4
 95
        0
  3

  0
XRECORD
  5
2C41
102
{ACAD_REACTORS
330
2C40
102
}
330
2C40
100
AcDbXrecord
280
     1
102
RTVSPropertyOp0
 70
     1
102
RTVSPropertyOp1
 70
     1
102
RTVSPropertyOp2
 70
     1
102
RTVSPropertyOp3
 70
     1
102
RTVSPropertyOp4
 70
     1
102
RTVSPropertyOp5
 70
     1
102
RTVSPropertyOp6
 70
     1
102
RTVSPropertyOp7
 70
     1
102
RTVSPropertyOp8
 70
     1
102
RTVSPropertyOp9
 70
     1
102
RTVSPropertyOp10
 70
     1
102
RTVSPropertyOp11
 70
     1
102
RTVSPropertyOp12
 70
     1
102
RTVSPropertyOp13
 70
     1
102
RTVSPropertyOp14
 70
     1
102
RTVSPropertyOp15
 70
     1
102
RTVSPropertyOp16
 70
     1
102
RTVSPropertyOp17
 70
     1
102
RTVSPropertyOp18
 70
     1
102
RTVSPropertyOp19
 70
     1
102
RTVSPropertyOp20
 70
     1
102
RTVSPropertyOp21
 70
     1
102
RTVSPropertyOp22
 70
     1
102
RTVSPropertyOp23
 70
     1
102
RTVSPropertyOp24
 70
     1
102
RTVSPropertyOp25
 70
     1
102
RTVSPropertyOp26
 70
     1
102
RTVSPropertyOp27
 70
     1
102
RTVSPropertyOp28
 70
     1
102
RTVSPropertyOp29
 70
     1
102
RTVSPropertyOp30
 70
     1
102
RTVSPropertyOp31
 70
     1
102
RTVSPropertyOp32
 70
     1
  0
XRECORD
  5
2C3F
102
{ACAD_REACTORS
330
2C3E
102
}
330
2C3E
100
AcDbXrecord
280
     1
102
RTVSPropertyOp0
 70
     1
102
RTVSPropertyOp1
 70
     1
102
RTVSPropertyOp2
 70
     1
102
RTVSPropertyOp3
 70
     1
102
RTVSPropertyOp4
 70
     1
102
RTVSPropertyOp5
 70
     1
102
RTVSPropertyOp6
 70
     1
102
RTVSPropertyOp7
 70
     1
102
RTVSPropertyOp8
 70
     1
102
RTVSPropertyOp9
 70
     1
102
RTVSPropertyOp10
 70
     1
102
RTVSPropertyOp11
 70
     1
102
RTVSPropertyOp12
 70
     1
102
RTVSPropertyOp13
 70
     1
102
RTVSPropertyOp14
 70
     1
102
RTVSPropertyOp15
 70
     1
102
RTVSPropertyOp16
 70
     1
102
RTVSPropertyOp17
 70
     1
102
RTVSPropertyOp18
 70
     1
102
RTVSPropertyOp19
 70
     1
102
RTVSPropertyOp20
 70
     1
102
RTVSPropertyOp21
 70
     1
102
RTVSPropertyOp22
 70
     1
102
RTVSPropertyOp23
 70
     1
102
RTVSPropertyOp24
 70
     1
102
RTVSPropertyOp25
 70
     1
102
RTVSPropertyOp26
 70
     1
102
RTVSPropertyOp27
 70
     1
102
RTVSPropertyOp28
 70
     1
102
RTVSPropertyOp29
 70
     1
102
RTVSPropertyOp30
 70
     1
102
RTVSPropertyOp31
 70
     1
102
RTVSPropertyOp32
 70
     1
  0
XRECORD
  5
2C4D
102
{ACAD_REACTORS
330
2C4C
102
}
330
2C4C
100
AcDbXrecord
280
     1
102
RTVSPropertyOp0
 70
     1
102
RTVSPropertyOp1
 70
     1
102
RTVSPropertyOp2
 70
     1
102
RTVSPropertyOp3
 70
     1
102
RTVSPropertyOp4
 70
     1
102
RTVSPropertyOp5
 70
     1
102
RTVSPropertyOp6
 70
     1
102
RTVSPropertyOp7
 70
     1
102
RTVSPropertyOp8
 70
     1
102
RTVSPropertyOp9
 70
     1
102
RTVSPropertyOp10
 70
     1
102
RTVSPropertyOp11
 70
     1
102
RTVSPropertyOp12
 70
     1
102
RTVSPropertyOp13
 70
     1
102
RTVSPropertyOp14
 70
     1
102
RTVSPropertyOp15
 70
     1
102
RTVSPropertyOp16
 70
     1
102
RTVSPropertyOp17
 70
     1
102
RTVSPropertyOp18
 70
     1
102
RTVSPropertyOp19
 70
     1
102
RTVSPropertyOp20
 70
     1
102
RTVSPropertyOp21
 70
     1
102
RTVSPropertyOp22
 70
     1
102
RTVSPropertyOp23
 70
     1
102
RTVSPropertyOp24
 70
     1
102
RTVSPropertyOp25
 70
     1
102
RTVSPropertyOp26
 70
     1
102
RTVSPropertyOp27
 70
     1
102
RTVSPropertyOp28
 70
     1
102
RTVSPropertyOp29
 70
     1
102
RTVSPropertyOp30
 70
     1
102
RTVSPropertyOp31
 70
     1
102
RTVSPropertyOp32
 70
     1
  0
XRECORD
  5
2C55
102
{ACAD_REACTORS
330
2C54
102
}
330
2C54
100
AcDbXrecord
280
     1
102
RTVSPropertyOp0
 70
     1
102
RTVSPropertyOp1
 70
     1
102
RTVSPropertyOp2
 70
     1
102
RTVSPropertyOp3
 70
     1
102
RTVSPropertyOp4
 70
     1
102
RTVSPropertyOp5
 70
     1
102
RTVSPropertyOp6
 70
     1
102
RTVSPropertyOp7
 70
     1
102
RTVSPropertyOp8
 70
     1
102
RTVSPropertyOp9
 70
     1
102
RTVSPropertyOp10
 70
     1
102
RTVSPropertyOp11
 70
     1
102
RTVSPropertyOp12
 70
     1
102
RTVSPropertyOp13
 70
     1
102
RTVSPropertyOp14
 70
     1
102
RTVSPropertyOp15
 70
     1
102
RTVSPropertyOp16
 70
     1
102
RTVSPropertyOp17
 70
     1
102
RTVSPropertyOp18
 70
     1
102
RTVSPropertyOp19
 70
     1
102
RTVSPropertyOp20
 70
     1
102
RTVSPropertyOp21
 70
     1
102
RTVSPropertyOp22
 70
     1
102
RTVSPropertyOp23
 70
     1
102
RTVSPropertyOp24
 70
     1
102
RTVSPropertyOp25
 70
     1
102
RTVSPropertyOp26
 70
     1
102
RTVSPropertyOp27
 70
     1
102
RTVSPropertyOp28
 70
     1
102
RTVSPropertyOp29
 70
     1
102
RTVSPropertyOp30
 70
     1
102
RTVSPropertyOp31
 70
     1
102
RTVSPropertyOp32
 70
     1
  0
XRECORD
  5
2C47
102
{ACAD_REACTORS
330
2C46
102
}
330
2C46
100
AcDbXrecord
280
     1
102
RTVSPropertyOp0
 70
     1
102
RTVSPropertyOp1
 70
     1
102
RTVSPropertyOp2
 70
     1
102
RTVSPropertyOp3
 70
     1
102
RTVSPropertyOp4
 70
     1
102
RTVSPropertyOp5
 70
     1
102
RTVSPropertyOp6
 70
     1
102
RTVSPropertyOp7
 70
     1
102
RTVSPropertyOp8
 70
     1
102
RTVSPropertyOp9
 70
     1
102
RTVSPropertyOp10
 70
     1
102
RTVSPropertyOp11
 70
     1
102
RTVSPropertyOp12
 70
     1
102
RTVSPropertyOp13
 70
     1
102
RTVSPropertyOp14
 70
     1
102
RTVSPropertyOp15
 70
     1
102
RTVSPropertyOp16
 70
     1
102
RTVSPropertyOp17
 70
     1
102
RTVSPropertyOp18
 70
     1
102
RTVSPropertyOp19
 70
     1
102
RTVSPropertyOp20
 70
     1
102
RTVSPropertyOp21
 70
     1
102
RTVSPropertyOp22
 70
     1
102
RTVSPropertyOp23
 70
     1
102
RTVSPropertyOp24
 70
     1
102
RTVSPropertyOp25
 70
     1
102
RTVSPropertyOp26
 70
     1
102
RTVSPropertyOp27
 70
     1
102
RTVSPropertyOp28
 70
     1
102
RTVSPropertyOp29
 70
     1
102
RTVSPropertyOp30
 70
     1
102
RTVSPropertyOp31
 70
     1
102
RTVSPropertyOp32
 70
     1
  0
XRECORD
  5
2C4B
102
{ACAD_REACTORS
330
2C4A
102
}
330
2C4A
100
AcDbXrecord
280
     1
102
RTVSPropertyOp0
 70
     1
102
RTVSPropertyOp1
 70
     1
102
RTVSPropertyOp2
 70
     1
102
RTVSPropertyOp3
 70
     1
102
RTVSPropertyOp4
 70
     1
102
RTVSPropertyOp5
 70
     1
102
RTVSPropertyOp6
 70
     1
102
RTVSPropertyOp7
 70
     1
102
RTVSPropertyOp8
 70
     1
102
RTVSPropertyOp9
 70
     1
102
RTVSPropertyOp10
 70
     1
102
RTVSPropertyOp11
 70
     1
102
RTVSPropertyOp12
 70
     1
102
RTVSPropertyOp13
 70
     1
102
RTVSPropertyOp14
 70
     1
102
RTVSPropertyOp15
 70
     1
102
RTVSPropertyOp16
 70
     1
102
RTVSPropertyOp17
 70
     1
102
RTVSPropertyOp18
 70
     1
102
RTVSPropertyOp19
 70
     1
102
RTVSPropertyOp20
 70
     1
102
RTVSPropertyOp21
 70
     1
102
RTVSPropertyOp22
 70
     1
102
RTVSPropertyOp23
 70
     1
102
RTVSPropertyOp24
 70
     1
102
RTVSPropertyOp25
 70
     1
102
RTVSPropertyOp26
 70
     1
102
RTVSPropertyOp27
 70
     1
102
RTVSPropertyOp28
 70
     1
102
RTVSPropertyOp29
 70
     1
102
RTVSPropertyOp30
 70
     1
102
RTVSPropertyOp31
 70
     1
102
RTVSPropertyOp32
 70
     1
  0
XRECORD
  5
2C65
102
{ACAD_REACTORS
330
2C64
102
}
330
2C64
100
AcDbXrecord
280
     1
102
RTVSPropertyOp0
 70
     0
102
RTVSPropertyOp1
 70
     0
102
RTVSPropertyOp2
 70
     0
102
RTVSPropertyOp3
 70
     0
102
RTVSPropertyOp4
 70
     0
102
RTVSPropertyOp5
 70
     0
102
RTVSPropertyOp6
 70
     0
102
RTVSPropertyOp7
 70
     0
102
RTVSPropertyOp8
 70
     0
102
RTVSPropertyOp9
 70
     0
102
RTVSPropertyOp10
 70
     0
102
RTVSPropertyOp11
 70
     0
102
RTVSPropertyOp12
 70
     0
102
RTVSPropertyOp13
 70
     0
102
RTVSPropertyOp14
 70
     2
102
RTVSPropertyOp15
 70
     0
102
RTVSPropertyOp16
 70
     0
102
RTVSPropertyOp17
 70
     0
102
RTVSPropertyOp18
 70
     0
102
RTVSPropertyOp19
 70
     0
102
RTVSPropertyOp20
 70
     0
102
RTVSPropertyOp21
 70
     0
102
RTVSPropertyOp22
 70
     0
102
RTVSPropertyOp23
 70
     0
102
RTVSPropertyOp24
 70
     0
102
RTVSPropertyOp25
 70
     0
102
RTVSPropertyOp26
 70
     0
102
RTVSPropertyOp27
 70
     0
102
RTVSPropertyOp28
 70
     0
102
RTVSPropertyOp29
 70
     0
102
RTVSPropertyOp30
 70
     0
102
RTVSPropertyOp31
 70
     0
102
RTVSPropertyOp32
 70
     0
  0
XRECORD
  5
2C53
102
{ACAD_REACTORS
330
2C52
102
}
330
2C52
100
AcDbXrecord
280
     1
102
RTVSPropertyOp0
 70
     1
102
RTVSPropertyOp1
 70
     1
102
RTVSPropertyOp2
 70
     1
102
RTVSPropertyOp3
 70
     1
102
RTVSPropertyOp4
 70
     1
102
RTVSPropertyOp5
 70
     1
102
RTVSPropertyOp6
 70
     1
102
RTVSPropertyOp7
 70
     1
102
RTVSPropertyOp8
 70
     1
102
RTVSPropertyOp9
 70
     1
102
RTVSPropertyOp10
 70
     1
102
RTVSPropertyOp11
 70
     1
102
RTVSPropertyOp12
 70
     1
102
RTVSPropertyOp13
 70
     1
102
RTVSPropertyOp14
 70
     1
102
RTVSPropertyOp15
 70
     1
102
RTVSPropertyOp16
 70
     1
102
RTVSPropertyOp17
 70
     1
102
RTVSPropertyOp18
 70
     1
102
RTVSPropertyOp19
 70
     1
102
RTVSPropertyOp20
 70
     1
102
RTVSPropertyOp21
 70
     1
102
RTVSPropertyOp22
 70
     1
102
RTVSPropertyOp23
 70
     1
102
RTVSPropertyOp24
 70
     1
102
RTVSPropertyOp25
 70
     1
102
RTVSPropertyOp26
 70
     1
102
RTVSPropertyOp27
 70
     1
102
RTVSPropertyOp28
 70
     1
102
RTVSPropertyOp29
 70
     1
102
RTVSPropertyOp30
 70
     1
102
RTVSPropertyOp31
 70
     1
102
RTVSPropertyOp32
 70
     1
  0
XRECORD
  5
2C37
102
{ACAD_REACTORS
330
2C36
102
}
330
2C36
100
AcDbXrecord
280
     1
102
RTVSPropertyOp0
 70
     1
102
RTVSPropertyOp1
 70
     1
102
RTVSPropertyOp2
 70
     1
102
RTVSPropertyOp3
 70
     1
102
RTVSPropertyOp4
 70
     1
102
RTVSPropertyOp5
 70
     1
102
RTVSPropertyOp6
 70
     1
102
RTVSPropertyOp7
 70
     1
102
RTVSPropertyOp8
 70
     1
102
RTVSPropertyOp9
 70
     1
102
RTVSPropertyOp10
 70
     1
102
RTVSPropertyOp11
 70
     1
102
RTVSPropertyOp12
 70
     1
102
RTVSPropertyOp13
 70
     1
102
RTVSPropertyOp14
 70
     1
102
RTVSPropertyOp15
 70
     1
102
RTVSPropertyOp16
 70
     1
102
RTVSPropertyOp17
 70
     1
102
RTVSPropertyOp18
 70
     1
102
RTVSPropertyOp19
 70
     1
102
RTVSPropertyOp20
 70
     1
102
RTVSPropertyOp21
 70
     1
102
RTVSPropertyOp22
 70
     1
102
RTVSPropertyOp23
 70
     1
102
RTVSPropertyOp24
 70
     1
102
RTVSPropertyOp25
 70
     1
102
RTVSPropertyOp26
 70
     1
102
RTVSPropertyOp27
 70
     1
102
RTVSPropertyOp28
 70
     1
102
RTVSPropertyOp29
 70
     1
102
RTVSPropertyOp30
 70
     1
102
RTVSPropertyOp31
 70
     1
102
RTVSPropertyOp32
 70
     1
  0
XRECORD
  5
2C39
102
{ACAD_REACTORS
330
2C38
102
}
330
2C38
100
AcDbXrecord
280
     1
102
RTVSPropertyOp0
 70
     1
102
RTVSPropertyOp1
 70
     1
102
RTVSPropertyOp2
 70
     1
102
RTVSPropertyOp3
 70
     1
102
RTVSPropertyOp4
 70
     1
102
RTVSPropertyOp5
 70
     1
102
RTVSPropertyOp6
 70
     1
102
RTVSPropertyOp7
 70
     1
102
RTVSPropertyOp8
 70
     1
102
RTVSPropertyOp9
 70
     1
102
RTVSPropertyOp10
 70
     1
102
RTVSPropertyOp11
 70
     1
102
RTVSPropertyOp12
 70
     1
102
RTVSPropertyOp13
 70
     1
102
RTVSPropertyOp14
 70
     1
102
RTVSPropertyOp15
 70
     1
102
RTVSPropertyOp16
 70
     1
102
RTVSPropertyOp17
 70
     1
102
RTVSPropertyOp18
 70
     1
102
RTVSPropertyOp19
 70
     1
102
RTVSPropertyOp20
 70
     1
102
RTVSPropertyOp21
 70
     1
102
RTVSPropertyOp22
 70
     1
102
RTVSPropertyOp23
 70
     1
102
RTVSPropertyOp24
 70
     1
102
RTVSPropertyOp25
 70
     1
102
RTVSPropertyOp26
 70
     1
102
RTVSPropertyOp27
 70
     1
102
RTVSPropertyOp28
 70
     1
102
RTVSPropertyOp29
 70
     1
102
RTVSPropertyOp30
 70
     1
102
RTVSPropertyOp31
 70
     1
102
RTVSPropertyOp32
 70
     1
  0
XRECORD
  5
2C3B
102
{ACAD_REACTORS
330
2C3A
102
}
330
2C3A
100
AcDbXrecord
280
     1
102
RTVSPropertyOp0
 70
     1
102
RTVSPropertyOp1
 70
     1
102
RTVSPropertyOp2
 70
     1
102
RTVSPropertyOp3
 70
     1
102
RTVSPropertyOp4
 70
     1
102
RTVSPropertyOp5
 70
     1
102
RTVSPropertyOp6
 70
     1
102
RTVSPropertyOp7
 70
     1
102
RTVSPropertyOp8
 70
     1
102
RTVSPropertyOp9
 70
     1
102
RTVSPropertyOp10
 70
     1
102
RTVSPropertyOp11
 70
     1
102
RTVSPropertyOp12
 70
     1
102
RTVSPropertyOp13
 70
     1
102
RTVSPropertyOp14
 70
     1
102
RTVSPropertyOp15
 70
     1
102
RTVSPropertyOp16
 70
     1
102
RTVSPropertyOp17
 70
     1
102
RTVSPropertyOp18
 70
     1
102
RTVSPropertyOp19
 70
     1
102
RTVSPropertyOp20
 70
     1
102
RTVSPropertyOp21
 70
     1
102
RTVSPropertyOp22
 70
     1
102
RTVSPropertyOp23
 70
     1
102
RTVSPropertyOp24
 70
     1
102
RTVSPropertyOp25
 70
     1
102
RTVSPropertyOp26
 70
     1
102
RTVSPropertyOp27
 70
     1
102
RTVSPropertyOp28
 70
     1
102
RTVSPropertyOp29
 70
     1
102
RTVSPropertyOp30
 70
     1
102
RTVSPropertyOp31
 70
     1
102
RTVSPropertyOp32
 70
     1
  0
XRECORD
  5
2C3D
102
{ACAD_REACTORS
330
2C3C
102
}
330
2C3C
100
AcDbXrecord
280
     1
102
RTVSPropertyOp0
 70
     1
102
RTVSPropertyOp1
 70
     1
102
RTVSPropertyOp2
 70
     1
102
RTVSPropertyOp3
 70
     1
102
RTVSPropertyOp4
 70
     1
102
RTVSPropertyOp5
 70
     1
102
RTVSPropertyOp6
 70
     1
102
RTVSPropertyOp7
 70
     1
102
RTVSPropertyOp8
 70
     1
102
RTVSPropertyOp9
 70
     1
102
RTVSPropertyOp10
 70
     1
102
RTVSPropertyOp11
 70
     1
102
RTVSPropertyOp12
 70
     1
102
RTVSPropertyOp13
 70
     1
102
RTVSPropertyOp14
 70
     1
102
RTVSPropertyOp15
 70
     1
102
RTVSPropertyOp16
 70
     1
102
RTVSPropertyOp17
 70
     1
102
RTVSPropertyOp18
 70
     1
102
RTVSPropertyOp19
 70
     1
102
RTVSPropertyOp20
 70
     1
102
RTVSPropertyOp21
 70
     1
102
RTVSPropertyOp22
 70
     1
102
RTVSPropertyOp23
 70
     1
102
RTVSPropertyOp24
 70
     1
102
RTVSPropertyOp25
 70
     1
102
RTVSPropertyOp26
 70
     1
102
RTVSPropertyOp27
 70
     1
102
RTVSPropertyOp28
 70
     1
102
RTVSPropertyOp29
 70
     1
102
RTVSPropertyOp30
 70
     1
102
RTVSPropertyOp31
 70
     1
102
RTVSPropertyOp32
 70
     1
  0
XRECORD
  5
2C45
102
{ACAD_REACTORS
330
2C44
102
}
330
2C44
100
AcDbXrecord
280
     1
102
RTVSPropertyOp0
 70
     1
102
RTVSPropertyOp1
 70
     1
102
RTVSPropertyOp2
 70
     1
102
RTVSPropertyOp3
 70
     1
102
RTVSPropertyOp4
 70
     1
102
RTVSPropertyOp5
 70
     1
102
RTVSPropertyOp6
 70
     1
102
RTVSPropertyOp7
 70
     1
102
RTVSPropertyOp8
 70
     1
102
RTVSPropertyOp9
 70
     1
102
RTVSPropertyOp10
 70
     1
102
RTVSPropertyOp11
 70
     1
102
RTVSPropertyOp12
 70
     1
102
RTVSPropertyOp13
 70
     1
102
RTVSPropertyOp14
 70
     1
102
RTVSPropertyOp15
 70
     1
102
RTVSPropertyOp16
 70
     1
102
RTVSPropertyOp17
 70
     1
102
RTVSPropertyOp18
 70
     1
102
RTVSPropertyOp19
 70
     1
102
RTVSPropertyOp20
 70
     1
102
RTVSPropertyOp21
 70
     1
102
RTVSPropertyOp22
 70
     1
102
RTVSPropertyOp23
 70
     1
102
RTVSPropertyOp24
 70
     1
102
RTVSPropertyOp25
 70
     1
102
RTVSPropertyOp26
 70
     1
102
RTVSPropertyOp27
 70
     1
102
RTVSPropertyOp28
 70
     1
102
RTVSPropertyOp29
 70
     1
102
RTVSPropertyOp30
 70
     1
102
RTVSPropertyOp31
 70
     1
102
RTVSPropertyOp32
 70
     1
  0
XRECORD
  5
2C61
102
{ACAD_REACTORS
330
2C60
102
}
330
2C60
100
AcDbXrecord
280
     1
102
RTVSPropertyOp0
 70
     0
102
RTVSPropertyOp1
 70
     0
102
RTVSPropertyOp2
 70
     0
102
RTVSPropertyOp3
 70
     0
102
RTVSPropertyOp4
 70
     0
102
RTVSPropertyOp5
 70
     0
102
RTVSPropertyOp6
 70
     0
102
RTVSPropertyOp7
 70
     0
102
RTVSPropertyOp8
 70
     0
102
RTVSPropertyOp9
 70
     0
102
RTVSPropertyOp10
 70
     0
102
RTVSPropertyOp11
 70
     0
102
RTVSPropertyOp12
 70
     0
102
RTVSPropertyOp13
 70
     0
102
RTVSPropertyOp14
 70
     2
102
RTVSPropertyOp15
 70
     0
102
RTVSPropertyOp16
 70
     0
102
RTVSPropertyOp17
 70
     0
102
RTVSPropertyOp18
 70
     0
102
RTVSPropertyOp19
 70
     0
102
RTVSPropertyOp20
 70
     0
102
RTVSPropertyOp21
 70
     0
102
RTVSPropertyOp22
 70
     0
102
RTVSPropertyOp23
 70
     0
102
RTVSPropertyOp24
 70
     0
102
RTVSPropertyOp25
 70
     0
102
RTVSPropertyOp26
 70
     0
102
RTVSPropertyOp27
 70
     0
102
RTVSPropertyOp28
 70
     0
102
RTVSPropertyOp29
 70
     0
102
RTVSPropertyOp30
 70
     0
102
RTVSPropertyOp31
 70
     0
102
RTVSPropertyOp32
 70
     0
  0
XRECORD
  5
2C51
102
{ACAD_REACTORS
330
2C50
102
}
330
2C50
100
AcDbXrecord
280
     1
102
RTVSPropertyOp0
 70
     1
102
RTVSPropertyOp1
 70
     1
102
RTVSPropertyOp2
 70
     1
102
RTVSPropertyOp3
 70
     1
102
RTVSPropertyOp4
 70
     1
102
RTVSPropertyOp5
 70
     1
102
RTVSPropertyOp6
 70
     1
102
RTVSPropertyOp7
 70
     1
102
RTVSPropertyOp8
 70
     1
102
RTVSPropertyOp9
 70
     1
102
RTVSPropertyOp10
 70
     1
102
RTVSPropertyOp11
 70
     1
102
RTVSPropertyOp12
 70
     1
102
RTVSPropertyOp13
 70
     1
102
RTVSPropertyOp14
 70
     1
102
RTVSPropertyOp15
 70
     1
102
RTVSPropertyOp16
 70
     1
102
RTVSPropertyOp17
 70
     1
102
RTVSPropertyOp18
 70
     1
102
RTVSPropertyOp19
 70
     1
102
RTVSPropertyOp20
 70
     1
102
RTVSPropertyOp21
 70
     1
102
RTVSPropertyOp22
 70
     1
102
RTVSPropertyOp23
 70
     1
102
RTVSPropertyOp24
 70
     1
102
RTVSPropertyOp25
 70
     1
102
RTVSPropertyOp26
 70
     1
102
RTVSPropertyOp27
 70
     1
102
RTVSPropertyOp28
 70
     1
102
RTVSPropertyOp29
 70
     1
102
RTVSPropertyOp30
 70
     1
102
RTVSPropertyOp31
 70
     1
102
RTVSPropertyOp32
 70
     1
  0
XRECORD
  5
2C63
102
{ACAD_REACTORS
330
2C62
102
}
330
2C62
100
AcDbXrecord
280
     1
102
RTVSPropertyOp0
 70
     0
102
RTVSPropertyOp1
 70
     0
102
RTVSPropertyOp2
 70
     0
102
RTVSPropertyOp3
 70
     0
102
RTVSPropertyOp4
 70
     0
102
RTVSPropertyOp5
 70
     0
102
RTVSPropertyOp6
 70
     0
102
RTVSPropertyOp7
 70
     0
102
RTVSPropertyOp8
 70
     0
102
RTVSPropertyOp9
 70
     0
102
RTVSPropertyOp10
 70
     0
102
RTVSPropertyOp11
 70
     0
102
RTVSPropertyOp12
 70
     0
102
RTVSPropertyOp13
 70
     0
102
RTVSPropertyOp14
 70
     2
102
RTVSPropertyOp15
 70
     0
102
RTVSPropertyOp16
 70
     0
102
RTVSPropertyOp17
 70
     0
102
RTVSPropertyOp18
 70
     0
102
RTVSPropertyOp19
 70
     0
102
RTVSPropertyOp20
 70
     0
102
RTVSPropertyOp21
 70
     0
102
RTVSPropertyOp22
 70
     0
102
RTVSPropertyOp23
 70
     0
102
RTVSPropertyOp24
 70
     0
102
RTVSPropertyOp25
 70
     0
102
RTVSPropertyOp26
 70
     0
102
RTVSPropertyOp27
 70
     0
102
RTVSPropertyOp28
 70
     0
102
RTVSPropertyOp29
 70
     0
102
RTVSPropertyOp30
 70
     0
102
RTVSPropertyOp31
 70
     0
102
RTVSPropertyOp32
 70
     0
  0
XRECORD
  5
2C49
102
{ACAD_REACTORS
330
2C48
102
}
330
2C48
100
AcDbXrecord
280
     1
102
RTVSPropertyOp0
 70
     1
102
RTVSPropertyOp1
 70
     1
102
RTVSPropertyOp2
 70
     1
102
RTVSPropertyOp3
 70
     1
102
RTVSPropertyOp4
 70
     1
102
RTVSPropertyOp5
 70
     1
102
RTVSPropertyOp6
 70
     1
102
RTVSPropertyOp7
 70
     1
102
RTVSPropertyOp8
 70
     1
102
RTVSPropertyOp9
 70
     1
102
RTVSPropertyOp10
 70
     1
102
RTVSPropertyOp11
 70
     1
102
RTVSPropertyOp12
 70
     1
102
RTVSPropertyOp13
 70
     1
102
RTVSPropertyOp14
 70
     1
102
RTVSPropertyOp15
 70
     1
102
RTVSPropertyOp16
 70
     1
102
RTVSPropertyOp17
 70
     1
102
RTVSPropertyOp18
 70
     1
102
RTVSPropertyOp19
 70
     1
102
RTVSPropertyOp20
 70
     1
102
RTVSPropertyOp21
 70
     1
102
RTVSPropertyOp22
 70
     1
102
RTVSPropertyOp23
 70
     1
102
RTVSPropertyOp24
 70
     1
102
RTVSPropertyOp25
 70
     1
102
RTVSPropertyOp26
 70
     1
102
RTVSPropertyOp27
 70
     1
102
RTVSPropertyOp28
 70
     1
102
RTVSPropertyOp29
 70
     1
102
RTVSPropertyOp30
 70
     1
102
RTVSPropertyOp31
 70
     1
102
RTVSPropertyOp32
 70
     1
  0
XRECORD
  5
2C5F
102
{ACAD_REACTORS
330
2C5E
102
}
330
2C5E
100
AcDbXrecord
280
     1
102
RTVSPropertyOp0
 70
     1
102
RTVSPropertyOp1
 70
     1
102
RTVSPropertyOp2
 70
     1
102
RTVSPropertyOp3
 70
     1
102
RTVSPropertyOp4
 70
     1
102
RTVSPropertyOp5
 70
     1
102
RTVSPropertyOp6
 70
     1
102
RTVSPropertyOp7
 70
     1
102
RTVSPropertyOp8
 70
     1
102
RTVSPropertyOp9
 70
     1
102
RTVSPropertyOp10
 70
     1
102
RTVSPropertyOp11
 70
     1
102
RTVSPropertyOp12
 70
     1
102
RTVSPropertyOp13
 70
     1
102
RTVSPropertyOp14
 70
     1
102
RTVSPropertyOp15
 70
     1
102
RTVSPropertyOp16
 70
     1
102
RTVSPropertyOp17
 70
     1
102
RTVSPropertyOp18
 70
     1
102
RTVSPropertyOp19
 70
     1
102
RTVSPropertyOp20
 70
     1
102
RTVSPropertyOp21
 70
     1
102
RTVSPropertyOp22
 70
     1
102
RTVSPropertyOp23
 70
     1
102
RTVSPropertyOp24
 70
     1
102
RTVSPropertyOp25
 70
     1
102
RTVSPropertyOp26
 70
     1
102
RTVSPropertyOp27
 70
     1
102
RTVSPropertyOp28
 70
     1
102
RTVSPropertyOp29
 70
     1
102
RTVSPropertyOp30
 70
     1
102
RTVSPropertyOp31
 70
     1
102
RTVSPropertyOp32
 70
     1
  0
XRECORD
  5
2C5D
102
{ACAD_REACTORS
330
2C5C
102
}
330
2C5C
100
AcDbXrecord
280
     1
102
RTVSPropertyOp0
 70
     1
102
RTVSPropertyOp1
 70
     1
102
RTVSPropertyOp2
 70
     1
102
RTVSPropertyOp3
 70
     1
102
RTVSPropertyOp4
 70
     1
102
RTVSPropertyOp5
 70
     1
102
RTVSPropertyOp6
 70
     1
102
RTVSPropertyOp7
 70
     1
102
RTVSPropertyOp8
 70
     1
102
RTVSPropertyOp9
 70
     1
102
RTVSPropertyOp10
 70
     1
102
RTVSPropertyOp11
 70
     1
102
RTVSPropertyOp12
 70
     1
102
RTVSPropertyOp13
 70
     1
102
RTVSPropertyOp14
 70
     1
102
RTVSPropertyOp15
 70
     1
102
RTVSPropertyOp16
 70
     1
102
RTVSPropertyOp17
 70
     1
102
RTVSPropertyOp18
 70
     1
102
RTVSPropertyOp19
 70
     1
102
RTVSPropertyOp20
 70
     1
102
RTVSPropertyOp21
 70
     1
102
RTVSPropertyOp22
 70
     1
102
RTVSPropertyOp23
 70
     1
102
RTVSPropertyOp24
 70
     1
102
RTVSPropertyOp25
 70
     1
102
RTVSPropertyOp26
 70
     1
102
RTVSPropertyOp27
 70
     1
102
RTVSPropertyOp28
 70
     1
102
RTVSPropertyOp29
 70
     1
102
RTVSPropertyOp30
 70
     1
102
RTVSPropertyOp31
 70
     1
102
RTVSPropertyOp32
 70
     1
  0
XRECORD
  5
2C57
102
{ACAD_REACTORS
330
2C56
102
}
330
2C56
100
AcDbXrecord
280
     1
102
RTVSPropertyOp0
 70
     1
102
RTVSPropertyOp1
 70
     1
102
RTVSPropertyOp2
 70
     1
102
RTVSPropertyOp3
 70
     1
102
RTVSPropertyOp4
 70
     1
102
RTVSPropertyOp5
 70
     1
102
RTVSPropertyOp6
 70
     1
102
RTVSPropertyOp7
 70
     1
102
RTVSPropertyOp8
 70
     1
102
RTVSPropertyOp9
 70
     1
102
RTVSPropertyOp10
 70
     1
102
RTVSPropertyOp11
 70
     1
102
RTVSPropertyOp12
 70
     1
102
RTVSPropertyOp13
 70
     1
102
RTVSPropertyOp14
 70
     1
102
RTVSPropertyOp15
 70
     1
102
RTVSPropertyOp16
 70
     1
102
RTVSPropertyOp17
 70
     1
102
RTVSPropertyOp18
 70
     1
102
RTVSPropertyOp19
 70
     1
102
RTVSPropertyOp20
 70
     1
102
RTVSPropertyOp21
 70
     1
102
RTVSPropertyOp22
 70
     1
102
RTVSPropertyOp23
 70
     1
102
RTVSPropertyOp24
 70
     1
102
RTVSPropertyOp25
 70
     1
102
RTVSPropertyOp26
 70
     1
102
RTVSPropertyOp27
 70
     1
102
RTVSPropertyOp28
 70
     1
102
RTVSPropertyOp29
 70
     1
102
RTVSPropertyOp30
 70
     1
102
RTVSPropertyOp31
 70
     1
102
RTVSPropertyOp32
 70
     1
  0
XRECORD
  5
2C59
102
{ACAD_REACTORS
330
2C58
102
}
330
2C58
100
AcDbXrecord
280
     1
102
RTVSPropertyOp0
 70
     1
102
RTVSPropertyOp1
 70
     1
102
RTVSPropertyOp2
 70
     1
102
RTVSPropertyOp3
 70
     1
102
RTVSPropertyOp4
 70
     1
102
RTVSPropertyOp5
 70
     1
102
RTVSPropertyOp6
 70
     1
102
RTVSPropertyOp7
 70
     1
102
RTVSPropertyOp8
 70
     1
102
RTVSPropertyOp9
 70
     1
102
RTVSPropertyOp10
 70
     1
102
RTVSPropertyOp11
 70
     1
102
RTVSPropertyOp12
 70
     1
102
RTVSPropertyOp13
 70
     1
102
RTVSPropertyOp14
 70
     1
102
RTVSPropertyOp15
 70
     1
102
RTVSPropertyOp16
 70
     1
102
RTVSPropertyOp17
 70
     1
102
RTVSPropertyOp18
 70
     1
102
RTVSPropertyOp19
 70
     1
102
RTVSPropertyOp20
 70
     1
102
RTVSPropertyOp21
 70
     1
102
RTVSPropertyOp22
 70
     1
102
RTVSPropertyOp23
 70
     1
102
RTVSPropertyOp24
 70
     1
102
RTVSPropertyOp25
 70
     1
102
RTVSPropertyOp26
 70
     1
102
RTVSPropertyOp27
 70
     1
102
RTVSPropertyOp28
 70
     1
102
RTVSPropertyOp29
 70
     1
102
RTVSPropertyOp30
 70
     1
102
RTVSPropertyOp31
 70
     1
102
RTVSPropertyOp32
 70
     1
  0
XRECORD
  5
2C4F
102
{ACAD_REACTORS
330
2C4E
102
}
330
2C4E
100
AcDbXrecord
280
     1
102
RTVSPropertyOp0
 70
     1
102
RTVSPropertyOp1
 70
     1
102
RTVSPropertyOp2
 70
     1
102
RTVSPropertyOp3
 70
     1
102
RTVSPropertyOp4
 70
     1
102
RTVSPropertyOp5
 70
     1
102
RTVSPropertyOp6
 70
     1
102
RTVSPropertyOp7
 70
     1
102
RTVSPropertyOp8
 70
     1
102
RTVSPropertyOp9
 70
     1
102
RTVSPropertyOp10
 70
     1
102
RTVSPropertyOp11
 70
     1
102
RTVSPropertyOp12
 70
     1
102
RTVSPropertyOp13
 70
     1
102
RTVSPropertyOp14
 70
     1
102
RTVSPropertyOp15
 70
     1
102
RTVSPropertyOp16
 70
     1
102
RTVSPropertyOp17
 70
     1
102
RTVSPropertyOp18
 70
     1
102
RTVSPropertyOp19
 70
     1
102
RTVSPropertyOp20
 70
     1
102
RTVSPropertyOp21
 70
     1
102
RTVSPropertyOp22
 70
     1
102
RTVSPropertyOp23
 70
     1
102
RTVSPropertyOp24
 70
     1
102
RTVSPropertyOp25
 70
     1
102
RTVSPropertyOp26
 70
     1
102
RTVSPropertyOp27
 70
     1
102
RTVSPropertyOp28
 70
     1
102
RTVSPropertyOp29
 70
     1
102
RTVSPropertyOp30
 70
     1
102
RTVSPropertyOp31
 70
     1
102
RTVSPropertyOp32
 70
     1
  0
XRECORD
  5
2C43
102
{ACAD_REACTORS
330
2C42
102
}
330
2C42
100
AcDbXrecord
280
     1
102
RTVSPropertyOp0
 70
     1
102
RTVSPropertyOp1
 70
     1
102
RTVSPropertyOp2
 70
     1
102
RTVSPropertyOp3
 70
     1
102
RTVSPropertyOp4
 70
     1
102
RTVSPropertyOp5
 70
     1
102
RTVSPropertyOp6
 70
     1
102
RTVSPropertyOp7
 70
     1
102
RTVSPropertyOp8
 70
     1
102
RTVSPropertyOp9
 70
     1
102
RTVSPropertyOp10
 70
     1
102
RTVSPropertyOp11
 70
     1
102
RTVSPropertyOp12
 70
     1
102
RTVSPropertyOp13
 70
     1
102
RTVSPropertyOp14
 70
     1
102
RTVSPropertyOp15
 70
     1
102
RTVSPropertyOp16
 70
     1
102
RTVSPropertyOp17
 70
     1
102
RTVSPropertyOp18
 70
     1
102
RTVSPropertyOp19
 70
     1
102
RTVSPropertyOp20
 70
     1
102
RTVSPropertyOp21
 70
     1
102
RTVSPropertyOp22
 70
     1
102
RTVSPropertyOp23
 70
     1
102
RTVSPropertyOp24
 70
     1
102
RTVSPropertyOp25
 70
     1
102
RTVSPropertyOp26
 70
     1
102
RTVSPropertyOp27
 70
     1
102
RTVSPropertyOp28
 70
     1
102
RTVSPropertyOp29
 70
     1
102
RTVSPropertyOp30
 70
     1
102
RTVSPropertyOp31
 70
     1
102
RTVSPropertyOp32
 70
     1
  0
XRECORD
  5
2C5B
102
{ACAD_REACTORS
330
2C5A
102
}
330
2C5A
100
AcDbXrecord
280
     1
102
RTVSPropertyOp0
 70
     1
102
RTVSPropertyOp1
 70
     1
102
RTVSPropertyOp2
 70
     1
102
RTVSPropertyOp3
 70
     1
102
RTVSPropertyOp4
 70
     1
102
RTVSPropertyOp5
 70
     1
102
RTVSPropertyOp6
 70
     1
102
RTVSPropertyOp7
 70
     1
102
RTVSPropertyOp8
 70
     1
102
RTVSPropertyOp9
 70
     1
102
RTVSPropertyOp10
 70
     1
102
RTVSPropertyOp11
 70
     1
102
RTVSPropertyOp12
 70
     1
102
RTVSPropertyOp13
 70
     1
102
RTVSPropertyOp14
 70
     1
102
RTVSPropertyOp15
 70
     1
102
RTVSPropertyOp16
 70
     1
102
RTVSPropertyOp17
 70
     1
102
RTVSPropertyOp18
 70
     1
102
RTVSPropertyOp19
 70
     1
102
RTVSPropertyOp20
 70
     1
102
RTVSPropertyOp21
 70
     1
102
RTVSPropertyOp22
 70
     1
102
RTVSPropertyOp23
 70
     1
102
RTVSPropertyOp24
 70
     1
102
RTVSPropertyOp25
 70
     1
102
RTVSPropertyOp26
 70
     1
102
RTVSPropertyOp27
 70
     1
102
RTVSPropertyOp28
 70
     1
102
RTVSPropertyOp29
 70
     1
102
RTVSPropertyOp30
 70
     1
102
RTVSPropertyOp31
 70
     1
102
RTVSPropertyOp32
 70
     1
  0
ENDSEC
  0
EOF
