  0
SECTION
  2
HEADER
  9
$ACADVER
  1
AC1015
  9
$ACADMAINTVER
 70
    20
  9
$DWGCODEPAGE
  3
ANSI_1252
  9
$INSBASE
 10
0.0
 20
0.0
 30
0.0
  9
$EXTMIN
 10
233.7344289682552
 20
363.0298762180945
 30
0.0
  9
$EXTMAX
 10
340.204030430048
 20
439.0831840468205
 30
0.0
  9
$LIMMIN
 10
-600.0
 20
-600.0
  9
$LIMMAX
 10
600.0
 20
600.0
  9
$ORTHOMODE
 70
     1
  9
$REGENMODE
 70
     1
  9
$FILLMODE
 70
     1
  9
$QTEXTMODE
 70
     0
  9
$MIRRTEXT
 70
     1
  9
$LTSCALE
 40
1.0
  9
$ATTMODE
 70
     1
  9
$TEXTSIZE
 40
2.5
  9
$TRACEWID
 40
0.5
  9
$TEXTSTYLE
  7
STANDARD
  9
$CLAYER
  8
0
  9
$CELTYPE
  6
BYLAYER
  9
$CECOLOR
 62
   256
  9
$CELTSCALE
 40
1.0
  9
$DISPSILH
 70
     0
  9
$DIMSCALE
 40
1.0
  9
$DIMASZ
 40
0.18
  9
$DIMEXO
 40
0.0625
  9
$DIMDLI
 40
0.38
  9
$DIMRND
 40
0.0
  9
$DIMDLE
 40
0.0
  9
$DIMEXE
 40
0.18
  9
$DIMTP
 40
0.0
  9
$DIMTM
 40
0.0
  9
$DIMTXT
 40
0.18
  9
$DIMCEN
 40
0.09
  9
$DIMTSZ
 40
0.0
  9
$DIMTOL
 70
     0
  9
$DIMLIM
 70
     0
  9
$DIMTIH
 70
     1
  9
$DIMTOH
 70
     1
  9
$DIMSE1
 70
     0
  9
$DIMSE2
 70
     0
  9
$DIMTAD
 70
     0
  9
$DIMZIN
 70
     0
  9
$DIMBLK
  1

  9
$DIMASO
 70
     1
  9
$DIMSHO
 70
     1
  9
$DIMPOST
  1

  9
$DIMAPOST
  1

  9
$DIMALT
 70
     0
  9
$DIMALTD
 70
     2
  9
$DIMALTF
 40
25.4
  9
$DIMLFAC
 40
1.0
  9
$DIMTOFL
 70
     0
  9
$DIMTVP
 40
0.0
  9
$DIMTIX
 70
     0
  9
$DIMSOXD
 70
     0
  9
$DIMSAH
 70
     0
  9
$DIMBLK1
  1

  9
$DIMBLK2
  1

  9
$DIMSTYLE
  2
STANDARD
  9
$DIMCLRD
 70
     0
  9
$DIMCLRE
 70
     0
  9
$DIMCLRT
 70
     0
  9
$DIMTFAC
 40
1.0
  9
$DIMGAP
 40
0.09
  9
$DIMJUST
 70
     0
  9
$DIMSD1
 70
     0
  9
$DIMSD2
 70
     0
  9
$DIMTOLJ
 70
     1
  9
$DIMTZIN
 70
     0
  9
$DIMALTZ
 70
     0
  9
$DIMALTTZ
 70
     0
  9
$DIMUPT
 70
     0
  9
$DIMDEC
 70
     4
  9
$DIMTDEC
 70
     4
  9
$DIMALTU
 70
     2
  9
$DIMALTTD
 70
     2
  9
$DIMTXSTY
  7
STANDARD
  9
$DIMAUNIT
 70
     0
  9
$DIMADEC
 70
     0
  9
$DIMALTRND
 40
0.0
  9
$DIMAZIN
 70
     0
  9
$DIMDSEP
 70
    46
  9
$DIMATFIT
 70
     3
  9
$DIMFRAC
 70
     0
  9
$DIMLDRBLK
  1

  9
$DIMLUNIT
 70
     2
  9
$DIMLWD
 70
    -2
  9
$DIMLWE
 70
    -2
  9
$DIMTMOVE
 70
     0
  9
$LUNITS
 70
     2
  9
$LUPREC
 70
     4
  9
$SKETCHINC
 40
0.1
  9
$FILLETRAD
 40
2.0
  9
$AUNITS
 70
     0
  9
$AUPREC
 70
     0
  9
$MENU
  1
ACAD
  9
$ELEVATION
 40
0.0
  9
$PELEVATION
 40
0.0
  9
$THICKNESS
 40
0.0
  9
$LIMCHECK
 70
     0
  9
$CHAMFERA
 40
0.0
  9
$CHAMFERB
 40
0.0
  9
$CHAMFERC
 40
0.0
  9
$CHAMFERD
 40
0.0
  9
$SKPOLY
 70
     0
  9
$TDCREATE
 40
2452243.534263056
  9
$TDUCREATE
 40
2452243.867596389
  9
$TDUPDATE
 40
2455170.479848021
  9
$TDUUPDATE
 40
2455170.813181354
  9
$TDINDWG
 40
0.2179598843
  9
$TDUSRTIMER
 40
0.2179554861
  9
$USRTIMER
 70
     1
  9
$ANGBASE
 50
0.0
  9
$ANGDIR
 70
     0
  9
$PDMODE
 70
     0
  9
$PDSIZE
 40
0.0
  9
$PLINEWID
 40
0.0
  9
$SPLFRAME
 70
     0
  9
$SPLINETYPE
 70
     6
  9
$SPLINESEGS
 70
     8
  9
$HANDSEED
  5
1BB3
  9
$SURFTAB1
 70
     6
  9
$SURFTAB2
 70
     6
  9
$SURFTYPE
 70
     6
  9
$SURFU
 70
     6
  9
$SURFV
 70
     6
  9
$UCSBASE
  2

  9
$UCSNAME
  2

  9
$UCSORG
 10
0.0
 20
0.0
 30
0.0
  9
$UCSXDIR
 10
1.0
 20
0.0
 30
0.0
  9
$UCSYDIR
 10
0.0
 20
1.0
 30
0.0
  9
$UCSORTHOREF
  2

  9
$UCSORTHOVIEW
 70
     0
  9
$UCSORGTOP
 10
0.0
 20
0.0
 30
0.0
  9
$UCSORGBOTTOM
 10
0.0
 20
0.0
 30
0.0
  9
$UCSORGLEFT
 10
0.0
 20
0.0
 30
0.0
  9
$UCSORGRIGHT
 10
0.0
 20
0.0
 30
0.0
  9
$UCSORGFRONT
 10
0.0
 20
0.0
 30
0.0
  9
$UCSORGBACK
 10
0.0
 20
0.0
 30
0.0
  9
$PUCSBASE
  2

  9
$PUCSNAME
  2

  9
$PUCSORG
 10
0.0
 20
0.0
 30
0.0
  9
$PUCSXDIR
 10
1.0
 20
0.0
 30
0.0
  9
$PUCSYDIR
 10
0.0
 20
1.0
 30
0.0
  9
$PUCSORTHOREF
  2

  9
$PUCSORTHOVIEW
 70
     0
  9
$PUCSORGTOP
 10
0.0
 20
0.0
 30
0.0
  9
$PUCSORGBOTTOM
 10
0.0
 20
0.0
 30
0.0
  9
$PUCSORGLEFT
 10
0.0
 20
0.0
 30
0.0
  9
$PUCSORGRIGHT
 10
0.0
 20
0.0
 30
0.0
  9
$PUCSORGFRONT
 10
0.0
 20
0.0
 30
0.0
  9
$PUCSORGBACK
 10
0.0
 20
0.0
 30
0.0
  9
$USERI1
 70
     0
  9
$USERI2
 70
     0
  9
$USERI3
 70
     0
  9
$USERI4
 70
     0
  9
$USERI5
 70
     0
  9
$USERR1
 40
0.0
  9
$USERR2
 40
0.0
  9
$USERR3
 40
0.0
  9
$USERR4
 40
0.0
  9
$USERR5
 40
0.0
  9
$WORLDVIEW
 70
     1
  9
$SHADEDGE
 70
     3
  9
$SHADEDIF
 70
    70
  9
$TILEMODE
 70
     0
  9
$MAXACTVP
 70
    64
  9
$PINSBASE
 10
0.0
 20
0.0
 30
0.0
  9
$PLIMCHECK
 70
     0
  9
$PEXTMIN
 10
1.049999952316283
 20
0.7999999523162847
 30
0.0
  9
$PEXTMAX
 10
9.449999570846557
 20
7.199999570846557
 30
0.0
  9
$PLIMMIN
 10
-0.2500002402958907
 20
-0.2499999962453767
  9
$PLIMMAX
 10
10.74999951940822
 20
8.249999763458731
  9
$UNITMODE
 70
     0
  9
$VISRETAIN
 70
     1
  9
$PLINEGEN
 70
     0
  9
$PSLTSCALE
 70
     1
  9
$TREEDEPTH
 70
  3020
  9
$CMLSTYLE
  2
STANDARD
  9
$CMLJUST
 70
     0
  9
$CMLSCALE
 40
1.0
  9
$PROXYGRAPHICS
 70
     1
  9
$MEASUREMENT
 70
     0
  9
$CELWEIGHT
370
    -1
  9
$ENDCAPS
280
     0
  9
$JOINSTYLE
280
     0
  9
$LWDISPLAY
290
     0
  9
$INSUNITS
 70
     0
  9
$HYPERLINKBASE
  1

  9
$STYLESHEET
  1

  9
$XEDIT
290
     1
  9
$CEPSNTYPE
380
     0
  9
$PSTYLEMODE
290
     1
  9
$FINGERPRINTGUID
  2
{16A4AAEA-CDF9-44DA-8D2D-CBCC8D1C34BB}
  9
$VERSIONGUID
  2
{06B73036-B358-4CAC-A7DD-E0EF2630C739}
  9
$EXTNAMES
290
     1
  9
$PSVPSCALE
 40
0.0
  9
$OLESTARTUP
290
     0
  0
ENDSEC
  0
SECTION
  2
CLASSES
  0
CLASS
  1
ACDBDICTIONARYWDFLT
  2
AcDbDictionaryWithDefault
  3
ObjectDBX Classes
 90
        0
280
     0
281
     0
  0
CLASS
  1
ACDBPLACEHOLDER
  2
AcDbPlaceHolder
  3
ObjectDBX Classes
 90
        0
280
     0
281
     0
  0
CLASS
  1
LAYOUT
  2
AcDbLayout
  3
ObjectDBX Classes
 90
        0
280
     0
281
     0
  0
CLASS
  1
DICTIONARYVAR
  2
AcDbDictionaryVar
  3
ObjectDBX Classes
 90
        0
280
     0
281
     0
  0
CLASS
  1
TABLESTYLE
  2
AcDbTableStyle
  3
ObjectDBX Classes
 90
     4095
280
     0
281
     0
  0
CLASS
  1
MATERIAL
  2
AcDbMaterial
  3
ObjectDBX Classes
 90
     1024
280
     0
281
     0
  0
CLASS
  1
VISUALSTYLE
  2
AcDbVisualStyle
  3
ObjectDBX Classes
 90
     4095
280
     0
281
     0
  0
ENDSEC
  0
SECTION
  2
TABLES
  0
TABLE
  2
VPORT
  5
D0A
102
{ACAD_XDICTIONARY
360
1B4B
102
}
330
0
100
AcDbSymbolTable
 70
     1
  0
VPORT
  5
1A09
330
D0A
100
AcDbSymbolTableRecord
100
AcDbViewportTableRecord
  2
*Active
 70
     0
 10
0.0
 20
0.0
 11
1.0
 21
1.0
 12
286.9720490264849
 22
401.0467561905351
 13
0.0
 23
0.0
 14
1.0
 24
1.0
 15
0.0
 25
0.0
 16
0.0
 26
0.0
 36
1.0
 17
0.0
 27
0.0
 37
0.0
 40
76.72144725741169
 41
1.646976090014064
 42
50.0
 43
0.0
 44
0.0
 50
0.0
 51
0.0
 71
     0
 72
   100
 73
     1
 74
     1
 75
     0
 76
     0
 77
     0
 78
     0
281
     0
 65
     1
110
0.0
120
0.0
130
0.0
111
1.0
121
0.0
131
0.0
112
0.0
122
1.0
132
0.0
 79
     0
146
0.0
  0
ENDTAB
  0
TABLE
  2
LTYPE
  5
D07
330
0
100
AcDbSymbolTable
 70
     3
  0
LTYPE
  5
D15
330
D07
100
AcDbSymbolTableRecord
100
AcDbLinetypeTableRecord
  2
BYBLOCK
 70
     0
  3

 72
    65
 73
     0
 40
0.0
  0
LTYPE
  5
D16
330
D07
100
AcDbSymbolTableRecord
100
AcDbLinetypeTableRecord
  2
BYLAYER
 70
     0
  3

 72
    65
 73
     0
 40
0.0
  0
LTYPE
  5
D17
330
D07
100
AcDbSymbolTableRecord
100
AcDbLinetypeTableRecord
  2
CONTINUOUS
 70
     0
  3
Solid line
 72
    65
 73
     0
 40
0.0
  0
LTYPE
  5
D27
330
D07
100
AcDbSymbolTableRecord
100
AcDbLinetypeTableRecord
  2
DASHDOT
 70
     0
  3
__ . __ . __ .
 72
    65
 73
     4
 40
31.57894736842104
 49
15.78947368421052
 74
     0
 49
-7.894736842105261
 74
     0
 49
0.0
 74
     0
 49
-7.894736842105261
 74
     0
  0
LTYPE
  5
1A36
330
D07
100
AcDbSymbolTableRecord
100
AcDbLinetypeTableRecord
  2
DASHED
 70
     0
  3
__ __ __ __ __
 72
    65
 73
     2
 40
23.68421052631578
 49
15.78947368421052
 74
     0
 49
-7.894736842105261
 74
     0
  0
ENDTAB
  0
TABLE
  2
LAYER
  5
D04
330
0
100
AcDbSymbolTable
 70
     4
  0
LAYER
  5
D12
330
D04
100
AcDbSymbolTableRecord
100
AcDbLayerTableRecord
  2
0
 70
     0
 62
     7
  6
CONTINUOUS
370
    -3
390
D11
  0
LAYER
  5
1A24
330
D04
100
AcDbSymbolTableRecord
100
AcDbLayerTableRecord
  2
Defpoints
 70
     0
 62
     7
  6
CONTINUOUS
290
     0
370
    -3
390
D11
  0
LAYER
  5
1A37
330
D04
100
AcDbSymbolTableRecord
100
AcDbLayerTableRecord
  2
1
 70
     0
 62
     4
  6
CONTINUOUS
370
    -3
390
D11
  0
LAYER
  5
1A38
330
D04
100
AcDbSymbolTableRecord
100
AcDbLayerTableRecord
  2
DIM
 70
     0
 62
     3
  6
CONTINUOUS
370
    -3
390
D11
  0
ENDTAB
  0
TABLE
  2
STYLE
  5
D05
330
0
100
AcDbSymbolTable
 70
     1
  0
STYLE
  5
D13
330
D05
100
AcDbSymbolTableRecord
100
AcDbTextStyleTableRecord
  2
STANDARD
 70
     0
 40
0.0
 41
1.0
 50
0.0
 71
     0
 42
2.5
  3
txt
  4
bigfont
  0
ENDTAB
  0
TABLE
  2
VIEW
  5
D08
330
0
100
AcDbSymbolTable
 70
     0
  0
ENDTAB
  0
TABLE
  2
UCS
  5
D09
330
0
100
AcDbSymbolTable
 70
     0
  0
ENDTAB
  0
TABLE
  2
APPID
  5
D0B
330
0
100
AcDbSymbolTable
 70
     4
  0
APPID
  5
D14
330
D0B
100
AcDbSymbolTableRecord
100
AcDbRegAppTableRecord
  2
ACAD
 70
     0
  0
APPID
  5
19E2
330
D0B
100
AcDbSymbolTableRecord
100
AcDbRegAppTableRecord
  2
ACAD_EXEMPT_FROM_CAD_STANDARDS
 70
     0
  0
APPID
  5
1B87
330
D0B
100
AcDbSymbolTableRecord
100
AcDbRegAppTableRecord
  2
ACAD_PSEXT
 70
     0
  0
APPID
  5
1B8D
330
D0B
100
AcDbSymbolTableRecord
100
AcDbRegAppTableRecord
  2
DCO15
 70
     0
  0
ENDTAB
  0
TABLE
  2
DIMSTYLE
  5
D0C
330
0
100
AcDbSymbolTable
 70
     1
100
AcDbDimStyleTable
 71
     1
340
D2E
  0
DIMSTYLE
105
D2E
330
D0C
100
AcDbSymbolTableRecord
100
AcDbDimStyleTableRecord
  2
STANDARD
 70
     0
340
D13
  0
ENDTAB
  0
TABLE
  2
BLOCK_RECORD
  5
D03
330
0
100
AcDbSymbolTable
 70
     0
  0
BLOCK_RECORD
  5
D20
102
{ACAD_XDICTIONARY
360
19D1
102
}
330
D03
100
AcDbSymbolTableRecord
100
AcDbBlockTableRecord
  2
*MODEL_SPACE
340
19DB
  0
BLOCK_RECORD
  5
D1C
102
{ACAD_XDICTIONARY
360
19CF
102
}
330
D03
100
AcDbSymbolTableRecord
100
AcDbBlockTableRecord
  2
*PAPER_SPACE
340
19DC
  0
ENDTAB
  0
ENDSEC
  0
SECTION
  2
BLOCKS
  0
BLOCK
  5
D21
330
D20
100
AcDbEntity
  8
0
100
AcDbBlockBegin
  2
*MODEL_SPACE
 70
     0
 10
0.0
 20
0.0
 30
0.0
  3
*MODEL_SPACE
  1

  0
ENDBLK
  5
D22
330
D20
100
AcDbEntity
  8
0
100
AcDbBlockEnd
  0
BLOCK
  5
D1D
330
D1C
100
AcDbEntity
 67
     1
  8
0
100
AcDbBlockBegin
  2
*PAPER_SPACE
 70
     0
 10
0.0
 20
0.0
 30
0.0
  3
*PAPER_SPACE
  1

  0
ENDBLK
  5
D1E
330
D1C
100
AcDbEntity
 67
     1
  8
0
100
AcDbBlockEnd
  0
ENDSEC
  0
SECTION
  2
ENTITIES
  0
LINE
  5
D37
330
D20
100
AcDbEntity
  8
0
 62
     7
100
AcDbLine
 10
276.8564046830884
 20
374.5485650852383
 30
0.0
 11
276.8564046830884
 21
395.8475224396007
 31
0.0
  0
LINE
  5
D38
330
D20
100
AcDbEntity
  8
0
 62
     7
100
AcDbLine
 10
276.6201870417452
 20
374.4698258714572
 30
0.0
 11
276.7776654693073
 21
374.4698258714572
 31
0.0
  0
ARC
  5
D39
330
D20
100
AcDbEntity
  8
0
 62
     7
100
AcDbCircle
 10
276.6201870417452
 20
387.0681000917877
 30
0.0
 40
12.59827422034735
100
AcDbArc
 50
234.6548785698902
 51
270.0
  0
LINE
  5
D64
330
D20
100
AcDbEntity
  8
0
 62
     7
100
AcDbLine
 10
244.0198032221708
 20
379.0398119578449
 30
0.0
 11
244.0198032221708
 21
379.1591787132053
 31
0.0
  0
LINE
  5
D65
330
D20
100
AcDbEntity
  8
0
 62
     7
100
AcDbLine
 10
276.7776654693073
 20
395.9262616533818
 30
0.0
 11
273.0137273082224
 21
395.9262616533818
 31
0.0
  0
LINE
  5
D85
330
D20
100
AcDbEntity
  8
0
 62
     7
100
AcDbLine
 10
242.4747920562936
 20
395.9262616699172
 30
0.0
 11
245.5648143880477
 21
395.9262616699172
 31
0.0
  0
ARC
  5
D88
330
D20
100
AcDbEntity
  8
0
 62
     7
100
AcDbCircle
 10
263.0376726473794
 20
383.3279875995867
 30
0.0
 40
0.1968480338590988
100
AcDbArc
 50
89.7794377792791
 51
215.6389219852591
  0
ARC
  5
D89
330
D20
100
AcDbEntity
  8
0
 62
     7
100
AcDbCircle
 10
285.2748102427004
 20
399.271074340121
 30
0.0
 40
27.5587248564475
100
AcDbArc
 50
215.6389219699686
 51
234.6548785700055
  0
LINE
  5
D8A
330
D20
100
AcDbEntity
  8
0
 62
     7
100
AcDbLine
 10
272.8603466799449
 20
395.852797294799
 30
0.0
 11
262.8842920191019
 21
383.451371276047
 31
0.0
  0
ARC
  5
D8B
330
D20
100
AcDbEntity
  8
0
 62
     7
100
AcDbCircle
 10
273.0137273082224
 20
395.7294136183385
 30
0.0
 40
0.1968480338621988
100
AcDbArc
 50
90.0
 51
167.1076979662624
  0
LINE
  5
D96
330
D20
100
AcDbEntity
  8
0
 62
     7
100
AcDbLine
 10
239.1531854333786
 20
420.0062584603046
 30
0.0
 11
248.8864210109629
 21
420.0062584603046
 31
0.0
  0
ARC
  5
D9C
330
D20
100
AcDbEntity
  8
0
 62
     7
100
AcDbCircle
 10
244.0198032221708
 20
416.0692977665253
 30
0.0
 40
0.9055009590763919
100
AcDbArc
 50
195.8772958890999
 51
344.1227040489707
  0
ARC
  5
D9D
330
D20
100
AcDbEntity
  8
0
 62
     7
100
AcDbCircle
 10
244.0198032221708
 20
416.0692977665253
 30
0.0
 40
1.181088207866479
100
AcDbArc
 50
193.9722904829598
 51
346.0277094716858
  0
ARC
  5
DA0
330
D20
100
AcDbEntity
  8
0
 62
     7
100
AcDbCircle
 10
244.0198032221708
 20
417.6047124370283
 30
0.0
 40
1.574784276798578
100
AcDbArc
 50
184.5670078893026
 51
270.0
  0
ARC
  5
DB5
330
D20
100
AcDbEntity
  8
0
 62
     7
100
AcDbCircle
 10
244.0198032221708
 20
411.9583503396176
 30
0.0
 40
4.156669563001102
100
AcDbArc
 50
240.3775575198241
 51
299.6224424706948
  0
ARC
  5
DB6
330
D20
100
AcDbEntity
  8
0
 62
     7
100
AcDbCircle
 10
243.654651574129
 20
412.8189668518458
 30
0.0
 40
4.557921229025708
100
AcDbArc
 50
181.6419665898143
 51
215.1251501097504
  0
ARC
  5
DB7
330
D20
100
AcDbEntity
  8
0
 62
     7
100
AcDbCircle
 10
244.0198032221708
 20
407.8016803088798
 30
0.0
 40
8.267617456431134
100
AcDbArc
 50
89.07119024996978
 51
118.1019083099429
  0
ARC
  5
DB8
330
D20
100
AcDbEntity
  8
0
 62
     7
100
AcDbCircle
 10
244.0198032221708
 20
411.3055753262726
 30
0.0
 40
5.31489693549441
100
AcDbArc
 50
260.1652730494501
 51
279.8347269400911
  0
ARC
  5
DB9
330
D20
100
AcDbEntity
  8
0
 62
     7
100
AcDbCircle
 10
243.6499505764444
 20
413.4390832407444
 30
0.0
 40
7.480225317433657
100
AcDbArc
 50
279.8347269403356
 51
320.4481415900855
  0
ARC
  5
DBA
330
D20
100
AcDbEntity
  8
0
 62
     7
100
AcDbCircle
 10
242.3507793838471
 20
410.9272336400441
 30
0.0
 40
4.724352831607176
100
AcDbArc
 50
118.1019083099064
 51
139.5196493998749
  0
ARC
  5
DBB
330
D20
100
AcDbEntity
  8
0
 62
     7
100
AcDbCircle
 10
242.0513228752811
 20
411.1828161009255
 30
0.0
 40
4.33065676268387
100
AcDbArc
 50
139.5196493999018
 51
185.1157050197053
  0
ARC
  5
DBC
330
D20
100
AcDbEntity
  8
0
 62
     7
100
AcDbCircle
 10
241.6576268063756
 20
411.1828161009255
 30
0.0
 40
3.936960693783888
100
AcDbArc
 50
187.5491082003736
 51
219.5518584000427
  0
ARC
  5
DBD
330
D20
100
AcDbEntity
  8
0
 62
     7
100
AcDbCircle
 10
244.389655867897
 20
413.4390832407444
 30
0.0
 40
7.480225317466313
100
AcDbArc
 50
219.5051798299676
 51
260.1652730495866
  0
ARC
  5
DBE
330
D20
100
AcDbEntity
  8
0
 62
     7
100
AcDbCircle
 10
250.2008315116643
 20
413.1094171528339
 30
0.0
 40
12.59827422033593
100
AcDbArc
 50
165.9040299197786
 51
178.6976499301933
  0
ARC
  5
DBF
330
D20
100
AcDbEntity
  8
0
 62
     7
100
AcDbCircle
 10
244.0198032221708
 20
408.3922248805443
 30
0.0
 40
7.4802253174722
100
AcDbArc
 50
90.0
 51
124.8499036198912
  0
ARC
  5
DC0
330
D20
100
AcDbEntity
  8
0
 62
     7
100
AcDbCircle
 10
242.3876259538547
 20
412.5258708384326
 30
0.0
 40
3.293035673396481
100
AcDbArc
 50
141.5068179294173
 51
177.1716015690746
  0
ARC
  5
DC1
330
D20
100
AcDbEntity
  8
0
 62
     7
100
AcDbCircle
 10
241.6576268063756
 20
411.7846424819159
 30
0.0
 40
3.346416588630491
100
AcDbArc
 50
124.8499045702816
 51
140.8633043395695
  0
ARC
  5
DC2
330
D20
100
AcDbEntity
  8
0
 62
     7
100
AcDbCircle
 10
244.0198032221708
 20
389.8239725942048
 30
0.0
 40
6.299137109605213
100
AcDbArc
 50
142.8311003395767
 51
180.0
  0
ARC
  5
DC3
330
D20
100
AcDbEntity
  8
0
 62
     7
100
AcDbCircle
 10
243.3923635136669
 20
390.2996886785975
 30
0.0
 40
5.511744970530394
100
AcDbArc
 50
110.7419164802745
 51
142.8311003396677
  0
ARC
  5
DC4
330
D20
100
AcDbEntity
  8
0
 62
     7
100
AcDbCircle
 10
244.0198032221708
 20
387.7373834260529
 30
0.0
 40
5.629853791844699
100
AcDbArc
 50
90.0
 51
126.6605385800013
  0
ARC
  5
DC5
330
D20
100
AcDbEntity
  8
0
 62
     7
100
AcDbCircle
 10
243.429259118222
 20
389.8239725942048
 30
0.0
 40
5.708593005625799
100
AcDbArc
 50
180.0
 51
211.3669415601902
  0
ARC
  5
DC6
330
D20
100
AcDbEntity
  8
0
 62
     7
100
AcDbCircle
 10
244.9419696120862
 20
390.746137445147
 30
0.0
 40
7.480225317474093
100
AcDbArc
 50
211.366941560098
 51
238.6330001502563
  0
ARC
  5
DC7
330
D20
100
AcDbEntity
  8
0
 62
     7
100
AcDbCircle
 10
243.9804336158708
 20
388.9102005772643
 30
0.0
 40
4.881831260333391
100
AcDbArc
 50
162.5111905402009
 51
193.4109397596325
  0
ARC
  5
DC8
330
D20
100
AcDbEntity
  8
0
 62
     7
100
AcDbCircle
 10
244.0198032221708
 20
388.6428843863072
 30
0.0
 40
7.283377283661129
100
AcDbArc
 50
69.25808351013031
 51
110.7419164800905
  0
ARC
  5
DC9
330
D20
100
AcDbEntity
  8
0
 62
     7
100
AcDbCircle
 10
244.0198032221708
 20
387.7373834260529
 30
0.0
 40
5.629853791869408
100
AcDbArc
 50
53.33946140955855
 51
90.0
  0
ARC
  5
DCA
330
D20
100
AcDbEntity
  8
0
 62
     7
100
AcDbCircle
 10
245.1481162466425
 20
389.2533093052186
 30
0.0
 40
3.740112658765803
100
AcDbArc
 50
17.4888094505238
 51
53.33946141027004
  0
ARC
  5
DCB
330
D20
100
AcDbEntity
  8
0
 62
     7
100
AcDbCircle
 10
244.0591728296519
 20
388.9102005772643
 30
0.0
 40
4.881831260302559
100
AcDbArc
 50
346.5890602303252
 51
17.48880944947754
  0
ARC
  5
DCC
330
D20
100
AcDbEntity
  8
0
 62
     7
100
AcDbCircle
 10
243.0976368322552
 20
390.746137445147
 30
0.0
 40
7.480225317473809
100
AcDbArc
 50
301.366999840536
 51
328.6330584304177
  0
ARC
  5
DCD
330
D20
100
AcDbEntity
  8
0
 62
     7
100
AcDbCircle
 10
244.6103473261195
 20
389.8239725942048
 30
0.0
 40
5.708593005657826
100
AcDbArc
 50
328.6330584302117
 51
0.0
  0
ARC
  5
DCE
330
D20
100
AcDbEntity
  8
0
 62
     7
100
AcDbCircle
 10
244.0198032221708
 20
389.8239725942048
 30
0.0
 40
6.299137109574612
100
AcDbArc
 50
359.9999963204693
 51
37.16889964955323
  0
ARC
  5
DCF
330
D20
100
AcDbEntity
  8
0
 62
     7
100
AcDbCircle
 10
244.6472429306747
 20
390.2996886785975
 30
0.0
 40
5.511744970579683
100
AcDbArc
 50
37.16889964964414
 51
69.25808350968488
  0
ARC
  5
DD0
330
D20
100
AcDbEntity
  8
0
 62
     7
100
AcDbCircle
 10
244.0198032221708
 20
376.2808267561411
 30
0.0
 40
1.81100191814888
100
AcDbArc
 50
206.5112785898091
 51
270.0
  0
ARC
  5
DD1
330
D20
100
AcDbEntity
  8
0
 62
     7
100
AcDbCircle
 10
207.829181280331
 20
359.8712615918726
 30
0.0
 40
38.28615070590418
100
AcDbArc
 50
24.47400785996205
 51
31.34042123998718
  0
LINE
  5
DD2
330
D20
100
AcDbEntity
  8
0
 62
     7
100
AcDbLine
 10
242.4961335246344
 20
375.4540650108491
 30
0.0
 11
242.4785990392309
 21
375.4540650108491
 31
0.0
  0
ARC
  5
DD3
330
D20
100
AcDbEntity
  8
0
 62
     7
100
AcDbCircle
 10
242.4961335246344
 20
375.6509130447113
 30
0.0
 40
0.1968480338622007
100
AcDbArc
 50
270.0
 51
24.47400785568648
  0
ARC
  5
DD4
330
D20
100
AcDbEntity
  8
0
 62
     7
100
AcDbCircle
 10
242.4785990392309
 20
375.5721738309302
 30
0.0
 40
0.1181088200744712
100
AcDbArc
 50
208.2211199098138
 51
270.0
  0
ARC
  5
DD5
330
D20
100
AcDbEntity
  8
0
 62
     7
100
AcDbCircle
 10
280.2104251663727
 20
359.8712615918726
 30
0.0
 40
38.28615070587476
100
AcDbArc
 50
148.6595787500246
 51
155.5259921299498
  0
ARC
  5
DD6
330
D20
100
AcDbEntity
  8
0
 62
     7
100
AcDbCircle
 10
245.5434729197071
 20
375.6509130447113
 30
0.0
 40
0.1968480339133002
100
AcDbArc
 50
155.5259921348724
 51
283.776003005068
  0
ARC
  5
DD7
330
D20
100
AcDbEntity
  8
0
 62
     7
100
AcDbCircle
 10
244.0198032221708
 20
376.2808267561411
 30
0.0
 40
1.811001918146399
100
AcDbArc
 50
270.0
 51
333.366154229861
  0
ARC
  5
DD8
330
D20
100
AcDbEntity
  8
0
 62
     7
100
AcDbCircle
 10
266.6573272119929
 20
388.5481713796707
 30
0.0
 40
27.55872485645581
100
AcDbArc
 50
198.5415209499895
 51
208.2211199099987
  0
ARC
  5
DD9
330
D20
100
AcDbEntity
  8
0
 62
     7
100
AcDbCircle
 10
221.3822792335297
 20
388.5481713796707
 30
0.0
 40
27.55872485646395
100
AcDbArc
 50
331.7842472799735
 51
341.4584790399782
  0
ARC
  5
DDA
330
D20
100
AcDbEntity
  8
0
 62
     7
100
AcDbCircle
 10
245.5648143880477
 20
395.7294136348739
 30
0.0
 40
0.1968480339117769
100
AcDbArc
 50
2.862405215800533
 51
90.0
  0
ARC
  5
DDB
330
D20
100
AcDbEntity
  8
0
 62
     7
100
AcDbCircle
 10
242.4747920562936
 20
395.7294136348739
 30
0.0
 40
0.1968480338621988
100
AcDbArc
 50
90.0
 51
177.1375947835385
  0
ARC
  5
DE7
330
D20
100
AcDbEntity
  8
0
 62
     7
100
AcDbCircle
 10
245.0787872356946
 20
413.8208003525055
 30
0.0
 40
6.299137109576169
100
AcDbArc
 50
215.12515011014
 51
240.3775575197473
  0
ARC
  5
DE8
330
D20
100
AcDbEntity
  8
0
 62
     7
100
AcDbCircle
 10
242.9608192098281
 20
413.8208003525055
 30
0.0
 40
6.299137109582088
100
AcDbArc
 50
299.6224424700997
 51
324.8748498794163
  0
ARC
  5
E26
330
D20
100
AcDbEntity
  8
0
 62
     7
100
AcDbCircle
 10
276.7776654693073
 20
374.5485650852383
 30
0.0
 40
0.0787392137811001
100
AcDbArc
 50
270.0
 51
0.0
  0
ARC
  5
E27
330
D20
100
AcDbEntity
  8
0
 62
     7
100
AcDbCircle
 10
276.7776654693073
 20
395.8475224396007
 30
0.0
 40
0.0787392137810985
100
AcDbArc
 50
0.0
 51
90.0
  0
ARC
  5
E2E
330
D20
100
AcDbEntity
  8
0
 62
     7
100
AcDbCircle
 10
248.8864210109629
 20
419.9275192465235
 30
0.0
 40
0.0787392137597999
100
AcDbArc
 50
20.49678362651987
 51
90.0
  0
ARC
  5
E31
330
D20
100
AcDbEntity
  8
0
 62
     7
100
AcDbCircle
 10
244.0198032221708
 20
389.2334278890762
 30
0.0
 40
5.708593005625799
100
AcDbArc
 50
270.0
 51
299.220551679565
  0
ARC
  5
E32
330
D20
100
AcDbEntity
  8
0
 62
     7
100
AcDbCircle
 10
241.7231130954814
 20
389.4671998797989
 30
0.0
 40
7.283377283661186
100
AcDbArc
 50
314.2631630302347
 51
346.5890602298233
  0
ARC
  5
E34
330
D20
100
AcDbEntity
  8
0
 62
     7
100
AcDbCircle
 10
244.0198032221708
 20
389.2334278890762
 30
0.0
 40
5.708593005576057
100
AcDbArc
 50
240.7794483097684
 51
270.0
  0
ARC
  5
E35
330
D20
100
AcDbEntity
  8
0
 62
     7
100
AcDbCircle
 10
246.31649334886
 20
389.4671998797989
 30
0.0
 40
7.283377283599484
100
AcDbArc
 50
193.4109397597226
 51
225.7368369598203
  0
ARC
  5
E3B
330
D20
100
AcDbEntity
  8
0
 62
     7
100
AcDbCircle
 10
244.0198032221708
 20
376.6361542895792
 30
0.0
 40
15.7478427751176
100
AcDbArc
 50
90.0
 51
102.8059272400504
  0
ARC
  5
E3C
330
D20
100
AcDbEntity
  8
0
 62
     7
100
AcDbCircle
 10
242.8914901988801
 20
389.2533093052186
 30
0.0
 40
3.740112658698777
100
AcDbArc
 50
126.6605385804149
 51
133.3439222301172
  0
ARC
  5
E3D
330
D20
100
AcDbEntity
  8
0
 62
     7
100
AcDbCircle
 10
242.8914901988801
 20
389.2533093052186
 30
0.0
 40
3.740112658736962
100
AcDbArc
 50
133.3439222301172
 51
162.511190539848
  0
ARC
  5
E3E
330
D20
100
AcDbEntity
  8
0
 62
     7
100
AcDbCircle
 10
240.3547787278249
 20
392.7600988798145
 30
0.0
 40
0.7873921378306238
100
AcDbArc
 50
267.7864528503402
 51
282.8059272403914
  0
ARC
  5
E3F
330
D20
100
AcDbEntity
  8
0
 62
     7
100
AcDbCircle
 10
244.0198032221708
 20
376.6361542895792
 30
0.0
 40
15.74784277509853
100
AcDbArc
 50
77.19407274977443
 51
90.0
  0
ARC
  5
E40
330
D20
100
AcDbEntity
  8
0
 62
     7
100
AcDbCircle
 10
247.6848277165165
 20
392.7600988798145
 30
0.0
 40
0.7873921378107717
100
AcDbArc
 50
257.1940727495544
 51
272.2135471359153
  0
ARC
  5
E4C
330
D20
100
AcDbEntity
  8
0
 62
     7
100
AcDbCircle
 10
246.8723766463038
 20
411.4275277935877
 30
0.0
 40
3.543264625249991
100
AcDbArc
 50
339.2623129497212
 51
339.4343293384051
  0
ARC
  5
E68
330
D20
100
AcDbEntity
  8
0
 62
     7
100
AcDbCircle
 10
242.4056493378865
 20
419.8881496390425
 30
0.0
 40
0.1181088200810972
100
AcDbArc
 50
90.0
 51
180.0
  0
LINE
  5
E69
330
D20
100
AcDbEntity
  8
0
 62
     7
100
AcDbLine
 10
242.2878087727807
 20
419.8801938321195
 30
0.0
 11
242.4485956929385
 21
417.4986350149318
 31
0.0
  0
ARC
  5
E6A
330
D20
100
AcDbEntity
  8
0
 62
     7
100
AcDbCircle
 10
242.3269101241054
 20
419.8881496390425
 30
0.0
 40
0.1181088200810972
100
AcDbArc
 50
90.0
 51
180.0
  0
LINE
  5
E6B
330
D20
100
AcDbEntity
  8
0
 62
     7
100
AcDbLine
 10
242.4723918260549
 20
417.3123710437596
 30
0.0
 11
242.2094177897993
 21
419.8760978741697
 31
0.0
  0
ARC
  5
E6F
330
D20
100
AcDbEntity
  8
0
 62
     7
100
AcDbCircle
 10
245.5622228290577
 20
375.574438835849
 30
0.0
 40
0.1181088200767279
100
AcDbArc
 50
283.7760030090207
 51
331.7842472729223
  0
ARC
  5
E70
330
D20
100
AcDbEntity
  8
0
 62
     7
100
AcDbCircle
 10
245.5622228290577
 20
375.574438835849
 30
0.0
 40
0.1181088200767279
100
AcDbArc
 50
283.7760030090207
 51
331.7842472729223
  0
ARC
  5
E76
330
D20
100
AcDbEntity
  8
0
 62
     7
100
AcDbCircle
 10
239.807255279567
 20
388.8194688189644
 30
0.0
 40
10.62979387223519
100
AcDbArc
 50
344.7917534497804
 51
13.41201159990344
  0
ARC
  5
E77
330
D20
100
AcDbEntity
  8
0
 62
     7
100
AcDbCircle
 10
223.4711968363948
 20
393.2604032658178
 30
0.0
 40
27.55872485645471
100
AcDbArc
 50
330.7264018600051
 51
344.7917511599123
  0
ARC
  5
E78
330
D20
100
AcDbEntity
  8
0
 62
     7
100
AcDbCircle
 10
264.5684096091277
 20
393.2604032658178
 30
0.0
 40
27.55872485643988
100
AcDbArc
 50
195.2082488298828
 51
209.2735981300315
  0
ARC
  5
E79
330
D20
100
AcDbEntity
  8
0
 62
     7
100
AcDbCircle
 10
248.2323511647746
 20
388.8194688189644
 30
0.0
 40
10.62979387224161
100
AcDbArc
 50
166.5879883903149
 51
195.2082465402759
  0
ARC
  5
E7A
330
D20
100
AcDbEntity
  8
0
 62
     7
100
AcDbCircle
 10
272.4924462047237
 20
408.1604313858646
 30
0.0
 40
35.43264624403676
100
AcDbArc
 50
160.6041255599362
 51
167.4827202899385
  0
ARC
  5
E7B
330
D20
100
AcDbEntity
  8
0
 62
     7
100
AcDbCircle
 10
239.1821298148598
 20
419.8881496390425
 30
0.0
 40
0.1181088200810972
100
AcDbArc
 50
90.0
 51
160.6041255619645
  0
ARC
  5
E7C
330
D20
100
AcDbEntity
  8
0
 62
     7
100
AcDbCircle
 10
255.3175583088989
 20
412.9930923996569
 30
0.0
 40
17.71632312200681
100
AcDbArc
 50
178.697649930028
 51
187.5491081999527
  0
ARC
  5
E7D
330
D20
100
AcDbEntity
  8
0
 62
     7
100
AcDbCircle
 10
237.8387749326773
 20
413.1094171528339
 30
0.0
 40
12.59827422031497
100
AcDbArc
 50
1.30235006012559
 51
14.0959700701594
  0
ARC
  5
E7E
330
D20
100
AcDbEntity
  8
0
 62
     7
100
AcDbCircle
 10
232.7220481354427
 20
412.9930923996569
 30
0.0
 40
17.71632312201144
100
AcDbArc
 50
352.4508917900324
 51
1.302350060042874
  0
ARC
  5
E7F
330
D20
100
AcDbEntity
  8
0
 62
     7
100
AcDbCircle
 10
216.2708755868784
 20
408.4090305189091
 30
0.0
 40
34.66845561734972
100
AcDbArc
 50
12.94903642600787
 51
19.45353063200736
  0
ARC
  5
E80
330
D20
100
AcDbEntity
  8
0
 62
     7
100
AcDbCircle
 10
246.381979639147
 20
411.1828161009255
 30
0.0
 40
3.936960693756064
100
AcDbArc
 50
320.4481415908481
 51
352.450891789196
  0
ARC
  5
F23
330
D20
100
AcDbEntity
  8
0
 62
     7
100
AcDbCircle
 10
223.4711968363476
 20
393.2604032658178
 30
0.0
 40
27.59809446398869
100
AcDbArc
 50
339.2738345901256
 51
340.2146717400249
  0
LINE
  5
F27
330
D20
100
AcDbEntity
  8
0
  6
DASHDOT
 62
     7
100
AcDbLine
 10
244.0198032221708
 20
374.3671558767977
 30
0.0
 11
244.0198032221708
 21
396.434324317963
 31
0.0
  0
LINE
  5
111E
330
D20
100
AcDbEntity
  8
0
  6
DASHDOT
 62
     7
100
AcDbLine
 10
244.0198032221708
 20
405.6915744428796
 30
0.0
 11
244.0198032221708
 21
420.3287618948242
 31
0.0
  0
LINE
  5
113F
330
D20
100
AcDbEntity
  8
0
 62
     7
100
AcDbLine
 10
242.2481708536316
 20
420.0062584603046
 30
0.0
 11
242.1300620890622
 21
420.0062584603046
 31
0.0
  0
ARC
  5
19E8
330
D20
100
AcDbEntity
  8
0
 62
     7
100
AcDbCircle
 10
244.0198032221708
 20
408.3922248805443
 30
0.0
 40
7.4802253174722
100
AcDbArc
 50
55.15009638010877
 51
90.0
  0
ARC
  5
19E9
330
D20
100
AcDbEntity
  8
0
 62
     7
100
AcDbCircle
 10
245.6519804904869
 20
412.5258708384326
 30
0.0
 40
3.293035673396481
100
AcDbArc
 50
2.828398430925389
 51
38.49318207058264
  0
ARC
  5
19EA
330
D20
100
AcDbEntity
  8
0
 62
     7
100
AcDbCircle
 10
246.3819796379659
 20
411.7846424819159
 30
0.0
 40
3.346416588630491
100
AcDbArc
 50
39.13669566043047
 51
55.15009542971842
  0
ARC
  5
19EB
330
D20
100
AcDbEntity
  8
0
 62
     7
100
AcDbCircle
 10
244.3849548702125
 20
412.8189668518458
 30
0.0
 40
4.557921229025708
100
AcDbArc
 50
324.8748498902496
 51
358.3580334101857
  0
ARC
  5
19EF
330
D20
100
AcDbEntity
  8
0
 62
     7
100
AcDbCircle
 10
244.0198032221708
 20
417.6047124370283
 30
0.0
 40
1.574784276798578
100
AcDbArc
 50
270.0
 51
355.4329921106974
  0
ARC
  5
19F0
330
D20
100
AcDbEntity
  8
0
 62
     7
100
AcDbCircle
 10
245.633957106455
 20
419.8881496390425
 30
0.0
 40
0.1181088200810972
100
AcDbArc
 50
0.0
 51
90.0
  0
LINE
  5
19F1
330
D20
100
AcDbEntity
  8
0
 62
     7
100
AcDbLine
 10
245.7517976715608
 20
419.8801938321195
 30
0.0
 11
245.5910107514029
 21
417.4986350149318
 31
0.0
  0
ARC
  5
19F2
330
D20
100
AcDbEntity
  8
0
 62
     7
100
AcDbCircle
 10
245.7126963202361
 20
419.8881496390425
 30
0.0
 40
0.1181088200810972
100
AcDbArc
 50
0.0
 51
90.0
  0
LINE
  5
19F3
330
D20
100
AcDbEntity
  8
0
 62
     7
100
AcDbLine
 10
245.5672146182866
 20
417.3123710437596
 30
0.0
 11
245.8301886545423
 21
419.8760978741697
 31
0.0
  0
LINE
  5
19F4
330
D20
100
AcDbEntity
  8
0
 62
     7
100
AcDbLine
 10
245.7914355907099
 20
420.0062584603046
 30
0.0
 11
245.9095443552794
 21
420.0062584603046
 31
0.0
  0
ARC
  5
19F5
330
D20
100
AcDbEntity
  8
0
 62
     7
100
AcDbCircle
 10
244.0198032221708
 20
407.8016803088798
 30
0.0
 40
8.267617456431134
100
AcDbArc
 50
61.89809169005706
 51
90.92880975003021
  0
ARC
  5
19F6
330
D20
100
AcDbEntity
  8
0
 62
     7
100
AcDbCircle
 10
245.6888270604943
 20
410.9272336400441
 30
0.0
 40
4.724352831607174
100
AcDbArc
 50
40.48035060012504
 51
61.89809169009357
  0
ARC
  5
19F7
330
D20
100
AcDbEntity
  8
0
 62
     7
100
AcDbCircle
 10
245.9882835690605
 20
411.1828161009255
 30
0.0
 40
4.330656762683868
100
AcDbArc
 50
354.8842949802947
 51
40.48035060009821
  0
LINE
  5
19F9
330
D20
100
AcDbEntity
  8
0
 62
     7
100
AcDbLine
 10
274.7066945747325
 20
394.2632979409424
 30
0.0
 11
278.478127353962
 21
394.2632979409424
 31
0.0
  0
LINE
  5
1ABE
330
D20
100
AcDbEntity
  8
1
 62
     0
100
AcDbLine
 10
339.766221369841
 20
374.6768237075274
 30
0.0
 11
339.766221369841
 21
395.9757810618896
 31
0.0
  0
LINE
  5
1ABF
330
D20
100
AcDbEntity
  8
1
 62
     0
100
AcDbLine
 10
339.5300037284977
 20
374.5980844937463
 30
0.0
 11
339.6874821560599
 21
374.5980844937463
 31
0.0
  0
ARC
  5
1AC0
330
D20
100
AcDbEntity
  8
1
 62
     0
100
AcDbCircle
 10
339.5300037284977
 20
387.1963587140766
 30
0.0
 40
12.59827422034735
100
AcDbArc
 50
234.6548785698558
 51
270.0
  0
LINE
  5
1AC1
330
D20
100
AcDbEntity
  8
1
 62
     0
100
AcDbLine
 10
306.9296199089233
 20
379.1680705801338
 30
0.0
 11
306.9296199089233
 21
379.2874373354943
 31
0.0
  0
LINE
  5
1AC2
330
D20
100
AcDbEntity
  8
1
 62
     0
100
AcDbLine
 10
339.6874821560599
 20
396.0545202756708
 30
0.0
 11
335.9235439949749
 21
396.0545202756708
 31
0.0
  0
LINE
  5
1AC3
330
D20
100
AcDbEntity
  8
1
 62
     0
100
AcDbLine
 10
305.3846087430463
 20
396.0545202922061
 30
0.0
 11
308.4746310748003
 21
396.0545202922061
 31
0.0
  0
ARC
  5
1AC4
330
D20
100
AcDbEntity
  8
1
 62
     0
100
AcDbCircle
 10
325.9474893406706
 20
383.4562462223528
 30
0.0
 40
0.1968480394510773
100
AcDbArc
 50
141.1858272429791
 51
215.6389209891909
  0
ARC
  5
1AC5
330
D20
100
AcDbEntity
  8
1
 62
     0
100
AcDbCircle
 10
348.184626929453
 20
399.39933296241
 30
0.0
 40
27.5587248564475
100
AcDbArc
 50
215.6389219699913
 51
234.6548785700402
  0
LINE
  5
1AC6
330
D20
100
AcDbEntity
  8
1
 62
     0
100
AcDbLine
 10
335.7701633666974
 20
395.9810559170879
 30
0.0
 11
325.7941087058546
 21
383.5796298983361
 31
0.0
  0
ARC
  5
1AC7
330
D20
100
AcDbEntity
  8
1
 62
     0
100
AcDbCircle
 10
335.92354399773
 20
395.8576722327499
 30
0.0
 40
0.1968480417398304
100
AcDbArc
 50
90.00000080192725
 51
141.1858246579267
  0
LINE
  5
1AC8
330
D20
100
AcDbEntity
  8
1
 62
     0
100
AcDbLine
 10
302.0630021201311
 20
420.369898481601
 30
0.0
 11
311.7962376977155
 21
420.369898481601
 31
0.0
  0
ARC
  5
1AC9
330
D20
100
AcDbEntity
  8
1
 62
     0
100
AcDbCircle
 10
306.9296199089233
 20
416.4329377878216
 30
0.0
 40
0.9055009590763919
100
AcDbArc
 50
195.8772958890994
 51
0.0
  0
ARC
  5
1ACA
330
D20
100
AcDbEntity
  8
1
 62
     0
100
AcDbCircle
 10
306.9296199089233
 20
416.4329377878216
 30
0.0
 40
1.181088207866479
100
AcDbArc
 50
193.9722904829602
 51
0.0
  0
ARC
  5
1ACB
330
D20
100
AcDbEntity
  8
1
 62
     0
100
AcDbCircle
 10
306.9296199089233
 20
417.9683524583246
 30
0.0
 40
0.7480225315109991
100
AcDbArc
 50
90.0
 51
270.0
  0
ARC
  5
1ACC
330
D20
100
AcDbEntity
  8
1
 62
     0
100
AcDbCircle
 10
306.9296199089233
 20
417.9683524583246
 30
0.0
 40
1.574784276798576
100
AcDbArc
 50
184.5670078893069
 51
270.0
  0
ARC
  5
1ACD
330
D20
100
AcDbEntity
  8
1
 62
     0
100
AcDbCircle
 10
306.9296199089233
 20
412.321990360914
 30
0.0
 40
4.156669563001102
100
AcDbArc
 50
240.3775575198617
 51
299.6224424707303
  0
ARC
  5
1ACE
330
D20
100
AcDbEntity
  8
1
 62
     0
100
AcDbCircle
 10
306.5644682608816
 20
413.182606873142
 30
0.0
 40
4.557921229025708
100
AcDbArc
 50
181.6419665898144
 51
215.1251501097765
  0
ARC
  5
1ACF
330
D20
100
AcDbEntity
  8
1
 62
     0
100
AcDbCircle
 10
306.9296199089233
 20
408.1653203301763
 30
0.0
 40
8.267617456431134
100
AcDbArc
 50
89.07119024996886
 51
118.101908309944
  0
ARC
  5
1AD0
330
D20
100
AcDbEntity
  8
1
 62
     0
100
AcDbCircle
 10
306.9296199089233
 20
411.6692153475691
 30
0.0
 40
5.31489693549441
100
AcDbArc
 50
260.165273049451
 51
279.8347269400506
  0
ARC
  5
1AD1
330
D20
100
AcDbEntity
  8
1
 62
     0
100
AcDbCircle
 10
305.2605960705997
 20
411.2908736613404
 30
0.0
 40
4.724352831607176
100
AcDbArc
 50
118.1019083098711
 51
139.5196493998765
  0
ARC
  5
1AD2
330
D20
100
AcDbEntity
  8
1
 62
     0
100
AcDbCircle
 10
304.9611395620336
 20
411.5464561222219
 30
0.0
 40
4.33065676268387
100
AcDbArc
 50
139.5196493999295
 51
185.1157050197077
  0
ARC
  5
1AD3
330
D20
100
AcDbEntity
  8
1
 62
     0
100
AcDbCircle
 10
304.5674434931281
 20
411.5464561222219
 30
0.0
 40
3.936960693783888
100
AcDbArc
 50
187.5491082003737
 51
219.5518584000166
  0
ARC
  5
1AD4
330
D20
100
AcDbEntity
  8
1
 62
     0
100
AcDbCircle
 10
307.2994725546497
 20
413.8027232620407
 30
0.0
 40
7.480225317466313
100
AcDbArc
 50
219.5051798299408
 51
260.1652730495469
  0
ARC
  5
1AD5
330
D20
100
AcDbEntity
  8
1
 62
     0
100
AcDbCircle
 10
313.1106481984168
 20
413.47305717413
 30
0.0
 40
12.59827422033593
100
AcDbArc
 50
165.9040299197895
 51
178.6976499301931
  0
ARC
  5
1AD6
330
D20
100
AcDbEntity
  8
1
 62
     0
100
AcDbCircle
 10
306.9296199089233
 20
408.7558649018406
 30
0.0
 40
7.4802253174722
100
AcDbArc
 50
90.0
 51
124.849903619856
  0
ARC
  5
1AD7
330
D20
100
AcDbEntity
  8
1
 62
     0
100
AcDbCircle
 10
305.2974426406072
 20
412.889510859729
 30
0.0
 40
3.293035673396481
100
AcDbArc
 50
141.5068179294168
 51
177.1716015690741
  0
ARC
  5
1AD8
330
D20
100
AcDbEntity
  8
1
 62
     0
100
AcDbCircle
 10
304.5674434931281
 20
412.1482825032122
 30
0.0
 40
3.346416588630491
100
AcDbArc
 50
124.8499045703141
 51
140.8633043395682
  0
ARC
  5
1AD9
330
D20
100
AcDbEntity
  8
1
 62
     0
100
AcDbCircle
 10
306.9296199089233
 20
389.9522312164938
 30
0.0
 40
6.299137109605213
100
AcDbArc
 50
142.8311003396016
 51
180.0
  0
ARC
  5
1ADA
330
D20
100
AcDbEntity
  8
1
 62
     0
100
AcDbCircle
 10
306.3021802004195
 20
390.4279473008864
 30
0.0
 40
5.511744970530394
100
AcDbArc
 50
110.741916480274
 51
142.8311003396668
  0
ARC
  5
1ADB
330
D20
100
AcDbEntity
  8
1
 62
     0
100
AcDbCircle
 10
306.9296199089233
 20
387.8656420483419
 30
0.0
 40
5.629853791844699
100
AcDbArc
 50
90.0
 51
126.6605385800018
  0
ARC
  5
1ADC
330
D20
100
AcDbEntity
  8
1
 62
     0
100
AcDbCircle
 10
306.3390758049745
 20
389.9522312164938
 30
0.0
 40
5.708593005625799
100
AcDbArc
 50
180.0
 51
211.3669415601891
  0
ARC
  5
1ADD
330
D20
100
AcDbEntity
  8
1
 62
     0
100
AcDbCircle
 10
307.8517862988388
 20
390.874396067436
 30
0.0
 40
7.480225317474093
100
AcDbArc
 50
211.3669415601204
 51
238.6330001502553
  0
ARC
  5
1ADE
330
D20
100
AcDbEntity
  8
1
 62
     0
100
AcDbCircle
 10
306.8902503026233
 20
389.0384591995533
 30
0.0
 40
4.881831260333391
100
AcDbArc
 50
162.5111905402023
 51
193.4109397596339
  0
ARC
  5
1ADF
330
D20
100
AcDbEntity
  8
1
 62
     0
100
AcDbCircle
 10
306.9296199089233
 20
388.7711430085962
 30
0.0
 40
7.283377283661129
100
AcDbArc
 50
69.25808351016984
 51
110.7419164800884
  0
ARC
  5
1AE0
330
D20
100
AcDbEntity
  8
1
 62
     0
100
AcDbCircle
 10
306.9296199089233
 20
387.8656420483419
 30
0.0
 40
5.629853791869408
100
AcDbArc
 50
53.33946140959174
 51
90.0
  0
ARC
  5
1AE1
330
D20
100
AcDbEntity
  8
1
 62
     0
100
AcDbCircle
 10
308.0579329333951
 20
389.3815679275077
 30
0.0
 40
3.740112658765803
100
AcDbArc
 50
17.48880945050964
 51
53.33946141030175
  0
ARC
  5
1AE2
330
D20
100
AcDbEntity
  8
1
 62
     0
100
AcDbCircle
 10
306.9689895164044
 20
389.0384591995533
 30
0.0
 40
4.881831260302559
100
AcDbArc
 50
346.5890602303352
 51
17.48880944948884
  0
ARC
  5
1AE3
330
D20
100
AcDbEntity
  8
1
 62
     0
100
AcDbCircle
 10
306.0074535190078
 20
390.874396067436
 30
0.0
 40
7.480225317473809
100
AcDbArc
 50
301.3669998405378
 51
328.6330584304169
  0
ARC
  5
1AE4
330
D20
100
AcDbEntity
  8
1
 62
     0
100
AcDbCircle
 10
307.5201640128721
 20
389.9522312164938
 30
0.0
 40
5.708593005657826
100
AcDbArc
 50
328.6330584302326
 51
0.0
  0
ARC
  5
1AE5
330
D20
100
AcDbEntity
  8
1
 62
     0
100
AcDbCircle
 10
306.9296199089233
 20
389.9522312164938
 30
0.0
 40
6.299137109574612
100
AcDbArc
 50
359.9999963204689
 51
37.16889964957946
  0
ARC
  5
1AE6
330
D20
100
AcDbEntity
  8
1
 62
     0
100
AcDbCircle
 10
307.5570596174272
 20
390.4279473008864
 30
0.0
 40
5.511744970579683
100
AcDbArc
 50
37.1688996496446
 51
69.25808350964835
  0
ARC
  5
1AE7
330
D20
100
AcDbEntity
  8
1
 62
     0
100
AcDbCircle
 10
306.9296199089233
 20
376.4090853784302
 30
0.0
 40
1.81100191814888
100
AcDbArc
 50
206.5112785897914
 51
270.0
  0
ARC
  5
1AE8
330
D20
100
AcDbEntity
  8
1
 62
     0
100
AcDbCircle
 10
270.7389979670836
 20
359.9995202141616
 30
0.0
 40
38.28615070590416
100
AcDbArc
 50
24.47400785998048
 51
31.34042124000807
  0
LINE
  5
1AE9
330
D20
100
AcDbEntity
  8
1
 62
     0
100
AcDbLine
 10
305.4059502113869
 20
375.5823236331381
 30
0.0
 11
305.3884157259834
 21
375.5823236331381
 31
0.0
  0
ARC
  5
1AEA
330
D20
100
AcDbEntity
  8
1
 62
     0
100
AcDbCircle
 10
305.4059502113869
 20
375.7791716670003
 30
0.0
 40
0.1968480338622007
100
AcDbArc
 50
270.0
 51
24.47400785568668
  0
ARC
  5
1AEB
330
D20
100
AcDbEntity
  8
1
 62
     0
100
AcDbCircle
 10
305.3884157259834
 20
375.7004324532192
 30
0.0
 40
0.1181088200744712
100
AcDbArc
 50
208.2211199098126
 51
270.0
  0
ARC
  5
1AEC
330
D20
100
AcDbEntity
  8
1
 62
     0
100
AcDbCircle
 10
343.1202418531252
 20
359.9995202141616
 30
0.0
 40
38.28615070587476
100
AcDbArc
 50
148.6595787500048
 51
155.5259921299497
  0
ARC
  5
1AED
330
D20
100
AcDbEntity
  8
1
 62
     0
100
AcDbCircle
 10
308.4532896064597
 20
375.7791716670003
 30
0.0
 40
0.1968480339133002
100
AcDbArc
 50
155.5259921348731
 51
283.7760030050678
  0
ARC
  5
1AEE
330
D20
100
AcDbEntity
  8
1
 62
     0
100
AcDbCircle
 10
306.9296199089233
 20
376.4090853784302
 30
0.0
 40
1.811001918146399
100
AcDbArc
 50
270.0
 51
333.3661542298607
  0
ARC
  5
1AEF
330
D20
100
AcDbEntity
  8
1
 62
     0
100
AcDbCircle
 10
329.5671438987454
 20
388.6764300019596
 30
0.0
 40
27.55872485645581
100
AcDbArc
 50
198.5415209500033
 51
208.2211199099976
  0
ARC
  5
1AF0
330
D20
100
AcDbEntity
  8
1
 62
     0
100
AcDbCircle
 10
284.2920959202824
 20
388.6764300019596
 30
0.0
 40
27.55872485646395
100
AcDbArc
 50
331.7842472799743
 51
341.4584790399765
  0
ARC
  5
1AF1
330
D20
100
AcDbEntity
  8
1
 62
     0
100
AcDbCircle
 10
308.4746310748003
 20
395.8576722571629
 30
0.0
 40
0.1968480339117769
100
AcDbArc
 50
2.862405215801431
 51
90.0
  0
ARC
  5
1AF2
330
D20
100
AcDbEntity
  8
1
 62
     0
100
AcDbCircle
 10
305.3846087430463
 20
395.8576722571629
 30
0.0
 40
0.1968480338621986
100
AcDbArc
 50
90.0
 51
177.1375947835398
  0
ARC
  5
1AF3
330
D20
100
AcDbEntity
  8
1
 62
     0
100
AcDbCircle
 10
307.988603922447
 20
414.1844403738017
 30
0.0
 40
6.299137109576169
100
AcDbArc
 50
215.1251501101389
 51
240.3775575197493
  0
ARC
  5
1AF4
330
D20
100
AcDbEntity
  8
1
 62
     0
100
AcDbCircle
 10
339.6874821560599
 20
374.6768237075274
 30
0.0
 40
0.0787392137811001
100
AcDbArc
 50
270.0
 51
0.0
  0
ARC
  5
1AF5
330
D20
100
AcDbEntity
  8
1
 62
     0
100
AcDbCircle
 10
339.6874821560599
 20
395.9757810618896
 30
0.0
 40
0.0787392137810985
100
AcDbArc
 50
0.0
 51
90.0
  0
ARC
  5
1AF6
330
D20
100
AcDbEntity
  8
1
 62
     0
100
AcDbCircle
 10
306.9296199089233
 20
389.3616865113651
 30
0.0
 40
5.708593005659022
100
AcDbArc
 50
299.220551679601
 51
301.3669998401256
  0
ARC
  5
1AF7
330
D20
100
AcDbEntity
  8
1
 62
     0
100
AcDbCircle
 10
306.9296199089233
 20
389.3616865113651
 30
0.0
 40
5.708593005625799
100
AcDbArc
 50
270.0
 51
299.220551679601
  0
ARC
  5
1AF8
330
D20
100
AcDbEntity
  8
1
 62
     0
100
AcDbCircle
 10
304.632929782234
 20
389.5954585020879
 30
0.0
 40
7.283377283661186
100
AcDbArc
 50
314.2631630302038
 51
346.589060229813
  0
ARC
  5
1AF9
330
D20
100
AcDbEntity
  8
1
 62
     0
100
AcDbCircle
 10
306.9296199089233
 20
389.3616865113651
 30
0.0
 40
5.708593005584902
100
AcDbArc
 50
238.6330001497012
 51
240.7794483097665
  0
ARC
  5
1AFA
330
D20
100
AcDbEntity
  8
1
 62
     0
100
AcDbCircle
 10
306.9296199089233
 20
389.3616865113651
 30
0.0
 40
5.708593005576057
100
AcDbArc
 50
240.7794483097665
 51
270.0
  0
ARC
  5
1AFB
330
D20
100
AcDbEntity
  8
1
 62
     0
100
AcDbCircle
 10
309.2263100356126
 20
389.5954585020879
 30
0.0
 40
7.283377283599484
100
AcDbArc
 50
193.4109397597144
 51
225.7368369597913
  0
ARC
  5
1AFC
330
D20
100
AcDbEntity
  8
1
 62
     0
100
AcDbCircle
 10
305.8013068856326
 20
389.3815679275077
 30
0.0
 40
3.740112658698777
100
AcDbArc
 50
126.660538580416
 51
133.3439222301485
  0
ARC
  5
1AFD
330
D20
100
AcDbEntity
  8
1
 62
     0
100
AcDbCircle
 10
305.8013068856326
 20
389.3815679275077
 30
0.0
 40
3.740112658736962
100
AcDbArc
 50
133.3439222301485
 51
162.5111905398603
  0
ARC
  5
1AFE
330
D20
100
AcDbEntity
  8
1
 62
     0
100
AcDbCircle
 10
305.3154660246391
 20
420.2517896603389
 30
0.0
 40
0.1181088200810972
100
AcDbArc
 50
90.0
 51
180.0
  0
LINE
  5
1AFF
330
D20
100
AcDbEntity
  8
1
 62
     0
100
AcDbLine
 10
305.1976254595333
 20
420.2438338534157
 30
0.0
 11
305.3584123796911
 21
417.862275036228
 31
0.0
  0
ARC
  5
1B00
330
D20
100
AcDbEntity
  8
1
 62
     0
100
AcDbCircle
 10
305.236726810858
 20
420.2517896603389
 30
0.0
 40
0.1181088200810972
100
AcDbArc
 50
90.0
 51
180.0
  0
LINE
  5
1B01
330
D20
100
AcDbEntity
  8
1
 62
     0
100
AcDbLine
 10
305.3822085128075
 20
417.6760110650558
 30
0.0
 11
305.1192344765518
 21
420.239737895466
 31
0.0
  0
ARC
  5
1B02
330
D20
100
AcDbEntity
  8
1
 62
     0
100
AcDbCircle
 10
308.4720395158103
 20
375.7026974581379
 30
0.0
 40
0.1181088200767279
100
AcDbArc
 50
283.7760030089811
 51
331.7842472729422
  0
ARC
  5
1B03
330
D20
100
AcDbEntity
  8
1
 62
     0
100
AcDbCircle
 10
308.4720395158103
 20
375.7026974581379
 30
0.0
 40
0.1181088200767279
100
AcDbArc
 50
283.7760030089811
 51
331.7842472729422
  0
ARC
  5
1B04
330
D20
100
AcDbEntity
  8
1
 62
     0
100
AcDbCircle
 10
302.7170719663195
 20
388.9477274412533
 30
0.0
 40
10.62979387223519
100
AcDbArc
 50
344.7917534497818
 51
13.41201159991427
  0
ARC
  5
1B05
330
D20
100
AcDbEntity
  8
1
 62
     0
100
AcDbCircle
 10
286.3810135231474
 20
393.3886618881069
 30
0.0
 40
27.55872485645471
100
AcDbArc
 50
330.7264018599842
 51
344.7917511599233
  0
ARC
  5
1B06
330
D20
100
AcDbEntity
  8
1
 62
     0
100
AcDbCircle
 10
327.4782262958803
 20
393.3886618881069
 30
0.0
 40
27.55872485643988
100
AcDbArc
 50
195.208248829884
 51
209.27359813001
  0
ARC
  5
1B07
330
D20
100
AcDbEntity
  8
1
 62
     0
100
AcDbCircle
 10
311.1421678515271
 20
388.9477274412533
 30
0.0
 40
10.62979387224161
100
AcDbArc
 50
166.5879883903155
 51
195.2082465402647
  0
ARC
  5
1B08
330
D20
100
AcDbEntity
  8
1
 62
     0
100
AcDbCircle
 10
335.4022628914762
 20
408.5240714071606
 30
0.0
 40
35.43264624403676
100
AcDbArc
 50
160.6041255599367
 51
167.4827202899469
  0
ARC
  5
1B09
330
D20
100
AcDbEntity
  8
1
 62
     0
100
AcDbCircle
 10
302.0919465016123
 20
420.2517896603389
 30
0.0
 40
0.1181088200810972
100
AcDbArc
 50
90.0
 51
160.6041255619505
  0
ARC
  5
1B0A
330
D20
100
AcDbEntity
  8
1
 62
     0
100
AcDbCircle
 10
318.2273749956514
 20
413.3567324209533
 30
0.0
 40
17.71632312200681
100
AcDbArc
 50
178.6976499300269
 51
187.5491081999531
  0
LINE
  5
1B0B
330
D20
100
AcDbEntity
  8
1
  6
DASHDOT
 62
     0
100
AcDbLine
 10
306.9296199089233
 20
374.4954144990867
 30
0.0
 11
306.9296199089233
 21
396.562582940252
 31
0.0
  0
LINE
  5
1B0C
330
D20
100
AcDbEntity
  8
1
  6
DASHDOT
 62
     0
100
AcDbLine
 10
338.4912218470105
 20
379.3224373265178
 30
0.0
 11
340.204030430048
 21
379.3224373265178
 31
0.0
  0
LINE
  5
1B0D
330
D20
100
AcDbEntity
  8
1
  6
DASHDOT
 62
     0
100
AcDbLine
 10
337.3646748398728
 20
395.4077428172598
 30
0.0
 11
337.3646748398728
 21
396.3059118736738
 31
0.0
  0
LINE
  5
1B0E
330
D20
100
AcDbEntity
  8
1
  6
DASHED
 62
     0
100
AcDbLine
 10
305.6467608978749
 20
395.6608242067653
 30
0.0
 11
306.9296199089233
 21
395.6608242067653
 31
0.0
  0
LINE
  5
1B0F
330
D20
100
AcDbEntity
  8
1
  6
DASHED
 62
     0
100
AcDbLine
 10
308.2124789211529
 20
395.6608242067653
 30
0.0
 11
306.9784029802546
 21
395.6608242067653
 31
0.0
  0
LINE
  5
1B10
330
D20
100
AcDbEntity
  8
1
  6
DASHED
 62
     0
100
AcDbLine
 10
306.1422277699312
 20
395.6608242067653
 30
0.0
 11
306.1422277699312
 21
396.0545202756708
 31
0.0
  0
LINE
  5
1B11
330
D20
100
AcDbEntity
  8
1
  6
DASHED
 62
     0
100
AcDbLine
 10
307.7170120479154
 20
395.6608242067653
 30
0.0
 11
307.7170120479154
 21
396.0545202756708
 31
0.0
  0
ARC
  5
1B12
330
D20
100
AcDbEntity
  8
1
  6
DASHED
 62
     0
100
AcDbCircle
 10
300.0391848370651
 20
388.1184376140096
 30
0.0
 40
11.81088208130552
100
AcDbArc
 50
0.5795775202563366
 51
14.8065182597516
  0
LINE
  5
1B13
330
D20
100
AcDbEntity
  8
1
  6
DASHDOT
 62
     0
100
AcDbLine
 10
306.9296199089233
 20
406.0552144641759
 30
0.0
 11
306.9296199089233
 21
420.6924019161204
 31
0.0
  0
LINE
  5
1B14
330
D20
100
AcDbEntity
  8
1
  6
DASHDOT
 62
     0
100
AcDbLine
 10
305.6295017505034
 20
416.4329377878216
 30
0.0
 11
308.2567614569971
 21
416.4329377878216
 31
0.0
  0
LINE
  5
1B15
330
D20
100
AcDbEntity
  8
1
  6
DASHDOT
 62
     0
100
AcDbLine
 10
305.8193810616889
 20
417.9683524583246
 30
0.0
 11
307.1284346668047
 21
417.9683524583246
 31
0.0
  0
ARC
  5
1B16
330
D20
100
AcDbEntity
  8
1
  6
DASHED
 62
     0
100
AcDbCircle
 10
306.9296199089233
 20
387.0015905819601
 30
0.0
 40
3.818851872560834
100
AcDbArc
 50
228.4773377905125
 51
270.0
  0
ARC
  5
1B17
330
D20
100
AcDbEntity
  8
1
  6
DASHED
 62
     0
100
AcDbCircle
 10
306.9296199089233
 20
387.0015905819601
 30
0.0
 40
3.818851872517196
100
AcDbArc
 50
270.0
 51
311.5226622009902
  0
LINE
  5
1B18
330
D20
100
AcDbEntity
  8
1
  6
DASHED
 62
     0
100
AcDbLine
 10
305.1487121990924
 20
395.081620204152
 30
0.0
 11
305.1880063082992
 21
395.8675023788412
 31
0.0
  0
ARC
  5
1B19
330
D20
100
AcDbEntity
  8
1
  6
DASHED
 62
     0
100
AcDbCircle
 10
303.9690975894286
 20
395.1406009354029
 30
0.0
 40
1.181088207910797
100
AcDbArc
 50
305.4806289593824
 51
357.1375947719439
  0
ARC
  5
1B1A
330
D20
100
AcDbEntity
  8
1
  6
DASHED
 62
     0
100
AcDbCircle
 10
309.8901422295991
 20
395.1406009354029
 30
0.0
 40
1.181088207852974
100
AcDbArc
 50
182.8624052224276
 51
234.5193710326737
  0
LINE
  5
1B1B
330
D20
100
AcDbEntity
  8
1
  6
DASHED
 62
     0
100
AcDbLine
 10
308.7105276187543
 20
395.081620204152
 30
0.0
 11
308.6712335095474
 21
395.8675023788412
 31
0.0
  0
ARC
  5
1B1C
330
D20
100
AcDbEntity
  8
1
  6
DASHED
 62
     0
100
AcDbCircle
 10
329.5671438987454
 20
388.6764300019596
 30
0.0
 40
27.55872485646124
100
AcDbArc
 50
178.9948672299106
 51
198.5415209500033
  0
ARC
  5
1B1D
330
D20
100
AcDbEntity
  8
1
  6
DASHED
 62
     0
100
AcDbCircle
 10
284.2920959202824
 20
388.6764300019596
 30
0.0
 40
27.55872485641621
100
AcDbArc
 50
341.4584790399765
 51
1.005132760079429
  0
ARC
  5
1B1E
330
D20
100
AcDbEntity
  8
1
  6
DASHED
 62
     0
100
AcDbCircle
 10
308.3108274138256
 20
389.0493651864027
 30
0.0
 40
6.299137109612692
100
AcDbArc
 50
125.4806289597303
 51
178.9948672302396
  0
ARC
  5
1B1F
330
D20
100
AcDbEntity
  8
1
  6
DASHED
 62
     0
100
AcDbCircle
 10
305.5484124040209
 20
389.0493651864027
 30
0.0
 40
6.299137109570669
100
AcDbArc
 50
1.005132760079429
 51
54.5193710295305
  0
ARC
  5
1B20
330
D20
100
AcDbEntity
  8
1
  6
DASHED
 62
     0
100
AcDbCircle
 10
304.6329297822222
 20
389.5954585020879
 30
0.0
 40
7.283377283643503
100
AcDbArc
 50
311.5226622004594
 51
314.2631630302636
  0
ARC
  5
1B21
330
D20
100
AcDbEntity
  8
1
  6
DASHED
 62
     0
100
AcDbCircle
 10
309.2263100356126
 20
389.5954585020879
 30
0.0
 40
7.283377283578055
100
AcDbArc
 50
225.7368369597913
 51
228.4773377899841
  0
LINE
  5
1B22
330
D20
100
AcDbEntity
  8
1
  6
DASHED
 62
     0
100
AcDbLine
 10
308.3024915076628
 20
395.3585847785682
 30
0.0
 11
308.2911198945793
 21
395.5860170414193
 31
0.0
  0
LINE
  5
1B23
330
D20
100
AcDbEntity
  8
1
  6
DASHED
 62
     0
100
AcDbLine
 10
305.5598613200995
 20
395.4208449662523
 30
0.0
 11
305.5681199232673
 21
395.5860170414193
 31
0.0
  0
ARC
  5
1B24
330
D20
100
AcDbEntity
  8
1
  6
DASHED
 62
     0
100
AcDbCircle
 10
308.2124789211529
 20
395.5820849918031
 30
0.0
 40
0.0787392137534508
100
AcDbArc
 50
2.862405208927402
 51
90.0
  0
ARC
  5
1B25
330
D20
100
AcDbEntity
  8
1
  6
DASHED
 62
     0
100
AcDbCircle
 10
305.6467608978749
 20
395.5820849918031
 30
0.0
 40
0.0787392137811018
100
AcDbArc
 50
90.0
 51
177.1375947910726
  0
LWPOLYLINE
  5
1B26
330
D20
100
AcDbEntity
  8
1
 62
     0
100
AcDbPolyline
 90
       13
 70
     0
 43
0.0
 10
305.3855133333631
 20
395.3900215456159
 10
305.4213278888992
 20
395.4029047753611
 10
305.4513608725339
 20
395.4118772743452
 10
305.4779480536114
 20
395.4176432828918
 10
305.5007001911779
 20
395.4200702615025
 10
305.5251083183458
 20
395.4188471663109
 10
305.5560310399649
 20
395.4128824518624
 10
305.5863343573108
 20
395.4069230110254
 10
305.6108787408991
 20
395.4050459041497
 10
305.6355114034448
 20
395.4063982849094
 10
305.6646532116964
 20
395.4107044881082
 10
305.6978716621885
 20
395.4178566993941
 10
305.7377510477839
 20
395.4284171400843
  0
LWPOLYLINE
  5
1B27
330
D20
100
AcDbEntity
  8
1
 62
     0
100
AcDbPolyline
 90
       16
 70
     0
 43
0.0
 10
308.1416482632083
 20
395.3733278274285
 10
308.174800096117
 20
395.3558962028429
 10
308.2034404104899
 20
395.3451934585006
 10
308.229793718413
 20
395.3403734850695
 10
308.2534962871495
 20
395.3416097412585
 10
308.2660110361358
 20
395.3449719892583
 10
308.2794654151324
 20
395.3504959786041
 10
308.3137784193409
 20
395.3701253881641
 10
308.347594341079
 20
395.3893405564265
 10
308.3603729005612
 20
395.3942357978172
 10
308.3720217544288
 20
395.3966990444655
 10
308.3821939592813
 20
395.3969740494273
 10
308.3927691660837
 20
395.3955174484034
 10
308.4151079954215
 20
395.3874129079196
 10
308.4387424997272
 20
395.3726145079889
 10
308.4655066426555
 20
395.3499566009427
  0
LINE
  5
1B28
330
D20
100
AcDbEntity
  8
1
 62
     0
100
AcDbLine
 10
306.3390758049745
 20
417.5092278891741
 30
0.0
 11
306.3390758049745
 21
418.4274770262941
 31
0.0
  0
ARC
  5
1B29
330
D20
100
AcDbEntity
  8
1
 62
     0
100
AcDbCircle
 10
306.9296199089233
 20
417.9683524583246
 30
0.0
 40
0.7480225315109991
100
AcDbArc
 50
270.0
 51
90.0
  0
ARC
  5
1B2A
330
D20
100
AcDbEntity
  8
1
 62
     0
100
AcDbCircle
 10
306.9296199089233
 20
417.9683524583246
 30
0.0
 40
1.574784276798576
100
AcDbArc
 50
270.0
 51
355.432992110693
  0
ARC
  5
1B2B
330
D20
100
AcDbEntity
  8
1
 62
     0
100
AcDbCircle
 10
308.5437737932075
 20
420.2517896603389
 30
0.0
 40
0.1181088200810972
100
AcDbArc
 50
0.0
 51
90.0
  0
LINE
  5
1B2C
330
D20
100
AcDbEntity
  8
1
 62
     0
100
AcDbLine
 10
308.6616143583133
 20
420.2438338534157
 30
0.0
 11
308.5008274381555
 21
417.862275036228
 31
0.0
  0
ARC
  5
1B2D
330
D20
100
AcDbEntity
  8
1
 62
     0
100
AcDbCircle
 10
308.6225130069887
 20
420.2517896603389
 30
0.0
 40
0.1181088200810972
100
AcDbArc
 50
0.0
 51
90.0
  0
LINE
  5
1B2E
330
D20
100
AcDbEntity
  8
1
 62
     0
100
AcDbLine
 10
308.4770313050392
 20
417.6760110650558
 30
0.0
 11
308.7400053412948
 21
420.239737895466
 31
0.0
  0
LINE
  5
1B2F
330
D20
100
AcDbEntity
  8
1
 62
     0
100
AcDbLine
 10
307.5201640128721
 20
417.5092278891741
 30
0.0
 11
307.5201640128721
 21
418.4274770262941
 31
0.0
  0
ARC
  5
1B30
330
D20
100
AcDbEntity
  8
1
 62
     0
100
AcDbCircle
 10
307.294771556965
 20
413.182606873142
 30
0.0
 40
4.557921229025708
100
AcDbArc
 50
324.8748498902235
 51
358.3580334101856
  0
ARC
  5
1B31
330
D20
100
AcDbEntity
  8
1
 62
     0
100
AcDbCircle
 10
306.9296199089233
 20
408.1653203301763
 30
0.0
 40
8.267617456431134
100
AcDbArc
 50
61.89809169005602
 51
90.92880975003115
  0
ARC
  5
1B32
330
D20
100
AcDbEntity
  8
1
 62
     0
100
AcDbCircle
 10
308.5986437472469
 20
411.2908736613404
 30
0.0
 40
4.724352831607176
100
AcDbArc
 50
40.48035060012349
 51
61.89809169012883
  0
ARC
  5
1B33
330
D20
100
AcDbEntity
  8
1
 62
     0
100
AcDbCircle
 10
308.898100255813
 20
411.5464561222219
 30
0.0
 40
4.33065676268387
100
AcDbArc
 50
354.8842949802923
 51
40.4803506000705
  0
ARC
  5
1B34
330
D20
100
AcDbEntity
  8
1
 62
     0
100
AcDbCircle
 10
306.9296199089233
 20
408.7558649018406
 30
0.0
 40
7.4802253174722
100
AcDbArc
 50
55.15009638014399
 51
90.0
  0
ARC
  5
1B35
330
D20
100
AcDbEntity
  8
1
 62
     0
100
AcDbCircle
 10
308.5617971772395
 20
412.889510859729
 30
0.0
 40
3.293035673396481
100
AcDbArc
 50
2.828398430925755
 51
38.49318207058314
  0
ARC
  5
1B36
330
D20
100
AcDbEntity
  8
1
 62
     0
100
AcDbCircle
 10
309.2917963247185
 20
412.1482825032122
 30
0.0
 40
3.346416588630491
100
AcDbArc
 50
39.13669566043181
 51
55.15009542968588
  0
ARC
  5
1B37
330
D20
100
AcDbEntity
  8
1
 62
     0
100
AcDbCircle
 10
306.9296199089233
 20
411.6692153475691
 30
0.0
 40
5.31489693549441
100
AcDbArc
 50
260.1652730599494
 51
279.834726950549
  0
ARC
  5
1B38
330
D20
100
AcDbEntity
  8
1
 62
     0
100
AcDbCircle
 10
309.2917963247185
 20
411.5464561222219
 30
0.0
 40
3.936960693783888
100
AcDbArc
 50
320.4481415999834
 51
352.4508917996263
  0
ARC
  5
1B39
330
D20
100
AcDbEntity
  8
1
 62
     0
100
AcDbCircle
 10
306.559767263197
 20
413.8027232620407
 30
0.0
 40
7.480225317466313
100
AcDbArc
 50
279.8347269504532
 51
320.4948201700592
  0
ARC
  5
1B3A
330
D20
100
AcDbEntity
  8
1
 62
     0
100
AcDbCircle
 10
300.7485916194298
 20
413.47305717413
 30
0.0
 40
12.59827422033593
100
AcDbArc
 50
1.302350069806913
 51
14.09597008021045
  0
ARC
  5
1B3B
330
D20
100
AcDbEntity
  8
1
 62
     0
100
AcDbCircle
 10
278.4569769263704
 20
408.5240714071606
 30
0.0
 40
35.43264624403676
100
AcDbArc
 50
12.51727971005307
 51
19.39587444006324
  0
ARC
  5
1B3C
330
D20
100
AcDbEntity
  8
1
 62
     0
100
AcDbCircle
 10
295.6318648221952
 20
413.3567324209533
 30
0.0
 40
17.71632312200681
100
AcDbArc
 50
352.4508918000468
 51
1.302350069973045
  0
ARC
  5
1B3D
330
D20
100
AcDbEntity
  8
1
 62
     0
100
AcDbCircle
 10
305.8706358953994
 20
414.1844403738017
 30
0.0
 40
6.299137109576169
100
AcDbArc
 50
299.6224424802506
 51
324.8748498898611
  0
LINE
  5
1B3F
330
D20
100
AcDbEntity
  8
0
100
AcDbLine
 10
286.7212998135822
 20
439.0831840468205
 30
0.0
 11
286.7212998135822
 21
363.0298762180945
 31
0.0
  0
TEXT
  5
1B40
330
D20
100
AcDbEntity
  8
0
100
AcDbText
 10
300.9920781355628
 20
430.7648534524491
 30
0.0
 40
3.5
  1
TOP SPUD
100
AcDbText
  0
TEXT
  5
1B41
330
D20
100
AcDbEntity
  8
0
100
AcDbText
 10
233.7344289682552
 20
430.7648534524491
 30
0.0
 40
3.5
  1
BACK SPUD
100
AcDbText
  0
TEXT
  5
1B67
330
D20
100
AcDbEntity
  8
0
100
AcDbText
 10
301.7330285287424
 20
424.5698465598628
 30
0.0
 40
2.5
  1
UT104, UT104E
100
AcDbText
  0
TEXT
  5
1B68
330
D20
100
AcDbEntity
  8
0
100
AcDbText
 10
233.7989325090645
 20
424.5166636773231
 30
0.0
 40
2.5
  1
UT104V, UT104EV
100
AcDbText
  0
VIEWPORT
  5
1B86
102
{ACAD_XDICTIONARY
360
1BAF
102
}
330
D1C
100
AcDbEntity
 67
     1
  8
0
100
AcDbViewport
 10
6.30790320179864
 20
4.000122090685323
 30
0.0
 40
12.74642320756056
 41
6.454849668730496
 68
     1
 69
     1
 12
6.30790320179864
 22
4.000122090685323
 13
0.0
 23
0.0
 14
0.5
 24
0.5
 15
0.5
 25
0.5
 16
0.0
 26
0.0
 36
1.0
 17
0.0
 27
0.0
 37
0.0
 42
50.0
 43
0.0
 44
0.0
 45
6.454849668730496
 50
0.0
 51
0.0
 72
   100
 90
   819232
  1

281
     0
 71
     1
 74
     0
110
0.0
120
0.0
130
0.0
111
1.0
121
0.0
131
0.0
112
0.0
122
1.0
132
0.0
 79
     0
146
0.0
  0
VIEWPORT
  5
1B89
102
{ACAD_XDICTIONARY
360
1BB1
102
}
330
D1C
100
AcDbEntity
 67
     1
  8
0
100
AcDbViewport
 10
5.24999976158142
 20
3.999999761581421
 30
0.0
 40
8.399999618530275
 41
6.399999618530273
 68
     2
 69
     2
 12
286.9720490264849
 22
401.0467561905351
 13
0.0
 23
0.0
 14
1.0
 24
1.0
 15
0.0
 25
0.0
 16
0.0
 26
0.0
 36
1.0
 17
0.0
 27
0.0
 37
0.0
 42
50.0
 43
0.0
 44
0.0
 45
81.85749201033075
 50
0.0
 51
0.0
 72
   100
 90
   819232
  1

281
     0
 71
     1
 74
     0
110
0.0
120
0.0
130
0.0
111
1.0
121
0.0
131
0.0
112
0.0
122
1.0
132
0.0
 79
     0
146
0.0
  0
ENDSEC
  0
SECTION
  2
OBJECTS
  0
DICTIONARY
  5
D0E
330
0
100
AcDbDictionary
281
     1
  3
ACAD_COLOR
350
19D8
  3
ACAD_GROUP
350
D0F
  3
ACAD_LAYOUT
350
D1B
  3
ACAD_MATERIAL
350
19D7
  3
ACAD_MLINESTYLE
350
D18
  3
ACAD_PLOTSETTINGS
350
D1A
  3
ACAD_PLOTSTYLENAME
350
D10
  3
ACAD_TABLESTYLE
350
19D9
  3
ACAD_VISUALSTYLE
350
1A0E
  3
ACDBVARIABLEDICTIONARY
350
19AC
  3
ASE_INDEX_DICTIONARY
350
1B8C
  3
DWGPROPS
350
1BA8
  0
DICTIONARY
  5
1B4B
330
D0A
100
AcDbDictionary
280
     1
281
     1
  0
DICTIONARY
  5
19D1
330
D20
100
AcDbDictionary
280
     1
281
     1
  3
ACAD_LAYOUTSELFREF
360
19D2
  0
DICTIONARY
  5
19CF
330
D1C
100
AcDbDictionary
280
     1
281
     1
  3
ACAD_LAYOUTSELFREF
360
19D0
  0
DICTIONARY
  5
1BAF
330
1B86
100
AcDbDictionary
280
     1
281
     1
  3
ACAD_XREC_ROUNDTRIP
360
1BB0
  0
DICTIONARY
  5
1BB1
330
1B89
100
AcDbDictionary
280
     1
281
     1
  3
ACAD_XREC_ROUNDTRIP
360
1BB2
  0
DICTIONARY
  5
19D8
102
{ACAD_REACTORS
330
D0E
102
}
330
D0E
100
AcDbDictionary
281
     1
  0
DICTIONARY
  5
D0F
102
{ACAD_REACTORS
330
D0E
102
}
330
D0E
100
AcDbDictionary
281
     1
  0
DICTIONARY
  5
D1B
102
{ACAD_REACTORS
330
D0E
102
}
330
D0E
100
AcDbDictionary
281
     1
  3
Layout1
350
19DC
  3
Model
350
19DB
  0
DICTIONARY
  5
19D7
102
{ACAD_REACTORS
330
D0E
102
}
330
D0E
100
AcDbDictionary
281
     1
  3
ByBlock
350
1A0C
  3
ByLayer
350
1A0B
  3
Global
350
1A0D
  0
DICTIONARY
  5
D18
102
{ACAD_REACTORS
330
D0E
102
}
330
D0E
100
AcDbDictionary
281
     1
  3
STANDARD
350
D19
  0
DICTIONARY
  5
D1A
102
{ACAD_REACTORS
330
D0E
102
}
330
D0E
100
AcDbDictionary
281
     1
  0
ACDBDICTIONARYWDFLT
  5
D10
102
{ACAD_REACTORS
330
D0E
102
}
330
D0E
100
AcDbDictionary
281
     1
  3
Normal
350
D11
100
AcDbDictionaryWithDefault
340
D11
  0
DICTIONARY
  5
19D9
102
{ACAD_REACTORS
330
D0E
102
}
330
D0E
100
AcDbDictionary
281
     1
  3
Standard
350
19DA
  0
DICTIONARY
  5
1A0E
102
{ACAD_REACTORS
330
D0E
102
}
330
D0E
100
AcDbDictionary
281
     1
  3
2dWireframe
350
1A14
  3
3D Hidden
350
1A16
  3
3dWireframe
350
1A15
  3
Basic
350
1A13
  3
Brighten
350
1A1A
  3
ColorChange
350
1A1E
  3
Conceptual
350
1A17
  3
Dim
350
1A19
  3
Facepattern
350
1A1D
  3
Flat
350
1A0F
  3
FlatWithEdges
350
1A10
  3
Gouraud
350
1A11
  3
GouraudWithEdges
350
1A12
  3
Linepattern
350
1A1C
  3
Realistic
350
1A18
  3
Thicken
350
1A1B
  0
DICTIONARY
  5
19AC
102
{ACAD_REACTORS
330
D0E
102
}
330
D0E
100
AcDbDictionary
281
     1
  3
CTABLESTYLE
350
19DF
  3
DIMASSOC
350
19AD
  3
INDEXCTL
350
1B62
  3
SORTENTS
350
1B61
  0
DICTIONARY
  5
1B8C
102
{ACAD_REACTORS
330
D0E
102
}
330
D0E
100
AcDbDictionary
281
     1
  3
ASEBlockHierarchyIndexRecord
350
1B8E
1001
DCO15
1040
1652006284.763
  0
XRECORD
  5
1BA8
102
{ACAD_REACTORS
330
D0E
102
}
330
D0E
100
AcDbXrecord
280
     1
  1
DWGPROPS COOKIE
  2

  3

  4

  6

  7

  8
jgayle
  9

300
=
301
=
302
=
303
=
304
=
305
=
306
=
307
=
308
=
309
=
 40
0.217959525462963
 41
2452243.534263056
 42
2455170.479848021
  1

 90
        0
  0
XRECORD
  5
19D2
102
{ACAD_REACTORS
330
19D1
102
}
330
19D1
100
AcDbXrecord
280
     1
340
D20
  0
XRECORD
  5
19D0
102
{ACAD_REACTORS
330
19CF
102
}
330
19CF
100
AcDbXrecord
280
     1
340
D1C
  0
XRECORD
  5
1BB0
102
{ACAD_REACTORS
330
1BAF
102
}
330
1BAF
100
AcDbXrecord
280
     1
102
SHADEPLOT
 70
     0
  0
XRECORD
  5
1BB2
102
{ACAD_REACTORS
330
1BB1
102
}
330
1BB1
100
AcDbXrecord
280
     1
102
SHADEPLOT
 70
     0
  0
LAYOUT
  5
19DC
102
{ACAD_XDICTIONARY
360
1BAD
102
}
102
{ACAD_REACTORS
330
D1B
102
}
330
D1B
100
AcDbPlotSettings
  1

  2
none_device
  4
Letter_(8.50_x_11.00_Inches)
  6

 40
6.349999904632567
 41
6.349999904632567
 42
6.350006103515625
 43
6.350006103515625
 44
215.8999938964844
 45
279.3999938964844
 46
0.0
 47
0.0
 48
0.0
 49
0.0
140
0.0
141
0.0
142
1.0
143
1.0
 70
   688
 72
     0
 73
     1
 74
     5
  7

 75
    16
147
1.0
148
0.0
149
0.0
100
AcDbLayout
  1
Layout1
 70
     1
 71
     1
 10
-0.2500002402958907
 20
-0.2499999962453767
 11
10.74999951940822
 21
8.249999763458731
 12
0.0
 22
0.0
 32
0.0
 14
1.049999952316283
 24
0.7999999523162847
 34
0.0
 15
9.449999570846557
 25
7.199999570846557
 35
0.0
146
0.0
 13
0.0
 23
0.0
 33
0.0
 16
1.0
 26
0.0
 36
0.0
 17
0.0
 27
1.0
 37
0.0
 76
     0
330
D1C
331
1B86
1001
ACAD_PSEXT
1000
None
1000
None
1000
Not applicable
1000
The layout will not be plotted unless a new plotter configuration name is selected.
1070
     0
  0
LAYOUT
  5
19DB
102
{ACAD_XDICTIONARY
360
1BAB
102
}
102
{ACAD_REACTORS
330
D1B
102
}
330
D1B
100
AcDbPlotSettings
  1

  2
Symantec Fax Starter Edition
  4

  6

 40
0.0
 41
0.0
 42
0.0
 43
0.0
 44
0.0
 45
0.0
 46
0.0
 47
0.0
 48
0.0
 49
0.0
140
0.0
141
0.0
142
1.0
143
1.0
 70
  1712
 72
     0
 73
     0
 74
     0
  7

 75
     0
147
1.0
148
0.0
149
0.0
100
AcDbLayout
  1
Model
 70
     1
 71
     0
 10
0.0
 20
0.0
 11
12.0
 21
9.0
 12
0.0
 22
0.0
 32
0.0
 14
0.0
 24
0.0
 34
0.0
 15
0.0
 25
0.0
 35
0.0
146
0.0
 13
0.0
 23
0.0
 33
0.0
 16
1.0
 26
0.0
 36
0.0
 17
0.0
 27
1.0
 37
0.0
 76
     0
330
D20
331
1A09
  0
MATERIAL
  5
1A0C
102
{ACAD_XDICTIONARY
360
1B98
102
}
102
{ACAD_REACTORS
330
19D7
102
}
330
19D7
100
AcDbMaterial
  1
ByBlock
  0
MATERIAL
  5
1A0B
102
{ACAD_XDICTIONARY
360
1B96
102
}
102
{ACAD_REACTORS
330
19D7
102
}
330
19D7
100
AcDbMaterial
  1
ByLayer
  0
MATERIAL
  5
1A0D
102
{ACAD_XDICTIONARY
360
1B9A
102
}
102
{ACAD_REACTORS
330
19D7
102
}
330
19D7
100
AcDbMaterial
  1
Global
  0
MLINESTYLE
  5
D19
102
{ACAD_REACTORS
330
D18
102
}
330
D18
100
AcDbMlineStyle
  2
STANDARD
 70
     0
  3

 62
   256
 51
90.0
 52
90.0
 71
     2
 49
0.5
 62
   256
  6
BYLAYER
 49
-0.5
 62
   256
  6
BYLAYER
  0
ACDBPLACEHOLDER
  5
D11
102
{ACAD_REACTORS
330
D10
102
}
330
D10
  0
TABLESTYLE
  5
19DA
102
{ACAD_XDICTIONARY
360
1BA9
102
}
102
{ACAD_REACTORS
330
19D9
102
}
330
19D9
100
AcDbTableStyle
  3
Standard
 70
     0
 71
     0
 40
0.06
 41
0.06
280
     0
281
     0
  7
STANDARD
140
0.18
170
     2
 62
     0
 63
     7
283
     0
274
    -2
284
     1
 64
     0
275
    -2
285
     1
 65
     0
276
    -2
286
     1
 66
     0
277
    -2
287
     1
 67
     0
278
    -2
288
     1
 68
     0
279
    -2
289
     1
 69
     0
  7
STANDARD
140
0.25
170
     5
 62
     0
 63
     7
283
     0
274
    -2
284
     1
 64
     0
275
    -2
285
     1
 65
     0
276
    -2
286
     1
 66
     0
277
    -2
287
     1
 67
     0
278
    -2
288
     1
 68
     0
279
    -2
289
     1
 69
     0
  7
STANDARD
140
0.18
170
     5
 62
     0
 63
     7
283
     0
274
    -2
284
     1
 64
     0
275
    -2
285
     1
 65
     0
276
    -2
286
     1
 66
     0
277
    -2
287
     1
 67
     0
278
    -2
288
     1
 68
     0
279
    -2
289
     1
 69
     0
  0
VISUALSTYLE
  5
1A14
102
{ACAD_REACTORS
330
1A0E
102
}
330
1A0E
100
AcDbVisualStyle
  2
2dWireframe
 70
     4
 71
     0
 72
     2
 73
     0
 90
        0
 40
-0.6
 41
-30.0
 62
     5
 63
     7
 74
     1
 91
        4
 64
     7
 65
   257
 75
     1
175
     1
 42
1.0
 92
        0
 66
   257
 43
1.0
 76
     1
 77
     6
 78
     2
 67
     7
 79
     5
170
     0
171
     0
290
     0
174
     0
 93
        1
 44
0.0
173
     0
291
     0
 45
0.0
1001
ACAD
1000
AcDbSavedByObjectVersion
1070
     0
1000
AcDbSavedByObjectVersion
1070
     0
  0
VISUALSTYLE
  5
1A16
102
{ACAD_REACTORS
330
1A0E
102
}
330
1A0E
100
AcDbVisualStyle
  2
3D Hidden
 70
     6
 71
     1
 72
     2
 73
     2
 90
        0
 40
-0.6
 41
-30.0
 62
     5
 63
     7
 74
     2
 91
        2
 64
     7
 65
   257
 75
     2
175
     1
 42
40.0
 92
        0
 66
   257
 43
1.0
 76
     1
 77
     6
 78
     2
 67
     7
 79
     3
170
     0
171
     0
290
     0
174
     0
 93
        1
 44
0.0
173
     0
291
     0
 45
0.0
1001
ACAD
1000
AcDbSavedByObjectVersion
1070
     0
1000
AcDbSavedByObjectVersion
1070
     0
  0
VISUALSTYLE
  5
1A15
102
{ACAD_REACTORS
330
1A0E
102
}
330
1A0E
100
AcDbVisualStyle
  2
3dWireframe
 70
     5
 71
     0
 72
     2
 73
     0
 90
        0
 40
-0.6
 41
-30.0
 62
     5
 63
     7
 74
     1
 91
        4
 64
     7
 65
   257
 75
     1
175
     1
 42
1.0
 92
        0
 66
   257
 43
1.0
 76
     1
 77
     6
 78
     2
 67
     7
 79
     5
170
     0
171
     0
290
     0
174
     0
 93
        1
 44
0.0
173
     0
291
     0
 45
0.0
1001
ACAD
1000
AcDbSavedByObjectVersion
1070
     0
1000
AcDbSavedByObjectVersion
1070
     0
  0
VISUALSTYLE
  5
1A13
102
{ACAD_REACTORS
330
1A0E
102
}
330
1A0E
100
AcDbVisualStyle
  2
Basic
 70
     7
 71
     1
 72
     0
 73
     1
 90
        0
 40
-0.6
 41
-30.0
 62
     5
 63
     7
 74
     0
 91
        4
 64
     7
 65
   257
 75
     1
175
     1
 42
1.0
 92
        8
 66
     7
 43
1.0
 76
     1
 77
     6
 78
     2
 67
     7
 79
     5
170
     0
171
     0
290
     0
174
     0
 93
        1
 44
0.0
173
     0
291
     1
 45
0.0
1001
ACAD
1000
AcDbSavedByObjectVersion
1070
     0
1000
AcDbSavedByObjectVersion
1070
     0
  0
VISUALSTYLE
  5
1A1A
102
{ACAD_REACTORS
330
1A0E
102
}
330
1A0E
100
AcDbVisualStyle
  2
Brighten
 70
    12
 71
     2
 72
     2
 73
     0
 90
        0
 40
-0.6
 41
-30.0
 62
     5
 63
     7
 74
     1
 91
        4
 64
     7
 65
   257
 75
     1
175
     1
 42
1.0
 92
        8
 66
     7
 43
1.0
 76
     1
 77
     6
 78
     2
 67
     7
 79
     5
170
     0
171
     0
290
     0
174
     0
 93
        1
 44
50.0
173
     0
291
     1
 45
0.0
1001
ACAD
1000
AcDbSavedByObjectVersion
1070
     0
1000
AcDbSavedByObjectVersion
1070
     0
  0
VISUALSTYLE
  5
1A1E
102
{ACAD_REACTORS
330
1A0E
102
}
330
1A0E
100
AcDbVisualStyle
  2
ColorChange
 70
    16
 71
     2
 72
     2
 73
     3
 90
        0
 40
-0.6
 41
-30.0
 62
     5
 63
     8
 74
     1
 91
        4
 64
     7
 65
   257
 75
     1
175
     1
 42
1.0
 92
        8
 66
     8
 43
1.0
 76
     1
 77
     6
 78
     2
 67
     7
 79
     5
170
     0
171
     0
290
     0
174
     0
 93
        1
 44
0.0
173
     0
291
     1
 45
0.0
1001
ACAD
1000
AcDbSavedByObjectVersion
1070
     0
1000
AcDbSavedByObjectVersion
1070
     0
  0
VISUALSTYLE
  5
1A17
102
{ACAD_REACTORS
330
1A0E
102
}
330
1A0E
100
AcDbVisualStyle
  2
Conceptual
 70
     9
 71
     3
 72
     2
 73
     0
 90
        0
 40
-0.6
 41
-30.0
 62
     5
 63
     7
 74
     2
 91
        2
 64
     7
 65
   257
 75
     1
175
     1
 42
40.0
 92
        8
 66
     7
 43
1.0
 76
     1
 77
     6
 78
     2
 67
     7
 79
     3
170
     0
171
     0
290
     0
174
     0
 93
        1
 44
0.0
173
     0
291
     0
 45
0.0
1001
ACAD
1000
AcDbSavedByObjectVersion
1070
     0
1000
AcDbSavedByObjectVersion
1070
     0
  0
VISUALSTYLE
  5
1A19
102
{ACAD_REACTORS
330
1A0E
102
}
330
1A0E
100
AcDbVisualStyle
  2
Dim
 70
    11
 71
     2
 72
     2
 73
     0
 90
        0
 40
-0.6
 41
-30.0
 62
     5
 63
     7
 74
     1
 91
        4
 64
     7
 65
   257
 75
     1
175
     1
 42
1.0
 92
        8
 66
     7
 43
1.0
 76
     1
 77
     6
 78
     2
 67
     7
 79
     5
170
     0
171
     0
290
     0
174
     0
 93
        1
 44
-50.0
173
     0
291
     1
 45
0.0
1001
ACAD
1000
AcDbSavedByObjectVersion
1070
     0
1000
AcDbSavedByObjectVersion
1070
     0
  0
VISUALSTYLE
  5
1A1D
102
{ACAD_REACTORS
330
1A0E
102
}
330
1A0E
100
AcDbVisualStyle
  2
Facepattern
 70
    15
 71
     2
 72
     2
 73
     0
 90
        0
 40
-0.6
 41
-30.0
 62
     5
 63
     7
 74
     1
 91
        4
 64
     7
 65
   257
 75
     1
175
     1
 42
1.0
 92
        8
 66
     7
 43
1.0
 76
     1
 77
     6
 78
     2
 67
     7
 79
     5
170
     0
171
     0
290
     0
174
     0
 93
        1
 44
0.0
173
     0
291
     1
 45
0.0
1001
ACAD
1000
AcDbSavedByObjectVersion
1070
     0
1000
AcDbSavedByObjectVersion
1070
     0
  0
VISUALSTYLE
  5
1A0F
102
{ACAD_REACTORS
330
1A0E
102
}
330
1A0E
100
AcDbVisualStyle
  2
Flat
 70
     0
 71
     2
 72
     1
 73
     1
 90
        2
 40
-0.6
 41
30.0
 62
     5
 63
     7
 74
     0
 91
        4
 64
     7
 65
   257
 75
     1
175
     1
 42
1.0
 92
        8
 66
     7
 43
1.0
 76
     1
 77
     6
 78
     2
 67
     7
 79
     5
170
     0
171
     0
290
     0
174
     0
 93
       13
 44
0.0
173
     0
291
     1
 45
0.0
1001
ACAD
1000
AcDbSavedByObjectVersion
1070
     0
1000
AcDbSavedByObjectVersion
1070
     0
  0
VISUALSTYLE
  5
1A10
102
{ACAD_REACTORS
330
1A0E
102
}
330
1A0E
100
AcDbVisualStyle
  2
FlatWithEdges
 70
     1
 71
     2
 72
     1
 73
     1
 90
        2
 40
-0.6
 41
30.0
 62
     5
 63
     7
 74
     1
 91
        4
 64
     7
 65
   257
 75
     1
175
     1
 42
1.0
 92
        0
 66
   257
 43
1.0
 76
     1
 77
     6
 78
     2
 67
     7
 79
     5
170
     0
171
     0
290
     0
174
     0
 93
       13
 44
0.0
173
     0
291
     1
 45
0.0
1001
ACAD
1000
AcDbSavedByObjectVersion
1070
     0
1000
AcDbSavedByObjectVersion
1070
     0
  0
VISUALSTYLE
  5
1A11
102
{ACAD_REACTORS
330
1A0E
102
}
330
1A0E
100
AcDbVisualStyle
  2
Gouraud
 70
     2
 71
     2
 72
     2
 73
     1
 90
        2
 40
-0.6
 41
30.0
 62
     5
 63
     7
 74
     0
 91
        4
 64
     7
 65
   257
 75
     1
175
     1
 42
1.0
 92
        0
 66
     7
 43
1.0
 76
     1
 77
     6
 78
     2
 67
     7
 79
     5
170
     0
171
     0
290
     0
174
     0
 93
       13
 44
0.0
173
     0
291
     1
 45
0.0
1001
ACAD
1000
AcDbSavedByObjectVersion
1070
     0
1000
AcDbSavedByObjectVersion
1070
     0
  0
VISUALSTYLE
  5
1A12
102
{ACAD_REACTORS
330
1A0E
102
}
330
1A0E
100
AcDbVisualStyle
  2
GouraudWithEdges
 70
     3
 71
     2
 72
     2
 73
     1
 90
        2
 40
-0.6
 41
30.0
 62
     5
 63
     7
 74
     1
 91
        4
 64
     7
 65
   257
 75
     1
175
     1
 42
1.0
 92
        0
 66
   257
 43
1.0
 76
     1
 77
     6
 78
     2
 67
     7
 79
     5
170
     0
171
     0
290
     0
174
     0
 93
       13
 44
0.0
173
     0
291
     1
 45
0.0
1001
ACAD
1000
AcDbSavedByObjectVersion
1070
     0
1000
AcDbSavedByObjectVersion
1070
     0
  0
VISUALSTYLE
  5
1A1C
102
{ACAD_REACTORS
330
1A0E
102
}
330
1A0E
100
AcDbVisualStyle
  2
Linepattern
 70
    14
 71
     2
 72
     2
 73
     0
 90
        0
 40
-0.6
 41
-30.0
 62
     5
 63
     7
 74
     1
 91
        4
 64
     7
 65
   257
 75
     7
175
     7
 42
1.0
 92
        8
 66
     7
 43
1.0
 76
     1
 77
     6
 78
     2
 67
     7
 79
     5
170
     0
171
     0
290
     0
174
     0
 93
        1
 44
0.0
173
     0
291
     1
 45
0.0
1001
ACAD
1000
AcDbSavedByObjectVersion
1070
     0
1000
AcDbSavedByObjectVersion
1070
     0
  0
VISUALSTYLE
  5
1A18
102
{ACAD_REACTORS
330
1A0E
102
}
330
1A0E
100
AcDbVisualStyle
  2
Realistic
 70
     8
 71
     2
 72
     2
 73
     0
 90
        0
 40
-0.6
 41
-30.0
 62
     5
 63
     7
 74
     1
 91
        0
 64
     7
 65
   257
 75
     1
175
     1
 42
1.0
 92
        8
 66
     8
 43
1.0
 76
     1
 77
     6
 78
     2
 67
     7
 79
     5
170
     0
171
     0
290
     0
174
     0
 93
       13
 44
0.0
173
     0
291
     0
 45
0.0
1001
ACAD
1000
AcDbSavedByObjectVersion
1070
     0
1000
AcDbSavedByObjectVersion
1070
     0
  0
VISUALSTYLE
  5
1A1B
102
{ACAD_REACTORS
330
1A0E
102
}
330
1A0E
100
AcDbVisualStyle
  2
Thicken
 70
    13
 71
     2
 72
     2
 73
     0
 90
        0
 40
-0.6
 41
-30.0
 62
     5
 63
     7
 74
     1
 91
        4
 64
     7
 65
   257
 75
     1
175
     1
 42
1.0
 92
       12
 66
     7
 43
1.0
 76
     1
 77
     6
 78
     2
 67
     7
 79
     5
170
     0
171
     0
290
     0
174
     0
 93
        1
 44
0.0
173
     0
291
     1
 45
0.0
1001
ACAD
1000
AcDbSavedByObjectVersion
1070
     0
1000
AcDbSavedByObjectVersion
1070
     0
  0
DICTIONARYVAR
  5
19DF
102
{ACAD_REACTORS
330
19AC
102
}
330
19AC
100
DictionaryVariables
280
     0
  1
STANDARD
  0
DICTIONARYVAR
  5
19AD
102
{ACAD_REACTORS
330
19AC
102
}
330
19AC
100
DictionaryVariables
280
     0
  1
1
  0
DICTIONARYVAR
  5
1B62
102
{ACAD_REACTORS
330
19AC
102
}
330
19AC
100
DictionaryVariables
280
     0
  1
0
  0
DICTIONARYVAR
  5
1B61
102
{ACAD_REACTORS
330
19AC
102
}
330
19AC
100
DictionaryVariables
280
     0
  1
127
  0
XRECORD
  5
1B8E
102
{ACAD_REACTORS
330
1B8C
102
}
330
1B8C
100
AcDbXrecord
280
     1
  0
DICTIONARY
  5
1BAD
330
19DC
100
AcDbDictionary
280
     1
281
     1
  3
ACAD_XREC_ROUNDTRIP
360
1BAE
  0
DICTIONARY
  5
1BAB
330
19DB
100
AcDbDictionary
280
     1
281
     1
  3
ACAD_XREC_ROUNDTRIP
360
1BAC
  0
DICTIONARY
  5
1B98
330
1A0C
100
AcDbDictionary
280
     1
281
     1
  3
ACAD_XREC_ROUNDTRIP
360
1B99
  0
DICTIONARY
  5
1B96
330
1A0B
100
AcDbDictionary
280
     1
281
     1
  3
ACAD_XREC_ROUNDTRIP
360
1B97
  0
DICTIONARY
  5
1B9A
330
1A0D
100
AcDbDictionary
280
     1
281
     1
  3
ACAD_XREC_ROUNDTRIP
360
1B9B
  0
DICTIONARY
  5
1BA9
330
19DA
100
AcDbDictionary
280
     1
281
     1
  3
ACAD_XREC_ROUNDTRIP
360
1BAA
  0
XRECORD
  5
1BAE
102
{ACAD_REACTORS
330
1BAD
102
}
330
1BAD
100
AcDbXrecord
280
     1
102
SHADEPLOT
 70
     0
102
SHADEPLOTRESLEVEL
 70
     2
102
SHADEPLOTCUSTOMDPI
 70
   300
  0
XRECORD
  5
1BAC
102
{ACAD_REACTORS
330
1BAB
102
}
330
1BAB
100
AcDbXrecord
280
     1
102
SHADEPLOT
 70
     0
102
SHADEPLOTRESLEVEL
 70
     2
102
SHADEPLOTCUSTOMDPI
 70
   300
  0
XRECORD
  5
1B99
102
{ACAD_REACTORS
330
1B98
102
}
330
1B98
100
AcDbXrecord
280
     1
102
MATERIAL
148
0.0
149
0.0
149
0.0
 93
        0
 94
       63
282
     0
 72
     1
 77
     1
171
     1
175
     1
179
     1
273
     0
  0
XRECORD
  5
1B97
102
{ACAD_REACTORS
330
1B96
102
}
330
1B96
100
AcDbXrecord
280
     1
102
MATERIAL
148
0.0
149
0.0
149
0.0
 93
        0
 94
       63
282
     0
 72
     1
 77
     1
171
     1
175
     1
179
     1
273
     0
  0
XRECORD
  5
1B9B
102
{ACAD_REACTORS
330
1B9A
102
}
330
1B9A
100
AcDbXrecord
280
     1
102
MATERIAL
148
0.0
149
0.0
149
0.0
 93
        0
 94
       63
282
     0
 72
     1
 77
     1
171
     1
175
     1
179
     1
273
     0
  0
XRECORD
  5
1BAA
102
{ACAD_REACTORS
330
1BA9
102
}
330
1BA9
100
AcDbXrecord
280
     1
102
ACAD_ROUNDTRIP_PRE2007_TABLESTYLE
 90
        4
 91
        0
  1

 92
        4
 93
        0
  2

 94
        4
 95
        0
  3

  0
ENDSEC
  0
EOF
