  0
SECTION
  2
HEADER
  9
$ACADVER
  1
AC1015
  9
$ACADMAINTVER
 70
    13
  9
$DWGCODEPAGE
  3
ANSI_1252
  9
$INSBASE
 10
0.0
 20
0.0
 30
0.0
  9
$EXTMIN
 10
0.0000000000000027
 20
0.0677395000000152
 30
0.0
  9
$EXTMAX
 10
49.0
 20
154.9322604999999
 30
0.0
  9
$LIMMIN
 10
0.0
 20
0.0
  9
$LIMMAX
 10
12.0
 20
9.0
  9
$ORTHOMODE
 70
     0
  9
$REGENMODE
 70
     1
  9
$FILLMODE
 70
     1
  9
$QTEXTMODE
 70
     0
  9
$MIRRTEXT
 70
     1
  9
$LTSCALE
 40
1.0
  9
$ATTMODE
 70
     1
  9
$TEXTSIZE
 40
0.2
  9
$TRACEWID
 40
0.05
  9
$TEXTSTYLE
  7
Standard
  9
$CLAYER
  8
0
  9
$CELTYPE
  6
Continuous
  9
$CECOLOR
 62
   256
  9
$CELTSCALE
 40
1.0
  9
$DISPSILH
 70
     0
  9
$DIMSCALE
 40
1.0
  9
$DIMASZ
 40
0.18
  9
$DIMEXO
 40
0.0625
  9
$DIMDLI
 40
0.38
  9
$DIMRND
 40
0.0
  9
$DIMDLE
 40
0.0
  9
$DIMEXE
 40
0.18
  9
$DIMTP
 40
0.0
  9
$DIMTM
 40
0.0
  9
$DIMTXT
 40
0.18
  9
$DIMCEN
 40
0.09
  9
$DIMTSZ
 40
0.0
  9
$DIMTOL
 70
     0
  9
$DIMLIM
 70
     0
  9
$DIMTIH
 70
     1
  9
$DIMTOH
 70
     1
  9
$DIMSE1
 70
     0
  9
$DIMSE2
 70
     0
  9
$DIMTAD
 70
     0
  9
$DIMZIN
 70
     0
  9
$DIMBLK
  1

  9
$DIMASO
 70
     1
  9
$DIMSHO
 70
     1
  9
$DIMPOST
  1

  9
$DIMAPOST
  1

  9
$DIMALT
 70
     0
  9
$DIMALTD
 70
     2
  9
$DIMALTF
 40
25.4
  9
$DIMLFAC
 40
1.0
  9
$DIMTOFL
 70
     0
  9
$DIMTVP
 40
0.0
  9
$DIMTIX
 70
     0
  9
$DIMSOXD
 70
     0
  9
$DIMSAH
 70
     0
  9
$DIMBLK1
  1

  9
$DIMBLK2
  1

  9
$DIMSTYLE
  2
Standard
  9
$DIMCLRD
 70
     0
  9
$DIMCLRE
 70
     0
  9
$DIMCLRT
 70
     0
  9
$DIMTFAC
 40
1.0
  9
$DIMGAP
 40
0.09
  9
$DIMJUST
 70
     0
  9
$DIMSD1
 70
     0
  9
$DIMSD2
 70
     0
  9
$DIMTOLJ
 70
     1
  9
$DIMTZIN
 70
     0
  9
$DIMALTZ
 70
     0
  9
$DIMALTTZ
 70
     0
  9
$DIMUPT
 70
     0
  9
$DIMDEC
 70
     4
  9
$DIMTDEC
 70
     4
  9
$DIMALTU
 70
     2
  9
$DIMALTTD
 70
     2
  9
$DIMTXSTY
  7
Standard
  9
$DIMAUNIT
 70
     0
  9
$DIMADEC
 70
     0
  9
$DIMALTRND
 40
0.0
  9
$DIMAZIN
 70
     0
  9
$DIMDSEP
 70
    46
  9
$DIMATFIT
 70
     3
  9
$DIMFRAC
 70
     0
  9
$DIMLDRBLK
  1

  9
$DIMLUNIT
 70
     2
  9
$DIMLWD
 70
    -2
  9
$DIMLWE
 70
    -2
  9
$DIMTMOVE
 70
     0
  9
$LUNITS
 70
     2
  9
$LUPREC
 70
     4
  9
$SKETCHINC
 40
0.1
  9
$FILLETRAD
 40
0.0
  9
$AUNITS
 70
     0
  9
$AUPREC
 70
     0
  9
$MENU
  1
.
  9
$ELEVATION
 40
0.0
  9
$PELEVATION
 40
0.0
  9
$THICKNESS
 40
0.0
  9
$LIMCHECK
 70
     0
  9
$CHAMFERA
 40
0.0
  9
$CHAMFERB
 40
0.0
  9
$CHAMFERC
 40
0.0
  9
$CHAMFERD
 40
0.0
  9
$SKPOLY
 70
     0
  9
$TDCREATE
 40
2454835.609276794
  9
$TDUCREATE
 40
2454835.567610127
  9
$TDUPDATE
 40
2454835.611062997
  9
$TDUUPDATE
 40
2454835.569396331
  9
$TDINDWG
 40
0.0017862037
  9
$TDUSRTIMER
 40
0.0017862037
  9
$USRTIMER
 70
     1
  9
$ANGBASE
 50
0.0
  9
$ANGDIR
 70
     0
  9
$PDMODE
 70
     0
  9
$PDSIZE
 40
0.0
  9
$PLINEWID
 40
0.0
  9
$SPLFRAME
 70
     0
  9
$SPLINETYPE
 70
     6
  9
$SPLINESEGS
 70
     8
  9
$HANDSEED
  5
233
  9
$SURFTAB1
 70
     6
  9
$SURFTAB2
 70
     6
  9
$SURFTYPE
 70
     6
  9
$SURFU
 70
     6
  9
$SURFV
 70
     6
  9
$UCSBASE
  2

  9
$UCSNAME
  2

  9
$UCSORG
 10
0.0
 20
0.0
 30
0.0
  9
$UCSXDIR
 10
1.0
 20
0.0
 30
0.0
  9
$UCSYDIR
 10
0.0
 20
1.0
 30
0.0
  9
$UCSORTHOREF
  2

  9
$UCSORTHOVIEW
 70
     1
  9
$UCSORGTOP
 10
0.0
 20
0.0
 30
0.0
  9
$UCSORGBOTTOM
 10
0.0
 20
0.0
 30
0.0
  9
$UCSORGLEFT
 10
0.0
 20
0.0
 30
0.0
  9
$UCSORGRIGHT
 10
0.0
 20
0.0
 30
0.0
  9
$UCSORGFRONT
 10
0.0
 20
0.0
 30
0.0
  9
$UCSORGBACK
 10
0.0
 20
0.0
 30
0.0
  9
$PUCSBASE
  2

  9
$PUCSNAME
  2

  9
$PUCSORG
 10
0.0
 20
0.0
 30
0.0
  9
$PUCSXDIR
 10
1.0
 20
0.0
 30
0.0
  9
$PUCSYDIR
 10
0.0
 20
1.0
 30
0.0
  9
$PUCSORTHOREF
  2

  9
$PUCSORTHOVIEW
 70
     0
  9
$PUCSORGTOP
 10
0.0
 20
0.0
 30
0.0
  9
$PUCSORGBOTTOM
 10
0.0
 20
0.0
 30
0.0
  9
$PUCSORGLEFT
 10
0.0
 20
0.0
 30
0.0
  9
$PUCSORGRIGHT
 10
0.0
 20
0.0
 30
0.0
  9
$PUCSORGFRONT
 10
0.0
 20
0.0
 30
0.0
  9
$PUCSORGBACK
 10
0.0
 20
0.0
 30
0.0
  9
$USERI1
 70
     0
  9
$USERI2
 70
     0
  9
$USERI3
 70
     0
  9
$USERI4
 70
     0
  9
$USERI5
 70
     0
  9
$USERR1
 40
0.0
  9
$USERR2
 40
0.0
  9
$USERR3
 40
0.0
  9
$USERR4
 40
0.0
  9
$USERR5
 40
0.0
  9
$WORLDVIEW
 70
     1
  9
$SHADEDGE
 70
     3
  9
$SHADEDIF
 70
    70
  9
$TILEMODE
 70
     1
  9
$MAXACTVP
 70
    64
  9
$PINSBASE
 10
0.0
 20
0.0
 30
0.0
  9
$PLIMCHECK
 70
     0
  9
$PEXTMIN
 10
1.000000000000000E+20
 20
1.000000000000000E+20
 30
1.000000000000000E+20
  9
$PEXTMAX
 10
-1.000000000000000E+20
 20
-1.000000000000000E+20
 30
-1.000000000000000E+20
  9
$PLIMMIN
 10
0.0
 20
0.0
  9
$PLIMMAX
 10
12.0
 20
9.0
  9
$UNITMODE
 70
     0
  9
$VISRETAIN
 70
     1
  9
$PLINEGEN
 70
     0
  9
$PSLTSCALE
 70
     1
  9
$TREEDEPTH
 70
  3020
  9
$CMLSTYLE
  2
Standard
  9
$CMLJUST
 70
     0
  9
$CMLSCALE
 40
1.0
  9
$PROXYGRAPHICS
 70
     1
  9
$MEASUREMENT
 70
     0
  9
$CELWEIGHT
370
    -1
  9
$ENDCAPS
280
     0
  9
$JOINSTYLE
280
     0
  9
$LWDISPLAY
290
     0
  9
$INSUNITS
 70
     0
  9
$HYPERLINKBASE
  1

  9
$STYLESHEET
  1

  9
$XEDIT
290
     1
  9
$CEPSNTYPE
380
     0
  9
$PSTYLEMODE
290
     1
  9
$FINGERPRINTGUID
  2
{08A6DE1B-8C7A-44B2-8A60-CD3BB3A8AB5D}
  9
$VERSIONGUID
  2
{DF83C709-7F84-4310-93E1-15290DA60C80}
  9
$EXTNAMES
290
     1
  9
$PSVPSCALE
 40
0.0
  9
$OLESTARTUP
290
     0
  0
ENDSEC
  0
SECTION
  2
CLASSES
  0
CLASS
  1
ACDBDICTIONARYWDFLT
  2
AcDbDictionaryWithDefault
  3
AutoCAD 2000
 90
        0
280
     0
281
     0
  0
CLASS
  1
ACDBPLACEHOLDER
  2
AcDbPlaceHolder
  3
AutoCAD 2000
 90
        0
280
     0
281
     0
  0
CLASS
  1
LAYOUT
  2
AcDbLayout
  3
AutoCAD 2000
 90
        0
280
     0
281
     0
  0
CLASS
  1
DICTIONARYVAR
  2
AcDbDictionaryVar
  3
AutoCAD 2000
 90
        0
280
     0
281
     0
  0
ENDSEC
  0
SECTION
  2
TABLES
  0
TABLE
  2
VPORT
  5
8
330
0
100
AcDbSymbolTable
 70
     2
  0
VPORT
  5
232
330
8
100
AcDbSymbolTableRecord
100
AcDbViewportTableRecord
  2
*Active
 70
     0
 10
0.0
 20
0.0
 11
1.0
 21
1.0
 12
24.5
 22
77.5
 13
0.0
 23
0.0
 14
1.0
 24
1.0
 15
0.0
 25
0.0
 16
0.0
 26
0.0
 36
1.0
 17
0.0
 27
0.0
 37
0.0
 40
156.052739831202
 41
2.078104993597951
 42
50.0
 43
0.0
 44
0.0
 50
0.0
 51
0.0
 71
     0
 72
   100
 73
     1
 74
     3
 75
     0
 76
     0
 77
     0
 78
     0
281
     0
 65
     1
110
0.0
120
0.0
130
0.0
111
1.0
121
0.0
131
0.0
112
0.0
122
1.0
132
0.0
 79
     1
146
0.0
  0
ENDTAB
  0
TABLE
  2
LTYPE
  5
5
330
0
100
AcDbSymbolTable
 70
     1
  0
LTYPE
  5
13
330
5
100
AcDbSymbolTableRecord
100
AcDbLinetypeTableRecord
  2
ByBlock
 70
     0
  3

 72
    65
 73
     0
 40
0.0
  0
LTYPE
  5
14
330
5
100
AcDbSymbolTableRecord
100
AcDbLinetypeTableRecord
  2
ByLayer
 70
     0
  3

 72
    65
 73
     0
 40
0.0
  0
LTYPE
  5
15
330
5
100
AcDbSymbolTableRecord
100
AcDbLinetypeTableRecord
  2
Continuous
 70
     0
  3
Solid line
 72
    65
 73
     0
 40
0.0
  0
ENDTAB
  0
TABLE
  2
LAYER
  5
2
330
0
100
AcDbSymbolTable
 70
     1
  0
LAYER
  5
10
330
2
100
AcDbSymbolTableRecord
100
AcDbLayerTableRecord
  2
0
 70
     0
 62
     7
  6
Continuous
370
    -3
390
F
  0
ENDTAB
  0
TABLE
  2
STYLE
  5
3
330
0
100
AcDbSymbolTable
 70
     1
  0
STYLE
  5
11
330
3
100
AcDbSymbolTableRecord
100
AcDbTextStyleTableRecord
  2
Standard
 70
     0
 40
0.0
 41
1.0
 50
0.0
 71
     0
 42
0.2
  3
txt
  4

  0
ENDTAB
  0
TABLE
  2
VIEW
  5
6
330
0
100
AcDbSymbolTable
 70
     0
  0
ENDTAB
  0
TABLE
  2
UCS
  5
7
330
0
100
AcDbSymbolTable
 70
     0
  0
ENDTAB
  0
TABLE
  2
APPID
  5
9
330
0
100
AcDbSymbolTable
 70
     1
  0
APPID
  5
12
330
9
100
AcDbSymbolTableRecord
100
AcDbRegAppTableRecord
  2
ACAD
 70
     0
  0
ENDTAB
  0
TABLE
  2
DIMSTYLE
  5
A
330
0
100
AcDbSymbolTable
 70
     1
100
AcDbDimStyleTable
 71
     0
  0
DIMSTYLE
105
22C
330
A
100
AcDbSymbolTableRecord
100
AcDbDimStyleTableRecord
  2
Standard
 70
     0
340
11
  0
ENDTAB
  0
TABLE
  2
BLOCK_RECORD
  5
1
330
0
100
AcDbSymbolTable
 70
     0
  0
BLOCK_RECORD
  5
1E
330
1
100
AcDbSymbolTableRecord
100
AcDbBlockTableRecord
  2
*Model_Space
340
21
  0
BLOCK_RECORD
  5
1A
330
1
100
AcDbSymbolTableRecord
100
AcDbBlockTableRecord
  2
*Paper_Space
340
1D
  0
ENDTAB
  0
ENDSEC
  0
SECTION
  2
BLOCKS
  0
BLOCK
  5
1F
330
1E
100
AcDbEntity
  8
0
100
AcDbBlockBegin
  2
*Model_Space
 70
     0
 10
0.0
 20
0.0
 30
0.0
  3
*Model_Space
  1

  0
ENDBLK
  5
20
330
1E
100
AcDbEntity
  8
0
100
AcDbBlockEnd
  0
BLOCK
  5
1B
330
1A
100
AcDbEntity
 67
     1
  8
0
100
AcDbBlockBegin
  2
*Paper_Space
 70
     0
 10
0.0
 20
0.0
 30
0.0
  3
*Paper_Space
  1

  0
ENDBLK
  5
1C
330
1A
100
AcDbEntity
 67
     1
  8
0
100
AcDbBlockEnd
  0
ENDSEC
  0
SECTION
  2
ENTITIES
  0
LINE
  5
22
330
1E
100
AcDbEntity
  8
0
100
AcDbLine
 10
1.68365
 20
112.0362604999999
 30
0.0
 11
1.849099999999999
 21
109.5462605
 31
0.0
  0
LINE
  5
28
330
1E
100
AcDbEntity
  8
0
100
AcDbLine
 10
2.955099999999999
 20
74.9294605
 30
0.0
 11
3.1419
 21
69.6564605
 31
0.0
  0
LINE
  5
29
330
1E
100
AcDbEntity
  8
0
100
AcDbLine
 10
3.1419
 20
69.6564605
 30
0.0
 11
5.019499999999999
 21
45.46156049999999
 31
0.0
  0
LINE
  5
2B
330
1E
100
AcDbEntity
  8
0
100
AcDbLine
 10
2.7639
 20
107.4442604999999
 30
0.0
 11
3.686599999999999
 21
110.0692605
 31
0.0
  0
LINE
  5
2C
330
1E
100
AcDbEntity
  8
0
100
AcDbLine
 10
2.148699999999999
 20
104.7222604999999
 30
0.0
 11
2.7639
 21
107.4442604999999
 31
0.0
  0
LINE
  5
2D
330
1E
100
AcDbEntity
  8
0
100
AcDbLine
 10
2.148699999999999
 20
104.7222604999999
 30
0.0
 11
2.763999999999999
 21
111.7422605
 31
0.0
  0
LINE
  5
2E
330
1E
100
AcDbEntity
  8
0
100
AcDbLine
 10
1.943599999999999
 20
101.9022604999999
 30
0.0
 11
2.148699999999999
 21
104.7222604999999
 31
0.0
  0
LINE
  5
31
330
1E
100
AcDbEntity
  8
0
100
AcDbLine
 10
1.943599999999999
 20
101.9022604999999
 30
0.0
 11
2.955099999999999
 21
74.9294605
 31
0.0
  0
LINE
  5
32
330
1E
100
AcDbEntity
  8
0
100
AcDbLine
 10
2.763999999999999
 20
111.7422605
 30
0.0
 11
3.291999999999999
 21
114.2792604999999
 31
0.0
  0
LINE
  5
34
330
1E
100
AcDbEntity
  8
0
100
AcDbLine
 10
1.849099999999999
 20
109.5462605
 30
0.0
 11
2.350414620399299
 21
107.205652851913
 31
0.0
  0
LINE
  5
35
330
1E
100
AcDbEntity
  8
0
100
AcDbLine
 10
3.291999999999999
 20
114.2792604999999
 30
0.0
 11
4.259999999999999
 21
116.7982604999999
 31
0.0
  0
LINE
  5
36
330
1E
100
AcDbEntity
  8
0
100
AcDbLine
 10
1.431049999999999
 20
114.0442605
 30
0.0
 11
1.68365
 21
112.0362604999999
 31
0.0
  0
LINE
  5
37
330
1E
100
AcDbEntity
  8
0
100
AcDbLine
 10
5.019499999999999
 20
45.46156049999999
 30
0.0
 11
5.224599999999999
 21
43.0308605
 31
0.0
  0
LINE
  5
38
330
1E
100
AcDbEntity
  8
0
100
AcDbLine
 10
5.737199999999999
 20
40.69736049999999
 30
0.0
 11
6.5574
 21
38.36396049999999
 31
0.0
  0
LINE
  5
39
330
1E
100
AcDbEntity
  8
0
100
AcDbLine
 10
5.224599999999999
 20
43.0308605
 30
0.0
 11
5.737199999999999
 21
40.69736049999999
 31
0.0
  0
LINE
  5
3A
330
1E
100
AcDbEntity
  8
0
100
AcDbLine
 10
7.582699999999999
 20
36.2249605
 30
0.0
 11
9.120699999999999
 21
34.1831605
 31
0.0
  0
LINE
  5
3B
330
1E
100
AcDbEntity
  8
0
100
AcDbLine
 10
6.5574
 20
38.36396049999999
 30
0.0
 11
7.582699999999999
 21
36.2249605
 31
0.0
  0
LINE
  5
3C
330
1E
100
AcDbEntity
  8
0
100
AcDbLine
 10
9.120699999999999
 20
34.1831605
 30
0.0
 11
10.7611
 21
32.43306049999999
 31
0.0
  0
LINE
  5
43
330
1E
100
AcDbEntity
  8
0
100
AcDbLine
 10
4.916999999999999
 20
112.5972605
 30
0.0
 11
6.66
 21
114.9312604999999
 31
0.0
  0
LINE
  5
44
330
1E
100
AcDbEntity
  8
0
100
AcDbLine
 10
3.686599999999999
 20
110.0692605
 30
0.0
 11
4.916999999999999
 21
112.5972605
 31
0.0
  0
LINE
  5
45
330
1E
100
AcDbEntity
  8
0
100
AcDbLine
 10
3.476396390770859
 20
114.759110198711
 30
0.0
 11
3.5
 21
114.8892604999999
 31
0.0
  0
LINE
  5
46
330
1E
100
AcDbEntity
  8
0
100
AcDbLine
 10
0.200000000000003
 20
130.1882604999999
 30
0.0
 11
0.8000000000000028
 21
133.3882605
 31
0.0
  0
LINE
  5
47
330
1E
100
AcDbEntity
  8
0
100
AcDbLine
 10
0.200000000000003
 20
123.7882605
 30
0.0
 11
1.431049999999999
 21
114.0442605
 31
0.0
  0
LINE
  5
48
330
1E
100
AcDbEntity
  8
0
100
AcDbLine
 10
0.200000000000003
 20
123.7882605
 30
0.0
 11
1.431049999999999
 21
114.0442605
 31
0.0
  0
LINE
  5
49
330
1E
100
AcDbEntity
  8
0
100
AcDbLine
 10
4.259999999999999
 20
116.7982604999999
 30
0.0
 11
5.403999999999999
 21
119.1522605
 31
0.0
  0
LINE
  5
4A
330
1E
100
AcDbEntity
  8
0
100
AcDbLine
 10
6.66
 20
114.9312604999999
 30
0.0
 11
8.607999999999998
 21
116.9722605
 31
0.0
  0
LINE
  5
4B
330
1E
100
AcDbEntity
  8
0
100
AcDbLine
 10
8.607999999999998
 20
116.9722605
 30
0.0
 11
10.7611
 21
118.8202605
 31
0.0
  0
LINE
  5
4C
330
1E
100
AcDbEntity
  8
0
100
AcDbLine
 10
5.403999999999999
 20
119.1522605
 30
0.0
 11
7.076
 21
121.4462605
 31
0.0
  0
LINE
  5
4D
330
1E
100
AcDbEntity
  8
0
100
AcDbLine
 10
7.076
 20
121.4462605
 30
0.0
 11
9.012
 21
123.3952605
 31
0.0
  0
LINE
  5
4E
330
1E
100
AcDbEntity
  8
0
100
AcDbLine
 10
9.012
 20
123.3952605
 30
0.0
 11
11.124
 21
125.2162605
 31
0.0
  0
LINE
  5
4F
330
1E
100
AcDbEntity
  8
0
100
AcDbLine
 10
7.299999999999999
 20
122.3742604999999
 30
0.0
 11
9.199999999999999
 21
124.4422605
 31
0.0
  0
LINE
  5
50
330
1E
100
AcDbEntity
  8
0
100
AcDbLine
 10
5.7
 20
120.0102605
 30
0.0
 11
7.299999999999999
 21
122.3742604999999
 31
0.0
  0
LINE
  5
51
330
1E
100
AcDbEntity
  8
0
100
AcDbLine
 10
4.4
 20
117.5482605
 30
0.0
 11
5.7
 21
120.0102605
 31
0.0
  0
LINE
  5
52
330
1E
100
AcDbEntity
  8
0
100
AcDbLine
 10
3.5
 20
114.8892604999999
 30
0.0
 11
4.4
 21
117.5482605
 31
0.0
  0
LINE
  5
53
330
1E
100
AcDbEntity
  8
0
100
AcDbLine
 10
3.476396390770869
 20
114.759110198711
 30
0.0
 11
3.5
 21
114.8892604999999
 31
0.0
  0
LINE
  5
54
330
1E
100
AcDbEntity
  8
0
100
AcDbLine
 10
9.199999999999999
 20
124.4422605
 30
0.0
 11
11.3
 21
126.3132605
 31
0.0
  0
LINE
  5
55
330
1E
100
AcDbEntity
  8
0
100
AcDbLine
 10
5.0
 20
141.8882605
 30
0.0
 11
7.2
 21
144.2882605
 31
0.0
  0
LINE
  5
56
330
1E
100
AcDbEntity
  8
0
100
AcDbLine
 10
3.2
 20
139.2882605
 30
0.0
 11
5.0
 21
141.8882605
 31
0.0
  0
LINE
  5
57
330
1E
100
AcDbEntity
  8
0
100
AcDbLine
 10
1.5
 20
136.3882605
 30
0.0
 11
3.2
 21
139.2882605
 31
0.0
  0
LINE
  5
58
330
1E
100
AcDbEntity
  8
0
100
AcDbLine
 10
0.8000000000000028
 20
133.3882605
 30
0.0
 11
1.5
 21
136.3882605
 31
0.0
  0
LINE
  5
59
330
1E
100
AcDbEntity
  8
0
100
AcDbLine
 10
0.200000000000003
 20
130.1882604999999
 30
0.0
 11
0.8000000000000028
 21
133.3882605
 31
0.0
  0
LINE
  5
5A
330
1E
100
AcDbEntity
  8
0
100
AcDbLine
 10
0.0000000000000027
 20
126.9882605
 30
0.0
 11
0.200000000000003
 21
130.1882604999999
 31
0.0
  0
LINE
  5
5B
330
1E
100
AcDbEntity
  8
0
100
AcDbLine
 10
0.0000000000000027
 20
126.9882605
 30
0.0
 11
0.200000000000003
 21
123.7882605
 31
0.0
  0
LINE
  5
5C
330
1E
100
AcDbEntity
  8
0
100
AcDbLine
 10
7.2
 20
144.2882605
 30
0.0
 11
9.599999999999999
 21
146.4882604999999
 31
0.0
  0
LINE
  5
5D
330
1E
100
AcDbEntity
  8
0
100
AcDbLine
 10
10.7611
 20
32.43306049999999
 30
0.0
 11
12.6066
 21
30.8773605
 31
0.0
  0
LINE
  5
5F
330
1E
100
AcDbEntity
  8
0
100
AcDbLine
 10
11.124
 20
125.2162605
 30
0.0
 11
13.588
 21
126.7232605
 31
0.0
  0
LINE
  5
60
330
1E
100
AcDbEntity
  8
0
100
AcDbLine
 10
10.7611
 20
118.8202605
 30
0.0
 11
13.2218
 21
120.4732605
 31
0.0
  0
LINE
  5
61
330
1E
100
AcDbEntity
  8
0
100
AcDbLine
 10
11.5
 20
18.4667605
 30
0.0
 11
11.5
 21
11.3943605
 31
0.0
  0
LINE
  5
62
330
1E
100
AcDbEntity
  8
0
100
AcDbLine
 10
11.5
 20
18.4667605
 30
0.0
 11
11.968
 21
17.5089605
 31
0.0
  0
LINE
  5
63
330
1E
100
AcDbEntity
  8
0
100
AcDbLine
 10
11.5
 20
18.4667605
 30
0.0
 11
11.968
 21
19.4244605
 31
0.0
  0
LINE
  5
64
330
1E
100
AcDbEntity
  8
0
100
AcDbLine
 10
12.5
 20
10.0039758846154
 30
0.0
 11
12.5
 21
3.673960500000009
 31
0.0
  0
LINE
  5
65
330
1E
100
AcDbEntity
  8
0
100
AcDbLine
 10
12.932
 20
2.789840500000009
 30
0.0
 11
14.084
 21
1.96109650000001
 31
0.0
  0
LINE
  5
66
330
1E
100
AcDbEntity
  8
0
100
AcDbLine
 10
12.932
 20
2.789840500000009
 30
0.0
 11
13.22
 21
2.56795050000001
 31
0.0
  0
LINE
  5
67
330
1E
100
AcDbEntity
  8
0
100
AcDbLine
 10
12.5
 20
3.673960500000009
 30
0.0
 11
12.932
 21
2.789840500000009
 31
0.0
  0
LINE
  5
68
330
1E
100
AcDbEntity
  8
0
100
AcDbLine
 10
12.5
 20
3.673960500000009
 30
0.0
 11
12.5
 21
10.0039758846154
 31
0.0
  0
LINE
  5
69
330
1E
100
AcDbEntity
  8
0
100
AcDbLine
 10
12.27999999999999
 20
10.1569605
 30
0.0
 11
13.528
 21
9.289120500000018
 31
0.0
  0
LINE
  5
6A
330
1E
100
AcDbEntity
  8
0
100
AcDbLine
 10
13.22
 20
2.56795050000001
 30
0.0
 11
13.8337766504819
 21
2.14110613504601
 31
0.0
  0
LINE
  5
6B
330
1E
100
AcDbEntity
  8
0
100
AcDbLine
 10
13.22
 20
2.56795050000001
 30
0.0
 11
13.8337766504819
 21
2.14110613504601
 31
0.0
  0
LINE
  5
6C
330
1E
100
AcDbEntity
  8
0
100
AcDbLine
 10
14.37199999999999
 20
1.76680450000001
 30
0.0
 11
16.244
 21
1.062286500000019
 31
0.0
  0
LINE
  5
6D
330
1E
100
AcDbEntity
  8
0
100
AcDbLine
 10
14.084
 20
1.96109650000001
 30
0.0
 11
16.004
 21
1.229000500000019
 31
0.0
  0
LINE
  5
6E
330
1E
100
AcDbEntity
  8
0
100
AcDbLine
 10
13.528
 20
9.289120500000018
 30
0.0
 11
15.556
 21
8.525880500000019
 31
0.0
  0
LINE
  5
6F
330
1E
100
AcDbEntity
  8
0
100
AcDbLine
 10
13.216
 20
9.538880500000018
 30
0.0
 11
15.296
 21
8.745710500000019
 31
0.0
  0
LINE
  5
70
330
1E
100
AcDbEntity
  8
0
100
AcDbLine
 10
11.968
 20
19.4244605
 30
0.0
 11
12.27999999999999
 21
19.7041605
 31
0.0
  0
LINE
  5
71
330
1E
100
AcDbEntity
  8
0
100
AcDbLine
 10
11.812
 20
18.7612605
 30
0.0
 11
12.27999999999999
 21
17.8185605
 31
0.0
  0
LINE
  5
72
330
1E
100
AcDbEntity
  8
0
100
AcDbLine
 10
11.812
 20
18.7612605
 30
0.0
 11
12.27999999999999
 21
19.7041605
 31
0.0
  0
LINE
  5
73
330
1E
100
AcDbEntity
  8
0
100
AcDbLine
 10
12.27999999999999
 20
19.7041605
 30
0.0
 11
12.5
 21
19.8571380641026
 31
0.0
  0
LINE
  5
74
330
1E
100
AcDbEntity
  8
0
100
AcDbLine
 10
14.084
 20
17.0484605
 30
0.0
 11
16.004
 21
16.3163605
 31
0.0
  0
LINE
  5
75
330
1E
100
AcDbEntity
  8
0
100
AcDbLine
 10
12.932
 20
17.8772605
 30
0.0
 11
14.084
 21
17.0484605
 31
0.0
  0
LINE
  5
76
330
1E
100
AcDbEntity
  8
0
100
AcDbLine
 10
12.5
 20
18.7612605
 30
0.0
 11
12.932
 21
17.8772605
 31
0.0
  0
LINE
  5
77
330
1E
100
AcDbEntity
  8
0
100
AcDbLine
 10
12.5
 20
18.7612605
 30
0.0
 11
12.5
 21
30.96722103644
 31
0.0
  0
LINE
  5
78
330
1E
100
AcDbEntity
  8
0
100
AcDbLine
 10
13.528
 20
16.9506605
 30
0.0
 11
15.556
 21
16.1874605
 31
0.0
  0
LINE
  5
79
330
1E
100
AcDbEntity
  8
0
100
AcDbLine
 10
12.27999999999999
 20
17.8185605
 30
0.0
 11
13.528
 21
16.9506605
 31
0.0
  0
LINE
  5
7A
330
1E
100
AcDbEntity
  8
0
100
AcDbLine
 10
13.216
 20
16.6110605
 30
0.0
 11
15.296
 21
15.8179605
 31
0.0
  0
LINE
  5
7B
330
1E
100
AcDbEntity
  8
0
100
AcDbLine
 10
11.968
 20
17.5089605
 30
0.0
 11
13.216
 21
16.6110605
 31
0.0
  0
LINE
  5
7C
330
1E
100
AcDbEntity
  8
0
100
AcDbLine
 10
11.968
 20
10.43668049999999
 30
0.0
 11
13.216
 21
9.538880500000018
 31
0.0
  0
LINE
  5
7D
330
1E
100
AcDbEntity
  8
0
100
AcDbLine
 10
11.968
 20
10.43668049999999
 30
0.0
 11
12.27999999999999
 21
10.1569605
 31
0.0
  0
LINE
  5
7E
330
1E
100
AcDbEntity
  8
0
100
AcDbLine
 10
11.5
 20
11.3943605
 30
0.0
 11
11.968
 21
10.43668049999999
 31
0.0
  0
LINE
  5
7F
330
1E
100
AcDbEntity
  8
0
100
AcDbLine
 10
11.5
 20
11.3943605
 30
0.0
 11
11.5
 21
18.4667605
 31
0.0
  0
LINE
  5
80
330
1E
100
AcDbEntity
  8
0
100
AcDbLine
 10
12.5
 20
30.96722103644
 30
0.0
 11
12.5
 21
18.7612605
 31
0.0
  0
LINE
  5
81
330
1E
100
AcDbEntity
  8
0
100
AcDbLine
 10
12.6066
 20
30.8773605
 30
0.0
 11
14.7598
 21
29.4189605
 31
0.0
  0
LINE
  5
82
330
1E
100
AcDbEntity
  8
0
100
AcDbLine
 10
12.89819999999999
 20
98.0024605
 30
0.0
 11
13.1542
 21
97.96646049999999
 31
0.0
  0
LINE
  5
83
330
1E
100
AcDbEntity
  8
0
100
AcDbLine
 10
13.1542
 20
97.96646049999999
 30
0.0
 11
13.4102
 21
98.0024605
 31
0.0
  0
LINE
  5
84
330
1E
100
AcDbEntity
  8
0
100
AcDbLine
 10
12.6582
 20
98.0984605
 30
0.0
 11
12.89819999999999
 21
98.0024605
 31
0.0
  0
LINE
  5
85
330
1E
100
AcDbEntity
  8
0
100
AcDbLine
 10
12.4462
 20
98.2584605
 30
0.0
 11
12.6582
 21
98.0984605
 31
0.0
  0
LINE
  5
86
330
1E
100
AcDbEntity
  8
0
100
AcDbLine
 10
12.2862
 20
98.47046050000001
 30
0.0
 11
12.4462
 21
98.2584605
 31
0.0
  0
LINE
  5
87
330
1E
100
AcDbEntity
  8
0
100
AcDbLine
 10
12.89819999999999
 20
99.9304605
 30
0.0
 11
13.1542
 21
99.9664605
 31
0.0
  0
LINE
  5
88
330
1E
100
AcDbEntity
  8
0
100
AcDbLine
 10
12.6582
 20
99.83446049999999
 30
0.0
 11
12.89819999999999
 21
99.9304605
 31
0.0
  0
LINE
  5
89
330
1E
100
AcDbEntity
  8
0
100
AcDbLine
 10
12.4462
 20
99.67446049999999
 30
0.0
 11
12.6582
 21
99.83446049999999
 31
0.0
  0
LINE
  5
8A
330
1E
100
AcDbEntity
  8
0
100
AcDbLine
 10
12.2862
 20
99.46246049999999
 30
0.0
 11
12.4462
 21
99.67446049999999
 31
0.0
  0
LINE
  5
8B
330
1E
100
AcDbEntity
  8
0
100
AcDbLine
 10
12.1902
 20
99.2224605
 30
0.0
 11
12.2862
 21
99.46246049999999
 31
0.0
  0
LINE
  5
8C
330
1E
100
AcDbEntity
  8
0
100
AcDbLine
 10
13.1542
 20
99.9664605
 30
0.0
 11
13.4102
 21
99.9304605
 31
0.0
  0
LINE
  5
8D
330
1E
100
AcDbEntity
  8
0
100
AcDbLine
 10
12.1902
 20
98.7104605
 30
0.0
 11
12.2862
 21
98.47046050000001
 31
0.0
  0
LINE
  5
8E
330
1E
100
AcDbEntity
  8
0
100
AcDbLine
 10
12.15419999999999
 20
98.96646050000001
 30
0.0
 11
12.1902
 21
98.7104605
 31
0.0
  0
LINE
  5
8F
330
1E
100
AcDbEntity
  8
0
100
AcDbLine
 10
12.15419999999999
 20
98.96646050000001
 30
0.0
 11
12.1902
 21
99.2224605
 31
0.0
  0
LINE
  5
91
330
1E
100
AcDbEntity
  8
0
100
AcDbLine
 10
13.4102
 20
99.9304605
 30
0.0
 11
13.6502
 21
99.83446049999999
 31
0.0
  0
LINE
  5
92
330
1E
100
AcDbEntity
  8
0
100
AcDbLine
 10
13.4102
 20
98.0024605
 30
0.0
 11
13.6502
 21
98.0984605
 31
0.0
  0
LINE
  5
93
330
1E
100
AcDbEntity
  8
0
100
AcDbLine
 10
13.588
 20
126.7232605
 30
0.0
 11
16.14
 21
127.7712605
 31
0.0
  0
LINE
  5
94
330
1E
100
AcDbEntity
  8
0
100
AcDbLine
 10
13.2218
 20
120.4732605
 30
0.0
 11
15.8876
 21
121.6392605
 31
0.0
  0
LINE
  5
95
330
1E
100
AcDbEntity
  8
0
100
AcDbLine
 10
13.60563689917169
 20
30.2006953440684
 30
0.0
 11
15.0
 21
29.2198605
 31
0.0
  0
LINE
  5
96
330
1E
100
AcDbEntity
  8
0
100
AcDbLine
 10
14.7598
 20
29.4189605
 30
0.0
 11
17.0154
 21
28.44666049999999
 31
0.0
  0
LINE
  5
97
330
1E
100
AcDbEntity
  8
0
100
AcDbLine
 10
13.6502
 20
98.0984605
 30
0.0
 11
13.86219999999999
 21
98.2584605
 31
0.0
  0
LINE
  5
98
330
1E
100
AcDbEntity
  8
0
100
AcDbLine
 10
13.86219999999999
 20
98.2584605
 30
0.0
 11
14.02219999999999
 21
98.47046050000001
 31
0.0
  0
LINE
  5
99
330
1E
100
AcDbEntity
  8
0
100
AcDbLine
 10
13.6502
 20
99.83446049999999
 30
0.0
 11
13.86219999999999
 21
99.67446049999999
 31
0.0
  0
LINE
  5
9A
330
1E
100
AcDbEntity
  8
0
100
AcDbLine
 10
13.86219999999999
 20
99.67446049999999
 30
0.0
 11
14.02219999999999
 21
99.46246049999999
 31
0.0
  0
LINE
  5
9B
330
1E
100
AcDbEntity
  8
0
100
AcDbLine
 10
14.02219999999999
 20
99.46246049999999
 30
0.0
 11
14.1182
 21
99.2224605
 31
0.0
  0
LINE
  5
9C
330
1E
100
AcDbEntity
  8
0
100
AcDbLine
 10
14.1182
 20
99.2224605
 30
0.0
 11
14.1542
 21
98.96646050000001
 31
0.0
  0
LINE
  5
9D
330
1E
100
AcDbEntity
  8
0
100
AcDbLine
 10
14.02219999999999
 20
98.47046050000001
 30
0.0
 11
14.1182
 21
98.7104605
 31
0.0
  0
LINE
  5
9E
330
1E
100
AcDbEntity
  8
0
100
AcDbLine
 10
14.1182
 20
98.7104605
 30
0.0
 11
14.1542
 21
98.96646050000001
 31
0.0
  0
LINE
  5
A0
330
1E
100
AcDbEntity
  8
0
100
AcDbLine
 10
13.60563689917169
 20
30.2006953440684
 30
0.0
 11
15.0
 21
29.2198605
 31
0.0
  0
LINE
  5
A1
330
1E
100
AcDbEntity
  8
0
100
AcDbLine
 10
15.0
 20
29.2198605
 30
0.0
 11
17.19999999999999
 21
28.2350605
 31
0.0
  0
LINE
  5
A2
330
1E
100
AcDbEntity
  8
0
100
AcDbLine
 10
11.3
 20
126.3132605
 30
0.0
 11
13.7
 21
127.8892605
 31
0.0
  0
LINE
  5
A3
330
1E
100
AcDbEntity
  8
0
100
AcDbLine
 10
13.7
 20
127.8892605
 30
0.0
 11
16.2
 21
129.1692605
 31
0.0
  0
LINE
  5
A4
330
1E
100
AcDbEntity
  8
0
100
AcDbLine
 10
9.599999999999999
 20
146.4882604999999
 30
0.0
 11
12.19999999999999
 21
148.2882605
 31
0.0
  0
LINE
  5
A5
330
1E
100
AcDbEntity
  8
0
100
AcDbLine
 10
12.19999999999999
 20
148.2882605
 30
0.0
 11
15.09999999999999
 21
149.9882604999999
 31
0.0
  0
LINE
  5
A6
330
1E
100
AcDbEntity
  8
0
100
AcDbLine
 10
15.296
 20
15.8179605
 30
0.0
 11
18.052
 21
15.2194605
 31
0.0
  0
LINE
  5
A7
330
1E
100
AcDbEntity
  8
0
100
AcDbLine
 10
16.004
 20
1.229000500000019
 30
0.0
 11
18.548
 21
0.6764045000000151
 31
0.0
  0
LINE
  5
A8
330
1E
100
AcDbEntity
  8
0
100
AcDbLine
 10
16.004
 20
16.3163605
 30
0.0
 11
18.548
 21
15.7638605
 31
0.0
  0
LINE
  5
A9
330
1E
100
AcDbEntity
  8
0
100
AcDbLine
 10
15.556
 20
16.1874605
 30
0.0
 11
18.208
 21
15.6038605
 31
0.0
  0
LINE
  5
AA
330
1E
100
AcDbEntity
  8
0
100
AcDbLine
 10
15.556
 20
8.525880500000019
 30
0.0
 11
18.208
 21
7.942260500000009
 31
0.0
  0
LINE
  5
AB
330
1E
100
AcDbEntity
  8
0
100
AcDbLine
 10
15.296
 20
8.745710500000019
 30
0.0
 11
18.052
 21
8.147210500000008
 31
0.0
  0
LINE
  5
AC
330
1E
100
AcDbEntity
  8
0
100
AcDbLine
 10
16.14
 20
127.7712605
 30
0.0
 11
18.868
 21
128.6542604999999
 31
0.0
  0
LINE
  5
AD
330
1E
100
AcDbEntity
  8
0
100
AcDbLine
 10
15.8876
 20
121.6392605
 30
0.0
 11
18.65579999999999
 21
122.5142605
 31
0.0
  0
LINE
  5
AE
330
1E
100
AcDbEntity
  8
0
100
AcDbLine
 10
16.244
 20
1.062286500000019
 30
0.0
 11
18.692
 21
0.5235875000000151
 31
0.0
  0
LINE
  5
AF
330
1E
100
AcDbEntity
  8
0
100
AcDbLine
 10
18.692
 20
0.5235875000000151
 30
0.0
 11
21.476
 21
0.192066500000015
 31
0.0
  0
LINE
  5
B0
330
1E
100
AcDbEntity
  8
0
100
AcDbLine
 10
18.548
 20
0.6764045000000151
 30
0.0
 11
21.428
 21
0.3449005000000151
 31
0.0
  0
LINE
  5
B1
330
1E
100
AcDbEntity
  8
0
100
AcDbLine
 10
18.208
 20
7.942260500000009
 30
0.0
 11
21.224
 21
7.583160500000009
 31
0.0
  0
LINE
  5
B2
330
1E
100
AcDbEntity
  8
0
100
AcDbLine
 10
18.548
 20
15.7638605
 30
0.0
 11
21.428
 21
15.4323605
 31
0.0
  0
LINE
  5
B3
330
1E
100
AcDbEntity
  8
0
100
AcDbLine
 10
18.208
 20
15.6038605
 30
0.0
 11
21.224
 21
15.2446605
 31
0.0
  0
LINE
  5
B4
330
1E
100
AcDbEntity
  8
0
100
AcDbLine
 10
18.052
 20
15.2194605
 30
0.0
 11
21.17199999999999
 21
14.8602605
 31
0.0
  0
LINE
  5
B5
330
1E
100
AcDbEntity
  8
0
100
AcDbLine
 10
18.052
 20
8.147210500000008
 30
0.0
 11
21.17199999999999
 21
7.788010500000019
 31
0.0
  0
LINE
  5
B6
330
1E
100
AcDbEntity
  8
0
100
AcDbLine
 10
21.224
 20
7.583160500000009
 30
0.0
 11
24.5
 21
7.448480500000019
 31
0.0
  0
LINE
  5
B7
330
1E
100
AcDbEntity
  8
0
100
AcDbLine
 10
21.224
 20
15.2446605
 30
0.0
 11
24.5
 21
15.1099605
 31
0.0
  0
LINE
  5
B8
330
1E
100
AcDbEntity
  8
0
100
AcDbLine
 10
21.17199999999999
 20
14.8602605
 30
0.0
 11
24.5
 21
14.7255605
 31
0.0
  0
LINE
  5
B9
330
1E
100
AcDbEntity
  8
0
100
AcDbLine
 10
21.17199999999999
 20
7.788010500000019
 30
0.0
 11
24.5
 21
7.653330500000018
 31
0.0
  0
LINE
  5
BA
330
1E
100
AcDbEntity
  8
0
100
AcDbLine
 10
19.6
 20
27.4472605
 30
0.0
 11
22.0
 21
26.95476049999999
 31
0.0
  0
LINE
  5
BD
330
1E
100
AcDbEntity
  8
0
100
AcDbLine
 10
17.0154
 20
28.44666049999999
 30
0.0
 11
19.4761
 21
27.6688605
 31
0.0
  0
LINE
  5
BF
330
1E
100
AcDbEntity
  8
0
100
AcDbLine
 10
18.868
 20
128.6542604999999
 30
0.0
 11
21.596
 21
129.1692605
 31
0.0
  0
LINE
  5
C0
330
1E
100
AcDbEntity
  8
0
100
AcDbLine
 10
18.65579999999999
 20
122.5142605
 30
0.0
 11
21.5267
 21
123.0982604999999
 31
0.0
  0
LINE
  5
C1
330
1E
100
AcDbEntity
  8
0
100
AcDbLine
 10
17.19999999999999
 20
28.2350605
 30
0.0
 11
19.6
 21
27.4472605
 31
0.0
  0
LINE
  5
C2
330
1E
100
AcDbEntity
  8
0
100
AcDbLine
 10
19.4761
 20
27.6688605
 30
0.0
 11
22.1
 21
27.1286605
 31
0.0
  0
LINE
  5
C3
330
1E
100
AcDbEntity
  8
0
100
AcDbLine
 10
16.2
 20
129.1692605
 30
0.0
 11
18.89999999999999
 21
130.0552605
 31
0.0
  0
LINE
  5
C4
330
1E
100
AcDbEntity
  8
0
100
AcDbLine
 10
18.89999999999999
 20
130.0552605
 30
0.0
 11
21.69999999999999
 21
130.5482604999999
 31
0.0
  0
LINE
  5
C5
330
1E
100
AcDbEntity
  8
0
100
AcDbLine
 10
15.09999999999999
 20
149.9882604999999
 30
0.0
 11
18.1
 21
150.6882604999999
 31
0.0
  0
LINE
  5
C6
330
1E
100
AcDbEntity
  8
0
100
AcDbLine
 10
18.5911
 20
153.6142605
 30
0.0
 11
18.74109999999999
 21
153.4642604999999
 31
0.0
  0
LINE
  5
C7
330
1E
100
AcDbEntity
  8
0
100
AcDbLine
 10
19.17849999999999
 20
153.2392605
 30
0.0
 11
19.72799999999999
 21
153.1232604999999
 31
0.0
  0
LINE
  5
C8
330
1E
100
AcDbEntity
  8
0
100
AcDbLine
 10
18.937
 20
153.3322604999999
 30
0.0
 11
19.17849999999999
 21
153.2392605
 31
0.0
  0
LINE
  5
C9
330
1E
100
AcDbEntity
  8
0
100
AcDbLine
 10
18.74109999999999
 20
153.4642604999999
 30
0.0
 11
18.937
 21
153.3322604999999
 31
0.0
  0
LINE
  5
CA
330
1E
100
AcDbEntity
  8
0
100
AcDbLine
 10
18.6955
 20
153.7262605
 30
0.0
 11
19.29489999999999
 21
153.5992604999999
 31
0.0
  0
LINE
  5
CB
330
1E
100
AcDbEntity
  8
0
100
AcDbLine
 10
19.72799999999999
 20
153.1232604999999
 30
0.0
 11
20.60199999999999
 21
153.0232604999999
 31
0.0
  0
LINE
  5
CC
330
1E
100
AcDbEntity
  8
0
100
AcDbLine
 10
19.29489999999999
 20
153.5992604999999
 30
0.0
 11
20.2485
 21
153.4902605
 31
0.0
  0
LINE
  5
CD
330
1E
100
AcDbEntity
  8
0
100
AcDbLine
 10
18.5911
 20
154.1122604999999
 30
0.0
 11
18.74109999999999
 21
154.2612604999999
 31
0.0
  0
LINE
  5
CE
330
1E
100
AcDbEntity
  8
0
100
AcDbLine
 10
19.17849999999999
 20
154.2352605
 30
0.0
 11
19.72799999999999
 21
154.1192604999999
 31
0.0
  0
LINE
  5
CF
330
1E
100
AcDbEntity
  8
0
100
AcDbLine
 10
19.24109999999999
 20
154.2612604999999
 30
0.0
 11
19.3274622004521
 21
154.203814430387
 31
0.0
  0
LINE
  5
D0
330
1E
100
AcDbEntity
  8
0
100
AcDbLine
 10
19.72799999999999
 20
154.1192604999999
 30
0.0
 11
20.60199999999999
 21
154.0192605
 31
0.0
  0
LINE
  5
D1
330
1E
100
AcDbEntity
  8
0
100
AcDbLine
 10
19.17849999999999
 20
154.4852605
 30
0.0
 11
19.72799999999999
 21
154.6022605
 31
0.0
  0
LINE
  5
D2
330
1E
100
AcDbEntity
  8
0
100
AcDbLine
 10
18.937
 20
154.3922604999999
 30
0.0
 11
19.17849999999999
 21
154.4852605
 31
0.0
  0
LINE
  5
D3
330
1E
100
AcDbEntity
  8
0
100
AcDbLine
 10
18.9911
 20
154.3602605
 30
0.0
 11
19.17849999999999
 21
154.4852605
 31
0.0
  0
LINE
  5
D4
330
1E
100
AcDbEntity
  8
0
100
AcDbLine
 10
18.9911
 20
154.3602605
 30
0.0
 11
19.17849999999999
 21
154.2352605
 31
0.0
  0
LINE
  5
D5
330
1E
100
AcDbEntity
  8
0
100
AcDbLine
 10
18.74109999999999
 20
154.2612604999999
 30
0.0
 11
18.937
 21
154.3922604999999
 31
0.0
  0
LINE
  5
D6
330
1E
100
AcDbEntity
  8
0
100
AcDbLine
 10
18.49109999999999
 20
153.8632605
 30
0.0
 11
18.5911
 21
154.1122604999999
 31
0.0
  0
LINE
  5
D7
330
1E
100
AcDbEntity
  8
0
100
AcDbLine
 10
18.49109999999999
 20
153.8632605
 30
0.0
 11
18.6955
 21
153.7262605
 31
0.0
  0
LINE
  5
D8
330
1E
100
AcDbEntity
  8
0
100
AcDbLine
 10
18.49109999999999
 20
153.8632605
 30
0.0
 11
18.5911
 21
153.6142605
 31
0.0
  0
LINE
  5
D9
330
1E
100
AcDbEntity
  8
0
100
AcDbLine
 10
20.60199999999999
 20
153.0232604999999
 30
0.0
 11
21.7411
 21
152.9462604999999
 31
0.0
  0
LINE
  5
DA
330
1E
100
AcDbEntity
  8
0
100
AcDbLine
 10
20.60199999999999
 20
154.0192605
 30
0.0
 11
21.7411
 21
153.9422605
 31
0.0
  0
LINE
  5
DB
330
1E
100
AcDbEntity
  8
0
100
AcDbLine
 10
20.2485
 20
153.4902605
 30
0.0
 11
21.49109999999999
 21
153.4062605
 31
0.0
  0
LINE
  5
DC
330
1E
100
AcDbEntity
  8
0
100
AcDbLine
 10
20.9556
 20
154.1732604999999
 30
0.0
 11
21.9911
 21
154.2432604999999
 31
0.0
  0
LINE
  5
DD
330
1E
100
AcDbEntity
  8
0
100
AcDbLine
 10
20.60199999999999
 20
154.7022604999999
 30
0.0
 11
21.7411
 21
154.7792604999999
 31
0.0
  0
LINE
  5
DE
330
1E
100
AcDbEntity
  8
0
100
AcDbLine
 10
20.16099999999999
 20
154.0822604999999
 30
0.0
 11
20.9556
 21
154.1732604999999
 31
0.0
  0
LINE
  5
DF
330
1E
100
AcDbEntity
  8
0
100
AcDbLine
 10
19.72799999999999
 20
154.6022605
 30
0.0
 11
20.60199999999999
 21
154.7022604999999
 31
0.0
  0
LINE
  5
E0
330
1E
100
AcDbEntity
  8
0
100
AcDbLine
 10
18.1
 20
150.6882604999999
 30
0.0
 11
21.3
 21
151.2882605
 31
0.0
  0
LINE
  5
E1
330
1E
100
AcDbEntity
  8
0
100
AcDbLine
 10
21.428
 20
15.4323605
 30
0.0
 11
24.5
 21
15.3080605
 31
0.0
  0
LINE
  5
E2
330
1E
100
AcDbEntity
  8
0
100
AcDbLine
 10
21.476
 20
0.192066500000015
 30
0.0
 11
24.5
 21
0.0677395000000152
 31
0.0
  0
LINE
  5
E3
330
1E
100
AcDbEntity
  8
0
100
AcDbLine
 10
21.428
 20
0.3449005000000151
 30
0.0
 11
24.5
 21
0.220557500000015
 31
0.0
  0
LINE
  5
E5
330
1E
100
AcDbEntity
  8
0
100
AcDbLine
 10
21.596
 20
129.1692605
 30
0.0
 11
24.5
 21
129.3892605
 31
0.0
  0
LINE
  5
E7
330
1E
100
AcDbEntity
  8
0
100
AcDbLine
 10
21.5267
 20
123.0982604999999
 30
0.0
 11
24.5
 21
123.2922604999999
 31
0.0
  0
LINE
  5
E8
330
1E
100
AcDbEntity
  8
0
100
AcDbLine
 10
22.0
 20
26.95476049999999
 30
0.0
 11
24.5
 21
26.7578605
 31
0.0
  0
LINE
  5
E9
330
1E
100
AcDbEntity
  8
0
100
AcDbLine
 10
24.5
 20
0.0677395000000152
 30
0.0
 11
27.524
 21
0.192066500000015
 31
0.0
  0
LINE
  5
EA
330
1E
100
AcDbEntity
  8
0
100
AcDbLine
 10
24.5
 20
0.220557500000015
 30
0.0
 11
27.572
 21
0.3449005000000151
 31
0.0
  0
LINE
  5
EB
330
1E
100
AcDbEntity
  8
0
100
AcDbLine
 10
24.5
 20
7.448480500000019
 30
0.0
 11
27.776
 21
7.583160500000009
 31
0.0
  0
LINE
  5
EC
330
1E
100
AcDbEntity
  8
0
100
AcDbLine
 10
24.5
 20
7.653330500000018
 30
0.0
 11
27.828
 21
7.788010500000019
 31
0.0
  0
LINE
  5
ED
330
1E
100
AcDbEntity
  8
0
100
AcDbLine
 10
24.5
 20
15.3080605
 30
0.0
 11
27.572
 21
15.4323605
 31
0.0
  0
LINE
  5
EE
330
1E
100
AcDbEntity
  8
0
100
AcDbLine
 10
24.5
 20
15.1099605
 30
0.0
 11
27.776
 21
15.2446605
 31
0.0
  0
LINE
  5
EF
330
1E
100
AcDbEntity
  8
0
100
AcDbLine
 10
24.5
 20
14.7255605
 30
0.0
 11
27.828
 21
14.8602605
 31
0.0
  0
LINE
  5
F0
330
1E
100
AcDbEntity
  8
0
100
AcDbLine
 10
24.5
 20
26.93176049999999
 30
0.0
 11
26.89999999999999
 21
27.1286605
 31
0.0
  0
LINE
  5
F1
330
1E
100
AcDbEntity
  8
0
100
AcDbLine
 10
24.5
 20
26.7578605
 30
0.0
 11
27.0
 21
26.95476049999999
 31
0.0
  0
LINE
  5
F3
330
1E
100
AcDbEntity
  8
0
100
AcDbLine
 10
26.89999999999999
 20
27.1286605
 30
0.0
 11
29.5239
 21
27.6688605
 31
0.0
  0
LINE
  5
F4
330
1E
100
AcDbEntity
  8
0
100
AcDbLine
 10
27.0
 20
26.95476049999999
 30
0.0
 11
29.39999999999999
 21
27.4472605
 31
0.0
  0
LINE
  5
F5
330
1E
100
AcDbEntity
  8
0
100
AcDbLine
 10
27.524
 20
0.192066500000015
 30
0.0
 11
30.308
 21
0.5235875000000151
 31
0.0
  0
LINE
  5
F6
330
1E
100
AcDbEntity
  8
0
100
AcDbLine
 10
27.572
 20
0.3449005000000151
 30
0.0
 11
30.45199999999999
 21
0.6764045000000151
 31
0.0
  0
LINE
  5
F7
330
1E
100
AcDbEntity
  8
0
100
AcDbLine
 10
27.776
 20
7.583160500000009
 30
0.0
 11
30.792
 21
7.942260500000009
 31
0.0
  0
LINE
  5
F8
330
1E
100
AcDbEntity
  8
0
100
AcDbLine
 10
27.828
 20
7.788010500000019
 30
0.0
 11
30.948
 21
8.147210500000008
 31
0.0
  0
LINE
  5
F9
330
1E
100
AcDbEntity
  8
0
100
AcDbLine
 10
27.828
 20
14.8602605
 30
0.0
 11
30.948
 21
15.2194605
 31
0.0
  0
LINE
  5
FA
330
1E
100
AcDbEntity
  8
0
100
AcDbLine
 10
27.572
 20
15.4323605
 30
0.0
 11
30.45199999999999
 21
15.7638605
 31
0.0
  0
LINE
  5
FB
330
1E
100
AcDbEntity
  8
0
100
AcDbLine
 10
27.776
 20
15.2446605
 30
0.0
 11
30.792
 21
15.6038605
 31
0.0
  0
LINE
  5
FD
330
1E
100
AcDbEntity
  8
0
100
AcDbLine
 10
29.39999999999999
 20
27.4472605
 30
0.0
 11
31.8
 21
28.2350605
 31
0.0
  0
LINE
  5
FE
330
1E
100
AcDbEntity
  8
0
100
AcDbLine
 10
29.5239
 20
27.6688605
 30
0.0
 11
31.9846
 21
28.44666049999999
 31
0.0
  0
LINE
  5
102
330
1E
100
AcDbEntity
  8
0
100
AcDbLine
 10
27.47329999999999
 20
123.0982604999999
 30
0.0
 11
30.3442
 21
122.5142605
 31
0.0
  0
LINE
  5
103
330
1E
100
AcDbEntity
  8
0
100
AcDbLine
 10
27.404
 20
129.1692605
 30
0.0
 11
30.13199999999999
 21
128.6542604999999
 31
0.0
  0
LINE
  5
104
330
1E
100
AcDbEntity
  8
0
100
AcDbLine
 10
24.5
 20
129.3892605
 30
0.0
 11
27.404
 21
129.1692605
 31
0.0
  0
LINE
  5
105
330
1E
100
AcDbEntity
  8
0
100
AcDbLine
 10
24.5
 20
123.2922604999999
 30
0.0
 11
27.47329999999999
 21
123.0982604999999
 31
0.0
  0
LINE
  5
106
330
1E
100
AcDbEntity
  8
0
100
AcDbLine
 10
30.308
 20
0.5235875000000151
 30
0.0
 11
32.756
 21
1.062286500000019
 31
0.0
  0
LINE
  5
107
330
1E
100
AcDbEntity
  8
0
100
AcDbLine
 10
30.45199999999999
 20
0.6764045000000151
 30
0.0
 11
32.996
 21
1.229000500000019
 31
0.0
  0
LINE
  5
108
330
1E
100
AcDbEntity
  8
0
100
AcDbLine
 10
30.792
 20
7.942260500000009
 30
0.0
 11
33.444
 21
8.525880500000019
 31
0.0
  0
LINE
  5
109
330
1E
100
AcDbEntity
  8
0
100
AcDbLine
 10
30.948
 20
8.147210500000008
 30
0.0
 11
33.704
 21
8.745710500000019
 31
0.0
  0
LINE
  5
10A
330
1E
100
AcDbEntity
  8
0
100
AcDbLine
 10
30.948
 20
15.2194605
 30
0.0
 11
33.704
 21
15.8179605
 31
0.0
  0
LINE
  5
10B
330
1E
100
AcDbEntity
  8
0
100
AcDbLine
 10
30.45199999999999
 20
15.7638605
 30
0.0
 11
32.996
 21
16.3163605
 31
0.0
  0
LINE
  5
10C
330
1E
100
AcDbEntity
  8
0
100
AcDbLine
 10
30.792
 20
15.6038605
 30
0.0
 11
33.444
 21
16.1874605
 31
0.0
  0
LINE
  5
10D
330
1E
100
AcDbEntity
  8
0
100
AcDbLine
 10
31.8
 20
28.2350605
 30
0.0
 11
34.0
 21
29.2198605
 31
0.0
  0
LINE
  5
10E
330
1E
100
AcDbEntity
  8
0
100
AcDbLine
 10
31.9846
 20
28.44666049999999
 30
0.0
 11
34.2402
 21
29.4189605
 31
0.0
  0
LINE
  5
10F
330
1E
100
AcDbEntity
  8
0
100
AcDbLine
 10
32.756
 20
1.062286500000019
 30
0.0
 11
34.628
 21
1.76680450000001
 31
0.0
  0
LINE
  5
110
330
1E
100
AcDbEntity
  8
0
100
AcDbLine
 10
32.996
 20
1.229000500000019
 30
0.0
 11
34.916
 21
1.96109650000001
 31
0.0
  0
LINE
  5
111
330
1E
100
AcDbEntity
  8
0
100
AcDbLine
 10
33.444
 20
8.525880500000019
 30
0.0
 11
35.472
 21
9.289120500000018
 31
0.0
  0
LINE
  5
112
330
1E
100
AcDbEntity
  8
0
100
AcDbLine
 10
33.704
 20
8.745710500000019
 30
0.0
 11
35.784
 21
9.538880500000018
 31
0.0
  0
LINE
  5
113
330
1E
100
AcDbEntity
  8
0
100
AcDbLine
 10
32.996
 20
16.3163605
 30
0.0
 11
34.916
 21
17.0484605
 31
0.0
  0
LINE
  5
114
330
1E
100
AcDbEntity
  8
0
100
AcDbLine
 10
33.444
 20
16.1874605
 30
0.0
 11
35.472
 21
16.9506605
 31
0.0
  0
LINE
  5
115
330
1E
100
AcDbEntity
  8
0
100
AcDbLine
 10
33.704
 20
15.8179605
 30
0.0
 11
35.784
 21
16.6110605
 31
0.0
  0
LINE
  5
116
330
1E
100
AcDbEntity
  8
0
100
AcDbLine
 10
34.0
 20
29.2198605
 30
0.0
 11
35.39436310082829
 21
30.2006953440683
 31
0.0
  0
LINE
  5
117
330
1E
100
AcDbEntity
  8
0
100
AcDbLine
 10
34.0
 20
29.2198605
 30
0.0
 11
35.3943631008282
 21
30.2006953440683
 31
0.0
  0
LINE
  5
118
330
1E
100
AcDbEntity
  8
0
100
AcDbLine
 10
34.916
 20
17.0484605
 30
0.0
 11
36.068
 21
17.8772605
 31
0.0
  0
LINE
  5
119
330
1E
100
AcDbEntity
  8
0
100
AcDbLine
 10
35.1662233495177
 20
2.14110613504579
 30
0.0
 11
35.78
 21
2.56795050000001
 31
0.0
  0
LINE
  5
11A
330
1E
100
AcDbEntity
  8
0
100
AcDbLine
 10
35.1662233495177
 20
2.14110613504579
 30
0.0
 11
35.78
 21
2.56795050000001
 31
0.0
  0
LINE
  5
11B
330
1E
100
AcDbEntity
  8
0
100
AcDbLine
 10
34.916
 20
1.96109650000001
 30
0.0
 11
36.068
 21
2.789840500000009
 31
0.0
  0
LINE
  5
11C
330
1E
100
AcDbEntity
  8
0
100
AcDbLine
 10
34.2402
 20
29.4189605
 30
0.0
 11
36.3934
 21
30.8773605
 31
0.0
  0
LINE
  5
11D
330
1E
100
AcDbEntity
  8
0
100
AcDbLine
 10
35.1378
 20
98.2584605
 30
0.0
 11
35.3498
 21
98.0984605
 31
0.0
  0
LINE
  5
11E
330
1E
100
AcDbEntity
  8
0
100
AcDbLine
 10
34.9778
 20
98.47046050000001
 30
0.0
 11
35.1378
 21
98.2584605
 31
0.0
  0
LINE
  5
11F
330
1E
100
AcDbEntity
  8
0
100
AcDbLine
 10
35.1378
 20
99.67446049999999
 30
0.0
 11
35.3498
 21
99.83446049999999
 31
0.0
  0
LINE
  5
120
330
1E
100
AcDbEntity
  8
0
100
AcDbLine
 10
34.9778
 20
99.46246049999999
 30
0.0
 11
35.1378
 21
99.67446049999999
 31
0.0
  0
LINE
  5
121
330
1E
100
AcDbEntity
  8
0
100
AcDbLine
 10
34.88179999999999
 20
99.2224605
 30
0.0
 11
34.9778
 21
99.46246049999999
 31
0.0
  0
LINE
  5
122
330
1E
100
AcDbEntity
  8
0
100
AcDbLine
 10
34.88179999999999
 20
98.7104605
 30
0.0
 11
34.9778
 21
98.47046050000001
 31
0.0
  0
LINE
  5
123
330
1E
100
AcDbEntity
  8
0
100
AcDbLine
 10
34.84579999999999
 20
98.96646050000001
 30
0.0
 11
34.88179999999999
 21
98.7104605
 31
0.0
  0
LINE
  5
124
330
1E
100
AcDbEntity
  8
0
100
AcDbLine
 10
34.84579999999999
 20
98.96646050000001
 30
0.0
 11
34.88179999999999
 21
99.2224605
 31
0.0
  0
LINE
  5
127
330
1E
100
AcDbEntity
  8
0
100
AcDbLine
 10
32.86
 20
127.7712605
 30
0.0
 11
35.41199999999999
 21
126.7232605
 31
0.0
  0
LINE
  5
128
330
1E
100
AcDbEntity
  8
0
100
AcDbLine
 10
33.1124
 20
121.6392605
 30
0.0
 11
35.7782
 21
120.4732605
 31
0.0
  0
LINE
  5
129
330
1E
100
AcDbEntity
  8
0
100
AcDbLine
 10
30.3442
 20
122.5142605
 30
0.0
 11
33.1124
 21
121.6392605
 31
0.0
  0
LINE
  5
12A
330
1E
100
AcDbEntity
  8
0
100
AcDbLine
 10
30.13199999999999
 20
128.6542604999999
 30
0.0
 11
32.86
 21
127.7712605
 31
0.0
  0
LINE
  5
12B
330
1E
100
AcDbEntity
  8
0
100
AcDbLine
 10
35.472
 20
9.289120500000018
 30
0.0
 11
36.72
 21
10.1569605
 31
0.0
  0
LINE
  5
12C
330
1E
100
AcDbEntity
  8
0
100
AcDbLine
 10
35.3498
 20
99.83446049999999
 30
0.0
 11
35.5898
 21
99.9304605
 31
0.0
  0
LINE
  5
12D
330
1E
100
AcDbEntity
  8
0
100
AcDbLine
 10
35.5898
 20
99.9304605
 30
0.0
 11
35.84579999999999
 21
99.9664605
 31
0.0
  0
LINE
  5
12E
330
1E
100
AcDbEntity
  8
0
100
AcDbLine
 10
35.5898
 20
98.0024605
 30
0.0
 11
35.84579999999999
 21
97.96646049999999
 31
0.0
  0
LINE
  5
12F
330
1E
100
AcDbEntity
  8
0
100
AcDbLine
 10
35.3498
 20
98.0984605
 30
0.0
 11
35.5898
 21
98.0024605
 31
0.0
  0
LINE
  5
130
330
1E
100
AcDbEntity
  8
0
100
AcDbLine
 10
35.472
 20
16.9506605
 30
0.0
 11
36.72
 21
17.8185605
 31
0.0
  0
LINE
  5
131
330
1E
100
AcDbEntity
  8
0
100
AcDbLine
 10
35.78
 20
2.56795050000001
 30
0.0
 11
36.068
 21
2.789840500000009
 31
0.0
  0
LINE
  5
132
330
1E
100
AcDbEntity
  8
0
100
AcDbLine
 10
35.784
 20
9.538880500000018
 30
0.0
 11
37.03199999999999
 21
10.43668049999999
 31
0.0
  0
LINE
  5
133
330
1E
100
AcDbEntity
  8
0
100
AcDbLine
 10
36.068
 20
17.8772605
 30
0.0
 11
36.5
 21
18.7612605
 31
0.0
  0
LINE
  5
134
330
1E
100
AcDbEntity
  8
0
100
AcDbLine
 10
36.068
 20
2.789840500000009
 30
0.0
 11
36.5
 21
3.673960500000009
 31
0.0
  0
LINE
  5
135
330
1E
100
AcDbEntity
  8
0
100
AcDbLine
 10
35.784
 20
16.6110605
 30
0.0
 11
37.03199999999999
 21
17.5089605
 31
0.0
  0
LINE
  5
136
330
1E
100
AcDbEntity
  8
0
100
AcDbLine
 10
35.84579999999999
 20
97.96646049999999
 30
0.0
 11
36.10179999999999
 21
98.0024605
 31
0.0
  0
LINE
  5
137
330
1E
100
AcDbEntity
  8
0
100
AcDbLine
 10
36.10179999999999
 20
99.9304605
 30
0.0
 11
36.3418
 21
99.83446049999999
 31
0.0
  0
LINE
  5
138
330
1E
100
AcDbEntity
  8
0
100
AcDbLine
 10
36.3418
 20
99.83446049999999
 30
0.0
 11
36.5538
 21
99.67446049999999
 31
0.0
  0
LINE
  5
139
330
1E
100
AcDbEntity
  8
0
100
AcDbLine
 10
35.84579999999999
 20
99.9664605
 30
0.0
 11
36.10179999999999
 21
99.9304605
 31
0.0
  0
LINE
  5
13A
330
1E
100
AcDbEntity
  8
0
100
AcDbLine
 10
36.10179999999999
 20
98.0024605
 30
0.0
 11
36.3418
 21
98.0984605
 31
0.0
  0
LINE
  5
13B
330
1E
100
AcDbEntity
  8
0
100
AcDbLine
 10
36.3418
 20
98.0984605
 30
0.0
 11
36.5538
 21
98.2584605
 31
0.0
  0
LINE
  5
13C
330
1E
100
AcDbEntity
  8
0
100
AcDbLine
 10
36.3934
 20
30.8773605
 30
0.0
 11
38.2389
 21
32.43306049999999
 31
0.0
  0
LINE
  5
13D
330
1E
100
AcDbEntity
  8
0
100
AcDbLine
 10
36.5
 20
3.673960500000009
 30
0.0
 11
36.5
 21
10.0039758846154
 31
0.0
  0
LINE
  5
13E
330
1E
100
AcDbEntity
  8
0
100
AcDbLine
 10
36.5
 20
18.7612605
 30
0.0
 11
36.5
 21
30.96722103644
 31
0.0
  0
LINE
  5
13F
330
1E
100
AcDbEntity
  8
0
100
AcDbLine
 10
36.5
 20
10.0039758846154
 30
0.0
 11
36.5
 21
3.673960500000009
 31
0.0
  0
LINE
  5
140
330
1E
100
AcDbEntity
  8
0
100
AcDbLine
 10
36.72
 20
10.1569605
 30
0.0
 11
37.03199999999999
 21
10.43668049999999
 31
0.0
  0
LINE
  5
141
330
1E
100
AcDbEntity
  8
0
100
AcDbLine
 10
36.5
 20
30.96722103644
 30
0.0
 11
36.5
 21
18.7612605
 31
0.0
  0
LINE
  5
142
330
1E
100
AcDbEntity
  8
0
100
AcDbLine
 10
36.5
 20
19.8571380641026
 30
0.0
 11
36.72
 21
19.7041605
 31
0.0
  0
LINE
  5
143
330
1E
100
AcDbEntity
  8
0
100
AcDbLine
 10
36.72
 20
19.7041605
 30
0.0
 11
37.188
 21
18.7612605
 31
0.0
  0
LINE
  5
144
330
1E
100
AcDbEntity
  8
0
100
AcDbLine
 10
36.72
 20
19.7041605
 30
0.0
 11
37.03199999999999
 21
19.4244605
 31
0.0
  0
LINE
  5
145
330
1E
100
AcDbEntity
  8
0
100
AcDbLine
 10
37.5
 20
11.3943605
 30
0.0
 11
37.5
 21
18.4667605
 31
0.0
  0
LINE
  5
146
330
1E
100
AcDbEntity
  8
0
100
AcDbLine
 10
37.03199999999999
 20
10.43668049999999
 30
0.0
 11
37.5
 21
11.3943605
 31
0.0
  0
LINE
  5
147
330
1E
100
AcDbEntity
  8
0
100
AcDbLine
 10
37.5
 20
18.4667605
 30
0.0
 11
37.5
 21
11.3943605
 31
0.0
  0
LINE
  5
148
330
1E
100
AcDbEntity
  8
0
100
AcDbLine
 10
37.03199999999999
 20
19.4244605
 30
0.0
 11
37.5
 21
18.4667605
 31
0.0
  0
LINE
  5
149
330
1E
100
AcDbEntity
  8
0
100
AcDbLine
 10
37.03199999999999
 20
17.5089605
 30
0.0
 11
37.5
 21
18.4667605
 31
0.0
  0
LINE
  5
14A
330
1E
100
AcDbEntity
  8
0
100
AcDbLine
 10
36.72
 20
17.8185605
 30
0.0
 11
37.188
 21
18.7612605
 31
0.0
  0
LINE
  5
14B
330
1E
100
AcDbEntity
  8
0
100
AcDbLine
 10
38.2389
 20
32.43306049999999
 30
0.0
 11
39.8793
 21
34.1831605
 31
0.0
  0
LINE
  5
14C
330
1E
100
AcDbEntity
  8
0
100
AcDbLine
 10
39.8793
 20
34.1831605
 30
0.0
 11
41.41729999999999
 21
36.2249605
 31
0.0
  0
LINE
  5
14E
330
1E
100
AcDbEntity
  8
0
100
AcDbLine
 10
41.41729999999999
 20
36.2249605
 30
0.0
 11
42.44259999999999
 21
38.36396049999999
 31
0.0
  0
LINE
  5
150
330
1E
100
AcDbEntity
  8
0
100
AcDbLine
 10
42.44259999999999
 20
38.36396049999999
 30
0.0
 11
43.26279999999999
 21
40.69736049999999
 31
0.0
  0
LINE
  5
152
330
1E
100
AcDbEntity
  8
0
100
AcDbLine
 10
43.26279999999999
 20
40.69736049999999
 30
0.0
 11
43.77539999999999
 21
43.0308605
 31
0.0
  0
LINE
  5
154
330
1E
100
AcDbEntity
  8
0
100
AcDbLine
 10
43.77539999999999
 20
43.0308605
 30
0.0
 11
43.9805
 21
45.46156049999999
 31
0.0
  0
LINE
  5
156
330
1E
100
AcDbEntity
  8
0
100
AcDbLine
 10
36.5538
 20
98.2584605
 30
0.0
 11
36.7138
 21
98.47046050000001
 31
0.0
  0
LINE
  5
157
330
1E
100
AcDbEntity
  8
0
100
AcDbLine
 10
36.5538
 20
99.67446049999999
 30
0.0
 11
36.7138
 21
99.46246049999999
 31
0.0
  0
LINE
  5
158
330
1E
100
AcDbEntity
  8
0
100
AcDbLine
 10
36.7138
 20
99.46246049999999
 30
0.0
 11
36.8098
 21
99.2224605
 31
0.0
  0
LINE
  5
159
330
1E
100
AcDbEntity
  8
0
100
AcDbLine
 10
36.8098
 20
99.2224605
 30
0.0
 11
36.84579999999999
 21
98.96646050000001
 31
0.0
  0
LINE
  5
15A
330
1E
100
AcDbEntity
  8
0
100
AcDbLine
 10
36.7138
 20
98.47046050000001
 30
0.0
 11
36.8098
 21
98.7104605
 31
0.0
  0
LINE
  5
15B
330
1E
100
AcDbEntity
  8
0
100
AcDbLine
 10
36.8098
 20
98.7104605
 30
0.0
 11
36.84579999999999
 21
98.96646050000001
 31
0.0
  0
LINE
  5
15C
330
1E
100
AcDbEntity
  8
0
100
AcDbLine
 10
43.9805
 20
45.46156049999999
 30
0.0
 11
45.8581
 21
69.6564605
 31
0.0
  0
LINE
  5
15D
330
1E
100
AcDbEntity
  8
0
100
AcDbLine
 10
46.0449
 20
74.9294605
 30
0.0
 11
47.05639999999999
 21
101.9022604999999
 31
0.0
  0
LINE
  5
15E
330
1E
100
AcDbEntity
  8
0
100
AcDbLine
 10
46.6495853796007
 20
107.205652851913
 30
0.0
 11
47.1509
 21
109.5462605
 31
0.0
  0
LINE
  5
162
330
1E
100
AcDbEntity
  8
0
100
AcDbLine
 10
45.8581
 20
69.6564605
 30
0.0
 11
46.0449
 21
74.9294605
 31
0.0
  0
LINE
  5
166
330
1E
100
AcDbEntity
  8
0
100
AcDbLine
 10
40.392
 20
116.9722605
 30
0.0
 11
42.34
 21
114.9312604999999
 31
0.0
  0
LINE
  5
167
330
1E
100
AcDbEntity
  8
0
100
AcDbLine
 10
44.59999999999999
 20
117.5482605
 30
0.0
 11
45.49999999999999
 21
114.8892604999999
 31
0.0
  0
LINE
  5
168
330
1E
100
AcDbEntity
  8
0
100
AcDbLine
 10
44.74
 20
116.7982604999999
 30
0.0
 11
45.708
 21
114.2792604999999
 31
0.0
  0
LINE
  5
169
330
1E
100
AcDbEntity
  8
0
100
AcDbLine
 10
42.34
 20
114.9312604999999
 30
0.0
 11
44.08299999999999
 21
112.5972605
 31
0.0
  0
LINE
  5
16A
330
1E
100
AcDbEntity
  8
0
100
AcDbLine
 10
44.08299999999999
 20
112.5972605
 30
0.0
 11
45.3134
 21
110.0692605
 31
0.0
  0
LINE
  5
16C
330
1E
100
AcDbEntity
  8
0
100
AcDbLine
 10
45.49999999999999
 20
114.8892604999999
 30
0.0
 11
45.5236036092291
 21
114.759110198711
 31
0.0
  0
LINE
  5
16D
330
1E
100
AcDbEntity
  8
0
100
AcDbLine
 10
45.708
 20
114.2792604999999
 30
0.0
 11
46.236
 21
111.7422605
 31
0.0
  0
LINE
  5
16E
330
1E
100
AcDbEntity
  8
0
100
AcDbLine
 10
46.236
 20
111.7422605
 30
0.0
 11
46.8513
 21
104.7222604999999
 31
0.0
  0
LINE
  5
170
330
1E
100
AcDbEntity
  8
0
100
AcDbLine
 10
45.3134
 20
110.0692605
 30
0.0
 11
46.2361
 21
107.4442604999999
 31
0.0
  0
LINE
  5
171
330
1E
100
AcDbEntity
  8
0
100
AcDbLine
 10
46.2361
 20
107.4442604999999
 30
0.0
 11
46.8513
 21
104.7222604999999
 31
0.0
  0
LINE
  5
172
330
1E
100
AcDbEntity
  8
0
100
AcDbLine
 10
47.56899999999999
 20
114.0442605
 30
0.0
 11
48.79999999999999
 21
123.7882605
 31
0.0
  0
LINE
  5
173
330
1E
100
AcDbEntity
  8
0
100
AcDbLine
 10
47.3163
 20
112.0362604999999
 30
0.0
 11
47.56899999999999
 21
114.0442605
 31
0.0
  0
LINE
  5
174
330
1E
100
AcDbEntity
  8
0
100
AcDbLine
 10
47.1509
 20
109.5462605
 30
0.0
 11
47.3163
 21
112.0362604999999
 31
0.0
  0
LINE
  5
177
330
1E
100
AcDbEntity
  8
0
100
AcDbLine
 10
46.8513
 20
104.7222604999999
 30
0.0
 11
47.05639999999999
 21
101.9022604999999
 31
0.0
  0
LINE
  5
178
330
1E
100
AcDbEntity
  8
0
100
AcDbLine
 10
41.7
 20
122.3742604999999
 30
0.0
 11
43.3
 21
120.0102605
 31
0.0
  0
LINE
  5
179
330
1E
100
AcDbEntity
  8
0
100
AcDbLine
 10
43.3
 20
120.0102605
 30
0.0
 11
44.59999999999999
 21
117.5482605
 31
0.0
  0
LINE
  5
17A
330
1E
100
AcDbEntity
  8
0
100
AcDbLine
 10
43.596
 20
119.1522605
 30
0.0
 11
44.74
 21
116.7982604999999
 31
0.0
  0
LINE
  5
17B
330
1E
100
AcDbEntity
  8
0
100
AcDbLine
 10
41.924
 20
121.4462605
 30
0.0
 11
43.596
 21
119.1522605
 31
0.0
  0
LINE
  5
17C
330
1E
100
AcDbEntity
  8
0
100
AcDbLine
 10
48.79999999999999
 20
123.7882605
 30
0.0
 11
49.0
 21
126.9882605
 31
0.0
  0
LINE
  5
17D
330
1E
100
AcDbEntity
  8
0
100
AcDbLine
 10
39.8
 20
124.4422605
 30
0.0
 11
41.7
 21
122.3742604999999
 31
0.0
  0
LINE
  5
17E
330
1E
100
AcDbEntity
  8
0
100
AcDbLine
 10
39.988
 20
123.3952605
 30
0.0
 11
41.924
 21
121.4462605
 31
0.0
  0
LINE
  5
17F
330
1E
100
AcDbEntity
  8
0
100
AcDbLine
 10
37.87599999999999
 20
125.2162605
 30
0.0
 11
39.988
 21
123.3952605
 31
0.0
  0
LINE
  5
180
330
1E
100
AcDbEntity
  8
0
100
AcDbLine
 10
38.2389
 20
118.8202605
 30
0.0
 11
40.392
 21
116.9722605
 31
0.0
  0
LINE
  5
181
330
1E
100
AcDbEntity
  8
0
100
AcDbLine
 10
35.7782
 20
120.4732605
 30
0.0
 11
38.2389
 21
118.8202605
 31
0.0
  0
LINE
  5
182
330
1E
100
AcDbEntity
  8
0
100
AcDbLine
 10
35.41199999999999
 20
126.7232605
 30
0.0
 11
37.87599999999999
 21
125.2162605
 31
0.0
  0
LINE
  5
183
330
1E
100
AcDbEntity
  8
0
100
AcDbLine
 10
37.7
 20
126.3132605
 30
0.0
 11
39.8
 21
124.4422605
 31
0.0
  0
LINE
  5
184
330
1E
100
AcDbEntity
  8
0
100
AcDbLine
 10
35.29999999999999
 20
127.8892605
 30
0.0
 11
37.7
 21
126.3132605
 31
0.0
  0
LINE
  5
185
330
1E
100
AcDbEntity
  8
0
100
AcDbLine
 10
32.79999999999999
 20
129.1692605
 30
0.0
 11
35.29999999999999
 21
127.8892605
 31
0.0
  0
LINE
  5
186
330
1E
100
AcDbEntity
  8
0
100
AcDbLine
 10
30.1
 20
130.0552605
 30
0.0
 11
32.79999999999999
 21
129.1692605
 31
0.0
  0
LINE
  5
187
330
1E
100
AcDbEntity
  8
0
100
AcDbLine
 10
27.3
 20
130.5482604999999
 30
0.0
 11
30.1
 21
130.0552605
 31
0.0
  0
LINE
  5
188
330
1E
100
AcDbEntity
  8
0
100
AcDbLine
 10
48.79999999999999
 20
130.1882604999999
 30
0.0
 11
49.0
 21
126.9882605
 31
0.0
  0
LINE
  5
189
330
1E
100
AcDbEntity
  8
0
100
AcDbLine
 10
22.1
 20
27.1286605
 30
0.0
 11
24.5
 21
26.93176049999999
 31
0.0
  0
LINE
  5
18A
330
1E
100
AcDbEntity
  8
0
100
AcDbLine
 10
21.7411
 20
152.9462604999999
 30
0.0
 11
23.0676
 21
152.8982604999999
 31
0.0
  0
LINE
  5
18B
330
1E
100
AcDbEntity
  8
0
100
AcDbLine
 10
21.7411
 20
153.9422605
 30
0.0
 11
23.0676
 21
153.8942605
 31
0.0
  0
LINE
  5
18C
330
1E
100
AcDbEntity
  8
0
100
AcDbLine
 10
21.49109999999999
 20
153.4062605
 30
0.0
 11
22.93819999999999
 21
153.3532604999999
 31
0.0
  0
LINE
  5
18D
330
1E
100
AcDbEntity
  8
0
100
AcDbLine
 10
23.044
 20
148.0592605
 30
0.0
 11
23.06169999999999
 21
147.9832605
 31
0.0
  0
LINE
  5
18E
330
1E
100
AcDbEntity
  8
0
100
AcDbLine
 10
23.06169999999999
 20
147.9832605
 30
0.0
 11
23.2064
 21
147.6742605
 31
0.0
  0
LINE
  5
18F
330
1E
100
AcDbEntity
  8
0
100
AcDbLine
 10
23.044
 20
151.9502604999999
 30
0.0
 11
23.06169999999999
 21
152.0302604999999
 31
0.0
  0
LINE
  5
190
330
1E
100
AcDbEntity
  8
0
100
AcDbLine
 10
23.06169999999999
 20
152.0302604999999
 30
0.0
 11
23.2064
 21
152.3322604999999
 31
0.0
  0
LINE
  5
191
330
1E
100
AcDbEntity
  8
0
100
AcDbLine
 10
22.9911
 20
151.6262605
 30
0.0
 11
23.044
 21
151.3012605
 31
0.0
  0
LINE
  5
192
330
1E
100
AcDbEntity
  8
0
100
AcDbLine
 10
22.9911
 20
151.6262605
 30
0.0
 11
23.044
 21
151.9502604999999
 31
0.0
  0
LINE
  5
193
330
1E
100
AcDbEntity
  8
0
100
AcDbLine
 10
23.044
 20
151.3012605
 30
0.0
 11
23.06169999999999
 21
151.2182604999999
 31
0.0
  0
LINE
  5
194
330
1E
100
AcDbEntity
  8
0
100
AcDbLine
 10
23.06169999999999
 20
151.2182604999999
 30
0.0
 11
23.2064
 21
150.9192605
 31
0.0
  0
LINE
  5
195
330
1E
100
AcDbEntity
  8
0
100
AcDbLine
 10
23.044
 20
148.7242604999999
 30
0.0
 11
23.06169999999999
 21
148.8002605
 31
0.0
  0
LINE
  5
196
330
1E
100
AcDbEntity
  8
0
100
AcDbLine
 10
23.06169999999999
 20
148.8002605
 30
0.0
 11
23.2064
 21
149.1082605
 31
0.0
  0
LINE
  5
197
330
1E
100
AcDbEntity
  8
0
100
AcDbLine
 10
22.9911
 20
148.3912604999999
 30
0.0
 11
23.044
 21
148.0592605
 31
0.0
  0
LINE
  5
198
330
1E
100
AcDbEntity
  8
0
100
AcDbLine
 10
22.9911
 20
148.3912604999999
 30
0.0
 11
23.044
 21
148.7242604999999
 31
0.0
  0
LINE
  5
199
330
1E
100
AcDbEntity
  8
0
100
AcDbLine
 10
23.0676
 20
152.8982604999999
 30
0.0
 11
23.13680303165719
 21
152.8974340500259
 31
0.0
  0
LINE
  5
19A
330
1E
100
AcDbEntity
  8
0
100
AcDbLine
 10
23.0676
 20
153.8942605
 30
0.0
 11
23.1219327025468
 21
153.8936116373769
 31
0.0
  0
LINE
  5
19B
330
1E
100
AcDbEntity
  8
0
100
AcDbLine
 10
22.93819999999999
 20
153.3532604999999
 30
0.0
 11
23.0726720999878
 21
153.3517018047849
 31
0.0
  0
LINE
  5
19C
330
1E
100
AcDbEntity
  8
0
100
AcDbLine
 10
21.9911
 20
154.2432604999999
 30
0.0
 11
23.197
 21
154.2872605
 31
0.0
  0
LINE
  5
19D
330
1E
100
AcDbEntity
  8
0
100
AcDbLine
 10
21.7411
 20
154.7792604999999
 30
0.0
 11
23.0676
 21
154.8272605
 31
0.0
  0
LINE
  5
19E
330
1E
100
AcDbEntity
  8
0
100
AcDbLine
 10
23.2064
 20
147.6742605
 30
0.0
 11
23.2982
 21
147.5452605
 31
0.0
  0
LINE
  5
19F
330
1E
100
AcDbEntity
  8
0
100
AcDbLine
 10
23.2982
 20
147.5452605
 30
0.0
 11
23.52049999999999
 21
147.2982605
 31
0.0
  0
LINE
  5
1A0
330
1E
100
AcDbEntity
  8
0
100
AcDbLine
 10
23.2064
 20
149.1082605
 30
0.0
 11
23.2982
 21
149.2372604999999
 31
0.0
  0
LINE
  5
1A1
330
1E
100
AcDbEntity
  8
0
100
AcDbLine
 10
23.52049999999999
 20
147.2982605
 30
0.0
 11
23.8064
 21
147.1062605
 31
0.0
  0
LINE
  5
1A2
330
1E
100
AcDbEntity
  8
0
100
AcDbLine
 10
23.8064
 20
147.1062605
 30
0.0
 11
23.8946
 21
147.0642604999999
 31
0.0
  0
LINE
  5
1A3
330
1E
100
AcDbEntity
  8
0
100
AcDbLine
 10
23.2982
 20
149.2372604999999
 30
0.0
 11
23.52049999999999
 21
149.4852605
 31
0.0
  0
LINE
  5
1A4
330
1E
100
AcDbEntity
  8
0
100
AcDbLine
 10
23.52049999999999
 20
149.4852605
 30
0.0
 11
23.8064
 21
149.6772604999999
 31
0.0
  0
LINE
  5
1A5
330
1E
100
AcDbEntity
  8
0
100
AcDbLine
 10
23.8946
 20
147.0642604999999
 30
0.0
 11
24.184
 21
146.9612605
 31
0.0
  0
LINE
  5
1A6
330
1E
100
AcDbEntity
  8
0
100
AcDbLine
 10
24.184
 20
146.9612605
 30
0.0
 11
24.4911
 21
146.9252605
 31
0.0
  0
LINE
  5
1A7
330
1E
100
AcDbEntity
  8
0
100
AcDbLine
 10
25.1758
 20
147.1062605
 30
0.0
 11
25.4617
 21
147.2982605
 31
0.0
  0
LINE
  5
1A8
330
1E
100
AcDbEntity
  8
0
100
AcDbLine
 10
25.0876
 20
147.0642604999999
 30
0.0
 11
25.1758
 21
147.1062605
 31
0.0
  0
LINE
  5
1A9
330
1E
100
AcDbEntity
  8
0
100
AcDbLine
 10
24.7982
 20
146.9612605
 30
0.0
 11
25.0876
 21
147.0642604999999
 31
0.0
  0
LINE
  5
1AA
330
1E
100
AcDbEntity
  8
0
100
AcDbLine
 10
24.4911
 20
146.9252605
 30
0.0
 11
24.7982
 21
146.9612605
 31
0.0
  0
LINE
  5
1AB
330
1E
100
AcDbEntity
  8
0
100
AcDbLine
 10
25.684
 20
147.5452605
 30
0.0
 11
25.7758
 21
147.6742605
 31
0.0
  0
LINE
  5
1AC
330
1E
100
AcDbEntity
  8
0
100
AcDbLine
 10
25.4617
 20
147.2982605
 30
0.0
 11
25.684
 21
147.5452605
 31
0.0
  0
LINE
  5
1AD
330
1E
100
AcDbEntity
  8
0
100
AcDbLine
 10
25.7758
 20
147.6742605
 30
0.0
 11
25.9205
 21
147.9832605
 31
0.0
  0
LINE
  5
1AE
330
1E
100
AcDbEntity
  8
0
100
AcDbLine
 10
25.7758
 20
149.1082605
 30
0.0
 11
25.9205
 21
148.8002605
 31
0.0
  0
LINE
  5
1AF
330
1E
100
AcDbEntity
  8
0
100
AcDbLine
 10
25.684
 20
149.2372604999999
 30
0.0
 11
25.7758
 21
149.1082605
 31
0.0
  0
LINE
  5
1B0
330
1E
100
AcDbEntity
  8
0
100
AcDbLine
 10
25.4617
 20
149.4852605
 30
0.0
 11
25.684
 21
149.2372604999999
 31
0.0
  0
LINE
  5
1B1
330
1E
100
AcDbEntity
  8
0
100
AcDbLine
 10
25.1758
 20
149.6772604999999
 30
0.0
 11
25.4617
 21
149.4852605
 31
0.0
  0
LINE
  5
1B2
330
1E
100
AcDbEntity
  8
0
100
AcDbLine
 10
25.0876
 20
149.7182604999999
 30
0.0
 11
25.1758
 21
149.6772604999999
 31
0.0
  0
LINE
  5
1B3
330
1E
100
AcDbEntity
  8
0
100
AcDbLine
 10
23.8064
 20
149.6772604999999
 30
0.0
 11
23.8946
 21
149.7182604999999
 31
0.0
  0
LINE
  5
1B4
330
1E
100
AcDbEntity
  8
0
100
AcDbLine
 10
23.99109999999999
 20
149.752939145473
 30
0.0
 11
23.99109999999999
 21
150.283801187161
 31
0.0
  0
LINE
  5
1B5
330
1E
100
AcDbEntity
  8
0
100
AcDbLine
 10
24.99109999999999
 20
150.257582200069
 30
0.0
 11
25.0876
 21
150.2912604999999
 31
0.0
  0
LINE
  5
1B6
330
1E
100
AcDbEntity
  8
0
100
AcDbLine
 10
23.99109999999999
 20
149.741833134117
 30
0.0
 11
23.99109999999999
 21
150.826801187161
 31
0.0
  0
LINE
  5
1B7
330
1E
100
AcDbEntity
  8
0
100
AcDbLine
 10
23.2982
 20
150.7742604999999
 30
0.0
 11
23.52049999999999
 21
150.5342604999999
 31
0.0
  0
LINE
  5
1B8
330
1E
100
AcDbEntity
  8
0
100
AcDbLine
 10
23.52049999999999
 20
150.5342604999999
 30
0.0
 11
23.644
 21
150.4522605
 31
0.0
  0
LINE
  5
1B9
330
1E
100
AcDbEntity
  8
0
100
AcDbLine
 10
23.644
 20
150.4522605
 30
0.0
 11
23.7491719091675
 21
150.384691955004
 31
0.0
  0
LINE
  5
1BA
330
1E
100
AcDbEntity
  8
0
100
AcDbLine
 10
23.8093328633901
 20
150.346041062626
 30
0.0
 11
23.8946
 21
150.2912604999999
 31
0.0
  0
LINE
  5
1BB
330
1E
100
AcDbEntity
  8
0
100
AcDbLine
 10
23.8946
 20
150.2912604999999
 30
0.0
 11
23.99109999999999
 21
150.257582200069
 31
0.0
  0
LINE
  5
1BC
330
1E
100
AcDbEntity
  8
0
100
AcDbLine
 10
24.99109999999999
 20
150.826801187161
 30
0.0
 11
24.99109999999999
 21
149.741833134117
 31
0.0
  0
LINE
  5
1BD
330
1E
100
AcDbEntity
  8
0
100
AcDbLine
 10
23.99109999999999
 20
150.283801187161
 30
0.0
 11
23.99109999999999
 21
149.752939145473
 31
0.0
  0
LINE
  5
1BE
330
1E
100
AcDbEntity
  8
0
100
AcDbLine
 10
24.99109999999999
 20
149.741833134117
 30
0.0
 11
24.99109999999999
 21
150.826801187161
 31
0.0
  0
LINE
  5
1BF
330
1E
100
AcDbEntity
  8
0
100
AcDbLine
 10
23.1046504827274
 20
153.893818028482
 30
0.0
 11
23.164
 21
154.0562605
 31
0.0
  0
LINE
  5
1C0
330
1E
100
AcDbEntity
  8
0
100
AcDbLine
 10
23.164
 20
154.0562605
 30
0.0
 11
23.3335
 21
154.3252604999999
 31
0.0
  0
LINE
  5
1C1
330
1E
100
AcDbEntity
  8
0
100
AcDbLine
 10
23.108341642862
 20
152.9750560194669
 30
0.0
 11
23.164
 21
152.8232605
 31
0.0
  0
LINE
  5
1C2
330
1E
100
AcDbEntity
  8
0
100
AcDbLine
 10
23.164
 20
152.8232605
 30
0.0
 11
23.3335
 21
152.5542605
 31
0.0
  0
LINE
  5
1C3
330
1E
100
AcDbEntity
  8
0
100
AcDbLine
 10
23.2064
 20
152.3322604999999
 30
0.0
 11
23.2982
 21
152.4742604999999
 31
0.0
  0
LINE
  5
1C4
330
1E
100
AcDbEntity
  8
0
100
AcDbLine
 10
23.2982
 20
152.4742604999999
 30
0.0
 11
23.52049999999999
 21
152.7152604999999
 31
0.0
  0
LINE
  5
1C5
330
1E
100
AcDbEntity
  8
0
100
AcDbLine
 10
23.52049999999999
 20
152.7152604999999
 30
0.0
 11
23.644
 21
152.7992605
 31
0.0
  0
LINE
  5
1C6
330
1E
100
AcDbEntity
  8
0
100
AcDbLine
 10
23.644
 20
152.7992605
 30
0.0
 11
23.8946
 21
152.9592604999999
 31
0.0
  0
LINE
  5
1C7
330
1E
100
AcDbEntity
  8
0
100
AcDbLine
 10
23.99109999999999
 20
152.993272248445
 30
0.0
 11
23.99109999999999
 21
153.181624273357
 31
0.0
  0
LINE
  5
1C8
330
1E
100
AcDbEntity
  8
0
100
AcDbLine
 10
23.8946
 20
152.9592604999999
 30
0.0
 11
24.184
 21
153.0612604999999
 31
0.0
  0
LINE
  5
1C9
330
1E
100
AcDbEntity
  8
0
100
AcDbLine
 10
24.184
 20
153.0612604999999
 30
0.0
 11
24.4911
 21
153.0952604999999
 31
0.0
  0
LINE
  5
1CA
330
1E
100
AcDbEntity
  8
0
100
AcDbLine
 10
24.99109999999999
 20
152.993272248445
 30
0.0
 11
24.99109999999999
 21
153.181624273357
 31
0.0
  0
LINE
  5
1CB
330
1E
100
AcDbEntity
  8
0
100
AcDbLine
 10
24.7982
 20
153.0612604999999
 30
0.0
 11
25.0876
 21
152.9592604999999
 31
0.0
  0
LINE
  5
1CC
330
1E
100
AcDbEntity
  8
0
100
AcDbLine
 10
24.99109999999999
 20
153.181624273357
 30
0.0
 11
24.99109999999999
 21
152.993272248445
 31
0.0
  0
LINE
  5
1CD
330
1E
100
AcDbEntity
  8
0
100
AcDbLine
 10
23.99109999999999
 20
153.181624273357
 30
0.0
 11
23.99109999999999
 21
152.993272248445
 31
0.0
  0
LINE
  5
1CE
330
1E
100
AcDbEntity
  8
0
100
AcDbLine
 10
24.4911
 20
153.0952604999999
 30
0.0
 11
24.7982
 21
153.0612604999999
 31
0.0
  0
LINE
  5
1CF
330
1E
100
AcDbEntity
  8
0
100
AcDbLine
 10
23.2064
 20
150.9192605
 30
0.0
 11
23.2982
 21
150.7742604999999
 31
0.0
  0
LINE
  5
1D0
330
1E
100
AcDbEntity
  8
0
100
AcDbLine
 10
23.99109999999999
 20
150.826801187161
 30
0.0
 11
23.99109999999999
 21
149.741833134117
 31
0.0
  0
LINE
  5
1D1
330
1E
100
AcDbEntity
  8
0
100
AcDbLine
 10
25.0876
 20
150.2912604999999
 30
0.0
 11
25.1728671366099
 21
150.346041062626
 31
0.0
  0
LINE
  5
1D2
330
1E
100
AcDbEntity
  8
0
100
AcDbLine
 10
25.3382
 20
152.7992605
 30
0.0
 11
25.4617
 21
152.7152604999999
 31
0.0
  0
LINE
  5
1D3
330
1E
100
AcDbEntity
  8
0
100
AcDbLine
 10
25.0876
 20
152.9592604999999
 30
0.0
 11
25.3382
 21
152.7992605
 31
0.0
  0
LINE
  5
1D4
330
1E
100
AcDbEntity
  8
0
100
AcDbLine
 10
25.6487
 20
152.5542605
 30
0.0
 11
25.8182
 21
152.8232605
 31
0.0
  0
LINE
  5
1D5
330
1E
100
AcDbEntity
  8
0
100
AcDbLine
 10
25.684
 20
152.4742604999999
 30
0.0
 11
25.7758
 21
152.3322604999999
 31
0.0
  0
LINE
  5
1D6
330
1E
100
AcDbEntity
  8
0
100
AcDbLine
 10
25.4617
 20
152.7152604999999
 30
0.0
 11
25.684
 21
152.4742604999999
 31
0.0
  0
LINE
  5
1D7
330
1E
100
AcDbEntity
  8
0
100
AcDbLine
 10
25.7758
 20
152.3322604999999
 30
0.0
 11
25.9205
 21
152.0302604999999
 31
0.0
  0
LINE
  5
1D8
330
1E
100
AcDbEntity
  8
0
100
AcDbLine
 10
25.7758
 20
150.9192605
 30
0.0
 11
25.9205
 21
151.2182604999999
 31
0.0
  0
LINE
  5
1D9
330
1E
100
AcDbEntity
  8
0
100
AcDbLine
 10
25.684
 20
150.7742604999999
 30
0.0
 11
25.7758
 21
150.9192605
 31
0.0
  0
LINE
  5
1DA
330
1E
100
AcDbEntity
  8
0
100
AcDbLine
 10
25.4617
 20
150.5342604999999
 30
0.0
 11
25.684
 21
150.7742604999999
 31
0.0
  0
LINE
  5
1DB
330
1E
100
AcDbEntity
  8
0
100
AcDbLine
 10
25.3382
 20
150.4522605
 30
0.0
 11
25.4617
 21
150.5342604999999
 31
0.0
  0
LINE
  5
1DC
330
1E
100
AcDbEntity
  8
0
100
AcDbLine
 10
25.2330280908322
 20
150.384691955004
 30
0.0
 11
25.3382
 21
150.4522605
 31
0.0
  0
LINE
  5
1DD
330
1E
100
AcDbEntity
  8
0
100
AcDbLine
 10
24.99109999999999
 20
149.752939145473
 30
0.0
 11
25.0876
 21
149.7182604999999
 31
0.0
  0
LINE
  5
1DE
330
1E
100
AcDbEntity
  8
0
100
AcDbLine
 10
23.8946
 20
149.7182604999999
 30
0.0
 11
23.99109999999999
 21
149.752939145473
 31
0.0
  0
LINE
  5
1DF
330
1E
100
AcDbEntity
  8
0
100
AcDbLine
 10
25.8182
 20
152.8232605
 30
0.0
 11
25.873858357138
 21
152.9750560194669
 31
0.0
  0
LINE
  5
1E0
330
1E
100
AcDbEntity
  8
0
100
AcDbLine
 10
25.9205
 20
152.0302604999999
 30
0.0
 11
25.9382
 21
151.9502604999999
 31
0.0
  0
LINE
  5
1E1
330
1E
100
AcDbEntity
  8
0
100
AcDbLine
 10
25.9205
 20
151.2182604999999
 30
0.0
 11
25.9382
 21
151.3012605
 31
0.0
  0
LINE
  5
1E2
330
1E
100
AcDbEntity
  8
0
100
AcDbLine
 10
25.9205
 20
147.9832605
 30
0.0
 11
25.9382
 21
148.0592605
 31
0.0
  0
LINE
  5
1E3
330
1E
100
AcDbEntity
  8
0
100
AcDbLine
 10
25.9382
 20
148.0592605
 30
0.0
 11
25.9911
 21
148.3912604999999
 31
0.0
  0
LINE
  5
1E4
330
1E
100
AcDbEntity
  8
0
100
AcDbLine
 10
25.9382
 20
151.3012605
 30
0.0
 11
25.9911
 21
151.6262605
 31
0.0
  0
LINE
  5
1E5
330
1E
100
AcDbEntity
  8
0
100
AcDbLine
 10
25.9382
 20
151.9502604999999
 30
0.0
 11
25.9911
 21
151.6262605
 31
0.0
  0
LINE
  5
1E6
330
1E
100
AcDbEntity
  8
0
100
AcDbLine
 10
25.9382
 20
148.7242604999999
 30
0.0
 11
25.9911
 21
148.3912604999999
 31
0.0
  0
LINE
  5
1E7
330
1E
100
AcDbEntity
  8
0
100
AcDbLine
 10
25.9205
 20
148.8002605
 30
0.0
 11
25.9382
 21
148.7242604999999
 31
0.0
  0
LINE
  5
1E8
330
1E
100
AcDbEntity
  8
0
100
AcDbLine
 10
25.9146
 20
152.8982604999999
 30
0.0
 11
27.2411
 21
152.9462604999999
 31
0.0
  0
LINE
  5
1E9
330
1E
100
AcDbEntity
  8
0
100
AcDbLine
 10
25.8453969683428
 20
152.8974340500259
 30
0.0
 11
25.9146
 21
152.8982604999999
 31
0.0
  0
LINE
  5
1EA
330
1E
100
AcDbEntity
  8
0
100
AcDbLine
 10
25.8182
 20
154.0562605
 30
0.0
 11
25.8775495172726
 21
153.893818028482
 31
0.0
  0
LINE
  5
1EB
330
1E
100
AcDbEntity
  8
0
100
AcDbLine
 10
25.9146
 20
153.8942605
 30
0.0
 11
27.2411
 21
153.9422605
 31
0.0
  0
LINE
  5
1EC
330
1E
100
AcDbEntity
  8
0
100
AcDbLine
 10
25.8602672974532
 20
153.8936116373769
 30
0.0
 11
25.9146
 21
153.8942605
 31
0.0
  0
LINE
  5
1ED
330
1E
100
AcDbEntity
  8
0
100
AcDbLine
 10
25.90952790001219
 20
153.3517018047849
 30
0.0
 11
26.044
 21
153.3532604999999
 31
0.0
  0
LINE
  5
1EE
330
1E
100
AcDbEntity
  8
0
100
AcDbLine
 10
25.7852
 20
154.2872605
 30
0.0
 11
26.9911
 21
154.2432604999999
 31
0.0
  0
LINE
  5
1EF
330
1E
100
AcDbEntity
  8
0
100
AcDbLine
 10
23.3335
 20
154.3252604999999
 30
0.0
 11
23.45349999999999
 21
154.4812604999999
 31
0.0
  0
LINE
  5
1F0
330
1E
100
AcDbEntity
  8
0
100
AcDbLine
 10
23.45349999999999
 20
154.4812604999999
 30
0.0
 11
23.66519999999999
 21
154.6492605
 31
0.0
  0
LINE
  5
1F1
330
1E
100
AcDbEntity
  8
0
100
AcDbLine
 10
23.66519999999999
 20
154.6492605
 30
0.0
 11
23.81699999999999
 21
154.7582605
 31
0.0
  0
LINE
  5
1F2
330
1E
100
AcDbEntity
  8
0
100
AcDbLine
 10
23.81699999999999
 20
154.7582605
 30
0.0
 11
24.0182
 21
154.8402604999999
 31
0.0
  0
LINE
  5
1F3
330
1E
100
AcDbEntity
  8
0
100
AcDbLine
 10
25.6487
 20
154.3252604999999
 30
0.0
 11
25.8182
 21
154.0562605
 31
0.0
  0
LINE
  5
1F4
330
1E
100
AcDbEntity
  8
0
100
AcDbLine
 10
25.5287
 20
154.4812604999999
 30
0.0
 11
25.6487
 21
154.3252604999999
 31
0.0
  0
LINE
  5
1F5
330
1E
100
AcDbEntity
  8
0
100
AcDbLine
 10
25.31699999999999
 20
154.6492605
 30
0.0
 11
25.5287
 21
154.4812604999999
 31
0.0
  0
LINE
  5
1F6
330
1E
100
AcDbEntity
  8
0
100
AcDbLine
 10
25.16519999999999
 20
154.7582605
 30
0.0
 11
25.31699999999999
 21
154.6492605
 31
0.0
  0
LINE
  5
1F7
330
1E
100
AcDbEntity
  8
0
100
AcDbLine
 10
25.67181612004389
 20
154.2885747401659
 30
0.0
 11
25.7852
 21
154.2872605
 31
0.0
  0
LINE
  5
1F8
330
1E
100
AcDbEntity
  8
0
100
AcDbLine
 10
24.0182
 20
154.8402604999999
 30
0.0
 11
24.1593
 21
154.8842605
 31
0.0
  0
LINE
  5
1F9
330
1E
100
AcDbEntity
  8
0
100
AcDbLine
 10
24.1593
 20
154.8842605
 30
0.0
 11
24.3182
 21
154.9192605
 31
0.0
  0
LINE
  5
1FA
330
1E
100
AcDbEntity
  8
0
100
AcDbLine
 10
24.3182
 20
154.9192605
 30
0.0
 11
24.4911
 21
154.9322604999999
 31
0.0
  0
LINE
  5
1FB
330
1E
100
AcDbEntity
  8
0
100
AcDbLine
 10
24.964
 20
154.8402604999999
 30
0.0
 11
25.16519999999999
 21
154.7582605
 31
0.0
  0
LINE
  5
1FC
330
1E
100
AcDbEntity
  8
0
100
AcDbLine
 10
24.8229
 20
154.8842605
 30
0.0
 11
24.964
 21
154.8402604999999
 31
0.0
  0
LINE
  5
1FD
330
1E
100
AcDbEntity
  8
0
100
AcDbLine
 10
24.664
 20
154.9192605
 30
0.0
 11
24.8229
 21
154.8842605
 31
0.0
  0
LINE
  5
1FE
330
1E
100
AcDbEntity
  8
0
100
AcDbLine
 10
24.4911
 20
154.9322604999999
 30
0.0
 11
24.664
 21
154.9192605
 31
0.0
  0
LINE
  5
1FF
330
1E
100
AcDbEntity
  8
0
100
AcDbLine
 10
24.9698421983336
 20
154.837879484775
 30
0.0
 11
25.9146
 21
154.8272605
 31
0.0
  0
LINE
  5
200
330
1E
100
AcDbEntity
  8
0
100
AcDbLine
 10
25.9146
 20
154.8272605
 30
0.0
 11
27.2411
 21
154.7792604999999
 31
0.0
  0
LINE
  5
201
330
1E
100
AcDbEntity
  8
0
100
AcDbLine
 10
23.197
 20
154.2872605
 30
0.0
 11
23.3103838799561
 21
154.2885747401659
 31
0.0
  0
LINE
  5
202
330
1E
100
AcDbEntity
  8
0
100
AcDbLine
 10
23.0676
 20
154.8272605
 30
0.0
 11
24.01235780166639
 21
154.837879484775
 31
0.0
  0
LINE
  5
203
330
1E
100
AcDbEntity
  8
0
100
AcDbLine
 10
24.5
 20
130.7452604999999
 30
0.0
 11
27.3
 21
130.5482604999999
 31
0.0
  0
LINE
  5
204
330
1E
100
AcDbEntity
  8
0
100
AcDbLine
 10
48.2
 20
133.3882605
 30
0.0
 11
48.79999999999999
 21
130.1882604999999
 31
0.0
  0
LINE
  5
205
330
1E
100
AcDbEntity
  8
0
100
AcDbLine
 10
47.5
 20
136.3882605
 30
0.0
 11
48.2
 21
133.3882605
 31
0.0
  0
LINE
  5
206
330
1E
100
AcDbEntity
  8
0
100
AcDbLine
 10
45.8
 20
139.2882605
 30
0.0
 11
47.5
 21
136.3882605
 31
0.0
  0
LINE
  5
207
330
1E
100
AcDbEntity
  8
0
100
AcDbLine
 10
44.0
 20
141.8882605
 30
0.0
 11
45.8
 21
139.2882605
 31
0.0
  0
LINE
  5
208
330
1E
100
AcDbEntity
  8
0
100
AcDbLine
 10
41.79999999999999
 20
144.2882605
 30
0.0
 11
44.0
 21
141.8882605
 31
0.0
  0
LINE
  5
209
330
1E
100
AcDbEntity
  8
0
100
AcDbLine
 10
39.39999999999999
 20
146.4882604999999
 30
0.0
 11
41.79999999999999
 21
144.2882605
 31
0.0
  0
LINE
  5
20A
330
1E
100
AcDbEntity
  8
0
100
AcDbLine
 10
36.79999999999999
 20
148.2882605
 30
0.0
 11
39.39999999999999
 21
146.4882604999999
 31
0.0
  0
LINE
  5
20B
330
1E
100
AcDbEntity
  8
0
100
AcDbLine
 10
33.9
 20
149.9882604999999
 30
0.0
 11
36.79999999999999
 21
148.2882605
 31
0.0
  0
LINE
  5
20C
330
1E
100
AcDbEntity
  8
0
100
AcDbLine
 10
30.89999999999999
 20
150.6882604999999
 30
0.0
 11
33.9
 21
149.9882604999999
 31
0.0
  0
LINE
  5
20D
330
1E
100
AcDbEntity
  8
0
100
AcDbLine
 10
27.2411
 20
152.9462604999999
 30
0.0
 11
28.3802
 21
153.0232604999999
 31
0.0
  0
LINE
  5
20E
330
1E
100
AcDbEntity
  8
0
100
AcDbLine
 10
28.3802
 20
153.0232604999999
 30
0.0
 11
29.2542
 21
153.1232604999999
 31
0.0
  0
LINE
  5
20F
330
1E
100
AcDbEntity
  8
0
100
AcDbLine
 10
28.3802
 20
154.0192605
 30
0.0
 11
29.2542
 21
154.1192604999999
 31
0.0
  0
LINE
  5
210
330
1E
100
AcDbEntity
  8
0
100
AcDbLine
 10
27.2411
 20
153.9422605
 30
0.0
 11
28.3802
 21
154.0192605
 31
0.0
  0
LINE
  5
211
330
1E
100
AcDbEntity
  8
0
100
AcDbLine
 10
27.49109999999999
 20
153.4062605
 30
0.0
 11
28.73369999999999
 21
153.4902605
 31
0.0
  0
LINE
  5
212
330
1E
100
AcDbEntity
  8
0
100
AcDbLine
 10
26.044
 20
153.3532604999999
 30
0.0
 11
27.49109999999999
 21
153.4062605
 31
0.0
  0
LINE
  5
213
330
1E
100
AcDbEntity
  8
0
100
AcDbLine
 10
26.9911
 20
154.2432604999999
 30
0.0
 11
28.02659999999999
 21
154.1732604999999
 31
0.0
  0
LINE
  5
214
330
1E
100
AcDbEntity
  8
0
100
AcDbLine
 10
27.2411
 20
154.7792604999999
 30
0.0
 11
28.3802
 21
154.7022604999999
 31
0.0
  0
LINE
  5
215
330
1E
100
AcDbEntity
  8
0
100
AcDbLine
 10
28.02659999999999
 20
154.1732604999999
 30
0.0
 11
28.8212
 21
154.0822604999999
 31
0.0
  0
LINE
  5
216
330
1E
100
AcDbEntity
  8
0
100
AcDbLine
 10
28.73369999999999
 20
153.4902605
 30
0.0
 11
29.6873
 21
153.5992604999999
 31
0.0
  0
LINE
  5
217
330
1E
100
AcDbEntity
  8
0
100
AcDbLine
 10
29.2542
 20
153.1232604999999
 30
0.0
 11
29.8037
 21
153.2392605
 31
0.0
  0
LINE
  5
218
330
1E
100
AcDbEntity
  8
0
100
AcDbLine
 10
29.8037
 20
153.2392605
 30
0.0
 11
30.0452
 21
153.3322604999999
 31
0.0
  0
LINE
  5
219
330
1E
100
AcDbEntity
  8
0
100
AcDbLine
 10
30.0452
 20
153.3322604999999
 30
0.0
 11
30.2411
 21
153.4642604999999
 31
0.0
  0
LINE
  5
21A
330
1E
100
AcDbEntity
  8
0
100
AcDbLine
 10
30.2411
 20
153.4642604999999
 30
0.0
 11
30.3911
 21
153.6142605
 31
0.0
  0
LINE
  5
21B
330
1E
100
AcDbEntity
  8
0
100
AcDbLine
 10
30.3911
 20
153.6142605
 30
0.0
 11
30.4911
 21
153.8632605
 31
0.0
  0
LINE
  5
21C
330
1E
100
AcDbEntity
  8
0
100
AcDbLine
 10
30.28669999999999
 20
153.7262605
 30
0.0
 11
30.4911
 21
153.8632605
 31
0.0
  0
LINE
  5
21D
330
1E
100
AcDbEntity
  8
0
100
AcDbLine
 10
29.6873
 20
153.5992604999999
 30
0.0
 11
30.28669999999999
 21
153.7262605
 31
0.0
  0
LINE
  5
21E
330
1E
100
AcDbEntity
  8
0
100
AcDbLine
 10
29.65473779954789
 20
154.203814430387
 30
0.0
 11
29.74109999999999
 21
154.2612604999999
 31
0.0
  0
LINE
  5
21F
330
1E
100
AcDbEntity
  8
0
100
AcDbLine
 10
29.8037
 20
154.2352605
 30
0.0
 11
29.99109999999999
 21
154.3602605
 31
0.0
  0
LINE
  5
220
330
1E
100
AcDbEntity
  8
0
100
AcDbLine
 10
29.2542
 20
154.1192604999999
 30
0.0
 11
29.8037
 21
154.2352605
 31
0.0
  0
LINE
  5
221
330
1E
100
AcDbEntity
  8
0
100
AcDbLine
 10
29.2542
 20
154.6022605
 30
0.0
 11
29.8037
 21
154.4852605
 31
0.0
  0
LINE
  5
222
330
1E
100
AcDbEntity
  8
0
100
AcDbLine
 10
29.8037
 20
154.4852605
 30
0.0
 11
29.99109999999999
 21
154.3602605
 31
0.0
  0
LINE
  5
223
330
1E
100
AcDbEntity
  8
0
100
AcDbLine
 10
29.8037
 20
154.4852605
 30
0.0
 11
30.0452
 21
154.3922604999999
 31
0.0
  0
LINE
  5
224
330
1E
100
AcDbEntity
  8
0
100
AcDbLine
 10
30.0452
 20
154.3922604999999
 30
0.0
 11
30.2411
 21
154.2612604999999
 31
0.0
  0
LINE
  5
225
330
1E
100
AcDbEntity
  8
0
100
AcDbLine
 10
30.2411
 20
154.2612604999999
 30
0.0
 11
30.3911
 21
154.1122604999999
 31
0.0
  0
LINE
  5
226
330
1E
100
AcDbEntity
  8
0
100
AcDbLine
 10
30.3911
 20
154.1122604999999
 30
0.0
 11
30.4911
 21
153.8632605
 31
0.0
  0
LINE
  5
227
330
1E
100
AcDbEntity
  8
0
100
AcDbLine
 10
28.3802
 20
154.7022604999999
 30
0.0
 11
29.2542
 21
154.6022605
 31
0.0
  0
LINE
  5
228
330
1E
100
AcDbEntity
  8
0
100
AcDbLine
 10
27.7
 20
151.2882605
 30
0.0
 11
30.89999999999999
 21
150.6882604999999
 31
0.0
  0
LINE
  5
229
330
1E
100
AcDbEntity
  8
0
100
AcDbLine
 10
25.95384774124769
 20
151.3973950161719
 30
0.0
 11
27.7
 21
151.2882605
 31
0.0
  0
LINE
  5
22A
330
1E
100
AcDbEntity
  8
0
100
AcDbLine
 10
21.69999999999999
 20
130.5482604999999
 30
0.0
 11
24.5
 21
130.7452604999999
 31
0.0
  0
LINE
  5
22B
330
1E
100
AcDbEntity
  8
0
100
AcDbLine
 10
21.3
 20
151.2882605
 30
0.0
 11
23.0285315159245
 21
151.396293719745
 31
0.0
  0
ENDSEC
  0
SECTION
  2
OBJECTS
  0
DICTIONARY
  5
C
330
0
100
AcDbDictionary
281
     1
  3
ACAD_GROUP
350
D
  3
ACAD_LAYOUT
350
19
  3
ACAD_MLINESTYLE
350
16
  3
ACAD_PLOTSETTINGS
350
18
  3
ACAD_PLOTSTYLENAME
350
E
  3
AcDbVariableDictionary
350
230
  0
DICTIONARY
  5
D
102
{ACAD_REACTORS
330
C
102
}
330
C
100
AcDbDictionary
281
     1
  0
DICTIONARY
  5
19
102
{ACAD_REACTORS
330
C
102
}
330
C
100
AcDbDictionary
281
     1
  3
Layout1
350
1D
  3
Model
350
21
  0
DICTIONARY
  5
16
102
{ACAD_REACTORS
330
C
102
}
330
C
100
AcDbDictionary
281
     1
  3
Standard
350
17
  0
DICTIONARY
  5
18
102
{ACAD_REACTORS
330
C
102
}
330
C
100
AcDbDictionary
281
     1
  0
ACDBDICTIONARYWDFLT
  5
E
102
{ACAD_REACTORS
330
C
102
}
330
C
100
AcDbDictionary
281
     1
  3
Normal
350
F
100
AcDbDictionaryWithDefault
340
F
  0
DICTIONARY
  5
230
102
{ACAD_REACTORS
330
C
102
}
330
C
100
AcDbDictionary
281
     1
  3
DIMASSOC
350
231
  0
LAYOUT
  5
1D
102
{ACAD_REACTORS
330
19
102
}
330
19
100
AcDbPlotSettings
  1

  2
hp deskjet 980c series
  4

  6

 40
0.0
 41
0.0
 42
0.0
 43
0.0
 44
0.0
 45
0.0
 46
0.0
 47
0.0
 48
0.0
 49
0.0
140
0.0
141
0.0
142
1.0
143
1.0
 70
   688
 72
     0
 73
     0
 74
     5
  7

 75
    16
147
1.0
148
0.0
149
0.0
100
AcDbLayout
  1
Layout1
 70
     1
 71
     1
 10
0.0
 20
0.0
 11
12.0
 21
9.0
 12
0.0
 22
0.0
 32
0.0
 14
1.000000000000000E+20
 24
1.000000000000000E+20
 34
1.000000000000000E+20
 15
-1.000000000000000E+20
 25
-1.000000000000000E+20
 35
-1.000000000000000E+20
146
0.0
 13
0.0
 23
0.0
 33
0.0
 16
1.0
 26
0.0
 36
0.0
 17
0.0
 27
1.0
 37
0.0
 76
     0
330
1A
  0
LAYOUT
  5
21
102
{ACAD_REACTORS
330
19
102
}
330
19
100
AcDbPlotSettings
  1

  2
hp deskjet 980c series
  4

  6

 40
0.0
 41
0.0
 42
0.0
 43
0.0
 44
0.0
 45
0.0
 46
0.0
 47
0.0
 48
0.0
 49
0.0
140
0.0
141
0.0
142
1.0
143
1.0
 70
  1712
 72
     0
 73
     0
 74
     0
  7

 75
     0
147
1.0
148
0.0
149
0.0
100
AcDbLayout
  1
Model
 70
     1
 71
     0
 10
0.0
 20
0.0
 11
12.0
 21
9.0
 12
0.0
 22
0.0
 32
0.0
 14
0.0
 24
0.0
 34
0.0
 15
0.0
 25
0.0
 35
0.0
146
0.0
 13
0.0
 23
0.0
 33
0.0
 16
1.0
 26
0.0
 36
0.0
 17
0.0
 27
1.0
 37
0.0
 76
     0
330
1E
  0
MLINESTYLE
  5
17
102
{ACAD_REACTORS
330
16
102
}
330
16
100
AcDbMlineStyle
  2
STANDARD
 70
     0
  3

 62
   256
 51
90.0
 52
90.0
 71
     2
 49
0.5
 62
   256
  6
BYLAYER
 49
-0.5
 62
   256
  6
BYLAYER
  0
ACDBPLACEHOLDER
  5
F
102
{ACAD_REACTORS
330
E
102
}
330
E
  0
DICTIONARYVAR
  5
231
102
{ACAD_REACTORS
330
230
102
}
330
230
100
DictionaryVariables
280
     0
  1
1
  0
ENDSEC
  0
EOF
