  0
SECTION
  2
HEADER
  9
$ACADVER
  1
AC1014
  9
$ACADMAINTVER
 70
     9
  9
$DWGCODEPAGE
  3
ANSI_1252
  9
$INSBASE
 10
0.0
 20
0.0
 30
0.0
  9
$EXTMIN
 10
0.0000000000000013
 20
-0.0000000000000069
 30
0.0
  9
$EXTMAX
 10
48.0
 20
158.0
 30
0.0
  9
$LIMMIN
 10
0.0
 20
0.0
  9
$LIMMAX
 10
12.0
 20
9.0
  9
$ORTHOMODE
 70
     0
  9
$REGENMODE
 70
     1
  9
$FILLMODE
 70
     1
  9
$QTEXTMODE
 70
     0
  9
$MIRRTEXT
 70
     1
  9
$DRAGMODE
 70
     2
  9
$LTSCALE
 40
1.0
  9
$OSMODE
 70
    37
  9
$ATTMODE
 70
     1
  9
$TEXTSIZE
 40
0.2
  9
$TRACEWID
 40
0.05
  9
$TEXTSTYLE
  7
STANDARD
  9
$CLAYER
  8
0
  9
$CELTYPE
  6
CONTINUOUS
  9
$CECOLOR
 62
   256
  9
$CELTSCALE
 40
1.0
  9
$DELOBJ
 70
     1
  9
$DISPSILH
 70
     0
  9
$DIMSCALE
 40
1.0
  9
$DIMASZ
 40
0.18
  9
$DIMEXO
 40
0.0625
  9
$DIMDLI
 40
0.38
  9
$DIMRND
 40
0.0
  9
$DIMDLE
 40
0.0
  9
$DIMEXE
 40
0.18
  9
$DIMTP
 40
0.0
  9
$DIMTM
 40
0.0
  9
$DIMTXT
 40
0.18
  9
$DIMCEN
 40
0.09
  9
$DIMTSZ
 40
0.0
  9
$DIMTOL
 70
     0
  9
$DIMLIM
 70
     0
  9
$DIMTIH
 70
     1
  9
$DIMTOH
 70
     1
  9
$DIMSE1
 70
     0
  9
$DIMSE2
 70
     0
  9
$DIMTAD
 70
     0
  9
$DIMZIN
 70
     0
  9
$DIMBLK
  1

  9
$DIMASO
 70
     1
  9
$DIMSHO
 70
     1
  9
$DIMPOST
  1

  9
$DIMAPOST
  1

  9
$DIMALT
 70
     0
  9
$DIMALTD
 70
     2
  9
$DIMALTF
 40
25.4
  9
$DIMLFAC
 40
1.0
  9
$DIMTOFL
 70
     0
  9
$DIMTVP
 40
0.0
  9
$DIMTIX
 70
     0
  9
$DIMSOXD
 70
     0
  9
$DIMSAH
 70
     0
  9
$DIMBLK1
  1

  9
$DIMBLK2
  1

  9
$DIMSTYLE
  2
STANDARD
  9
$DIMCLRD
 70
     0
  9
$DIMCLRE
 70
     0
  9
$DIMCLRT
 70
     0
  9
$DIMTFAC
 40
1.0
  9
$DIMGAP
 40
0.09
  9
$DIMJUST
 70
     0
  9
$DIMSD1
 70
     0
  9
$DIMSD2
 70
     0
  9
$DIMTOLJ
 70
     1
  9
$DIMTZIN
 70
     0
  9
$DIMALTZ
 70
     0
  9
$DIMALTTZ
 70
     0
  9
$DIMFIT
 70
     3
  9
$DIMUPT
 70
     0
  9
$DIMUNIT
 70
     2
  9
$DIMDEC
 70
     4
  9
$DIMTDEC
 70
     4
  9
$DIMALTU
 70
     2
  9
$DIMALTTD
 70
     2
  9
$DIMTXSTY
  7
STANDARD
  9
$DIMAUNIT
 70
     0
  9
$LUNITS
 70
     2
  9
$LUPREC
 70
     4
  9
$SKETCHINC
 40
0.1
  9
$FILLETRAD
 40
0.0
  9
$AUNITS
 70
     0
  9
$AUPREC
 70
     0
  9
$MENU
  1
.
  9
$ELEVATION
 40
0.0
  9
$PELEVATION
 40
0.0
  9
$THICKNESS
 40
0.0
  9
$LIMCHECK
 70
     0
  9
$BLIPMODE
 70
     0
  9
$CHAMFERA
 40
0.0
  9
$CHAMFERB
 40
0.0
  9
$CHAMFERC
 40
0.0
  9
$CHAMFERD
 40
0.0
  9
$SKPOLY
 70
     0
  9
$TDCREATE
 40
2454700.540084629
  9
$TDUPDATE
 40
2454700.541702106
  9
$TDINDWG
 40
0.0016176620
  9
$TDUSRTIMER
 40
0.0016176620
  9
$USRTIMER
 70
     1
  9
$ANGBASE
 50
0.0
  9
$ANGDIR
 70
     0
  9
$PDMODE
 70
     0
  9
$PDSIZE
 40
0.0
  9
$PLINEWID
 40
0.0
  9
$COORDS
 70
     1
  9
$SPLFRAME
 70
     0
  9
$SPLINETYPE
 70
     6
  9
$SPLINESEGS
 70
     8
  9
$ATTDIA
 70
     0
  9
$ATTREQ
 70
     1
  9
$HANDLING
 70
 22529
  9
$HANDSEED
  5
1BE
  9
$SURFTAB1
 70
     6
  9
$SURFTAB2
 70
     6
  9
$SURFTYPE
 70
     6
  9
$SURFU
 70
     6
  9
$SURFV
 70
     6
  9
$UCSNAME
  2

  9
$UCSORG
 10
0.0
 20
0.0
 30
0.0
  9
$UCSXDIR
 10
1.0
 20
0.0
 30
0.0
  9
$UCSYDIR
 10
0.0
 20
1.0
 30
0.0
  9
$PUCSNAME
  2

  9
$PUCSORG
 10
0.0
 20
0.0
 30
0.0
  9
$PUCSXDIR
 10
1.0
 20
0.0
 30
0.0
  9
$PUCSYDIR
 10
0.0
 20
1.0
 30
0.0
  9
$USERI1
 70
     0
  9
$USERI2
 70
     0
  9
$USERI3
 70
     0
  9
$USERI4
 70
     0
  9
$USERI5
 70
     0
  9
$USERR1
 40
0.0
  9
$USERR2
 40
0.0
  9
$USERR3
 40
0.0
  9
$USERR4
 40
0.0
  9
$USERR5
 40
0.0
  9
$WORLDVIEW
 70
     1
  9
$SHADEDGE
 70
     3
  9
$SHADEDIF
 70
    70
  9
$TILEMODE
 70
     1
  9
$MAXACTVP
 70
    64
  9
$PINSBASE
 10
0.0
 20
0.0
 30
0.0
  9
$PLIMCHECK
 70
     0
  9
$PEXTMIN
 10
1.000000000000000E+20
 20
1.000000000000000E+20
 30
1.000000000000000E+20
  9
$PEXTMAX
 10
-1.000000000000000E+20
 20
-1.000000000000000E+20
 30
-1.000000000000000E+20
  9
$PLIMMIN
 10
0.0
 20
0.0
  9
$PLIMMAX
 10
12.0
 20
9.0
  9
$UNITMODE
 70
     0
  9
$VISRETAIN
 70
     1
  9
$PLINEGEN
 70
     0
  9
$PSLTSCALE
 70
     1
  9
$TREEDEPTH
 70
  3020
  9
$PICKSTYLE
 70
     1
  9
$CMLSTYLE
  2
STANDARD
  9
$CMLJUST
 70
     0
  9
$CMLSCALE
 40
1.0
  9
$PROXYGRAPHICS
 70
     1
  9
$MEASUREMENT
 70
     0
  0
ENDSEC
  0
SECTION
  2
CLASSES
  0
CLASS
  1
ACDBDICTIONARYWDFLT
  2
AcDbDictionaryWithDefault
  3
AutoCAD 2000
 90
        0
280
     0
281
     0
  0
CLASS
  1
ACDBPLACEHOLDER
  2
AcDbPlaceHolder
  3
AutoCAD 2000
 90
        0
280
     0
281
     0
  0
CLASS
  1
LAYOUT
  2
AcDbLayout
  3
AutoCAD 2000
 90
        0
280
     0
281
     0
  0
CLASS
  1
DICTIONARYVAR
  2
AcDbDictionaryVar
  3
AutoCAD 2000
 90
        0
280
     0
281
     0
  0
CLASS
  1
LONG_TRANSACTION
  2
AcDbLongTransaction
  3
AutoCAD 2000
 90
        0
280
     0
281
     0
  0
CLASS
  1
LWPOLYLINE
  2
AcDbPolyline
  3
AutoCAD 2000
 90
        0
280
     0
281
     1
  0
CLASS
  1
HATCH
  2
AcDbHatch
  3
AutoCAD 2000
 90
        0
280
     0
281
     1
  0
CLASS
  1
XRECORD
  2
AcDbXrecord
  3
AutoCAD 2000
 90
        0
280
     0
281
     0
  0
ENDSEC
  0
SECTION
  2
TABLES
  0
TABLE
  2
VPORT
  5
8
330
0
100
AcDbSymbolTable
 70
     2
  0
VPORT
  5
199
330
8
100
AcDbSymbolTableRecord
100
AcDbViewportTableRecord
  2
*ACTIVE
 70
     0
 10
0.0
 20
0.0
 11
1.0
 21
1.0
 12
24.0
 22
79.0
 13
0.0
 23
0.0
 14
1.0
 24
1.0
 15
0.0
 25
0.0
 16
0.0
 26
0.0
 36
1.0
 17
0.0
 27
0.0
 37
0.0
 40
159.2122762148337
 41
2.078104993597951
 42
50.0
 43
0.0
 44
0.0
 50
0.0
 51
0.0
 71
     0
 72
   100
 73
     1
 74
     3
 75
     0
 76
     0
 77
     0
 78
     0
  0
ENDTAB
  0
TABLE
  2
LTYPE
  5
5
330
0
100
AcDbSymbolTable
 70
     1
  0
LTYPE
  5
13
330
5
100
AcDbSymbolTableRecord
100
AcDbLinetypeTableRecord
  2
BYBLOCK
 70
     0
  3

 72
    65
 73
     0
 40
0.0
  0
LTYPE
  5
14
330
5
100
AcDbSymbolTableRecord
100
AcDbLinetypeTableRecord
  2
BYLAYER
 70
     0
  3

 72
    65
 73
     0
 40
0.0
  0
LTYPE
  5
15
330
5
100
AcDbSymbolTableRecord
100
AcDbLinetypeTableRecord
  2
CONTINUOUS
 70
     0
  3
Solid line
 72
    65
 73
     0
 40
0.0
  0
ENDTAB
  0
TABLE
  2
LAYER
  5
2
330
0
100
AcDbSymbolTable
 70
     1
  0
LAYER
  5
10
330
2
100
AcDbSymbolTableRecord
100
AcDbLayerTableRecord
  2
0
 70
     0
 62
     7
  6
CONTINUOUS
  0
ENDTAB
  0
TABLE
  2
STYLE
  5
3
330
0
100
AcDbSymbolTable
 70
     1
  0
STYLE
  5
11
330
3
100
AcDbSymbolTableRecord
100
AcDbTextStyleTableRecord
  2
STANDARD
 70
     0
 40
0.0
 41
1.0
 50
0.0
 71
     0
 42
0.2
  3
txt
  4

  0
ENDTAB
  0
TABLE
  2
VIEW
  5
6
330
0
100
AcDbSymbolTable
 70
     0
  0
ENDTAB
  0
TABLE
  2
UCS
  5
7
330
0
100
AcDbSymbolTable
 70
     0
  0
ENDTAB
  0
TABLE
  2
APPID
  5
9
330
0
100
AcDbSymbolTable
 70
     1
  0
APPID
  5
12
330
9
100
AcDbSymbolTableRecord
100
AcDbRegAppTableRecord
  2
ACAD
 70
     0
  0
ENDTAB
  0
TABLE
  2
DIMSTYLE
  5
A
330
0
100
AcDbSymbolTable
 70
     1
  0
DIMSTYLE
105
192
330
A
100
AcDbSymbolTableRecord
100
AcDbDimStyleTableRecord
  2
STANDARD
 70
     0
  3

  4

  5

  6

  7

 40
1.0
 41
0.18
 42
0.0625
 43
0.38
 44
0.18
 45
0.0
 46
0.0
 47
0.0
 48
0.0
140
0.18
141
0.09
142
0.0
143
25.4
144
1.0
145
0.0
146
1.0
147
0.09
 71
     0
 72
     0
 73
     1
 74
     1
 75
     0
 76
     0
 77
     0
 78
     0
170
     0
171
     2
172
     0
173
     0
174
     0
175
     0
176
     0
177
     0
178
     0
270
     2
271
     4
272
     4
273
     2
274
     2
340
11
275
     0
280
     0
281
     0
282
     0
283
     1
284
     0
285
     0
286
     0
287
     3
288
     0
  0
ENDTAB
  0
TABLE
  2
BLOCK_RECORD
  5
1
330
0
100
AcDbSymbolTable
 70
     0
  0
BLOCK_RECORD
  5
1E
102
{ACAD_XDICTIONARY
360
1BC
102
}
330
1
100
AcDbSymbolTableRecord
100
AcDbBlockTableRecord
  2
*MODEL_SPACE
  0
BLOCK_RECORD
  5
1A
102
{ACAD_XDICTIONARY
360
1BA
102
}
330
1
100
AcDbSymbolTableRecord
100
AcDbBlockTableRecord
  2
*PAPER_SPACE
  0
ENDTAB
  0
ENDSEC
  0
SECTION
  2
BLOCKS
  0
BLOCK
  5
1F
330
1E
100
AcDbEntity
  8
0
100
AcDbBlockBegin
  2
*MODEL_SPACE
 70
     0
 10
0.0
 20
0.0
 30
0.0
  3
*MODEL_SPACE
  1

  0
ENDBLK
  5
20
330
1E
100
AcDbEntity
  8
0
100
AcDbBlockEnd
  0
BLOCK
  5
1B
330
1A
100
AcDbEntity
 67
     1
  8
0
100
AcDbBlockBegin
  2
*PAPER_SPACE
 70
     0
 10
0.0
 20
0.0
 30
0.0
  3
*PAPER_SPACE
  1

  0
ENDBLK
  5
1C
330
1A
100
AcDbEntity
 67
     1
  8
0
100
AcDbBlockEnd
  0
ENDSEC
  0
SECTION
  2
ENTITIES
  0
LINE
  5
22
330
1E
100
AcDbEntity
  8
0
100
AcDbLine
 10
0.0000000000000013
 20
-0.0000000000000065
 30
0.0
 11
0.8470999999999989
 21
-0.0000000000000069
 31
0.0
  0
LINE
  5
23
330
1E
100
AcDbEntity
  8
0
100
AcDbLine
 10
0.0000000000000013
 20
-0.0000000000000065
 30
0.0
 11
0.0000000000000013
 21
117.585
 31
0.0
  0
LINE
  5
24
330
1E
100
AcDbEntity
  8
0
100
AcDbLine
 10
0.0000000000000013
 20
-0.0000000000000065
 30
0.0
 11
0.8470999999999989
 21
-0.0000000000000061
 31
0.0
  0
LINE
  5
25
330
1E
100
AcDbEntity
  8
0
100
AcDbLine
 10
0.0000000000000013
 20
117.585
 30
0.0
 11
0.731839286831407
 21
118.9577926180789
 31
0.0
  0
LINE
  5
26
330
1E
100
AcDbEntity
  8
0
100
AcDbLine
 10
0.0000000000000013
 20
117.585
 30
0.0
 11
0.0000000000000013
 21
0.0
 31
0.0
  0
LINE
  5
27
330
1E
100
AcDbEntity
  8
0
100
AcDbLine
 10
0.0000000000000013
 20
120.347
 30
0.0
 11
0.0000000000000013
 21
150.4509999999999
 31
0.0
  0
LINE
  5
28
330
1E
100
AcDbEntity
  8
0
100
AcDbLine
 10
0.0000000000000013
 20
120.347
 30
0.0
 11
0.8470999999999989
 21
118.7389999999999
 31
0.0
  0
LINE
  5
29
330
1E
100
AcDbEntity
  8
0
100
AcDbLine
 10
0.3529
 20
118.179
 30
0.0
 11
1.199999999999999
 21
116.608
 31
0.0
  0
LINE
  5
2A
330
1E
100
AcDbEntity
  8
0
100
AcDbLine
 10
0.3529
 20
118.179
 30
0.0
 11
0.751972201257863
 21
118.919575493303
 31
0.0
  0
LINE
  5
2B
330
1E
100
AcDbEntity
  8
0
100
AcDbLine
 10
0.8470999999999989
 20
-0.0000000000000061
 30
0.0
 11
3.2471
 21
-0.0000000000000057
 31
0.0
  0
LINE
  5
2C
330
1E
100
AcDbEntity
  8
0
100
AcDbLine
 10
0.8470999999999989
 20
-0.0000000000000061
 30
0.0
 11
3.2471
 21
-0.0000000000000057
 31
0.0
  0
LINE
  5
2D
330
1E
100
AcDbEntity
  8
0
100
AcDbLine
 10
0.3529
 20
118.179
 30
0.0
 11
1.199999999999999
 21
116.608
 31
0.0
  0
LINE
  5
2E
330
1E
100
AcDbEntity
  8
0
100
AcDbLine
 10
0.3529
 20
118.179
 30
0.0
 11
0.751972201257863
 21
118.919575493303
 31
0.0
  0
LINE
  5
2F
330
1E
100
AcDbEntity
  8
0
100
AcDbLine
 10
0.8470999999999989
 20
118.7389999999999
 30
0.0
 11
3.2
 21
117.2529999999999
 31
0.0
  0
LINE
  5
30
330
1E
100
AcDbEntity
  8
0
100
AcDbLine
 10
1.199999999999999
 20
116.608
 30
0.0
 11
3.529399999999999
 21
115.1279999999999
 31
0.0
  0
LINE
  5
31
330
1E
100
AcDbEntity
  8
0
100
AcDbLine
 10
1.199999999999999
 20
116.608
 30
0.0
 11
3.529399999999999
 21
115.1279999999999
 31
0.0
  0
LINE
  5
32
330
1E
100
AcDbEntity
  8
0
100
AcDbLine
 10
0.8470999999999989
 20
118.7389999999999
 30
0.0
 11
3.2
 21
117.2529999999999
 31
0.0
  0
LINE
  5
33
330
1E
100
AcDbEntity
  8
0
100
AcDbLine
 10
0.8470999999999989
 20
118.7389999999999
 30
0.0
 11
1.788199999999999
 21
117.9
 31
0.0
  0
LINE
  5
34
330
1E
100
AcDbEntity
  8
0
100
AcDbLine
 10
1.3176
 20
150.2599999999999
 30
0.0
 11
3.670599999999999
 21
148.798
 31
0.0
  0
LINE
  5
35
330
1E
100
AcDbEntity
  8
0
100
AcDbLine
 10
0.0000000000000013
 20
150.4509999999999
 30
0.0
 11
0.470600000000002
 21
151.82
 31
0.0
  0
LINE
  5
36
330
1E
100
AcDbEntity
  8
0
100
AcDbLine
 10
0.0000000000000013
 20
150.4509999999999
 30
0.0
 11
0.0000000000000013
 21
120.347
 31
0.0
  0
LINE
  5
37
330
1E
100
AcDbEntity
  8
0
100
AcDbLine
 10
0.470600000000002
 20
151.82
 30
0.0
 11
1.3176
 21
153.3779999999999
 31
0.0
  0
LINE
  5
38
330
1E
100
AcDbEntity
  8
0
100
AcDbLine
 10
0.470600000000002
 20
151.82
 30
0.0
 11
1.3176
 21
150.2599999999999
 31
0.0
  0
LINE
  5
39
330
1E
100
AcDbEntity
  8
0
100
AcDbLine
 10
3.2471
 20
-0.0000000000000057
 30
0.0
 11
7.058799999999999
 21
-0.0000000000000054
 31
0.0
  0
LINE
  5
3A
330
1E
100
AcDbEntity
  8
0
100
AcDbLine
 10
3.529399999999999
 20
115.1279999999999
 30
0.0
 11
7.270599999999999
 21
113.85
 31
0.0
  0
LINE
  5
3B
330
1E
100
AcDbEntity
  8
0
100
AcDbLine
 10
7.058799999999999
 20
-0.0000000000000054
 30
0.0
 11
12.0706
 21
-0.0000000000000052
 31
0.0
  0
LINE
  5
3C
330
1E
100
AcDbEntity
  8
0
100
AcDbLine
 10
4.0471
 20
116.463
 30
0.0
 11
7.717600000000009
 21
115.2209999999999
 31
0.0
  0
LINE
  5
3D
330
1E
100
AcDbEntity
  8
0
100
AcDbLine
 10
1.788199999999999
 20
117.9
 30
0.0
 11
4.0471
 21
116.463
 31
0.0
  0
LINE
  5
3E
330
1E
100
AcDbEntity
  8
0
100
AcDbLine
 10
3.2
 20
117.2529999999999
 30
0.0
 11
7.058799999999999
 21
115.962
 31
0.0
  0
LINE
  5
3F
330
1E
100
AcDbEntity
  8
0
100
AcDbLine
 10
7.270599999999999
 20
113.85
 30
0.0
 11
12.2118
 21
112.881
 31
0.0
  0
LINE
  5
40
330
1E
100
AcDbEntity
  8
0
100
AcDbLine
 10
7.058799999999999
 20
115.962
 30
0.0
 11
12.0471
 21
114.9629999999999
 31
0.0
  0
LINE
  5
41
330
1E
100
AcDbEntity
  8
0
100
AcDbLine
 10
1.3176
 20
150.2599999999999
 30
0.0
 11
3.670599999999999
 21
148.798
 31
0.0
  0
LINE
  5
42
330
1E
100
AcDbEntity
  8
0
100
AcDbLine
 10
3.670599999999999
 20
148.798
 30
0.0
 11
7.341199999999999
 21
147.5079999999999
 31
0.0
  0
LINE
  5
43
330
1E
100
AcDbEntity
  8
0
100
AcDbLine
 10
7.341199999999999
 20
147.5079999999999
 30
0.0
 11
12.3294
 21
146.557
 31
0.0
  0
LINE
  5
44
330
1E
100
AcDbEntity
  8
0
100
AcDbLine
 10
1.3176
 20
153.3779999999999
 30
0.0
 11
3.670599999999999
 21
154.8399999999999
 31
0.0
  0
LINE
  5
45
330
1E
100
AcDbEntity
  8
0
100
AcDbLine
 10
1.3176
 20
153.3779999999999
 30
0.0
 11
3.670599999999999
 21
154.8399999999999
 31
0.0
  0
LINE
  5
46
330
1E
100
AcDbEntity
  8
0
100
AcDbLine
 10
3.670599999999999
 20
154.8399999999999
 30
0.0
 11
7.341199999999999
 21
156.1309999999999
 31
0.0
  0
LINE
  5
47
330
1E
100
AcDbEntity
  8
0
100
AcDbLine
 10
10.1912
 20
86.9475
 30
0.0
 11
11.6029
 21
83.5063
 31
0.0
  0
LINE
  5
48
330
1E
100
AcDbEntity
  8
0
100
AcDbLine
 10
9.75
 20
86.8593
 30
0.0
 11
11.20589999999999
 21
83.2857
 31
0.0
  0
LINE
  5
49
330
1E
100
AcDbEntity
  8
0
100
AcDbLine
 10
9.5294
 20
86.8152
 30
0.0
 11
11.0294
 21
83.1975
 31
0.0
  0
LINE
  5
4A
330
1E
100
AcDbEntity
  8
0
100
AcDbLine
 10
9.0
 20
92.4327
 30
0.0
 11
9.0
 21
90.6534
 31
0.0
  0
LINE
  5
4B
330
1E
100
AcDbEntity
  8
0
100
AcDbLine
 10
9.661799999999999
 20
90.6534
 30
0.0
 11
10.1912
 21
86.9475
 31
0.0
  0
LINE
  5
4C
330
1E
100
AcDbEntity
  8
0
100
AcDbLine
 10
9.661799999999999
 20
90.6534
 30
0.0
 11
10.1912
 21
94.3593
 31
0.0
  0
LINE
  5
4D
330
1E
100
AcDbEntity
  8
0
100
AcDbLine
 10
10.1912
 20
94.3593
 30
0.0
 11
11.6029
 21
97.80050000000001
 31
0.0
  0
LINE
  5
4E
330
1E
100
AcDbEntity
  8
0
100
AcDbLine
 10
9.75
 20
94.4475
 30
0.0
 11
11.20589999999999
 21
98.02100000000001
 31
0.0
  0
LINE
  5
4F
330
1E
100
AcDbEntity
  8
0
100
AcDbLine
 10
9.220599999999999
 20
90.6534
 30
0.0
 11
9.75
 21
86.8593
 31
0.0
  0
LINE
  5
50
330
1E
100
AcDbEntity
  8
0
100
AcDbLine
 10
9.220599999999999
 20
90.6534
 30
0.0
 11
9.75
 21
94.4475
 31
0.0
  0
LINE
  5
51
330
1E
100
AcDbEntity
  8
0
100
AcDbLine
 10
9.0
 20
90.6534
 30
0.0
 11
9.5294
 21
86.8152
 31
0.0
  0
LINE
  5
52
330
1E
100
AcDbEntity
  8
0
100
AcDbLine
 10
9.0
 20
90.6534
 30
0.0
 11
9.0
 21
92.4327
 31
0.0
  0
LINE
  5
53
330
1E
100
AcDbEntity
  8
0
100
AcDbLine
 10
11.0
 20
89.49110000000001
 30
0.0
 11
11.468
 21
92.79619999999999
 31
0.0
  0
LINE
  5
54
330
1E
100
AcDbEntity
  8
0
100
AcDbLine
 10
11.0
 20
89.49110000000001
 30
0.0
 11
11.0
 21
88.6264
 31
0.0
  0
LINE
  5
55
330
1E
100
AcDbEntity
  8
0
100
AcDbLine
 10
11.20589999999999
 20
83.2857
 30
0.0
 11
13.5441
 21
80.1975
 31
0.0
  0
LINE
  5
56
330
1E
100
AcDbEntity
  8
0
100
AcDbLine
 10
11.0294
 20
83.1975
 30
0.0
 11
13.4118
 21
80.0652
 31
0.0
  0
LINE
  5
57
330
1E
100
AcDbEntity
  8
0
100
AcDbLine
 10
11.6029
 20
83.5063
 30
0.0
 11
13.8529
 21
80.50629999999999
 31
0.0
  0
LINE
  5
58
330
1E
100
AcDbEntity
  8
0
100
AcDbLine
 10
12.0
 20
88.5903
 30
0.0
 11
12.0
 21
87.6823
 31
0.0
  0
LINE
  5
59
330
1E
100
AcDbEntity
  8
0
100
AcDbLine
 10
12.0
 20
88.5903
 30
0.0
 11
12.432
 21
91.6412
 31
0.0
  0
LINE
  5
5A
330
1E
100
AcDbEntity
  8
0
100
AcDbLine
 10
12.0
 20
87.6823
 30
0.0
 11
12.432
 21
90.7332
 31
0.0
  0
LINE
  5
5B
330
1E
100
AcDbEntity
  8
0
100
AcDbLine
 10
12.0
 20
87.6823
 30
0.0
 11
12.432
 21
84.6315
 31
0.0
  0
LINE
  5
5C
330
1E
100
AcDbEntity
  8
0
100
AcDbLine
 10
12.0
 20
87.6823
 30
0.0
 11
12.0
 21
88.5903
 31
0.0
  0
LINE
  5
5D
330
1E
100
AcDbEntity
  8
0
100
AcDbLine
 10
11.77999999999999
 20
85.33689999999999
 30
0.0
 11
13.02799999999999
 21
82.34160000000001
 31
0.0
  0
LINE
  5
5E
330
1E
100
AcDbEntity
  8
0
100
AcDbLine
 10
11.468
 20
85.3213
 30
0.0
 11
12.716
 21
82.22269999999999
 31
0.0
  0
LINE
  5
5F
330
1E
100
AcDbEntity
  8
0
100
AcDbLine
 10
11.77999999999999
 20
91.8438
 30
0.0
 11
13.02799999999999
 21
94.839
 31
0.0
  0
LINE
  5
60
330
1E
100
AcDbEntity
  8
0
100
AcDbLine
 10
11.312
 20
88.5903
 30
0.0
 11
11.77999999999999
 21
91.8438
 31
0.0
  0
LINE
  5
61
330
1E
100
AcDbEntity
  8
0
100
AcDbLine
 10
11.312
 20
88.5903
 30
0.0
 11
11.77999999999999
 21
85.33689999999999
 31
0.0
  0
LINE
  5
62
330
1E
100
AcDbEntity
  8
0
100
AcDbLine
 10
11.20589999999999
 20
98.02100000000001
 30
0.0
 11
13.5441
 21
101.109
 31
0.0
  0
LINE
  5
63
330
1E
100
AcDbEntity
  8
0
100
AcDbLine
 10
11.6029
 20
97.80050000000001
 30
0.0
 11
13.8529
 21
100.8
 31
0.0
  0
LINE
  5
64
330
1E
100
AcDbEntity
  8
0
100
AcDbLine
 10
11.468
 20
92.79619999999999
 30
0.0
 11
12.716
 21
95.8948
 31
0.0
  0
LINE
  5
65
330
1E
100
AcDbEntity
  8
0
100
AcDbLine
 10
11.468
 20
91.93150000000001
 30
0.0
 11
12.716
 21
95.03
 31
0.0
  0
LINE
  5
66
330
1E
100
AcDbEntity
  8
0
100
AcDbLine
 10
11.0
 20
88.6264
 30
0.0
 11
11.0
 21
89.49110000000001
 31
0.0
  0
LINE
  5
67
330
1E
100
AcDbEntity
  8
0
100
AcDbLine
 10
11.0
 20
88.6264
 30
0.0
 11
11.468
 21
91.93150000000001
 31
0.0
  0
LINE
  5
68
330
1E
100
AcDbEntity
  8
0
100
AcDbLine
 10
11.0
 20
88.6264
 30
0.0
 11
11.468
 21
85.3213
 31
0.0
  0
LINE
  5
69
330
1E
100
AcDbEntity
  8
0
100
AcDbLine
 10
7.717600000000009
 20
115.2209999999999
 30
0.0
 11
12.51759999999999
 21
114.27
 31
0.0
  0
LINE
  5
6A
330
1E
100
AcDbEntity
  8
0
100
AcDbLine
 10
12.0706
 20
-0.0000000000000052
 30
0.0
 11
17.85879999999999
 21
-0.000000000000005
 31
0.0
  0
LINE
  5
6B
330
1E
100
AcDbEntity
  8
0
100
AcDbLine
 10
12.432
 20
84.6315
 30
0.0
 11
13.584
 21
81.7713
 31
0.0
  0
LINE
  5
6C
330
1E
100
AcDbEntity
  8
0
100
AcDbLine
 10
12.288
 20
87.65349999999999
 30
0.0
 11
12.72
 21
90.6567
 31
0.0
  0
LINE
  5
6D
330
1E
100
AcDbEntity
  8
0
100
AcDbLine
 10
12.288
 20
87.65349999999999
 30
0.0
 11
12.72
 21
84.6503
 31
0.0
  0
LINE
  5
6E
330
1E
100
AcDbEntity
  8
0
100
AcDbLine
 10
12.432
 20
91.6412
 30
0.0
 11
13.584
 21
94.50140000000001
 31
0.0
  0
LINE
  5
6F
330
1E
100
AcDbEntity
  8
0
100
AcDbLine
 10
12.432
 20
90.7332
 30
0.0
 11
13.584
 21
93.59340000000001
 31
0.0
  0
LINE
  5
70
330
1E
100
AcDbEntity
  8
0
100
AcDbLine
 10
12.72
 20
84.6503
 30
0.0
 11
13.87199999999999
 21
81.88549999999999
 31
0.0
  0
LINE
  5
71
330
1E
100
AcDbEntity
  8
0
100
AcDbLine
 10
12.72
 20
90.6567
 30
0.0
 11
13.87199999999999
 21
93.4215
 31
0.0
  0
LINE
  5
72
330
1E
100
AcDbEntity
  8
0
100
AcDbLine
 10
12.716
 20
82.22269999999999
 30
0.0
 11
14.796
 21
79.4857
 31
0.0
  0
LINE
  5
73
330
1E
100
AcDbEntity
  8
0
100
AcDbLine
 10
12.716
 20
95.8948
 30
0.0
 11
14.796
 21
98.63179999999999
 31
0.0
  0
LINE
  5
74
330
1E
100
AcDbEntity
  8
0
100
AcDbLine
 10
12.716
 20
95.03
 30
0.0
 11
14.796
 21
97.76700000000001
 31
0.0
  0
LINE
  5
75
330
1E
100
AcDbEntity
  8
0
100
AcDbLine
 10
12.2118
 20
112.881
 30
0.0
 11
17.9294
 21
112.2779999999999
 31
0.0
  0
LINE
  5
76
330
1E
100
AcDbEntity
  8
0
100
AcDbLine
 10
12.51759999999999
 20
114.27
 30
0.0
 11
18.07058999999999
 21
113.686
 31
0.0
  0
LINE
  5
77
330
1E
100
AcDbEntity
  8
0
100
AcDbLine
 10
12.0471
 20
114.9629999999999
 30
0.0
 11
17.78824
 21
114.354
 31
0.0
  0
LINE
  5
78
330
1E
100
AcDbEntity
  8
0
100
AcDbLine
 10
12.3294
 20
146.557
 30
0.0
 11
17.97647
 21
145.9489999999999
 31
0.0
  0
LINE
  5
79
330
1E
100
AcDbEntity
  8
0
100
AcDbLine
 10
7.341199999999999
 20
156.1309999999999
 30
0.0
 11
8.3765
 21
156.3189999999999
 31
0.0
  0
LINE
  5
7A
330
1E
100
AcDbEntity
  8
0
100
AcDbLine
 10
7.341199999999999
 20
156.1309999999999
 30
0.0
 11
9.282200110659859
 21
156.500662424347
 31
0.0
  0
LINE
  5
7B
330
1E
100
AcDbEntity
  8
0
100
AcDbLine
 10
8.3765
 20
156.3189999999999
 30
0.0
 11
12.9882
 21
157.244
 31
0.0
  0
LINE
  5
7C
330
1E
100
AcDbEntity
  8
0
100
AcDbLine
 10
13.02799999999999
 20
82.34160000000001
 30
0.0
 11
15.056
 21
79.7079
 31
0.0
  0
LINE
  5
7D
330
1E
100
AcDbEntity
  8
0
100
AcDbLine
 10
13.8529
 20
80.50629999999999
 30
0.0
 11
14.242372046805
 21
80.2141998595648
 31
0.0
  0
LINE
  5
7E
330
1E
100
AcDbEntity
  8
0
100
AcDbLine
 10
13.5441
 20
80.1975
 30
0.0
 11
16.63235
 21
77.8593
 31
0.0
  0
LINE
  5
7F
330
1E
100
AcDbEntity
  8
0
100
AcDbLine
 10
13.4118
 20
80.0652
 30
0.0
 11
16.54411999999999
 21
77.6828
 31
0.0
  0
LINE
  5
80
330
1E
100
AcDbEntity
  8
0
100
AcDbLine
 10
13.87199999999999
 20
81.88549999999999
 30
0.0
 11
15.744
 21
79.4543
 31
0.0
  0
LINE
  5
81
330
1E
100
AcDbEntity
  8
0
100
AcDbLine
 10
13.584
 20
81.7713
 30
0.0
 11
15.504
 21
79.24479999999999
 31
0.0
  0
LINE
  5
82
330
1E
100
AcDbEntity
  8
0
100
AcDbLine
 10
13.87199999999999
 20
93.4215
 30
0.0
 11
15.744
 21
95.85269999999999
 31
0.0
  0
LINE
  5
83
330
1E
100
AcDbEntity
  8
0
100
AcDbLine
 10
13.584
 20
94.50140000000001
 30
0.0
 11
15.504
 21
97.0279
 31
0.0
  0
LINE
  5
84
330
1E
100
AcDbEntity
  8
0
100
AcDbLine
 10
13.584
 20
93.59340000000001
 30
0.0
 11
15.504
 21
96.1199
 31
0.0
  0
LINE
  5
85
330
1E
100
AcDbEntity
  8
0
100
AcDbLine
 10
15.744
 20
79.4543
 30
0.0
 11
18.192
 21
77.59520000000001
 31
0.0
  0
LINE
  5
86
330
1E
100
AcDbEntity
  8
0
100
AcDbLine
 10
15.504
 20
79.24479999999999
 30
0.0
 11
18.048
 21
77.33800000000001
 31
0.0
  0
LINE
  5
87
330
1E
100
AcDbEntity
  8
0
100
AcDbLine
 10
16.63235
 20
77.8593
 30
0.0
 11
17.3631021998289
 21
77.5615842473924
 31
0.0
  0
LINE
  5
88
330
1E
100
AcDbEntity
  8
0
100
AcDbLine
 10
16.54411999999999
 20
77.6828
 30
0.0
 11
20.16179999999999
 21
76.1828
 31
0.0
  0
LINE
  5
89
330
1E
100
AcDbEntity
  8
0
100
AcDbLine
 10
15.744
 20
95.85269999999999
 30
0.0
 11
18.192
 21
97.71180000000001
 31
0.0
  0
LINE
  5
8A
330
1E
100
AcDbEntity
  8
0
100
AcDbLine
 10
15.504
 20
97.0279
 30
0.0
 11
18.048
 21
98.9347
 31
0.0
  0
LINE
  5
8B
330
1E
100
AcDbEntity
  8
0
100
AcDbLine
 10
15.504
 20
96.1199
 30
0.0
 11
18.048
 21
98.0267
 31
0.0
  0
LINE
  5
8C
330
1E
100
AcDbEntity
  8
0
100
AcDbLine
 10
15.056
 20
79.7079
 30
0.0
 11
15.2831961304614
 21
79.53535259186939
 31
0.0
  0
LINE
  5
8D
330
1E
100
AcDbEntity
  8
0
100
AcDbLine
 10
17.552
 20
77.42
 30
0.0
 11
20.67199999999999
 21
76.18059999999999
 31
0.0
  0
LINE
  5
8E
330
1E
100
AcDbEntity
  8
0
100
AcDbLine
 10
14.796
 20
79.4857
 30
0.0
 11
17.552
 21
77.42
 31
0.0
  0
LINE
  5
8F
330
1E
100
AcDbEntity
  8
0
100
AcDbLine
 10
15.056
 20
97.47280000000001
 30
0.0
 11
17.70799999999999
 21
99.48680000000001
 31
0.0
  0
LINE
  5
90
330
1E
100
AcDbEntity
  8
0
100
AcDbLine
 10
13.02799999999999
 20
94.839
 30
0.0
 11
15.056
 21
97.47280000000001
 31
0.0
  0
LINE
  5
91
330
1E
100
AcDbEntity
  8
0
100
AcDbLine
 10
13.8529
 20
100.8
 30
0.0
 11
16.85294
 21
103.0499999999999
 31
0.0
  0
LINE
  5
92
330
1E
100
AcDbEntity
  8
0
100
AcDbLine
 10
13.5441
 20
101.109
 30
0.0
 11
16.63235
 21
103.447
 31
0.0
  0
LINE
  5
93
330
1E
100
AcDbEntity
  8
0
100
AcDbLine
 10
17.70799999999999
 20
99.48680000000001
 30
0.0
 11
20.724
 21
100.726
 31
0.0
  0
LINE
  5
94
330
1E
100
AcDbEntity
  8
0
100
AcDbLine
 10
16.85294
 20
103.0499999999999
 30
0.0
 11
20.29409999999999
 21
104.462
 31
0.0
  0
LINE
  5
95
330
1E
100
AcDbEntity
  8
0
100
AcDbLine
 10
16.63235
 20
103.447
 30
0.0
 11
20.20589999999999
 21
104.9029999999999
 31
0.0
  0
LINE
  5
96
330
1E
100
AcDbEntity
  8
0
100
AcDbLine
 10
17.730280872958
 20
100.7687980774339
 30
0.0
 11
18.048
 21
101.007
 31
0.0
  0
LINE
  5
97
330
1E
100
AcDbEntity
  8
0
100
AcDbLine
 10
17.552
 20
100.6979999999999
 30
0.0
 11
20.67199999999999
 21
101.937
 31
0.0
  0
LINE
  5
98
330
1E
100
AcDbEntity
  8
0
100
AcDbLine
 10
17.552
 20
99.8327
 30
0.0
 11
20.67199999999999
 21
101.072
 31
0.0
  0
LINE
  5
99
330
1E
100
AcDbEntity
  8
0
100
AcDbLine
 10
14.796
 20
98.63179999999999
 30
0.0
 11
17.552
 21
100.6979999999999
 31
0.0
  0
LINE
  5
9A
330
1E
100
AcDbEntity
  8
0
100
AcDbLine
 10
14.796
 20
97.76700000000001
 30
0.0
 11
17.552
 21
99.8327
 31
0.0
  0
LINE
  5
9B
330
1E
100
AcDbEntity
  8
0
100
AcDbLine
 10
17.85879999999999
 20
-0.000000000000005
 30
0.0
 11
24.0
 21
-0.000000000000005
 31
0.0
  0
LINE
  5
9C
330
1E
100
AcDbEntity
  8
0
100
AcDbLine
 10
18.048
 20
77.33800000000001
 30
0.0
 11
20.92799999999999
 21
76.1939
 31
0.0
  0
LINE
  5
9D
330
1E
100
AcDbEntity
  8
0
100
AcDbLine
 10
18.048
 20
101.007
 30
0.0
 11
20.92799999999999
 21
102.151
 31
0.0
  0
LINE
  5
9E
330
1E
100
AcDbEntity
  8
0
100
AcDbLine
 10
18.048
 20
98.9347
 30
0.0
 11
20.92799999999999
 21
100.0789999999999
 31
0.0
  0
LINE
  5
9F
330
1E
100
AcDbEntity
  8
0
100
AcDbLine
 10
20.16179999999999
 20
76.1828
 30
0.0
 11
24.0
 21
75.6534
 31
0.0
  0
LINE
  5
A0
330
1E
100
AcDbEntity
  8
0
100
AcDbLine
 10
18.192
 20
77.59520000000001
 30
0.0
 11
20.97599999999999
 21
76.45109999999999
 31
0.0
  0
LINE
  5
A1
330
1E
100
AcDbEntity
  8
0
100
AcDbLine
 10
18.192
 20
97.71180000000001
 30
0.0
 11
20.97599999999999
 21
98.8559
 31
0.0
  0
LINE
  5
A2
330
1E
100
AcDbEntity
  8
0
100
AcDbLine
 10
18.048
 20
98.0267
 30
0.0
 11
20.92799999999999
 21
99.1707
 31
0.0
  0
LINE
  5
A3
330
1E
100
AcDbEntity
  8
0
100
AcDbLine
 10
20.67199999999999
 20
76.18059999999999
 30
0.0
 11
24.0
 21
75.7158
 31
0.0
  0
LINE
  5
A4
330
1E
100
AcDbEntity
  8
0
100
AcDbLine
 10
20.97599999999999
 20
76.45109999999999
 30
0.0
 11
24.0
 21
76.02209999999999
 31
0.0
  0
LINE
  5
A5
330
1E
100
AcDbEntity
  8
0
100
AcDbLine
 10
20.92799999999999
 20
76.1939
 30
0.0
 11
24.0
 21
75.76489999999999
 31
0.0
  0
LINE
  5
A6
330
1E
100
AcDbEntity
  8
0
100
AcDbLine
 10
20.97599999999999
 20
98.8559
 30
0.0
 11
24.0
 21
99.2849
 31
0.0
  0
LINE
  5
A7
330
1E
100
AcDbEntity
  8
0
100
AcDbLine
 10
20.92799999999999
 20
100.0789999999999
 30
0.0
 11
24.0
 21
100.5079999999999
 31
0.0
  0
LINE
  5
A8
330
1E
100
AcDbEntity
  8
0
100
AcDbLine
 10
20.92799999999999
 20
99.1707
 30
0.0
 11
24.0
 21
99.59980000000001
 31
0.0
  0
LINE
  5
A9
330
1E
100
AcDbEntity
  8
0
100
AcDbLine
 10
20.724
 20
100.726
 30
0.0
 11
24.0
 21
101.191
 31
0.0
  0
LINE
  5
AA
330
1E
100
AcDbEntity
  8
0
100
AcDbLine
 10
20.29409999999999
 20
104.462
 30
0.0
 11
24.0
 21
104.9919999999999
 31
0.0
  0
LINE
  5
AB
330
1E
100
AcDbEntity
  8
0
100
AcDbLine
 10
20.20589999999999
 20
104.9029999999999
 30
0.0
 11
24.0
 21
105.4329999999999
 31
0.0
  0
LINE
  5
AD
330
1E
100
AcDbEntity
  8
0
100
AcDbLine
 10
20.92799999999999
 20
102.151
 30
0.0
 11
24.0
 21
102.58
 31
0.0
  0
LINE
  5
AE
330
1E
100
AcDbEntity
  8
0
100
AcDbLine
 10
20.67199999999999
 20
101.937
 30
0.0
 11
24.0
 21
102.4019999999999
 31
0.0
  0
LINE
  5
AF
330
1E
100
AcDbEntity
  8
0
100
AcDbLine
 10
20.67199999999999
 20
101.072
 30
0.0
 11
24.0
 21
101.537
 31
0.0
  0
LINE
  5
B1
330
1E
100
AcDbEntity
  8
0
100
AcDbLine
 10
24.0
 20
75.6534
 30
0.0
 11
27.8382
 21
76.1828
 31
0.0
  0
LINE
  5
B2
330
1E
100
AcDbEntity
  8
0
100
AcDbLine
 10
24.0
 20
-0.000000000000005
 30
0.0
 11
30.1412
 21
-0.000000000000005
 31
0.0
  0
LINE
  5
B3
330
1E
100
AcDbEntity
  8
0
100
AcDbLine
 10
24.0
 20
76.02209999999999
 30
0.0
 11
27.024
 21
76.45109999999999
 31
0.0
  0
LINE
  5
B4
330
1E
100
AcDbEntity
  8
0
100
AcDbLine
 10
24.0
 20
75.76489999999999
 30
0.0
 11
27.072
 21
76.1939
 31
0.0
  0
LINE
  5
B5
330
1E
100
AcDbEntity
  8
0
100
AcDbLine
 10
24.0
 20
99.2849
 30
0.0
 11
27.024
 21
98.8559
 31
0.0
  0
LINE
  5
B6
330
1E
100
AcDbEntity
  8
0
100
AcDbLine
 10
24.0
 20
100.5079999999999
 30
0.0
 11
27.072
 21
100.0789999999999
 31
0.0
  0
LINE
  5
B7
330
1E
100
AcDbEntity
  8
0
100
AcDbLine
 10
24.0
 20
99.59980000000001
 30
0.0
 11
27.072
 21
99.1707
 31
0.0
  0
LINE
  5
B8
330
1E
100
AcDbEntity
  8
0
100
AcDbLine
 10
24.0
 20
75.7158
 30
0.0
 11
27.328
 21
76.18059999999999
 31
0.0
  0
LINE
  5
B9
330
1E
100
AcDbEntity
  8
0
100
AcDbLine
 10
24.0
 20
101.191
 30
0.0
 11
27.276
 21
100.726
 31
0.0
  0
LINE
  5
BA
330
1E
100
AcDbEntity
  8
0
100
AcDbLine
 10
24.0
 20
101.537
 30
0.0
 11
27.328
 21
101.072
 31
0.0
  0
LINE
  5
BB
330
1E
100
AcDbEntity
  8
0
100
AcDbLine
 10
24.0
 20
104.9919999999999
 30
0.0
 11
27.7059
 21
104.462
 31
0.0
  0
LINE
  5
BC
330
1E
100
AcDbEntity
  8
0
100
AcDbLine
 10
24.0
 20
105.4329999999999
 30
0.0
 11
27.7941
 21
104.9029999999999
 31
0.0
  0
LINE
  5
BE
330
1E
100
AcDbEntity
  8
0
100
AcDbLine
 10
24.0
 20
113.466
 30
0.0
 11
29.92941
 21
113.686
 31
0.0
  0
LINE
  5
BF
330
1E
100
AcDbEntity
  8
0
100
AcDbLine
 10
24.0
 20
112.0589999999999
 30
0.0
 11
30.0706
 21
112.2779999999999
 31
0.0
  0
LINE
  5
C0
330
1E
100
AcDbEntity
  8
0
100
AcDbLine
 10
24.0
 20
102.58
 30
0.0
 11
27.072
 21
102.151
 31
0.0
  0
LINE
  5
C1
330
1E
100
AcDbEntity
  8
0
100
AcDbLine
 10
24.0
 20
102.4019999999999
 30
0.0
 11
27.328
 21
101.937
 31
0.0
  0
LINE
  5
C2
330
1E
100
AcDbEntity
  8
0
100
AcDbLine
 10
17.9294
 20
112.2779999999999
 30
0.0
 11
24.0
 21
112.0589999999999
 31
0.0
  0
LINE
  5
C3
330
1E
100
AcDbEntity
  8
0
100
AcDbLine
 10
21.108
 20
123.4439999999999
 30
0.0
 11
21.396
 21
124.14
 31
0.0
  0
LINE
  5
C4
330
1E
100
AcDbEntity
  8
0
100
AcDbLine
 10
21.396
 20
124.14
 30
0.0
 11
21.87599999999999
 21
124.7539999999999
 31
0.0
  0
LINE
  5
C5
330
1E
100
AcDbEntity
  8
0
100
AcDbLine
 10
21.0
 20
122.7029999999999
 30
0.0
 11
21.108
 21
121.961
 31
0.0
  0
LINE
  5
C6
330
1E
100
AcDbEntity
  8
0
100
AcDbLine
 10
21.0
 20
122.7029999999999
 30
0.0
 11
21.108
 21
123.4439999999999
 31
0.0
  0
LINE
  5
C7
330
1E
100
AcDbEntity
  8
0
100
AcDbLine
 10
21.108
 20
121.961
 30
0.0
 11
21.396
 21
121.265
 31
0.0
  0
LINE
  5
C8
330
1E
100
AcDbEntity
  8
0
100
AcDbLine
 10
21.87599999999999
 20
124.7539999999999
 30
0.0
 11
22.51199999999999
 21
125.2179999999999
 31
0.0
  0
LINE
  5
C9
330
1E
100
AcDbEntity
  8
0
100
AcDbLine
 10
22.51199999999999
 20
125.2179999999999
 30
0.0
 11
23.23199999999999
 21
125.496
 31
0.0
  0
LINE
  5
CA
330
1E
100
AcDbEntity
  8
0
100
AcDbLine
 10
21.396
 20
121.265
 30
0.0
 11
21.87599999999999
 21
120.651
 31
0.0
  0
LINE
  5
CB
330
1E
100
AcDbEntity
  8
0
100
AcDbLine
 10
21.87599999999999
 20
120.651
 30
0.0
 11
22.51199999999999
 21
120.187
 31
0.0
  0
LINE
  5
CC
330
1E
100
AcDbEntity
  8
0
100
AcDbLine
 10
22.51199999999999
 20
120.187
 30
0.0
 11
23.23199999999999
 21
119.9089999999999
 31
0.0
  0
LINE
  5
CD
330
1E
100
AcDbEntity
  8
0
100
AcDbLine
 10
21.8
 20
141.1669999999999
 30
0.0
 11
22.8
 21
140.768
 31
0.0
  0
LINE
  5
CE
330
1E
100
AcDbEntity
  8
0
100
AcDbLine
 10
22.8
 20
140.768
 30
0.0
 11
24.0
 21
140.567
 31
0.0
  0
LINE
  5
CF
330
1E
100
AcDbEntity
  8
0
100
AcDbLine
 10
20.1
 20
142.866
 30
0.0
 11
20.8
 21
141.867
 31
0.0
  0
LINE
  5
D0
330
1E
100
AcDbEntity
  8
0
100
AcDbLine
 10
20.8
 20
141.867
 30
0.0
 11
21.8
 21
141.1669999999999
 31
0.0
  0
LINE
  5
D2
330
1E
100
AcDbEntity
  8
0
100
AcDbLine
 10
19.5
 20
145.0639999999999
 30
0.0
 11
19.69999999999999
 21
143.865
 31
0.0
  0
LINE
  5
D4
330
1E
100
AcDbEntity
  8
0
100
AcDbLine
 10
19.5
 20
145.0639999999999
 30
0.0
 11
19.69999999999999
 21
146.263
 31
0.0
  0
LINE
  5
D5
330
1E
100
AcDbEntity
  8
0
100
AcDbLine
 10
19.69999999999999
 20
143.865
 30
0.0
 11
20.1
 21
142.866
 31
0.0
  0
LINE
  5
D6
330
1E
100
AcDbEntity
  8
0
100
AcDbLine
 10
20.0
 20
145.083
 30
0.0
 11
20.1
 21
144.084
 31
0.0
  0
LINE
  5
D7
330
1E
100
AcDbEntity
  8
0
100
AcDbLine
 10
20.0
 20
145.083
 30
0.0
 11
20.1
 21
146.082
 31
0.0
  0
LINE
  5
D8
330
1E
100
AcDbEntity
  8
0
100
AcDbLine
 10
20.1
 20
144.084
 30
0.0
 11
20.5
 21
143.085
 31
0.0
  0
LINE
  5
D9
330
1E
100
AcDbEntity
  8
0
100
AcDbLine
 10
20.5
 20
143.085
 30
0.0
 11
21.1
 21
142.185
 31
0.0
  0
LINE
  5
DA
330
1E
100
AcDbEntity
  8
0
100
AcDbLine
 10
21.1
 20
142.185
 30
0.0
 11
22.0
 21
141.586
 31
0.0
  0
LINE
  5
DB
330
1E
100
AcDbEntity
  8
0
100
AcDbLine
 10
22.0
 20
141.586
 30
0.0
 11
23.0
 21
141.186
 31
0.0
  0
LINE
  5
DC
330
1E
100
AcDbEntity
  8
0
100
AcDbLine
 10
23.23199999999999
 20
125.496
 30
0.0
 11
24.0
 21
125.6
 31
0.0
  0
LINE
  5
DD
330
1E
100
AcDbEntity
  8
0
100
AcDbLine
 10
23.23199999999999
 20
119.9089999999999
 30
0.0
 11
24.0
 21
119.805
 31
0.0
  0
LINE
  5
DE
330
1E
100
AcDbEntity
  8
0
100
AcDbLine
 10
24.0
 20
119.805
 30
0.0
 11
24.768
 21
119.9089999999999
 31
0.0
  0
LINE
  5
DF
330
1E
100
AcDbEntity
  8
0
100
AcDbLine
 10
24.0
 20
125.6
 30
0.0
 11
24.768
 21
125.496
 31
0.0
  0
LINE
  5
E0
330
1E
100
AcDbEntity
  8
0
100
AcDbLine
 10
24.0
 20
114.135
 30
0.0
 11
30.21176
 21
114.354
 31
0.0
  0
LINE
  5
E1
330
1E
100
AcDbEntity
  8
0
100
AcDbLine
 10
24.0
 20
140.567
 30
0.0
 11
25.2
 21
140.768
 31
0.0
  0
LINE
  5
E2
330
1E
100
AcDbEntity
  8
0
100
AcDbLine
 10
24.0
 20
141.086
 30
0.0
 11
25.0
 21
141.186
 31
0.0
  0
LINE
  5
E3
330
1E
100
AcDbEntity
  8
0
100
AcDbLine
 10
23.0
 20
141.186
 30
0.0
 11
24.0
 21
141.086
 31
0.0
  0
LINE
  5
E4
330
1E
100
AcDbEntity
  8
0
100
AcDbLine
 10
18.07058999999999
 20
113.686
 30
0.0
 11
24.0
 21
113.466
 31
0.0
  0
LINE
  5
E5
330
1E
100
AcDbEntity
  8
0
100
AcDbLine
 10
17.78824
 20
114.354
 30
0.0
 11
24.0
 21
114.135
 31
0.0
  0
LINE
  5
E6
330
1E
100
AcDbEntity
  8
0
100
AcDbLine
 10
19.69999999999999
 20
146.263
 30
0.0
 11
20.1
 21
147.263
 31
0.0
  0
LINE
  5
E7
330
1E
100
AcDbEntity
  8
0
100
AcDbLine
 10
20.1
 20
146.082
 30
0.0
 11
20.5
 21
147.081
 31
0.0
  0
LINE
  5
E8
330
1E
100
AcDbEntity
  8
0
100
AcDbLine
 10
20.1
 20
147.263
 30
0.0
 11
20.8
 21
148.262
 31
0.0
  0
LINE
  5
E9
330
1E
100
AcDbEntity
  8
0
100
AcDbLine
 10
20.8
 20
148.262
 30
0.0
 11
21.8
 21
148.961
 31
0.0
  0
LINE
  5
EA
330
1E
100
AcDbEntity
  8
0
100
AcDbLine
 10
20.5
 20
147.081
 30
0.0
 11
21.1
 21
147.981
 31
0.0
  0
LINE
  5
EB
330
1E
100
AcDbEntity
  8
0
100
AcDbLine
 10
21.1
 20
147.981
 30
0.0
 11
22.0
 21
148.581
 31
0.0
  0
LINE
  5
EC
330
1E
100
AcDbEntity
  8
0
100
AcDbLine
 10
21.8
 20
148.961
 30
0.0
 11
22.8
 21
149.3619999999999
 31
0.0
  0
LINE
  5
ED
330
1E
100
AcDbEntity
  8
0
100
AcDbLine
 10
22.8
 20
149.3619999999999
 30
0.0
 11
24.0
 21
149.561
 31
0.0
  0
LINE
  5
EE
330
1E
100
AcDbEntity
  8
0
100
AcDbLine
 10
22.0
 20
148.581
 30
0.0
 11
23.0
 21
148.981
 31
0.0
  0
LINE
  5
EF
330
1E
100
AcDbEntity
  8
0
100
AcDbLine
 10
24.0
 20
149.561
 30
0.0
 11
25.2
 21
149.3619999999999
 31
0.0
  0
LINE
  5
F0
330
1E
100
AcDbEntity
  8
0
100
AcDbLine
 10
24.0
 20
149.08
 30
0.0
 11
25.0
 21
148.981
 31
0.0
  0
LINE
  5
F1
330
1E
100
AcDbEntity
  8
0
100
AcDbLine
 10
23.0
 20
148.981
 30
0.0
 11
24.0
 21
149.08
 31
0.0
  0
LINE
  5
F2
330
1E
100
AcDbEntity
  8
0
100
AcDbLine
 10
17.97647
 20
145.9489999999999
 30
0.0
 11
19.63750347848
 21
145.888333353488
 31
0.0
  0
LINE
  5
F3
330
1E
100
AcDbEntity
  8
0
100
AcDbLine
 10
12.9882
 20
157.244
 30
0.0
 11
18.35294
 21
157.781
 31
0.0
  0
LINE
  5
F4
330
1E
100
AcDbEntity
  8
0
100
AcDbLine
 10
24.0
 20
158.0
 30
0.0
 11
29.64705999999999
 21
157.781
 31
0.0
  0
LINE
  5
F5
330
1E
100
AcDbEntity
  8
0
100
AcDbLine
 10
18.35294
 20
157.781
 30
0.0
 11
24.0
 21
158.0
 31
0.0
  0
LINE
  5
F6
330
1E
100
AcDbEntity
  8
0
100
AcDbLine
 10
27.024
 20
76.45109999999999
 30
0.0
 11
29.808
 21
77.59520000000001
 31
0.0
  0
LINE
  5
F7
330
1E
100
AcDbEntity
  8
0
100
AcDbLine
 10
27.072
 20
76.1939
 30
0.0
 11
29.952
 21
77.33800000000001
 31
0.0
  0
LINE
  5
F8
330
1E
100
AcDbEntity
  8
0
100
AcDbLine
 10
27.8382
 20
76.1828
 30
0.0
 11
31.45588
 21
77.6828
 31
0.0
  0
LINE
  5
F9
330
1E
100
AcDbEntity
  8
0
100
AcDbLine
 10
30.1412
 20
-0.000000000000005
 30
0.0
 11
35.9294
 21
-0.0000000000000052
 31
0.0
  0
LINE
  5
FA
330
1E
100
AcDbEntity
  8
0
100
AcDbLine
 10
29.952
 20
77.33800000000001
 30
0.0
 11
32.496
 21
79.24479999999999
 31
0.0
  0
LINE
  5
FB
330
1E
100
AcDbEntity
  8
0
100
AcDbLine
 10
27.328
 20
76.18059999999999
 30
0.0
 11
30.448
 21
77.42
 31
0.0
  0
LINE
  5
FC
330
1E
100
AcDbEntity
  8
0
100
AcDbLine
 10
30.6368978001711
 20
77.5615842473924
 30
0.0
 11
31.36765
 21
77.8593
 31
0.0
  0
LINE
  5
FD
330
1E
100
AcDbEntity
  8
0
100
AcDbLine
 10
31.36765
 20
77.8593
 30
0.0
 11
34.4559
 21
80.1975
 31
0.0
  0
LINE
  5
FE
330
1E
100
AcDbEntity
  8
0
100
AcDbLine
 10
31.45588
 20
77.6828
 30
0.0
 11
34.5882
 21
80.0652
 31
0.0
  0
LINE
  5
FF
330
1E
100
AcDbEntity
  8
0
100
AcDbLine
 10
29.808
 20
77.59520000000001
 30
0.0
 11
32.256
 21
79.4543
 31
0.0
  0
LINE
  5
100
330
1E
100
AcDbEntity
  8
0
100
AcDbLine
 10
32.256
 20
79.4543
 30
0.0
 11
34.128
 21
81.88549999999999
 31
0.0
  0
LINE
  5
101
330
1E
100
AcDbEntity
  8
0
100
AcDbLine
 10
32.496
 20
79.24479999999999
 30
0.0
 11
34.41599999999999
 21
81.7713
 31
0.0
  0
LINE
  5
102
330
1E
100
AcDbEntity
  8
0
100
AcDbLine
 10
32.7168038695386
 20
79.53535259186939
 30
0.0
 11
32.944
 21
79.7079
 31
0.0
  0
LINE
  5
103
330
1E
100
AcDbEntity
  8
0
100
AcDbLine
 10
32.944
 20
79.7079
 30
0.0
 11
34.972
 21
82.34160000000001
 31
0.0
  0
LINE
  5
104
330
1E
100
AcDbEntity
  8
0
100
AcDbLine
 10
30.448
 20
77.42
 30
0.0
 11
33.204
 21
79.4857
 31
0.0
  0
LINE
  5
105
330
1E
100
AcDbEntity
  8
0
100
AcDbLine
 10
33.75762795319499
 20
80.2141998595648
 30
0.0
 11
34.1471
 21
80.50629999999999
 31
0.0
  0
LINE
  5
106
330
1E
100
AcDbEntity
  8
0
100
AcDbLine
 10
34.1471
 20
80.50629999999999
 30
0.0
 11
36.3971
 21
83.5063
 31
0.0
  0
LINE
  5
107
330
1E
100
AcDbEntity
  8
0
100
AcDbLine
 10
34.4559
 20
80.1975
 30
0.0
 11
36.7941
 21
83.2857
 31
0.0
  0
LINE
  5
108
330
1E
100
AcDbEntity
  8
0
100
AcDbLine
 10
34.5882
 20
80.0652
 30
0.0
 11
36.9706
 21
83.1975
 31
0.0
  0
LINE
  5
109
330
1E
100
AcDbEntity
  8
0
100
AcDbLine
 10
35.9294
 20
-0.0000000000000052
 30
0.0
 11
40.9412
 21
-0.0000000000000054
 31
0.0
  0
LINE
  5
10A
330
1E
100
AcDbEntity
  8
0
100
AcDbLine
 10
34.128
 20
81.88549999999999
 30
0.0
 11
35.28
 21
84.6503
 31
0.0
  0
LINE
  5
10B
330
1E
100
AcDbEntity
  8
0
100
AcDbLine
 10
34.41599999999999
 20
81.7713
 30
0.0
 11
35.568
 21
84.6315
 31
0.0
  0
LINE
  5
10C
330
1E
100
AcDbEntity
  8
0
100
AcDbLine
 10
33.204
 20
79.4857
 30
0.0
 11
35.28399999999999
 21
82.22269999999999
 31
0.0
  0
LINE
  5
10D
330
1E
100
AcDbEntity
  8
0
100
AcDbLine
 10
35.28
 20
84.6503
 30
0.0
 11
35.71199999999999
 21
87.65349999999999
 31
0.0
  0
LINE
  5
10E
330
1E
100
AcDbEntity
  8
0
100
AcDbLine
 10
36.0
 20
88.5903
 30
0.0
 11
36.0
 21
87.6823
 31
0.0
  0
LINE
  5
10F
330
1E
100
AcDbEntity
  8
0
100
AcDbLine
 10
35.568
 20
84.6315
 30
0.0
 11
36.0
 21
87.6823
 31
0.0
  0
LINE
  5
110
330
1E
100
AcDbEntity
  8
0
100
AcDbLine
 10
35.28
 20
90.6567
 30
0.0
 11
35.71199999999999
 21
87.65349999999999
 31
0.0
  0
LINE
  5
111
330
1E
100
AcDbEntity
  8
0
100
AcDbLine
 10
35.568
 20
91.6412
 30
0.0
 11
36.0
 21
88.5903
 31
0.0
  0
LINE
  5
112
330
1E
100
AcDbEntity
  8
0
100
AcDbLine
 10
35.568
 20
90.7332
 30
0.0
 11
36.0
 21
87.6823
 31
0.0
  0
LINE
  5
113
330
1E
100
AcDbEntity
  8
0
100
AcDbLine
 10
36.0
 20
87.6823
 30
0.0
 11
36.0
 21
88.5903
 31
0.0
  0
LINE
  5
114
330
1E
100
AcDbEntity
  8
0
100
AcDbLine
 10
34.972
 20
82.34160000000001
 30
0.0
 11
36.21999999999999
 21
85.33689999999999
 31
0.0
  0
LINE
  5
115
330
1E
100
AcDbEntity
  8
0
100
AcDbLine
 10
36.3971
 20
83.5063
 30
0.0
 11
37.80879999999999
 21
86.9475
 31
0.0
  0
LINE
  5
116
330
1E
100
AcDbEntity
  8
0
100
AcDbLine
 10
36.21999999999999
 20
85.33689999999999
 30
0.0
 11
36.688
 21
88.5903
 31
0.0
  0
LINE
  5
117
330
1E
100
AcDbEntity
  8
0
100
AcDbLine
 10
35.28399999999999
 20
82.22269999999999
 30
0.0
 11
36.532
 21
85.3213
 31
0.0
  0
LINE
  5
118
330
1E
100
AcDbEntity
  8
0
100
AcDbLine
 10
36.532
 20
85.3213
 30
0.0
 11
37.0
 21
88.6264
 31
0.0
  0
LINE
  5
119
330
1E
100
AcDbEntity
  8
0
100
AcDbLine
 10
36.21999999999999
 20
91.8438
 30
0.0
 11
36.688
 21
88.5903
 31
0.0
  0
LINE
  5
11A
330
1E
100
AcDbEntity
  8
0
100
AcDbLine
 10
36.7941
 20
83.2857
 30
0.0
 11
38.25
 21
86.8593
 31
0.0
  0
LINE
  5
11B
330
1E
100
AcDbEntity
  8
0
100
AcDbLine
 10
36.9706
 20
83.1975
 30
0.0
 11
38.47059999999999
 21
86.8152
 31
0.0
  0
LINE
  5
11C
330
1E
100
AcDbEntity
  8
0
100
AcDbLine
 10
47.1529
 20
-0.0000000000000061
 30
0.0
 11
48.0
 21
-0.0000000000000065
 31
0.0
  0
LINE
  5
11D
330
1E
100
AcDbEntity
  8
0
100
AcDbLine
 10
48.0
 20
-0.0000000000000065
 30
0.0
 11
48.0
 21
117.585
 31
0.0
  0
LINE
  5
11E
330
1E
100
AcDbEntity
  8
0
100
AcDbLine
 10
47.1529
 20
-0.0000000000000069
 30
0.0
 11
48.0
 21
-0.0000000000000065
 31
0.0
  0
LINE
  5
11F
330
1E
100
AcDbEntity
  8
0
100
AcDbLine
 10
37.80879999999999
 20
86.9475
 30
0.0
 11
38.3382
 21
90.6534
 31
0.0
  0
LINE
  5
120
330
1E
100
AcDbEntity
  8
0
100
AcDbLine
 10
38.25
 20
86.8593
 30
0.0
 11
38.7794
 21
90.6534
 31
0.0
  0
LINE
  5
121
330
1E
100
AcDbEntity
  8
0
100
AcDbLine
 10
38.47059999999999
 20
86.8152
 30
0.0
 11
39.0
 21
90.6534
 31
0.0
  0
LINE
  5
122
330
1E
100
AcDbEntity
  8
0
100
AcDbLine
 10
40.9412
 20
-0.0000000000000054
 30
0.0
 11
44.7529
 21
-0.0000000000000057
 31
0.0
  0
LINE
  5
123
330
1E
100
AcDbEntity
  8
0
100
AcDbLine
 10
44.7529
 20
-0.0000000000000057
 30
0.0
 11
47.1529
 21
-0.0000000000000061
 31
0.0
  0
LINE
  5
124
330
1E
100
AcDbEntity
  8
0
100
AcDbLine
 10
37.0
 20
88.6264
 30
0.0
 11
37.0
 21
89.49110000000001
 31
0.0
  0
LINE
  5
125
330
1E
100
AcDbEntity
  8
0
100
AcDbLine
 10
39.0
 20
92.4327
 30
0.0
 11
39.0
 21
90.6534
 31
0.0
  0
LINE
  5
126
330
1E
100
AcDbEntity
  8
0
100
AcDbLine
 10
39.0
 20
90.6534
 30
0.0
 11
39.0
 21
92.4327
 31
0.0
  0
LINE
  5
127
330
1E
100
AcDbEntity
  8
0
100
AcDbLine
 10
37.0
 20
89.49110000000001
 30
0.0
 11
37.0
 21
88.6264
 31
0.0
  0
LINE
  5
128
330
1E
100
AcDbEntity
  8
0
100
AcDbLine
 10
36.532
 20
91.93150000000001
 30
0.0
 11
37.0
 21
88.6264
 31
0.0
  0
LINE
  5
129
330
1E
100
AcDbEntity
  8
0
100
AcDbLine
 10
34.128
 20
93.4215
 30
0.0
 11
35.28
 21
90.6567
 31
0.0
  0
LINE
  5
12A
330
1E
100
AcDbEntity
  8
0
100
AcDbLine
 10
32.256
 20
95.85269999999999
 30
0.0
 11
34.128
 21
93.4215
 31
0.0
  0
LINE
  5
12B
330
1E
100
AcDbEntity
  8
0
100
AcDbLine
 10
32.496
 20
97.0279
 30
0.0
 11
34.41599999999999
 21
94.50140000000001
 31
0.0
  0
LINE
  5
12C
330
1E
100
AcDbEntity
  8
0
100
AcDbLine
 10
32.496
 20
96.1199
 30
0.0
 11
34.41599999999999
 21
93.59340000000001
 31
0.0
  0
LINE
  5
12D
330
1E
100
AcDbEntity
  8
0
100
AcDbLine
 10
34.41599999999999
 20
94.50140000000001
 30
0.0
 11
35.568
 21
91.6412
 31
0.0
  0
LINE
  5
12E
330
1E
100
AcDbEntity
  8
0
100
AcDbLine
 10
34.41599999999999
 20
93.59340000000001
 30
0.0
 11
35.568
 21
90.7332
 31
0.0
  0
LINE
  5
12F
330
1E
100
AcDbEntity
  8
0
100
AcDbLine
 10
29.808
 20
97.71180000000001
 30
0.0
 11
32.256
 21
95.85269999999999
 31
0.0
  0
LINE
  5
130
330
1E
100
AcDbEntity
  8
0
100
AcDbLine
 10
32.944
 20
97.47280000000001
 30
0.0
 11
34.972
 21
94.839
 31
0.0
  0
LINE
  5
131
330
1E
100
AcDbEntity
  8
0
100
AcDbLine
 10
34.972
 20
94.839
 30
0.0
 11
36.21999999999999
 21
91.8438
 31
0.0
  0
LINE
  5
132
330
1E
100
AcDbEntity
  8
0
100
AcDbLine
 10
29.952
 20
98.0267
 30
0.0
 11
32.496
 21
96.1199
 31
0.0
  0
LINE
  5
133
330
1E
100
AcDbEntity
  8
0
100
AcDbLine
 10
33.204
 20
97.76700000000001
 30
0.0
 11
35.28399999999999
 21
95.03
 31
0.0
  0
LINE
  5
134
330
1E
100
AcDbEntity
  8
0
100
AcDbLine
 10
35.28399999999999
 20
95.03
 30
0.0
 11
36.532
 21
91.93150000000001
 31
0.0
  0
LINE
  5
135
330
1E
100
AcDbEntity
  8
0
100
AcDbLine
 10
27.024
 20
98.8559
 30
0.0
 11
29.808
 21
97.71180000000001
 31
0.0
  0
LINE
  5
136
330
1E
100
AcDbEntity
  8
0
100
AcDbLine
 10
27.072
 20
100.0789999999999
 30
0.0
 11
29.952
 21
98.9347
 31
0.0
  0
LINE
  5
137
330
1E
100
AcDbEntity
  8
0
100
AcDbLine
 10
27.072
 20
99.1707
 30
0.0
 11
29.952
 21
98.0267
 31
0.0
  0
LINE
  5
138
330
1E
100
AcDbEntity
  8
0
100
AcDbLine
 10
29.952
 20
98.9347
 30
0.0
 11
32.496
 21
97.0279
 31
0.0
  0
LINE
  5
139
330
1E
100
AcDbEntity
  8
0
100
AcDbLine
 10
29.952
 20
101.007
 30
0.0
 11
30.26971912704199
 21
100.7687980774339
 31
0.0
  0
LINE
  5
13A
330
1E
100
AcDbEntity
  8
0
100
AcDbLine
 10
27.276
 20
100.726
 30
0.0
 11
30.29199999999999
 21
99.48680000000001
 31
0.0
  0
LINE
  5
13B
330
1E
100
AcDbEntity
  8
0
100
AcDbLine
 10
30.29199999999999
 20
99.48680000000001
 30
0.0
 11
32.944
 21
97.47280000000001
 31
0.0
  0
LINE
  5
13C
330
1E
100
AcDbEntity
  8
0
100
AcDbLine
 10
27.328
 20
101.072
 30
0.0
 11
30.448
 21
99.8327
 31
0.0
  0
LINE
  5
13D
330
1E
100
AcDbEntity
  8
0
100
AcDbLine
 10
30.448
 20
99.8327
 30
0.0
 11
33.204
 21
97.76700000000001
 31
0.0
  0
LINE
  5
13E
330
1E
100
AcDbEntity
  8
0
100
AcDbLine
 10
24.768
 20
119.9089999999999
 30
0.0
 11
25.488
 21
120.187
 31
0.0
  0
LINE
  5
13F
330
1E
100
AcDbEntity
  8
0
100
AcDbLine
 10
24.768
 20
125.496
 30
0.0
 11
25.488
 21
125.2179999999999
 31
0.0
  0
LINE
  5
140
330
1E
100
AcDbEntity
  8
0
100
AcDbLine
 10
25.488
 20
120.187
 30
0.0
 11
26.124
 21
120.651
 31
0.0
  0
LINE
  5
141
330
1E
100
AcDbEntity
  8
0
100
AcDbLine
 10
26.604
 20
121.265
 30
0.0
 11
26.892
 21
121.961
 31
0.0
  0
LINE
  5
142
330
1E
100
AcDbEntity
  8
0
100
AcDbLine
 10
26.124
 20
120.651
 30
0.0
 11
26.604
 21
121.265
 31
0.0
  0
LINE
  5
143
330
1E
100
AcDbEntity
  8
0
100
AcDbLine
 10
26.892
 20
121.961
 30
0.0
 11
27.0
 21
122.7029999999999
 31
0.0
  0
LINE
  5
144
330
1E
100
AcDbEntity
  8
0
100
AcDbLine
 10
26.892
 20
123.4439999999999
 30
0.0
 11
27.0
 21
122.7029999999999
 31
0.0
  0
LINE
  5
145
330
1E
100
AcDbEntity
  8
0
100
AcDbLine
 10
26.604
 20
124.14
 30
0.0
 11
26.892
 21
123.4439999999999
 31
0.0
  0
LINE
  5
146
330
1E
100
AcDbEntity
  8
0
100
AcDbLine
 10
26.124
 20
124.7539999999999
 30
0.0
 11
26.604
 21
124.14
 31
0.0
  0
LINE
  5
147
330
1E
100
AcDbEntity
  8
0
100
AcDbLine
 10
25.488
 20
125.2179999999999
 30
0.0
 11
26.124
 21
124.7539999999999
 31
0.0
  0
LINE
  5
148
330
1E
100
AcDbEntity
  8
0
100
AcDbLine
 10
26.2
 20
141.1669999999999
 30
0.0
 11
27.2
 21
141.867
 31
0.0
  0
LINE
  5
149
330
1E
100
AcDbEntity
  8
0
100
AcDbLine
 10
25.2
 20
140.768
 30
0.0
 11
26.2
 21
141.1669999999999
 31
0.0
  0
LINE
  5
14A
330
1E
100
AcDbEntity
  8
0
100
AcDbLine
 10
26.0
 20
148.581
 30
0.0
 11
26.89999999999999
 21
147.981
 31
0.0
  0
LINE
  5
14B
330
1E
100
AcDbEntity
  8
0
100
AcDbLine
 10
25.2
 20
149.3619999999999
 30
0.0
 11
26.2
 21
148.961
 31
0.0
  0
LINE
  5
14C
330
1E
100
AcDbEntity
  8
0
100
AcDbLine
 10
25.0
 20
148.981
 30
0.0
 11
26.0
 21
148.581
 31
0.0
  0
LINE
  5
14D
330
1E
100
AcDbEntity
  8
0
100
AcDbLine
 10
26.2
 20
148.961
 30
0.0
 11
27.2
 21
148.262
 31
0.0
  0
LINE
  5
14E
330
1E
100
AcDbEntity
  8
0
100
AcDbLine
 10
26.89999999999999
 20
147.981
 30
0.0
 11
27.5
 21
147.081
 31
0.0
  0
LINE
  5
14F
330
1E
100
AcDbEntity
  8
0
100
AcDbLine
 10
26.89999999999999
 20
142.185
 30
0.0
 11
27.5
 21
143.085
 31
0.0
  0
LINE
  5
150
330
1E
100
AcDbEntity
  8
0
100
AcDbLine
 10
26.0
 20
141.586
 30
0.0
 11
26.89999999999999
 21
142.185
 31
0.0
  0
LINE
  5
151
330
1E
100
AcDbEntity
  8
0
100
AcDbLine
 10
25.0
 20
141.186
 30
0.0
 11
26.0
 21
141.586
 31
0.0
  0
LINE
  5
152
330
1E
100
AcDbEntity
  8
0
100
AcDbLine
 10
27.7059
 20
104.462
 30
0.0
 11
31.14705999999999
 21
103.0499999999999
 31
0.0
  0
LINE
  5
153
330
1E
100
AcDbEntity
  8
0
100
AcDbLine
 10
27.7941
 20
104.9029999999999
 30
0.0
 11
31.36765
 21
103.447
 31
0.0
  0
LINE
  5
155
330
1E
100
AcDbEntity
  8
0
100
AcDbLine
 10
27.2
 20
148.262
 30
0.0
 11
27.9
 21
147.263
 31
0.0
  0
LINE
  5
156
330
1E
100
AcDbEntity
  8
0
100
AcDbLine
 10
27.5
 20
147.081
 30
0.0
 11
27.9
 21
146.082
 31
0.0
  0
LINE
  5
157
330
1E
100
AcDbEntity
  8
0
100
AcDbLine
 10
27.2
 20
141.867
 30
0.0
 11
27.9
 21
142.866
 31
0.0
  0
LINE
  5
158
330
1E
100
AcDbEntity
  8
0
100
AcDbLine
 10
29.92941
 20
113.686
 30
0.0
 11
35.48239999999999
 21
114.27
 31
0.0
  0
LINE
  5
159
330
1E
100
AcDbEntity
  8
0
100
AcDbLine
 10
30.21176
 20
114.354
 30
0.0
 11
35.9529
 21
114.9629999999999
 31
0.0
  0
LINE
  5
15B
330
1E
100
AcDbEntity
  8
0
100
AcDbLine
 10
28.3
 20
143.865
 30
0.0
 11
28.5
 21
145.0639999999999
 31
0.0
  0
LINE
  5
15C
330
1E
100
AcDbEntity
  8
0
100
AcDbLine
 10
27.9
 20
142.866
 30
0.0
 11
28.3
 21
143.865
 31
0.0
  0
LINE
  5
15D
330
1E
100
AcDbEntity
  8
0
100
AcDbLine
 10
27.9
 20
147.263
 30
0.0
 11
28.3
 21
146.263
 31
0.0
  0
LINE
  5
15E
330
1E
100
AcDbEntity
  8
0
100
AcDbLine
 10
28.36249652152
 20
145.888333353488
 30
0.0
 11
30.02352999999999
 21
145.9489999999999
 31
0.0
  0
LINE
  5
15F
330
1E
100
AcDbEntity
  8
0
100
AcDbLine
 10
30.02352999999999
 20
145.9489999999999
 30
0.0
 11
35.6706
 21
146.557
 31
0.0
  0
LINE
  5
161
330
1E
100
AcDbEntity
  8
0
100
AcDbLine
 10
29.64705999999999
 20
157.781
 30
0.0
 11
35.0118
 21
157.244
 31
0.0
  0
LINE
  5
162
330
1E
100
AcDbEntity
  8
0
100
AcDbLine
 10
28.3
 20
146.263
 30
0.0
 11
28.5
 21
145.0639999999999
 31
0.0
  0
LINE
  5
163
330
1E
100
AcDbEntity
  8
0
100
AcDbLine
 10
27.9
 20
146.082
 30
0.0
 11
28.0
 21
145.083
 31
0.0
  0
LINE
  5
164
330
1E
100
AcDbEntity
  8
0
100
AcDbLine
 10
27.9
 20
144.084
 30
0.0
 11
28.0
 21
145.083
 31
0.0
  0
LINE
  5
165
330
1E
100
AcDbEntity
  8
0
100
AcDbLine
 10
27.5
 20
143.085
 30
0.0
 11
27.9
 21
144.084
 31
0.0
  0
LINE
  5
166
330
1E
100
AcDbEntity
  8
0
100
AcDbLine
 10
30.0706
 20
112.2779999999999
 30
0.0
 11
35.7882
 21
112.881
 31
0.0
  0
LINE
  5
167
330
1E
100
AcDbEntity
  8
0
100
AcDbLine
 10
27.072
 20
102.151
 30
0.0
 11
29.952
 21
101.007
 31
0.0
  0
LINE
  5
168
330
1E
100
AcDbEntity
  8
0
100
AcDbLine
 10
27.328
 20
101.937
 30
0.0
 11
30.448
 21
100.6979999999999
 31
0.0
  0
LINE
  5
169
330
1E
100
AcDbEntity
  8
0
100
AcDbLine
 10
31.14705999999999
 20
103.0499999999999
 30
0.0
 11
34.1471
 21
100.8
 31
0.0
  0
LINE
  5
16A
330
1E
100
AcDbEntity
  8
0
100
AcDbLine
 10
34.1471
 20
100.8
 30
0.0
 11
36.3971
 21
97.80050000000001
 31
0.0
  0
LINE
  5
16B
330
1E
100
AcDbEntity
  8
0
100
AcDbLine
 10
34.4559
 20
101.109
 30
0.0
 11
36.7941
 21
98.02100000000001
 31
0.0
  0
LINE
  5
16C
330
1E
100
AcDbEntity
  8
0
100
AcDbLine
 10
31.36765
 20
103.447
 30
0.0
 11
34.4559
 21
101.109
 31
0.0
  0
LINE
  5
16D
330
1E
100
AcDbEntity
  8
0
100
AcDbLine
 10
35.0118
 20
157.244
 30
0.0
 11
39.6235
 21
156.3189999999999
 31
0.0
  0
LINE
  5
16E
330
1E
100
AcDbEntity
  8
0
100
AcDbLine
 10
30.448
 20
100.6979999999999
 30
0.0
 11
33.204
 21
98.63179999999999
 31
0.0
  0
LINE
  5
16F
330
1E
100
AcDbEntity
  8
0
100
AcDbLine
 10
33.204
 20
98.63179999999999
 30
0.0
 11
35.28399999999999
 21
95.8948
 31
0.0
  0
LINE
  5
170
330
1E
100
AcDbEntity
  8
0
100
AcDbLine
 10
35.48239999999999
 20
114.27
 30
0.0
 11
40.2824
 21
115.2209999999999
 31
0.0
  0
LINE
  5
171
330
1E
100
AcDbEntity
  8
0
100
AcDbLine
 10
37.80879999999999
 20
94.3593
 30
0.0
 11
38.3382
 21
90.6534
 31
0.0
  0
LINE
  5
172
330
1E
100
AcDbEntity
  8
0
100
AcDbLine
 10
36.3971
 20
97.80050000000001
 30
0.0
 11
37.80879999999999
 21
94.3593
 31
0.0
  0
LINE
  5
173
330
1E
100
AcDbEntity
  8
0
100
AcDbLine
 10
36.7941
 20
98.02100000000001
 30
0.0
 11
38.25
 21
94.4475
 31
0.0
  0
LINE
  5
174
330
1E
100
AcDbEntity
  8
0
100
AcDbLine
 10
38.25
 20
94.4475
 30
0.0
 11
38.7794
 21
90.6534
 31
0.0
  0
LINE
  5
175
330
1E
100
AcDbEntity
  8
0
100
AcDbLine
 10
40.7294
 20
113.85
 30
0.0
 11
44.47059999999999
 21
115.1279999999999
 31
0.0
  0
LINE
  5
176
330
1E
100
AcDbEntity
  8
0
100
AcDbLine
 10
35.9529
 20
114.9629999999999
 30
0.0
 11
40.9412
 21
115.962
 31
0.0
  0
LINE
  5
177
330
1E
100
AcDbEntity
  8
0
100
AcDbLine
 10
35.7882
 20
112.881
 30
0.0
 11
40.7294
 21
113.85
 31
0.0
  0
LINE
  5
178
330
1E
100
AcDbEntity
  8
0
100
AcDbLine
 10
40.2824
 20
115.2209999999999
 30
0.0
 11
43.9529
 21
116.463
 31
0.0
  0
LINE
  5
179
330
1E
100
AcDbEntity
  8
0
100
AcDbLine
 10
40.65879999999999
 20
147.5079999999999
 30
0.0
 11
44.3294
 21
148.798
 31
0.0
  0
LINE
  5
17A
330
1E
100
AcDbEntity
  8
0
100
AcDbLine
 10
35.6706
 20
146.557
 30
0.0
 11
40.65879999999999
 21
147.5079999999999
 31
0.0
  0
LINE
  5
17B
330
1E
100
AcDbEntity
  8
0
100
AcDbLine
 10
43.9529
 20
116.463
 30
0.0
 11
46.21179999999999
 21
117.9
 31
0.0
  0
LINE
  5
17C
330
1E
100
AcDbEntity
  8
0
100
AcDbLine
 10
46.21179999999999
 20
117.9
 30
0.0
 11
47.1529
 21
118.7389999999999
 31
0.0
  0
LINE
  5
17D
330
1E
100
AcDbEntity
  8
0
100
AcDbLine
 10
44.79999999999999
 20
117.2529999999999
 30
0.0
 11
47.1529
 21
118.7389999999999
 31
0.0
  0
LINE
  5
17E
330
1E
100
AcDbEntity
  8
0
100
AcDbLine
 10
40.9412
 20
115.962
 30
0.0
 11
44.79999999999999
 21
117.2529999999999
 31
0.0
  0
LINE
  5
17F
330
1E
100
AcDbEntity
  8
0
100
AcDbLine
 10
46.68239999999999
 20
150.2599999999999
 30
0.0
 11
47.5294
 21
151.82
 31
0.0
  0
LINE
  5
180
330
1E
100
AcDbEntity
  8
0
100
AcDbLine
 10
44.3294
 20
148.798
 30
0.0
 11
46.68239999999999
 21
150.2599999999999
 31
0.0
  0
LINE
  5
181
330
1E
100
AcDbEntity
  8
0
100
AcDbLine
 10
46.68239999999999
 20
153.3779999999999
 30
0.0
 11
47.5294
 21
151.82
 31
0.0
  0
LINE
  5
182
330
1E
100
AcDbEntity
  8
0
100
AcDbLine
 10
44.3294
 20
154.8399999999999
 30
0.0
 11
46.68239999999999
 21
153.3779999999999
 31
0.0
  0
LINE
  5
183
330
1E
100
AcDbEntity
  8
0
100
AcDbLine
 10
40.65879999999999
 20
156.1309999999999
 30
0.0
 11
44.3294
 21
154.8399999999999
 31
0.0
  0
LINE
  5
184
330
1E
100
AcDbEntity
  8
0
100
AcDbLine
 10
38.7177998893402
 20
156.500662424347
 30
0.0
 11
40.65879999999999
 21
156.1309999999999
 31
0.0
  0
LINE
  5
185
330
1E
100
AcDbEntity
  8
0
100
AcDbLine
 10
39.6235
 20
156.3189999999999
 30
0.0
 11
40.65879999999999
 21
156.1309999999999
 31
0.0
  0
LINE
  5
186
330
1E
100
AcDbEntity
  8
0
100
AcDbLine
 10
48.0
 20
117.585
 30
0.0
 11
48.0
 21
0.0
 31
0.0
  0
LINE
  5
187
330
1E
100
AcDbEntity
  8
0
100
AcDbLine
 10
47.1529
 20
118.7389999999999
 30
0.0
 11
48.0
 21
120.347
 31
0.0
  0
LINE
  5
188
330
1E
100
AcDbEntity
  8
0
100
AcDbLine
 10
48.0
 20
120.347
 30
0.0
 11
48.0
 21
150.4509999999999
 31
0.0
  0
LINE
  5
189
330
1E
100
AcDbEntity
  8
0
100
AcDbLine
 10
48.0
 20
150.4509999999999
 30
0.0
 11
48.0
 21
120.347
 31
0.0
  0
LINE
  5
18A
330
1E
100
AcDbEntity
  8
0
100
AcDbLine
 10
47.5294
 20
151.82
 30
0.0
 11
48.0
 21
150.4509999999999
 31
0.0
  0
LINE
  5
18B
330
1E
100
AcDbEntity
  8
0
100
AcDbLine
 10
47.2681607131686
 20
118.9577926180789
 30
0.0
 11
48.0
 21
117.585
 31
0.0
  0
LINE
  5
18C
330
1E
100
AcDbEntity
  8
0
100
AcDbLine
 10
47.2480277987421
 20
118.919575493303
 30
0.0
 11
47.6471
 21
118.179
 31
0.0
  0
LINE
  5
18D
330
1E
100
AcDbEntity
  8
0
100
AcDbLine
 10
46.79999999999999
 20
116.608
 30
0.0
 11
47.6471
 21
118.179
 31
0.0
  0
LINE
  5
18E
330
1E
100
AcDbEntity
  8
0
100
AcDbLine
 10
44.47059999999999
 20
115.1279999999999
 30
0.0
 11
46.79999999999999
 21
116.608
 31
0.0
  0
LINE
  5
18F
330
1E
100
AcDbEntity
  8
0
100
AcDbLine
 10
35.28399999999999
 20
95.8948
 30
0.0
 11
36.532
 21
92.79619999999999
 31
0.0
  0
LINE
  5
190
330
1E
100
AcDbEntity
  8
0
100
AcDbLine
 10
36.532
 20
92.79619999999999
 30
0.0
 11
37.0
 21
89.49110000000001
 31
0.0
  0
LWPOLYLINE
  5
196
330
1E
100
AcDbEntity
  8
0
100
AcDbPolyline
 90
       13
 70
     0
 43
0.0
 10
9.0
 20
92.4327
 10
9.258583018172771
 20
94.62647937088389
 10
10.42105997441353
 20
98.18904372993035
 10
12.74601388689529
 20
101.5192672332936
 10
16.15594670271798
 20
104.3073612084412
 10
20.1083681998682
 20
105.8950255139685
 10
24.02204067056857
 20
106.4758785799139
 10
28.05196099096156
 20
105.8950255139685
 10
31.73313853261959
 20
104.2299141329818
 10
34.87182662260704
 20
101.712884551247
 10
37.23552956153866
 20
98.65372618268663
 10
38.70800104040768
 20
94.66520290861359
 10
39.0
 20
92.4327
  0
ENDSEC
  0
SECTION
  2
OBJECTS
  0
DICTIONARY
  5
C
330
0
100
AcDbDictionary
  3
ACAD_GROUP
350
D
  3
ACAD_LAYOUT
350
19
  3
ACAD_MLINESTYLE
350
16
  3
ACAD_PLOTSETTINGS
350
18
  3
ACAD_PLOTSTYLENAME
350
E
  3
ACDBHEADERROUNDTRIPXREC
350
19A
  3
ACDBVARIABLEDICTIONARY
350
197
  0
DICTIONARY
  5
1BC
330
1E
100
AcDbDictionary
280
     1
  3
ACAD_LAYOUTSELFREF
360
1BD
  0
DICTIONARY
  5
1BA
330
1A
100
AcDbDictionary
280
     1
  3
ACAD_LAYOUTSELFREF
360
1BB
  0
DICTIONARY
  5
D
102
{ACAD_REACTORS
330
C
102
}
330
C
100
AcDbDictionary
  0
DICTIONARY
  5
19
102
{ACAD_REACTORS
330
C
102
}
330
C
100
AcDbDictionary
  0
DICTIONARY
  5
16
102
{ACAD_REACTORS
330
C
102
}
330
C
100
AcDbDictionary
  3
STANDARD
350
17
  0
DICTIONARY
  5
18
102
{ACAD_REACTORS
330
C
102
}
330
C
100
AcDbDictionary
  0
ACDBDICTIONARYWDFLT
  5
E
102
{ACAD_REACTORS
330
C
102
}
330
C
100
AcDbDictionary
281
     1
  3
Normal
350
F
100
AcDbDictionaryWithDefault
340
F
  0
DICTIONARY
  5
19A
102
{ACAD_REACTORS
330
C
102
}
330
C
100
AcDbDictionary
  3
CEPSNTYPE
350
1A4
  3
FINGERPRINTGUID
350
1A5
  3
HYPERLINKBASE
350
19D
  3
INSUNITS
350
1A3
  3
LAYOUTDICT
350
19F
  3
LWETCUNION
350
1A2
  3
PLOTSETDICT
350
1A0
  3
PLOTSTYLNAMDICT
350
1A1
  3
PSVPSCALE
350
1A7
  3
PUCSBASE
350
1AA
  3
PUCSORGBACK
350
1B0
  3
PUCSORGBOTTOM
350
1AC
  3
PUCSORGFRONT
350
1AF
  3
PUCSORGLEFT
350
1AD
  3
PUCSORGRIGHT
350
1AE
  3
PUCSORGTOP
350
1AB
  3
PUCSORTHOREF
350
1A8
  3
PUCSORTHOVIEW
350
1A9
  3
STYLESHEET
350
19E
  3
TSTACKALIGN
350
19B
  3
TSTACKSIZE
350
19C
  3
UCSBASE
350
1B3
  3
UCSORGBACK
350
1B9
  3
UCSORGBOTTOM
350
1B5
  3
UCSORGFRONT
350
1B8
  3
UCSORGLEFT
350
1B6
  3
UCSORGRIGHT
350
1B7
  3
UCSORGTOP
350
1B4
  3
UCSORTHOREF
350
1B1
  3
UCSORTHOVIEW
350
1B2
  3
VERSIONGUID
350
1A6
  0
DICTIONARY
  5
197
102
{ACAD_REACTORS
330
C
102
}
330
C
100
AcDbDictionary
  3
DIMASSOC
350
198
  0
XRECORD
  5
1BD
102
{ACAD_REACTORS
330
1BC
102
}
330
1BC
100
AcDbXrecord
340
1E
  0
XRECORD
  5
1BB
102
{ACAD_REACTORS
330
1BA
102
}
330
1BA
100
AcDbXrecord
340
1A
  0
MLINESTYLE
  5
17
102
{ACAD_REACTORS
330
16
102
}
330
16
100
AcDbMlineStyle
  2
STANDARD
 70
     0
  3

 62
   256
 51
90.0
 52
90.0
 71
     2
 49
0.5
 62
   256
  6
BYLAYER
 49
-0.5
 62
   256
  6
BYLAYER
  0
ACDBPLACEHOLDER
  5
F
102
{ACAD_REACTORS
330
E
102
}
330
E
100
AcDbPlaceHolder
280
     0
  0
XRECORD
  5
1A4
102
{ACAD_REACTORS
330
19A
102
}
330
19A
100
AcDbXrecord
 90
        0
  0
XRECORD
  5
1A5
102
{ACAD_REACTORS
330
19A
102
}
330
19A
100
AcDbXrecord
  1
{A8D15502-986A-48AB-BC4C-91D1D4EBFABD}
  0
XRECORD
  5
19D
102
{ACAD_REACTORS
330
19A
102
}
330
19A
100
AcDbXrecord
  1

  0
XRECORD
  5
1A3
102
{ACAD_REACTORS
330
19A
102
}
330
19A
100
AcDbXrecord
 90
        0
  0
XRECORD
  5
19F
102
{ACAD_REACTORS
330
19A
102
}
330
19A
100
AcDbXrecord
340
19
  0
XRECORD
  5
1A2
102
{ACAD_REACTORS
330
19A
102
}
330
19A
100
AcDbXrecord
 90
    10781
  0
XRECORD
  5
1A0
102
{ACAD_REACTORS
330
19A
102
}
330
19A
100
AcDbXrecord
340
18
  0
XRECORD
  5
1A1
102
{ACAD_REACTORS
330
19A
102
}
330
19A
100
AcDbXrecord
340
E
  0
XRECORD
  5
1A7
102
{ACAD_REACTORS
330
19A
102
}
330
19A
100
AcDbXrecord
 40
0.0
  0
XRECORD
  5
1AA
102
{ACAD_REACTORS
330
19A
102
}
330
19A
100
AcDbXrecord
340
0
  0
XRECORD
  5
1B0
102
{ACAD_REACTORS
330
19A
102
}
330
19A
100
AcDbXrecord
 10
0.0
 20
0.0
 30
0.0
  0
XRECORD
  5
1AC
102
{ACAD_REACTORS
330
19A
102
}
330
19A
100
AcDbXrecord
 10
0.0
 20
0.0
 30
0.0
  0
XRECORD
  5
1AF
102
{ACAD_REACTORS
330
19A
102
}
330
19A
100
AcDbXrecord
 10
0.0
 20
0.0
 30
0.0
  0
XRECORD
  5
1AD
102
{ACAD_REACTORS
330
19A
102
}
330
19A
100
AcDbXrecord
 10
0.0
 20
0.0
 30
0.0
  0
XRECORD
  5
1AE
102
{ACAD_REACTORS
330
19A
102
}
330
19A
100
AcDbXrecord
 10
0.0
 20
0.0
 30
0.0
  0
XRECORD
  5
1AB
102
{ACAD_REACTORS
330
19A
102
}
330
19A
100
AcDbXrecord
 10
0.0
 20
0.0
 30
0.0
  0
XRECORD
  5
1A8
102
{ACAD_REACTORS
330
19A
102
}
330
19A
100
AcDbXrecord
340
0
  0
XRECORD
  5
1A9
102
{ACAD_REACTORS
330
19A
102
}
330
19A
100
AcDbXrecord
 70
     0
  0
XRECORD
  5
19E
102
{ACAD_REACTORS
330
19A
102
}
330
19A
100
AcDbXrecord
  1

  0
XRECORD
  5
19B
102
{ACAD_REACTORS
330
19A
102
}
330
19A
100
AcDbXrecord
 90
        1
  0
XRECORD
  5
19C
102
{ACAD_REACTORS
330
19A
102
}
330
19A
100
AcDbXrecord
 90
       70
  0
XRECORD
  5
1B3
102
{ACAD_REACTORS
330
19A
102
}
330
19A
100
AcDbXrecord
340
0
  0
XRECORD
  5
1B9
102
{ACAD_REACTORS
330
19A
102
}
330
19A
100
AcDbXrecord
 10
0.0
 20
0.0
 30
0.0
  0
XRECORD
  5
1B5
102
{ACAD_REACTORS
330
19A
102
}
330
19A
100
AcDbXrecord
 10
0.0
 20
0.0
 30
0.0
  0
XRECORD
  5
1B8
102
{ACAD_REACTORS
330
19A
102
}
330
19A
100
AcDbXrecord
 10
0.0
 20
0.0
 30
0.0
  0
XRECORD
  5
1B6
102
{ACAD_REACTORS
330
19A
102
}
330
19A
100
AcDbXrecord
 10
0.0
 20
0.0
 30
0.0
  0
XRECORD
  5
1B7
102
{ACAD_REACTORS
330
19A
102
}
330
19A
100
AcDbXrecord
 10
0.0
 20
0.0
 30
0.0
  0
XRECORD
  5
1B4
102
{ACAD_REACTORS
330
19A
102
}
330
19A
100
AcDbXrecord
 10
0.0
 20
0.0
 30
0.0
  0
XRECORD
  5
1B1
102
{ACAD_REACTORS
330
19A
102
}
330
19A
100
AcDbXrecord
340
0
  0
XRECORD
  5
1B2
102
{ACAD_REACTORS
330
19A
102
}
330
19A
100
AcDbXrecord
 70
     1
  0
XRECORD
  5
1A6
102
{ACAD_REACTORS
330
19A
102
}
330
19A
100
AcDbXrecord
  1
{9F499876-90C3-4B76-8E3B-5137F2A22682}
  0
DICTIONARYVAR
  5
198
102
{ACAD_REACTORS
330
197
102
}
330
197
100
DictionaryVariables
280
     0
  1
1
  0
ENDSEC
  0
EOF
