  0
SECTION
  2
HEADER
  9
$ACADVER
  1
AC1014
  9
$ACADMAINTVER
 70
     9
  9
$DWGCODEPAGE
  3
ANSI_1252
  9
$INSBASE
 10
0.0
 20
0.0
 30
0.0
  9
$EXTMIN
 10
0.0000000000000013
 20
0.147037
 30
0.0
  9
$EXTMAX
 10
48.0
 20
165.8529629999999
 30
0.0
  9
$LIMMIN
 10
0.0
 20
0.0
  9
$LIMMAX
 10
12.0
 20
9.0
  9
$ORTHOMODE
 70
     0
  9
$REGENMODE
 70
     1
  9
$FILLMODE
 70
     1
  9
$QTEXTMODE
 70
     0
  9
$MIRRTEXT
 70
     1
  9
$DRAGMODE
 70
     2
  9
$LTSCALE
 40
1.0
  9
$OSMODE
 70
    37
  9
$ATTMODE
 70
     1
  9
$TEXTSIZE
 40
0.2
  9
$TRACEWID
 40
0.05
  9
$TEXTSTYLE
  7
STANDARD
  9
$CLAYER
  8
0
  9
$CELTYPE
  6
CONTINUOUS
  9
$CECOLOR
 62
   256
  9
$CELTSCALE
 40
1.0
  9
$DELOBJ
 70
     1
  9
$DISPSILH
 70
     0
  9
$DIMSCALE
 40
1.0
  9
$DIMASZ
 40
0.18
  9
$DIMEXO
 40
0.0625
  9
$DIMDLI
 40
0.38
  9
$DIMRND
 40
0.0
  9
$DIMDLE
 40
0.0
  9
$DIMEXE
 40
0.18
  9
$DIMTP
 40
0.0
  9
$DIMTM
 40
0.0
  9
$DIMTXT
 40
0.18
  9
$DIMCEN
 40
0.09
  9
$DIMTSZ
 40
0.0
  9
$DIMTOL
 70
     0
  9
$DIMLIM
 70
     0
  9
$DIMTIH
 70
     1
  9
$DIMTOH
 70
     1
  9
$DIMSE1
 70
     0
  9
$DIMSE2
 70
     0
  9
$DIMTAD
 70
     0
  9
$DIMZIN
 70
     0
  9
$DIMBLK
  1

  9
$DIMASO
 70
     1
  9
$DIMSHO
 70
     1
  9
$DIMPOST
  1

  9
$DIMAPOST
  1

  9
$DIMALT
 70
     0
  9
$DIMALTD
 70
     2
  9
$DIMALTF
 40
25.4
  9
$DIMLFAC
 40
1.0
  9
$DIMTOFL
 70
     0
  9
$DIMTVP
 40
0.0
  9
$DIMTIX
 70
     0
  9
$DIMSOXD
 70
     0
  9
$DIMSAH
 70
     0
  9
$DIMBLK1
  1

  9
$DIMBLK2
  1

  9
$DIMSTYLE
  2
STANDARD
  9
$DIMCLRD
 70
     0
  9
$DIMCLRE
 70
     0
  9
$DIMCLRT
 70
     0
  9
$DIMTFAC
 40
1.0
  9
$DIMGAP
 40
0.09
  9
$DIMJUST
 70
     0
  9
$DIMSD1
 70
     0
  9
$DIMSD2
 70
     0
  9
$DIMTOLJ
 70
     1
  9
$DIMTZIN
 70
     0
  9
$DIMALTZ
 70
     0
  9
$DIMALTTZ
 70
     0
  9
$DIMFIT
 70
     3
  9
$DIMUPT
 70
     0
  9
$DIMUNIT
 70
     2
  9
$DIMDEC
 70
     4
  9
$DIMTDEC
 70
     4
  9
$DIMALTU
 70
     2
  9
$DIMALTTD
 70
     2
  9
$DIMTXSTY
  7
STANDARD
  9
$DIMAUNIT
 70
     0
  9
$LUNITS
 70
     2
  9
$LUPREC
 70
     4
  9
$SKETCHINC
 40
0.1
  9
$FILLETRAD
 40
0.0
  9
$AUNITS
 70
     0
  9
$AUPREC
 70
     0
  9
$MENU
  1
.
  9
$ELEVATION
 40
0.0
  9
$PELEVATION
 40
0.0
  9
$THICKNESS
 40
0.0
  9
$LIMCHECK
 70
     0
  9
$BLIPMODE
 70
     0
  9
$CHAMFERA
 40
0.0
  9
$CHAMFERB
 40
0.0
  9
$CHAMFERC
 40
0.0
  9
$CHAMFERD
 40
0.0
  9
$SKPOLY
 70
     0
  9
$TDCREATE
 40
2454700.540082094
  9
$TDUPDATE
 40
2454700.542083148
  9
$TDINDWG
 40
0.0020010532
  9
$TDUSRTIMER
 40
0.0020010532
  9
$USRTIMER
 70
     1
  9
$ANGBASE
 50
0.0
  9
$ANGDIR
 70
     0
  9
$PDMODE
 70
     0
  9
$PDSIZE
 40
0.0
  9
$PLINEWID
 40
0.0
  9
$COORDS
 70
     1
  9
$SPLFRAME
 70
     0
  9
$SPLINETYPE
 70
     6
  9
$SPLINESEGS
 70
     8
  9
$ATTDIA
 70
     0
  9
$ATTREQ
 70
     1
  9
$HANDLING
 70
 22529
  9
$HANDSEED
  5
196
  9
$SURFTAB1
 70
     6
  9
$SURFTAB2
 70
     6
  9
$SURFTYPE
 70
     6
  9
$SURFU
 70
     6
  9
$SURFV
 70
     6
  9
$UCSNAME
  2

  9
$UCSORG
 10
0.0
 20
0.0
 30
0.0
  9
$UCSXDIR
 10
1.0
 20
0.0
 30
0.0
  9
$UCSYDIR
 10
0.0
 20
1.0
 30
0.0
  9
$PUCSNAME
  2

  9
$PUCSORG
 10
0.0
 20
0.0
 30
0.0
  9
$PUCSXDIR
 10
1.0
 20
0.0
 30
0.0
  9
$PUCSYDIR
 10
0.0
 20
1.0
 30
0.0
  9
$USERI1
 70
     0
  9
$USERI2
 70
     0
  9
$USERI3
 70
     0
  9
$USERI4
 70
     0
  9
$USERI5
 70
     0
  9
$USERR1
 40
0.0
  9
$USERR2
 40
0.0
  9
$USERR3
 40
0.0
  9
$USERR4
 40
0.0
  9
$USERR5
 40
0.0
  9
$WORLDVIEW
 70
     1
  9
$SHADEDGE
 70
     3
  9
$SHADEDIF
 70
    70
  9
$TILEMODE
 70
     1
  9
$MAXACTVP
 70
    64
  9
$PINSBASE
 10
0.0
 20
0.0
 30
0.0
  9
$PLIMCHECK
 70
     0
  9
$PEXTMIN
 10
1.000000000000000E+20
 20
1.000000000000000E+20
 30
1.000000000000000E+20
  9
$PEXTMAX
 10
-1.000000000000000E+20
 20
-1.000000000000000E+20
 30
-1.000000000000000E+20
  9
$PLIMMIN
 10
0.0
 20
0.0
  9
$PLIMMAX
 10
12.0
 20
9.0
  9
$UNITMODE
 70
     0
  9
$VISRETAIN
 70
     1
  9
$PLINEGEN
 70
     0
  9
$PSLTSCALE
 70
     1
  9
$TREEDEPTH
 70
  3020
  9
$PICKSTYLE
 70
     1
  9
$CMLSTYLE
  2
STANDARD
  9
$CMLJUST
 70
     0
  9
$CMLSCALE
 40
1.0
  9
$PROXYGRAPHICS
 70
     1
  9
$MEASUREMENT
 70
     0
  0
ENDSEC
  0
SECTION
  2
CLASSES
  0
CLASS
  1
ACDBDICTIONARYWDFLT
  2
AcDbDictionaryWithDefault
  3
AutoCAD 2000
 90
        0
280
     0
281
     0
  0
CLASS
  1
ACDBPLACEHOLDER
  2
AcDbPlaceHolder
  3
AutoCAD 2000
 90
        0
280
     0
281
     0
  0
CLASS
  1
LAYOUT
  2
AcDbLayout
  3
AutoCAD 2000
 90
        0
280
     0
281
     0
  0
CLASS
  1
DICTIONARYVAR
  2
AcDbDictionaryVar
  3
AutoCAD 2000
 90
        0
280
     0
281
     0
  0
CLASS
  1
LONG_TRANSACTION
  2
AcDbLongTransaction
  3
AutoCAD 2000
 90
        0
280
     0
281
     0
  0
CLASS
  1
LWPOLYLINE
  2
AcDbPolyline
  3
AutoCAD 2000
 90
        0
280
     0
281
     1
  0
CLASS
  1
HATCH
  2
AcDbHatch
  3
AutoCAD 2000
 90
        0
280
     0
281
     1
  0
CLASS
  1
XRECORD
  2
AcDbXrecord
  3
AutoCAD 2000
 90
        0
280
     0
281
     0
  0
ENDSEC
  0
SECTION
  2
TABLES
  0
TABLE
  2
VPORT
  5
8
330
0
100
AcDbSymbolTable
 70
     2
  0
VPORT
  5
171
330
8
100
AcDbSymbolTableRecord
100
AcDbViewportTableRecord
  2
*ACTIVE
 70
     0
 10
0.0
 20
0.0
 11
1.0
 21
1.0
 12
24.0
 22
82.99999999999998
 13
0.0
 23
0.0
 14
1.0
 24
1.0
 15
0.0
 25
0.0
 16
0.0
 26
0.0
 36
1.0
 17
0.0
 27
0.0
 37
0.0
 40
166.9773269667518
 41
2.078104993597951
 42
50.0
 43
0.0
 44
0.0
 50
0.0
 51
0.0
 71
     0
 72
   100
 73
     1
 74
     3
 75
     0
 76
     0
 77
     0
 78
     0
  0
ENDTAB
  0
TABLE
  2
LTYPE
  5
5
330
0
100
AcDbSymbolTable
 70
     1
  0
LTYPE
  5
13
330
5
100
AcDbSymbolTableRecord
100
AcDbLinetypeTableRecord
  2
BYBLOCK
 70
     0
  3

 72
    65
 73
     0
 40
0.0
  0
LTYPE
  5
14
330
5
100
AcDbSymbolTableRecord
100
AcDbLinetypeTableRecord
  2
BYLAYER
 70
     0
  3

 72
    65
 73
     0
 40
0.0
  0
LTYPE
  5
15
330
5
100
AcDbSymbolTableRecord
100
AcDbLinetypeTableRecord
  2
CONTINUOUS
 70
     0
  3
Solid line
 72
    65
 73
     0
 40
0.0
  0
ENDTAB
  0
TABLE
  2
LAYER
  5
2
330
0
100
AcDbSymbolTable
 70
     1
  0
LAYER
  5
10
330
2
100
AcDbSymbolTableRecord
100
AcDbLayerTableRecord
  2
0
 70
     0
 62
     7
  6
CONTINUOUS
  0
ENDTAB
  0
TABLE
  2
STYLE
  5
3
330
0
100
AcDbSymbolTable
 70
     1
  0
STYLE
  5
11
330
3
100
AcDbSymbolTableRecord
100
AcDbTextStyleTableRecord
  2
STANDARD
 70
     0
 40
0.0
 41
1.0
 50
0.0
 71
     0
 42
0.2
  3
txt
  4

  0
ENDTAB
  0
TABLE
  2
VIEW
  5
6
330
0
100
AcDbSymbolTable
 70
     0
  0
ENDTAB
  0
TABLE
  2
UCS
  5
7
330
0
100
AcDbSymbolTable
 70
     0
  0
ENDTAB
  0
TABLE
  2
APPID
  5
9
330
0
100
AcDbSymbolTable
 70
     1
  0
APPID
  5
12
330
9
100
AcDbSymbolTableRecord
100
AcDbRegAppTableRecord
  2
ACAD
 70
     0
  0
ENDTAB
  0
TABLE
  2
DIMSTYLE
  5
A
330
0
100
AcDbSymbolTable
 70
     1
  0
DIMSTYLE
105
16B
330
A
100
AcDbSymbolTableRecord
100
AcDbDimStyleTableRecord
  2
STANDARD
 70
     0
  3

  4

  5

  6

  7

 40
1.0
 41
0.18
 42
0.0625
 43
0.38
 44
0.18
 45
0.0
 46
0.0
 47
0.0
 48
0.0
140
0.18
141
0.09
142
0.0
143
25.4
144
1.0
145
0.0
146
1.0
147
0.09
 71
     0
 72
     0
 73
     1
 74
     1
 75
     0
 76
     0
 77
     0
 78
     0
170
     0
171
     2
172
     0
173
     0
174
     0
175
     0
176
     0
177
     0
178
     0
270
     2
271
     4
272
     4
273
     2
274
     2
340
11
275
     0
280
     0
281
     0
282
     0
283
     1
284
     0
285
     0
286
     0
287
     3
288
     0
  0
ENDTAB
  0
TABLE
  2
BLOCK_RECORD
  5
1
330
0
100
AcDbSymbolTable
 70
     0
  0
BLOCK_RECORD
  5
1E
102
{ACAD_XDICTIONARY
360
194
102
}
330
1
100
AcDbSymbolTableRecord
100
AcDbBlockTableRecord
  2
*MODEL_SPACE
  0
BLOCK_RECORD
  5
1A
102
{ACAD_XDICTIONARY
360
192
102
}
330
1
100
AcDbSymbolTableRecord
100
AcDbBlockTableRecord
  2
*PAPER_SPACE
  0
ENDTAB
  0
ENDSEC
  0
SECTION
  2
BLOCKS
  0
BLOCK
  5
1F
330
1E
100
AcDbEntity
  8
0
100
AcDbBlockBegin
  2
*MODEL_SPACE
 70
     0
 10
0.0
 20
0.0
 30
0.0
  3
*MODEL_SPACE
  1

  0
ENDBLK
  5
20
330
1E
100
AcDbEntity
  8
0
100
AcDbBlockEnd
  0
BLOCK
  5
1B
330
1A
100
AcDbEntity
 67
     1
  8
0
100
AcDbBlockBegin
  2
*PAPER_SPACE
 70
     0
 10
0.0
 20
0.0
 30
0.0
  3
*PAPER_SPACE
  1

  0
ENDBLK
  5
1C
330
1A
100
AcDbEntity
 67
     1
  8
0
100
AcDbBlockEnd
  0
ENDSEC
  0
SECTION
  2
ENTITIES
  0
LINE
  5
22
330
1E
100
AcDbEntity
  8
0
100
AcDbLine
 10
0.8470999999999989
 20
80.80846300000001
 30
0.0
 11
3.2
 21
75.26286299999999
 31
0.0
  0
LINE
  5
23
330
1E
100
AcDbEntity
  8
0
100
AcDbLine
 10
0.8470999999999989
 20
80.80846300000001
 30
0.0
 11
3.2
 21
75.26286299999999
 31
0.0
  0
LINE
  5
24
330
1E
100
AcDbEntity
  8
0
100
AcDbLine
 10
1.3176
 20
80.62356300000001
 30
0.0
 11
3.670599999999999
 21
75.168963
 31
0.0
  0
LINE
  5
25
330
1E
100
AcDbEntity
  8
0
100
AcDbLine
 10
0.0000000000000013
 20
95.48596299999999
 30
0.0
 11
0.045045493386706
 21
95.17052755882351
 31
0.0
  0
LINE
  5
26
330
1E
100
AcDbEntity
  8
0
100
AcDbLine
 10
0.0000000000000013
 20
95.48596299999999
 30
0.0
 11
0.0450454933867059
 21
95.17052755882351
 31
0.0
  0
LINE
  5
27
330
1E
100
AcDbEntity
  8
0
100
AcDbLine
 10
0.0000000000000013
 20
95.48596299999999
 30
0.0
 11
0.0000000000000013
 21
127.2049629999999
 31
0.0
  0
LINE
  5
28
330
1E
100
AcDbEntity
  8
0
100
AcDbLine
 10
0.0000000000000013
 20
86.80866299999999
 30
0.0
 11
0.8470999999999989
 21
80.80846300000001
 31
0.0
  0
LINE
  5
29
330
1E
100
AcDbEntity
  8
0
100
AcDbLine
 10
0.0000000000000013
 20
86.80866299999999
 30
0.0
 11
0.0000000000000013
 21
94.874863
 31
0.0
  0
LINE
  5
2A
330
1E
100
AcDbEntity
  8
0
100
AcDbLine
 10
0.0000000000000013
 20
94.874863
 30
0.0
 11
0.0000000000000013
 21
86.80866299999999
 31
0.0
  0
LINE
  5
2B
330
1E
100
AcDbEntity
  8
0
100
AcDbLine
 10
0.0000000000000013
 20
94.874863
 30
0.0
 11
0.8470999999999989
 21
100.4349629999999
 31
0.0
  0
LINE
  5
2C
330
1E
100
AcDbEntity
  8
0
100
AcDbLine
 10
0.470600000000002
 20
86.44186299999999
 30
0.0
 11
1.3176
 21
92.26016300000001
 31
0.0
  0
LINE
  5
2D
330
1E
100
AcDbEntity
  8
0
100
AcDbLine
 10
0.470600000000002
 20
86.44186299999999
 30
0.0
 11
1.3176
 21
80.62356300000001
 31
0.0
  0
LINE
  5
2E
330
1E
100
AcDbEntity
  8
0
100
AcDbLine
 10
7.058799999999999
 20
70.444663
 30
0.0
 11
12.0471
 21
66.717363
 31
0.0
  0
LINE
  5
2F
330
1E
100
AcDbEntity
  8
0
100
AcDbLine
 10
3.2
 20
75.26286299999999
 30
0.0
 11
7.058799999999999
 21
70.444663
 31
0.0
  0
LINE
  5
30
330
1E
100
AcDbEntity
  8
0
100
AcDbLine
 10
1.3176
 20
80.62356300000001
 30
0.0
 11
3.670599999999999
 21
75.168963
 31
0.0
  0
LINE
  5
31
330
1E
100
AcDbEntity
  8
0
100
AcDbLine
 10
3.670599999999999
 20
75.168963
 30
0.0
 11
7.341199999999999
 21
70.350763
 31
0.0
  0
LINE
  5
32
330
1E
100
AcDbEntity
  8
0
100
AcDbLine
 10
7.341199999999999
 20
70.350763
 30
0.0
 11
12.3294
 21
66.805263
 31
0.0
  0
LINE
  5
33
330
1E
100
AcDbEntity
  8
0
100
AcDbLine
 10
1.3176
 20
92.26016300000001
 30
0.0
 11
3.670599999999999
 21
97.71476300000001
 31
0.0
  0
LINE
  5
34
330
1E
100
AcDbEntity
  8
0
100
AcDbLine
 10
1.3176
 20
92.26016300000001
 30
0.0
 11
3.670599999999999
 21
97.71476300000001
 31
0.0
  0
LINE
  5
35
330
1E
100
AcDbEntity
  8
0
100
AcDbLine
 10
0.8470999999999989
 20
100.4349629999999
 30
0.0
 11
3.2
 21
105.564963
 31
0.0
  0
LINE
  5
36
330
1E
100
AcDbEntity
  8
0
100
AcDbLine
 10
1.275632062520889
 20
101.36928637997
 30
0.0
 11
3.529399999999999
 21
106.7129629999999
 31
0.0
  0
LINE
  5
37
330
1E
100
AcDbEntity
  8
0
100
AcDbLine
 10
1.275632062520899
 20
101.36928637997
 30
0.0
 11
3.529399999999999
 21
106.7129629999999
 31
0.0
  0
LINE
  5
38
330
1E
100
AcDbEntity
  8
0
100
AcDbLine
 10
0.8470999999999989
 20
100.4349629999999
 30
0.0
 11
3.2
 21
105.564963
 31
0.0
  0
LINE
  5
39
330
1E
100
AcDbEntity
  8
0
100
AcDbLine
 10
3.2
 20
105.564963
 30
0.0
 11
7.058799999999999
 21
110.0169629999999
 31
0.0
  0
LINE
  5
3A
330
1E
100
AcDbEntity
  8
0
100
AcDbLine
 10
3.670599999999999
 20
97.71476300000001
 30
0.0
 11
7.341199999999999
 21
102.5329629999999
 31
0.0
  0
LINE
  5
3B
330
1E
100
AcDbEntity
  8
0
100
AcDbLine
 10
11.312
 20
9.463513
 30
0.0
 11
11.77999999999999
 21
9.079883
 31
0.0
  0
LINE
  5
3C
330
1E
100
AcDbEntity
  8
0
100
AcDbLine
 10
12.72
 20
1.164433999999999
 30
0.0
 11
13.87199999999999
 21
0.8384169999999999
 31
0.0
  0
LINE
  5
3D
330
1E
100
AcDbEntity
  8
0
100
AcDbLine
 10
13.87199999999999
 20
0.8384169999999999
 30
0.0
 11
15.744
 21
0.551747
 31
0.0
  0
LINE
  5
3E
330
1E
100
AcDbEntity
  8
0
100
AcDbLine
 10
13.584
 20
1.066014
 30
0.0
 11
15.504
 21
0.768103
 31
0.0
  0
LINE
  5
3F
330
1E
100
AcDbEntity
  8
0
100
AcDbLine
 10
12.288
 20
1.518554999999999
 30
0.0
 11
12.72
 21
1.164433999999999
 31
0.0
  0
LINE
  5
40
330
1E
100
AcDbEntity
  8
0
100
AcDbLine
 10
12.432
 20
1.403272999999999
 30
0.0
 11
13.584
 21
1.066014
 31
0.0
  0
LINE
  5
41
330
1E
100
AcDbEntity
  8
0
100
AcDbLine
 10
12.0
 20
1.763013
 30
0.0
 11
12.432
 21
1.403272999999999
 31
0.0
  0
LINE
  5
42
330
1E
100
AcDbEntity
  8
0
100
AcDbLine
 10
12.0
 20
1.763013
 30
0.0
 11
12.288
 21
1.518554999999999
 31
0.0
  0
LINE
  5
43
330
1E
100
AcDbEntity
  8
0
100
AcDbLine
 10
12.0
 20
1.763013
 30
0.0
 11
12.0
 21
9.017621942307689
 31
0.0
  0
LINE
  5
44
330
1E
100
AcDbEntity
  8
0
100
AcDbLine
 10
13.02799999999999
 20
8.726692999999999
 30
0.0
 11
15.056
 21
8.416133
 31
0.0
  0
LINE
  5
45
330
1E
100
AcDbEntity
  8
0
100
AcDbLine
 10
15.744
 20
0.551747
 30
0.0
 11
18.192
 21
0.332529
 31
0.0
  0
LINE
  5
46
330
1E
100
AcDbEntity
  8
0
100
AcDbLine
 10
15.504
 20
0.768103
 30
0.0
 11
18.048
 21
0.5432640000000001
 31
0.0
  0
LINE
  5
47
330
1E
100
AcDbEntity
  8
0
100
AcDbLine
 10
17.70799999999999
 20
8.178653
 30
0.0
 11
20.724
 21
8.032503
 31
0.0
  0
LINE
  5
48
330
1E
100
AcDbEntity
  8
0
100
AcDbLine
 10
15.056
 20
8.416133
 30
0.0
 11
17.70799999999999
 21
8.178653
 31
0.0
  0
LINE
  5
49
330
1E
100
AcDbEntity
  8
0
100
AcDbLine
 10
17.552
 20
8.447682999999999
 30
0.0
 11
20.67199999999999
 21
8.301542999999998
 31
0.0
  0
LINE
  5
4A
330
1E
100
AcDbEntity
  8
0
100
AcDbLine
 10
14.796
 20
8.691263000000001
 30
0.0
 11
17.552
 21
8.447682999999999
 31
0.0
  0
LINE
  5
4B
330
1E
100
AcDbEntity
  8
0
100
AcDbLine
 10
12.0
 20
9.017621942307689
 30
0.0
 11
12.0
 21
1.763013
 31
0.0
  0
LINE
  5
4C
330
1E
100
AcDbEntity
  8
0
100
AcDbLine
 10
11.77999999999999
 20
9.079883
 30
0.0
 11
13.02799999999999
 21
8.726692999999999
 31
0.0
  0
LINE
  5
4D
330
1E
100
AcDbEntity
  8
0
100
AcDbLine
 10
12.716
 20
9.014003
 30
0.0
 11
14.796
 21
8.691263000000001
 31
0.0
  0
LINE
  5
4E
330
1E
100
AcDbEntity
  8
0
100
AcDbLine
 10
11.468
 20
9.379362999999999
 30
0.0
 11
12.716
 21
9.014003
 31
0.0
  0
LINE
  5
4F
330
1E
100
AcDbEntity
  8
0
100
AcDbLine
 10
9.220599999999999
 20
29.812463
 30
0.0
 11
9.661799999999999
 21
29.504763
 31
0.0
  0
LINE
  5
50
330
1E
100
AcDbEntity
  8
0
100
AcDbLine
 10
9.220599999999999
 20
29.812463
 30
0.0
 11
9.75
 21
29.812463
 31
0.0
  0
LINE
  5
51
330
1E
100
AcDbEntity
  8
0
100
AcDbLine
 10
9.75
 20
29.812463
 30
0.0
 11
11.20589999999999
 21
29.812463
 31
0.0
  0
LINE
  5
52
330
1E
100
AcDbEntity
  8
0
100
AcDbLine
 10
10.1912
 20
29.504763
 30
0.0
 11
11.6029
 21
29.504763
 31
0.0
  0
LINE
  5
53
330
1E
100
AcDbEntity
  8
0
100
AcDbLine
 10
9.661799999999999
 20
29.504763
 30
0.0
 11
10.1912
 21
29.504763
 31
0.0
  0
LINE
  5
54
330
1E
100
AcDbEntity
  8
0
100
AcDbLine
 10
9.0
 20
30.427863
 30
0.0
 11
9.220599999999999
 21
29.812463
 31
0.0
  0
LINE
  5
55
330
1E
100
AcDbEntity
  8
0
100
AcDbLine
 10
9.0
 20
30.427863
 30
0.0
 11
9.0
 21
68.9941819222781
 31
0.0
  0
LINE
  5
56
330
1E
100
AcDbEntity
  8
0
100
AcDbLine
 10
17.552
 20
15.781463
 30
0.0
 11
20.67199999999999
 21
15.63536299999999
 31
0.0
  0
LINE
  5
57
330
1E
100
AcDbEntity
  8
0
100
AcDbLine
 10
17.70799999999999
 20
16.123563
 30
0.0
 11
20.724
 21
15.977463
 31
0.0
  0
LINE
  5
58
330
1E
100
AcDbEntity
  8
0
100
AcDbLine
 10
15.504
 20
16.41356299999999
 30
0.0
 11
18.048
 21
16.188763
 31
0.0
  0
LINE
  5
59
330
1E
100
AcDbEntity
  8
0
100
AcDbLine
 10
13.584
 20
16.711463
 30
0.0
 11
15.504
 21
16.41356299999999
 31
0.0
  0
LINE
  5
5A
330
1E
100
AcDbEntity
  8
0
100
AcDbLine
 10
15.056
 20
16.361063
 30
0.0
 11
17.70799999999999
 21
16.123563
 31
0.0
  0
LINE
  5
5B
330
1E
100
AcDbEntity
  8
0
100
AcDbLine
 10
13.02799999999999
 20
16.67166299999999
 30
0.0
 11
15.056
 21
16.361063
 31
0.0
  0
LINE
  5
5C
330
1E
100
AcDbEntity
  8
0
100
AcDbLine
 10
14.796
 20
16.02506299999999
 30
0.0
 11
17.552
 21
15.781463
 31
0.0
  0
LINE
  5
5D
330
1E
100
AcDbEntity
  8
0
100
AcDbLine
 10
12.716
 20
16.347763
 30
0.0
 11
14.796
 21
16.02506299999999
 31
0.0
  0
LINE
  5
5E
330
1E
100
AcDbEntity
  8
0
100
AcDbLine
 10
11.20589999999999
 20
29.812463
 30
0.0
 11
13.5441
 21
29.812463
 31
0.0
  0
LINE
  5
5F
330
1E
100
AcDbEntity
  8
0
100
AcDbLine
 10
11.6029
 20
29.504763
 30
0.0
 11
13.8529
 21
29.504763
 31
0.0
  0
LINE
  5
60
330
1E
100
AcDbEntity
  8
0
100
AcDbLine
 10
12.432
 20
17.048763
 30
0.0
 11
13.584
 21
16.711463
 31
0.0
  0
LINE
  5
61
330
1E
100
AcDbEntity
  8
0
100
AcDbLine
 10
15.744
 20
26.37286299999999
 30
0.0
 11
18.192
 21
26.153663
 31
0.0
  0
LINE
  5
62
330
1E
100
AcDbEntity
  8
0
100
AcDbLine
 10
13.87199999999999
 20
26.659563
 30
0.0
 11
15.744
 21
26.37286299999999
 31
0.0
  0
LINE
  5
63
330
1E
100
AcDbEntity
  8
0
100
AcDbLine
 10
15.504
 20
26.039163
 30
0.0
 11
18.048
 21
25.814363
 31
0.0
  0
LINE
  5
64
330
1E
100
AcDbEntity
  8
0
100
AcDbLine
 10
13.584
 20
26.337063
 30
0.0
 11
15.504
 21
26.039163
 31
0.0
  0
LINE
  5
65
330
1E
100
AcDbEntity
  8
0
100
AcDbLine
 10
13.5441
 20
29.812463
 30
0.0
 11
16.63235
 21
29.812463
 31
0.0
  0
LINE
  5
66
330
1E
100
AcDbEntity
  8
0
100
AcDbLine
 10
13.8529
 20
29.504763
 30
0.0
 11
16.85294
 21
29.504763
 31
0.0
  0
LINE
  5
67
330
1E
100
AcDbEntity
  8
0
100
AcDbLine
 10
16.63235
 20
29.812463
 30
0.0
 11
19.5
 21
29.812463
 31
0.0
  0
LINE
  5
68
330
1E
100
AcDbEntity
  8
0
100
AcDbLine
 10
16.85294
 20
29.504763
 30
0.0
 11
19.0
 21
29.504763
 31
0.0
  0
LINE
  5
69
330
1E
100
AcDbEntity
  8
0
100
AcDbLine
 10
16.85294
 20
29.504763
 30
0.0
 11
19.5
 21
29.504763
 31
0.0
  0
LINE
  5
6A
330
1E
100
AcDbEntity
  8
0
100
AcDbLine
 10
15.744
 20
28.306463
 30
0.0
 11
18.192
 21
28.525663
 31
0.0
  0
LINE
  5
6B
330
1E
100
AcDbEntity
  8
0
100
AcDbLine
 10
13.87199999999999
 20
28.019763
 30
0.0
 11
15.744
 21
28.306463
 31
0.0
  0
LINE
  5
6C
330
1E
100
AcDbEntity
  8
0
100
AcDbLine
 10
12.72
 20
27.693763
 30
0.0
 11
13.87199999999999
 21
28.019763
 31
0.0
  0
LINE
  5
6D
330
1E
100
AcDbEntity
  8
0
100
AcDbLine
 10
12.72
 20
26.98556299999999
 30
0.0
 11
13.87199999999999
 21
26.659563
 31
0.0
  0
LINE
  5
6E
330
1E
100
AcDbEntity
  8
0
100
AcDbLine
 10
12.288
 20
27.339663
 30
0.0
 11
12.72
 21
26.98556299999999
 31
0.0
  0
LINE
  5
6F
330
1E
100
AcDbEntity
  8
0
100
AcDbLine
 10
12.288
 20
27.339663
 30
0.0
 11
12.72
 21
27.693763
 31
0.0
  0
LINE
  5
70
330
1E
100
AcDbEntity
  8
0
100
AcDbLine
 10
12.432
 20
26.674363
 30
0.0
 11
13.584
 21
26.337063
 31
0.0
  0
LINE
  5
71
330
1E
100
AcDbEntity
  8
0
100
AcDbLine
 10
12.0
 20
27.034063
 30
0.0
 11
12.432
 21
26.674363
 31
0.0
  0
LINE
  5
72
330
1E
100
AcDbEntity
  8
0
100
AcDbLine
 10
12.0
 20
27.034063
 30
0.0
 11
12.0
 21
17.408463
 31
0.0
  0
LINE
  5
73
330
1E
100
AcDbEntity
  8
0
100
AcDbLine
 10
12.0
 20
27.034063
 30
0.0
 11
12.288
 21
27.339663
 31
0.0
  0
LINE
  5
74
330
1E
100
AcDbEntity
  8
0
100
AcDbLine
 10
12.0
 20
17.408463
 30
0.0
 11
12.432
 21
17.048763
 31
0.0
  0
LINE
  5
75
330
1E
100
AcDbEntity
  8
0
100
AcDbLine
 10
12.0
 20
17.408463
 30
0.0
 11
12.0
 21
27.034063
 31
0.0
  0
LINE
  5
76
330
1E
100
AcDbEntity
  8
0
100
AcDbLine
 10
11.77999999999999
 20
17.792063
 30
0.0
 11
12.0
 21
17.8543258205128
 31
0.0
  0
LINE
  5
77
330
1E
100
AcDbEntity
  8
0
100
AcDbLine
 10
11.77999999999999
 20
17.024863
 30
0.0
 11
13.02799999999999
 21
16.67166299999999
 31
0.0
  0
LINE
  5
78
330
1E
100
AcDbEntity
  8
0
100
AcDbLine
 10
11.312
 20
17.408463
 30
0.0
 11
11.77999999999999
 21
17.024863
 31
0.0
  0
LINE
  5
79
330
1E
100
AcDbEntity
  8
0
100
AcDbLine
 10
11.312
 20
17.408463
 30
0.0
 11
11.77999999999999
 21
17.792063
 31
0.0
  0
LINE
  5
7A
330
1E
100
AcDbEntity
  8
0
100
AcDbLine
 10
11.468
 20
16.713163
 30
0.0
 11
12.716
 21
16.347763
 31
0.0
  0
LINE
  5
7B
330
1E
100
AcDbEntity
  8
0
100
AcDbLine
 10
11.0
 20
17.10286299999999
 30
0.0
 11
11.468
 21
16.713163
 31
0.0
  0
LINE
  5
7C
330
1E
100
AcDbEntity
  8
0
100
AcDbLine
 10
11.0
 20
17.10286299999999
 30
0.0
 11
11.0
 21
9.769083
 31
0.0
  0
LINE
  5
7D
330
1E
100
AcDbEntity
  8
0
100
AcDbLine
 10
11.0
 20
17.10286299999999
 30
0.0
 11
11.312
 21
17.408463
 31
0.0
  0
LINE
  5
7E
330
1E
100
AcDbEntity
  8
0
100
AcDbLine
 10
11.0
 20
9.769083
 30
0.0
 11
11.468
 21
9.379362999999999
 31
0.0
  0
LINE
  5
7F
330
1E
100
AcDbEntity
  8
0
100
AcDbLine
 10
11.0
 20
9.769083
 30
0.0
 11
11.0
 21
17.10286299999999
 31
0.0
  0
LINE
  5
80
330
1E
100
AcDbEntity
  8
0
100
AcDbLine
 10
11.0
 20
9.769083
 30
0.0
 11
11.312
 21
9.463513
 31
0.0
  0
LINE
  5
81
330
1E
100
AcDbEntity
  8
0
100
AcDbLine
 10
17.78824
 20
64.444563
 30
0.0
 11
19.69999999999999
 21
64.1927499821114
 31
0.0
  0
LINE
  5
82
330
1E
100
AcDbEntity
  8
0
100
AcDbLine
 10
9.0
 20
68.9941819222781
 30
0.0
 11
9.0
 21
30.427863
 31
0.0
  0
LINE
  5
83
330
1E
100
AcDbEntity
  8
0
100
AcDbLine
 10
12.0471
 20
66.717363
 30
0.0
 11
17.78824
 21
64.444563
 31
0.0
  0
LINE
  5
84
330
1E
100
AcDbEntity
  8
0
100
AcDbLine
 10
12.3294
 20
66.805263
 30
0.0
 11
17.97647
 21
64.532463
 31
0.0
  0
LINE
  5
85
330
1E
100
AcDbEntity
  8
0
100
AcDbLine
 10
17.97647
 20
64.532463
 30
0.0
 11
20.2400509958421
 21
64.2250293833834
 31
0.0
  0
LINE
  5
86
330
1E
100
AcDbEntity
  8
0
100
AcDbLine
 10
7.341199999999999
 20
102.5329629999999
 30
0.0
 11
12.3294
 21
106.0789629999999
 31
0.0
  0
LINE
  5
87
330
1E
100
AcDbEntity
  8
0
100
AcDbLine
 10
3.529399999999999
 20
106.7129629999999
 30
0.0
 11
7.270599999999999
 21
111.4859629999999
 31
0.0
  0
LINE
  5
88
330
1E
100
AcDbEntity
  8
0
100
AcDbLine
 10
7.270599999999999
 20
111.4859629999999
 30
0.0
 11
12.2118
 21
115.0999629999999
 31
0.0
  0
LINE
  5
89
330
1E
100
AcDbEntity
  8
0
100
AcDbLine
 10
7.058799999999999
 20
110.0169629999999
 30
0.0
 11
12.0471
 21
113.4749629999999
 31
0.0
  0
LINE
  5
8A
330
1E
100
AcDbEntity
  8
0
100
AcDbLine
 10
0.8470999999999989
 20
133.4249629999999
 30
0.0
 11
3.2471
 21
139.6739629999999
 31
0.0
  0
LINE
  5
8B
330
1E
100
AcDbEntity
  8
0
100
AcDbLine
 10
0.8470999999999989
 20
133.4249629999999
 30
0.0
 11
3.2471
 21
139.6739629999999
 31
0.0
  0
LINE
  5
8C
330
1E
100
AcDbEntity
  8
0
100
AcDbLine
 10
3.2471
 20
139.6739629999999
 30
0.0
 11
7.058799999999999
 21
144.6859629999999
 31
0.0
  0
LINE
  5
8D
330
1E
100
AcDbEntity
  8
0
100
AcDbLine
 10
0.0000000000000013
 20
127.2049629999999
 30
0.0
 11
0.0000000000000013
 21
95.48596299999999
 31
0.0
  0
LINE
  5
8E
330
1E
100
AcDbEntity
  8
0
100
AcDbLine
 10
0.0000000000000013
 20
127.2049629999999
 30
0.0
 11
0.8470999999999989
 21
133.4249629999999
 31
0.0
  0
LINE
  5
8F
330
1E
100
AcDbEntity
  8
0
100
AcDbLine
 10
12.0706
 20
148.4979629999999
 30
0.0
 11
17.85879999999999
 21
150.8979629999999
 31
0.0
  0
LINE
  5
90
330
1E
100
AcDbEntity
  8
0
100
AcDbLine
 10
7.058799999999999
 20
144.6859629999999
 30
0.0
 11
12.0706
 21
148.4979629999999
 31
0.0
  0
LINE
  5
91
330
1E
100
AcDbEntity
  8
0
100
AcDbLine
 10
12.2118
 20
115.0999629999999
 30
0.0
 11
17.9294
 21
117.349963
 31
0.0
  0
LINE
  5
92
330
1E
100
AcDbEntity
  8
0
100
AcDbLine
 10
12.0471
 20
113.4749629999999
 30
0.0
 11
17.78824
 21
115.600963
 31
0.0
  0
LINE
  5
93
330
1E
100
AcDbEntity
  8
0
100
AcDbLine
 10
17.85879999999999
 20
150.8979629999999
 30
0.0
 11
21.53894
 21
151.4055313221519
 31
0.0
  0
LINE
  5
94
330
1E
100
AcDbEntity
  8
0
100
AcDbLine
 10
17.9294
 20
117.349963
 30
0.0
 11
24.0
 21
118.1679629999999
 31
0.0
  0
LINE
  5
95
330
1E
100
AcDbEntity
  8
0
100
AcDbLine
 10
17.78824
 20
115.600963
 30
0.0
 11
24.0
 21
116.3459629999999
 31
0.0
  0
LINE
  5
96
330
1E
100
AcDbEntity
  8
0
100
AcDbLine
 10
12.3294
 20
106.0789629999999
 30
0.0
 11
17.97647
 21
108.350963
 31
0.0
  0
LINE
  5
97
330
1E
100
AcDbEntity
  8
0
100
AcDbLine
 10
20.97599999999999
 20
0.197626
 30
0.0
 11
24.0
 21
0.147037
 31
0.0
  0
LINE
  5
98
330
1E
100
AcDbEntity
  8
0
100
AcDbLine
 10
18.192
 20
0.332529
 30
0.0
 11
20.97599999999999
 21
0.197626
 31
0.0
  0
LINE
  5
99
330
1E
100
AcDbEntity
  8
0
100
AcDbLine
 10
20.92799999999999
 20
0.40836
 30
0.0
 11
24.0
 21
0.357771
 31
0.0
  0
LINE
  5
9A
330
1E
100
AcDbEntity
  8
0
100
AcDbLine
 10
18.048
 20
0.5432640000000001
 30
0.0
 11
20.92799999999999
 21
0.40836
 31
0.0
  0
LINE
  5
9B
330
1E
100
AcDbEntity
  8
0
100
AcDbLine
 10
24.0
 20
0.147037
 30
0.0
 11
27.024
 21
0.197626
 31
0.0
  0
LINE
  5
9C
330
1E
100
AcDbEntity
  8
0
100
AcDbLine
 10
24.0
 20
0.357771
 30
0.0
 11
27.072
 21
0.40836
 31
0.0
  0
LINE
  5
9D
330
1E
100
AcDbEntity
  8
0
100
AcDbLine
 10
20.724
 20
8.032503
 30
0.0
 11
24.0
 21
7.977702999999999
 31
0.0
  0
LINE
  5
9E
330
1E
100
AcDbEntity
  8
0
100
AcDbLine
 10
20.67199999999999
 20
8.301542999999998
 30
0.0
 11
24.0
 21
8.246733
 31
0.0
  0
LINE
  5
9F
330
1E
100
AcDbEntity
  8
0
100
AcDbLine
 10
24.0
 20
7.977702999999999
 30
0.0
 11
27.276
 21
8.032503
 31
0.0
  0
LINE
  5
A0
330
1E
100
AcDbEntity
  8
0
100
AcDbLine
 10
24.0
 20
8.246733
 30
0.0
 11
27.328
 21
8.301542999999998
 31
0.0
  0
LINE
  5
A1
330
1E
100
AcDbEntity
  8
0
100
AcDbLine
 10
20.724
 20
15.977463
 30
0.0
 11
24.0
 21
15.922663
 31
0.0
  0
LINE
  5
A2
330
1E
100
AcDbEntity
  8
0
100
AcDbLine
 10
20.67199999999999
 20
15.63536299999999
 30
0.0
 11
24.0
 21
15.580563
 31
0.0
  0
LINE
  5
A3
330
1E
100
AcDbEntity
  8
0
100
AcDbLine
 10
24.0
 20
15.580563
 30
0.0
 11
27.328
 21
15.63536299999999
 31
0.0
  0
LINE
  5
A4
330
1E
100
AcDbEntity
  8
0
100
AcDbLine
 10
27.024
 20
0.197626
 30
0.0
 11
29.808
 21
0.332529
 31
0.0
  0
LINE
  5
A5
330
1E
100
AcDbEntity
  8
0
100
AcDbLine
 10
27.072
 20
0.40836
 30
0.0
 11
29.952
 21
0.5432640000000001
 31
0.0
  0
LINE
  5
A6
330
1E
100
AcDbEntity
  8
0
100
AcDbLine
 10
27.276
 20
8.032503
 30
0.0
 11
30.29199999999999
 21
8.178653
 31
0.0
  0
LINE
  5
A7
330
1E
100
AcDbEntity
  8
0
100
AcDbLine
 10
27.328
 20
8.301542999999998
 30
0.0
 11
30.448
 21
8.447682999999999
 31
0.0
  0
LINE
  5
A8
330
1E
100
AcDbEntity
  8
0
100
AcDbLine
 10
24.0
 20
15.922663
 30
0.0
 11
27.276
 21
15.977463
 31
0.0
  0
LINE
  5
A9
330
1E
100
AcDbEntity
  8
0
100
AcDbLine
 10
20.92799999999999
 20
16.053863
 30
0.0
 11
24.0
 21
16.003263
 31
0.0
  0
LINE
  5
AA
330
1E
100
AcDbEntity
  8
0
100
AcDbLine
 10
24.0
 20
16.003263
 30
0.0
 11
27.072
 21
16.053863
 31
0.0
  0
LINE
  5
AB
330
1E
100
AcDbEntity
  8
0
100
AcDbLine
 10
27.072
 20
16.053863
 30
0.0
 11
29.952
 21
16.188763
 31
0.0
  0
LINE
  5
AC
330
1E
100
AcDbEntity
  8
0
100
AcDbLine
 10
27.276
 20
15.977463
 30
0.0
 11
30.29199999999999
 21
16.123563
 31
0.0
  0
LINE
  5
AD
330
1E
100
AcDbEntity
  8
0
100
AcDbLine
 10
29.808
 20
0.332529
 30
0.0
 11
32.256
 21
0.551747
 31
0.0
  0
LINE
  5
AE
330
1E
100
AcDbEntity
  8
0
100
AcDbLine
 10
29.952
 20
0.5432640000000001
 30
0.0
 11
32.496
 21
0.768103
 31
0.0
  0
LINE
  5
AF
330
1E
100
AcDbEntity
  8
0
100
AcDbLine
 10
30.29199999999999
 20
8.178653
 30
0.0
 11
32.944
 21
8.416133
 31
0.0
  0
LINE
  5
B0
330
1E
100
AcDbEntity
  8
0
100
AcDbLine
 10
30.448
 20
8.447682999999999
 30
0.0
 11
33.204
 21
8.691263000000001
 31
0.0
  0
LINE
  5
B1
330
1E
100
AcDbEntity
  8
0
100
AcDbLine
 10
27.328
 20
15.63536299999999
 30
0.0
 11
30.448
 21
15.781463
 31
0.0
  0
LINE
  5
B2
330
1E
100
AcDbEntity
  8
0
100
AcDbLine
 10
18.048
 20
16.188763
 30
0.0
 11
20.92799999999999
 21
16.053863
 31
0.0
  0
LINE
  5
B3
330
1E
100
AcDbEntity
  8
0
100
AcDbLine
 10
29.952
 20
16.188763
 30
0.0
 11
32.496
 21
16.41356299999999
 31
0.0
  0
LINE
  5
B4
330
1E
100
AcDbEntity
  8
0
100
AcDbLine
 10
30.29199999999999
 20
16.123563
 30
0.0
 11
32.944
 21
16.361063
 31
0.0
  0
LINE
  5
B5
330
1E
100
AcDbEntity
  8
0
100
AcDbLine
 10
32.256
 20
0.551747
 30
0.0
 11
34.128
 21
0.8384169999999999
 31
0.0
  0
LINE
  5
B6
330
1E
100
AcDbEntity
  8
0
100
AcDbLine
 10
32.496
 20
0.768103
 30
0.0
 11
34.41599999999999
 21
1.066014
 31
0.0
  0
LINE
  5
B7
330
1E
100
AcDbEntity
  8
0
100
AcDbLine
 10
32.944
 20
8.416133
 30
0.0
 11
34.972
 21
8.726692999999999
 31
0.0
  0
LINE
  5
B8
330
1E
100
AcDbEntity
  8
0
100
AcDbLine
 10
33.204
 20
8.691263000000001
 30
0.0
 11
35.28399999999999
 21
9.014003
 31
0.0
  0
LINE
  5
B9
330
1E
100
AcDbEntity
  8
0
100
AcDbLine
 10
30.448
 20
15.781463
 30
0.0
 11
33.204
 21
16.02506299999999
 31
0.0
  0
LINE
  5
BA
330
1E
100
AcDbEntity
  8
0
100
AcDbLine
 10
32.496
 20
16.41356299999999
 30
0.0
 11
34.41599999999999
 21
16.711463
 31
0.0
  0
LINE
  5
BB
330
1E
100
AcDbEntity
  8
0
100
AcDbLine
 10
32.944
 20
16.361063
 30
0.0
 11
34.972
 21
16.67166299999999
 31
0.0
  0
LINE
  5
BC
330
1E
100
AcDbEntity
  8
0
100
AcDbLine
 10
34.128
 20
0.8384169999999999
 30
0.0
 11
35.28
 21
1.164433999999999
 31
0.0
  0
LINE
  5
BD
330
1E
100
AcDbEntity
  8
0
100
AcDbLine
 10
34.41599999999999
 20
1.066014
 30
0.0
 11
35.568
 21
1.403272999999999
 31
0.0
  0
LINE
  5
BE
330
1E
100
AcDbEntity
  8
0
100
AcDbLine
 10
35.28
 20
1.164433999999999
 30
0.0
 11
35.71199999999999
 21
1.518554999999999
 31
0.0
  0
LINE
  5
BF
330
1E
100
AcDbEntity
  8
0
100
AcDbLine
 10
34.972
 20
8.726692999999999
 30
0.0
 11
36.21999999999999
 21
9.079883
 31
0.0
  0
LINE
  5
C0
330
1E
100
AcDbEntity
  8
0
100
AcDbLine
 10
35.28399999999999
 20
9.014003
 30
0.0
 11
36.532
 21
9.379362999999999
 31
0.0
  0
LINE
  5
C1
330
1E
100
AcDbEntity
  8
0
100
AcDbLine
 10
33.204
 20
16.02506299999999
 30
0.0
 11
35.28399999999999
 21
16.347763
 31
0.0
  0
LINE
  5
C2
330
1E
100
AcDbEntity
  8
0
100
AcDbLine
 10
34.41599999999999
 20
16.711463
 30
0.0
 11
35.568
 21
17.048763
 31
0.0
  0
LINE
  5
C3
330
1E
100
AcDbEntity
  8
0
100
AcDbLine
 10
34.972
 20
16.67166299999999
 30
0.0
 11
36.21999999999999
 21
17.024863
 31
0.0
  0
LINE
  5
C4
330
1E
100
AcDbEntity
  8
0
100
AcDbLine
 10
36.0
 20
9.017621942307689
 30
0.0
 11
36.0
 21
1.763013
 31
0.0
  0
LINE
  5
C5
330
1E
100
AcDbEntity
  8
0
100
AcDbLine
 10
35.71199999999999
 20
1.518554999999999
 30
0.0
 11
36.0
 21
1.763013
 31
0.0
  0
LINE
  5
C6
330
1E
100
AcDbEntity
  8
0
100
AcDbLine
 10
36.0
 20
1.763013
 30
0.0
 11
36.0
 21
9.017621942307689
 31
0.0
  0
LINE
  5
C7
330
1E
100
AcDbEntity
  8
0
100
AcDbLine
 10
35.568
 20
1.403272999999999
 30
0.0
 11
36.0
 21
1.763013
 31
0.0
  0
LINE
  5
C8
330
1E
100
AcDbEntity
  8
0
100
AcDbLine
 10
36.21999999999999
 20
9.079883
 30
0.0
 11
36.688
 21
9.463513
 31
0.0
  0
LINE
  5
C9
330
1E
100
AcDbEntity
  8
0
100
AcDbLine
 10
36.532
 20
9.379362999999999
 30
0.0
 11
37.0
 21
9.769083
 31
0.0
  0
LINE
  5
CA
330
1E
100
AcDbEntity
  8
0
100
AcDbLine
 10
35.28399999999999
 20
16.347763
 30
0.0
 11
36.532
 21
16.713163
 31
0.0
  0
LINE
  5
CB
330
1E
100
AcDbEntity
  8
0
100
AcDbLine
 10
36.0
 20
17.408463
 30
0.0
 11
36.0
 21
27.034063
 31
0.0
  0
LINE
  5
CC
330
1E
100
AcDbEntity
  8
0
100
AcDbLine
 10
35.568
 20
17.048763
 30
0.0
 11
36.0
 21
17.408463
 31
0.0
  0
LINE
  5
CD
330
1E
100
AcDbEntity
  8
0
100
AcDbLine
 10
25.0
 20
23.12046299999999
 30
0.0
 11
26.0
 21
23.135463
 31
0.0
  0
LINE
  5
CE
330
1E
100
AcDbEntity
  8
0
100
AcDbLine
 10
24.0
 20
23.116663
 30
0.0
 11
25.0
 21
23.12046299999999
 31
0.0
  0
LINE
  5
CF
330
1E
100
AcDbEntity
  8
0
100
AcDbLine
 10
36.0
 20
17.8543258205128
 30
0.0
 11
36.21999999999999
 21
17.792063
 31
0.0
  0
LINE
  5
D0
330
1E
100
AcDbEntity
  8
0
100
AcDbLine
 10
36.21999999999999
 20
17.792063
 30
0.0
 11
36.688
 21
17.408463
 31
0.0
  0
LINE
  5
D1
330
1E
100
AcDbEntity
  8
0
100
AcDbLine
 10
36.21999999999999
 20
17.024863
 30
0.0
 11
36.688
 21
17.408463
 31
0.0
  0
LINE
  5
D2
330
1E
100
AcDbEntity
  8
0
100
AcDbLine
 10
37.0
 20
9.769083
 30
0.0
 11
37.0
 21
17.10286299999999
 31
0.0
  0
LINE
  5
D3
330
1E
100
AcDbEntity
  8
0
100
AcDbLine
 10
36.688
 20
9.463513
 30
0.0
 11
37.0
 21
9.769083
 31
0.0
  0
LINE
  5
D4
330
1E
100
AcDbEntity
  8
0
100
AcDbLine
 10
37.0
 20
17.10286299999999
 30
0.0
 11
37.0
 21
9.769083
 31
0.0
  0
LINE
  5
D5
330
1E
100
AcDbEntity
  8
0
100
AcDbLine
 10
36.688
 20
17.408463
 30
0.0
 11
37.0
 21
17.10286299999999
 31
0.0
  0
LINE
  5
D6
330
1E
100
AcDbEntity
  8
0
100
AcDbLine
 10
36.532
 20
16.713163
 30
0.0
 11
37.0
 21
17.10286299999999
 31
0.0
  0
LINE
  5
D7
330
1E
100
AcDbEntity
  8
0
100
AcDbLine
 10
19.18
 20
27.189763
 30
0.0
 11
19.5
 21
27.0960963333333
 31
0.0
  0
LINE
  5
D8
330
1E
100
AcDbEntity
  8
0
100
AcDbLine
 10
19.0
 20
29.504763
 30
0.0
 11
19.0
 21
27.339663
 31
0.0
  0
LINE
  5
D9
330
1E
100
AcDbEntity
  8
0
100
AcDbLine
 10
19.0
 20
27.339663
 30
0.0
 11
19.18
 21
27.189763
 31
0.0
  0
LINE
  5
DA
330
1E
100
AcDbEntity
  8
0
100
AcDbLine
 10
19.0
 20
27.339663
 30
0.0
 11
19.0
 21
29.504763
 31
0.0
  0
LINE
  5
DB
330
1E
100
AcDbEntity
  8
0
100
AcDbLine
 10
18.192
 20
28.525663
 30
0.0
 11
19.0
 21
28.5648150114943
 31
0.0
  0
LINE
  5
DC
330
1E
100
AcDbEntity
  8
0
100
AcDbLine
 10
18.192
 20
26.153663
 30
0.0
 11
19.5
 21
26.0902832586207
 31
0.0
  0
LINE
  5
DD
330
1E
100
AcDbEntity
  8
0
100
AcDbLine
 10
18.048
 20
25.814363
 30
0.0
 11
19.5
 21
25.7463509166667
 31
0.0
  0
LINE
  5
DE
330
1E
100
AcDbEntity
  8
0
100
AcDbLine
 10
19.5
 20
64.2190935626747
 30
0.0
 11
19.5
 21
23.76706299999999
 31
0.0
  0
LINE
  5
DF
330
1E
100
AcDbEntity
  8
0
100
AcDbLine
 10
19.69999999999999
 20
23.812363
 30
0.0
 11
20.1
 21
23.849963
 31
0.0
  0
LINE
  5
E0
330
1E
100
AcDbEntity
  8
0
100
AcDbLine
 10
19.5
 20
23.76706299999999
 30
0.0
 11
20.0
 21
23.26746299999999
 31
0.0
  0
LINE
  5
E1
330
1E
100
AcDbEntity
  8
0
100
AcDbLine
 10
19.5
 20
23.76706299999999
 30
0.0
 11
19.5
 21
64.2190935626747
 31
0.0
  0
LINE
  5
E2
330
1E
100
AcDbEntity
  8
0
100
AcDbLine
 10
19.5
 20
23.76706299999999
 30
0.0
 11
19.69999999999999
 21
23.812363
 31
0.0
  0
LINE
  5
E3
330
1E
100
AcDbEntity
  8
0
100
AcDbLine
 10
20.1
 20
23.305163
 30
0.0
 11
20.5
 21
23.342863
 31
0.0
  0
LINE
  5
E4
330
1E
100
AcDbEntity
  8
0
100
AcDbLine
 10
20.1
 20
23.849963
 30
0.0
 11
20.8
 21
23.88766299999999
 31
0.0
  0
LINE
  5
E5
330
1E
100
AcDbEntity
  8
0
100
AcDbLine
 10
20.5
 20
23.342863
 30
0.0
 11
21.1
 21
23.376563
 31
0.0
  0
LINE
  5
E6
330
1E
100
AcDbEntity
  8
0
100
AcDbLine
 10
20.0
 20
23.26746299999999
 30
0.0
 11
20.1
 21
23.22956299999999
 31
0.0
  0
LINE
  5
E7
330
1E
100
AcDbEntity
  8
0
100
AcDbLine
 10
20.0
 20
23.26746299999999
 30
0.0
 11
20.1
 21
23.305163
 31
0.0
  0
LINE
  5
E8
330
1E
100
AcDbEntity
  8
0
100
AcDbLine
 10
20.1
 20
23.22956299999999
 30
0.0
 11
20.5
 21
23.191963
 31
0.0
  0
LINE
  5
E9
330
1E
100
AcDbEntity
  8
0
100
AcDbLine
 10
21.1
 20
23.376563
 30
0.0
 11
22.0
 21
23.399363
 31
0.0
  0
LINE
  5
EA
330
1E
100
AcDbEntity
  8
0
100
AcDbLine
 10
21.53894
 20
142.9529629999999
 30
0.0
 11
21.53894
 21
148.2529629999999
 31
0.0
  0
LINE
  5
EB
330
1E
100
AcDbEntity
  8
0
100
AcDbLine
 10
21.53894
 20
148.2529629999999
 30
0.0
 11
21.53894
 21
149.3529629999999
 31
0.0
  0
LINE
  5
EC
330
1E
100
AcDbEntity
  8
0
100
AcDbLine
 10
21.53894
 20
148.2529629999999
 30
0.0
 11
21.53894
 21
142.9529629999999
 31
0.0
  0
LINE
  5
ED
330
1E
100
AcDbEntity
  8
0
100
AcDbLine
 10
21.53894
 20
149.3529629999999
 30
0.0
 11
21.53894
 21
148.2529629999999
 31
0.0
  0
LINE
  5
EE
330
1E
100
AcDbEntity
  8
0
100
AcDbLine
 10
21.53894
 20
149.752963
 30
0.0
 11
21.53894
 21
150.2529629999999
 31
0.0
  0
LINE
  5
EF
330
1E
100
AcDbEntity
  8
0
100
AcDbLine
 10
21.53894
 20
150.2529629999999
 30
0.0
 11
21.53894
 21
149.752963
 31
0.0
  0
LINE
  5
F0
330
1E
100
AcDbEntity
  8
0
100
AcDbLine
 10
21.53894
 20
149.3529629999999
 30
0.0
 11
21.53894
 21
150.6529629999999
 31
0.0
  0
LINE
  5
F1
330
1E
100
AcDbEntity
  8
0
100
AcDbLine
 10
21.53894
 20
150.6529629999999
 30
0.0
 11
21.53894
 21
151.8529629999999
 31
0.0
  0
LINE
  5
F2
330
1E
100
AcDbEntity
  8
0
100
AcDbLine
 10
21.53894
 20
150.6529629999999
 30
0.0
 11
21.53894
 21
149.3529629999999
 31
0.0
  0
LINE
  5
F3
330
1E
100
AcDbEntity
  8
0
100
AcDbLine
 10
21.53894
 20
151.8529629999999
 30
0.0
 11
21.53894
 21
165.8529629999999
 31
0.0
  0
LINE
  5
F4
330
1E
100
AcDbEntity
  8
0
100
AcDbLine
 10
21.53894
 20
151.8529629999999
 30
0.0
 11
21.53894
 21
150.6529629999999
 31
0.0
  0
LINE
  5
F5
330
1E
100
AcDbEntity
  8
0
100
AcDbLine
 10
21.53894
 20
165.8529629999999
 30
0.0
 11
22.23894
 21
165.8529629999999
 31
0.0
  0
LINE
  5
F6
330
1E
100
AcDbEntity
  8
0
100
AcDbLine
 10
21.53894
 20
165.8529629999999
 30
0.0
 11
21.53894
 21
151.8529629999999
 31
0.0
  0
LINE
  5
F7
330
1E
100
AcDbEntity
  8
0
100
AcDbLine
 10
20.8
 20
23.88766299999999
 30
0.0
 11
21.8
 21
23.91406299999999
 31
0.0
  0
LINE
  5
F8
330
1E
100
AcDbEntity
  8
0
100
AcDbLine
 10
21.8
 20
23.91406299999999
 30
0.0
 11
22.8
 21
23.92896299999999
 31
0.0
  0
LINE
  5
F9
330
1E
100
AcDbEntity
  8
0
100
AcDbLine
 10
22.0
 20
23.399363
 30
0.0
 11
23.0
 21
23.414263
 31
0.0
  0
LINE
  5
FA
330
1E
100
AcDbEntity
  8
0
100
AcDbLine
 10
20.5
 20
23.191963
 30
0.0
 11
21.1
 21
23.158163
 31
0.0
  0
LINE
  5
FB
330
1E
100
AcDbEntity
  8
0
100
AcDbLine
 10
21.1
 20
23.158163
 30
0.0
 11
22.0
 21
23.135463
 31
0.0
  0
LINE
  5
FC
330
1E
100
AcDbEntity
  8
0
100
AcDbLine
 10
26.0
 20
23.399363
 30
0.0
 11
26.89999999999999
 21
23.376563
 31
0.0
  0
LINE
  5
FD
330
1E
100
AcDbEntity
  8
0
100
AcDbLine
 10
25.0
 20
23.414263
 30
0.0
 11
26.0
 21
23.399363
 31
0.0
  0
LINE
  5
FE
330
1E
100
AcDbEntity
  8
0
100
AcDbLine
 10
27.5
 20
23.342863
 30
0.0
 11
27.9
 21
23.305163
 31
0.0
  0
LINE
  5
FF
330
1E
100
AcDbEntity
  8
0
100
AcDbLine
 10
26.89999999999999
 20
23.376563
 30
0.0
 11
27.5
 21
23.342863
 31
0.0
  0
LINE
  5
100
330
1E
100
AcDbEntity
  8
0
100
AcDbLine
 10
27.9
 20
23.305163
 30
0.0
 11
28.0
 21
23.26746299999999
 31
0.0
  0
LINE
  5
101
330
1E
100
AcDbEntity
  8
0
100
AcDbLine
 10
28.0
 20
23.26746299999999
 30
0.0
 11
28.5
 21
23.76706299999999
 31
0.0
  0
LINE
  5
102
330
1E
100
AcDbEntity
  8
0
100
AcDbLine
 10
27.9
 20
23.22956299999999
 30
0.0
 11
28.0
 21
23.26746299999999
 31
0.0
  0
LINE
  5
103
330
1E
100
AcDbEntity
  8
0
100
AcDbLine
 10
27.5
 20
23.191963
 30
0.0
 11
27.9
 21
23.22956299999999
 31
0.0
  0
LINE
  5
104
330
1E
100
AcDbEntity
  8
0
100
AcDbLine
 10
26.89999999999999
 20
23.158163
 30
0.0
 11
27.5
 21
23.191963
 31
0.0
  0
LINE
  5
105
330
1E
100
AcDbEntity
  8
0
100
AcDbLine
 10
26.0
 20
23.135463
 30
0.0
 11
26.89999999999999
 21
23.158163
 31
0.0
  0
LINE
  5
106
330
1E
100
AcDbEntity
  8
0
100
AcDbLine
 10
22.23894
 20
165.8529629999999
 30
0.0
 11
23.33893699999999
 21
165.8529629999999
 31
0.0
  0
LINE
  5
107
330
1E
100
AcDbEntity
  8
0
100
AcDbLine
 10
24.0
 20
23.93656299999999
 30
0.0
 11
25.2
 21
23.92896299999999
 31
0.0
  0
LINE
  5
108
330
1E
100
AcDbEntity
  8
0
100
AcDbLine
 10
28.5
 20
23.76706299999999
 30
0.0
 11
28.5
 21
64.2190935626747
 31
0.0
  0
LINE
  5
109
330
1E
100
AcDbEntity
  8
0
100
AcDbLine
 10
28.3
 20
23.812363
 30
0.0
 11
28.5
 21
23.76706299999999
 31
0.0
  0
LINE
  5
10A
330
1E
100
AcDbEntity
  8
0
100
AcDbLine
 10
27.9
 20
23.849963
 30
0.0
 11
28.3
 21
23.812363
 31
0.0
  0
LINE
  5
10B
330
1E
100
AcDbEntity
  8
0
100
AcDbLine
 10
27.2
 20
23.88766299999999
 30
0.0
 11
27.9
 21
23.849963
 31
0.0
  0
LINE
  5
10C
330
1E
100
AcDbEntity
  8
0
100
AcDbLine
 10
26.2
 20
23.91406299999999
 30
0.0
 11
27.2
 21
23.88766299999999
 31
0.0
  0
LINE
  5
10D
330
1E
100
AcDbEntity
  8
0
100
AcDbLine
 10
25.2
 20
23.92896299999999
 30
0.0
 11
26.2
 21
23.91406299999999
 31
0.0
  0
LINE
  5
10E
330
1E
100
AcDbEntity
  8
0
100
AcDbLine
 10
24.0
 20
23.418163
 30
0.0
 11
25.0
 21
23.414263
 31
0.0
  0
LINE
  5
10F
330
1E
100
AcDbEntity
  8
0
100
AcDbLine
 10
28.5
 20
25.7463509166667
 30
0.0
 11
29.952
 21
25.814363
 31
0.0
  0
LINE
  5
110
330
1E
100
AcDbEntity
  8
0
100
AcDbLine
 10
28.5
 20
26.0902832586207
 30
0.0
 11
29.808
 21
26.153663
 31
0.0
  0
LINE
  5
111
330
1E
100
AcDbEntity
  8
0
100
AcDbLine
 10
29.808
 20
26.153663
 30
0.0
 11
32.256
 21
26.37286299999999
 31
0.0
  0
LINE
  5
112
330
1E
100
AcDbEntity
  8
0
100
AcDbLine
 10
29.952
 20
25.814363
 30
0.0
 11
32.496
 21
26.039163
 31
0.0
  0
LINE
  5
113
330
1E
100
AcDbEntity
  8
0
100
AcDbLine
 10
32.256
 20
26.37286299999999
 30
0.0
 11
34.128
 21
26.659563
 31
0.0
  0
LINE
  5
114
330
1E
100
AcDbEntity
  8
0
100
AcDbLine
 10
32.496
 20
26.039163
 30
0.0
 11
34.41599999999999
 21
26.337063
 31
0.0
  0
LINE
  5
115
330
1E
100
AcDbEntity
  8
0
100
AcDbLine
 10
34.128
 20
26.659563
 30
0.0
 11
35.28
 21
26.98556299999999
 31
0.0
  0
LINE
  5
116
330
1E
100
AcDbEntity
  8
0
100
AcDbLine
 10
34.41599999999999
 20
26.337063
 30
0.0
 11
35.568
 21
26.674363
 31
0.0
  0
LINE
  5
117
330
1E
100
AcDbEntity
  8
0
100
AcDbLine
 10
28.5
 20
27.0960963333333
 30
0.0
 11
28.82
 21
27.189763
 31
0.0
  0
LINE
  5
118
330
1E
100
AcDbEntity
  8
0
100
AcDbLine
 10
29.0
 20
27.339663
 30
0.0
 11
29.0
 21
29.504763
 31
0.0
  0
LINE
  5
119
330
1E
100
AcDbEntity
  8
0
100
AcDbLine
 10
28.82
 20
27.189763
 30
0.0
 11
29.0
 21
27.339663
 31
0.0
  0
LINE
  5
11A
330
1E
100
AcDbEntity
  8
0
100
AcDbLine
 10
28.5
 20
29.504763
 30
0.0
 11
31.14705999999999
 21
29.504763
 31
0.0
  0
LINE
  5
11B
330
1E
100
AcDbEntity
  8
0
100
AcDbLine
 10
23.33893699999999
 20
165.8529629999999
 30
0.0
 11
24.038937
 21
165.8529629999999
 31
0.0
  0
LINE
  5
11C
330
1E
100
AcDbEntity
  8
0
100
AcDbLine
 10
24.0
 20
116.3459629999999
 30
0.0
 11
30.21176
 21
115.600963
 31
0.0
  0
LINE
  5
11D
330
1E
100
AcDbEntity
  8
0
100
AcDbLine
 10
24.0
 20
109.1699629999999
 30
0.0
 11
30.02352999999999
 21
108.350963
 31
0.0
  0
LINE
  5
11E
330
1E
100
AcDbEntity
  8
0
100
AcDbLine
 10
28.5
 20
29.812463
 30
0.0
 11
31.36765
 21
29.812463
 31
0.0
  0
LINE
  5
11F
330
1E
100
AcDbEntity
  8
0
100
AcDbLine
 10
28.3
 20
64.1927499821114
 30
0.0
 11
30.21176
 21
64.444563
 31
0.0
  0
LINE
  5
120
330
1E
100
AcDbEntity
  8
0
100
AcDbLine
 10
26.53894
 20
150.6529629999999
 30
0.0
 11
26.54398260317964
 21
142.9281662990055
 31
0.0
  0
LINE
  5
121
330
1E
100
AcDbEntity
  8
0
100
AcDbLine
 10
26.54398260317964
 20
142.9281662990055
 30
0.0
 11
26.53894
 21
150.6529629999999
 31
0.0
  0
LINE
  5
122
330
1E
100
AcDbEntity
  8
0
100
AcDbLine
 10
26.53894
 20
150.6529629999999
 30
0.0
 11
26.53894
 21
151.8529629999999
 31
0.0
  0
LINE
  5
123
330
1E
100
AcDbEntity
  8
0
100
AcDbLine
 10
26.53894
 20
165.8529629999999
 30
0.0
 11
26.53894
 21
151.8529629999999
 31
0.0
  0
LINE
  5
124
330
1E
100
AcDbEntity
  8
0
100
AcDbLine
 10
26.53894
 20
151.8529629999999
 30
0.0
 11
26.53894
 21
165.8529629999999
 31
0.0
  0
LINE
  5
125
330
1E
100
AcDbEntity
  8
0
100
AcDbLine
 10
26.53894
 20
151.8529629999999
 30
0.0
 11
26.53894
 21
150.6529629999999
 31
0.0
  0
LINE
  5
126
330
1E
100
AcDbEntity
  8
0
100
AcDbLine
 10
25.83894
 20
165.8529629999999
 30
0.0
 11
26.53894
 21
165.8529629999999
 31
0.0
  0
LINE
  5
127
330
1E
100
AcDbEntity
  8
0
100
AcDbLine
 10
24.738937
 20
165.8529629999999
 30
0.0
 11
25.83894
 21
165.8529629999999
 31
0.0
  0
LINE
  5
128
330
1E
100
AcDbEntity
  8
0
100
AcDbLine
 10
24.038937
 20
165.8529629999999
 30
0.0
 11
24.738937
 21
165.8529629999999
 31
0.0
  0
LINE
  5
129
330
1E
100
AcDbEntity
  8
0
100
AcDbLine
 10
26.53894
 20
151.3947900403179
 30
0.0
 11
30.1412
 21
150.8979629999999
 31
0.0
  0
LINE
  5
12A
330
1E
100
AcDbEntity
  8
0
100
AcDbLine
 10
27.9
 20
64.24405074124139
 30
0.0
 11
30.02352999999999
 21
64.532463
 31
0.0
  0
LINE
  5
12B
330
1E
100
AcDbEntity
  8
0
100
AcDbLine
 10
28.5
 20
64.2190935626747
 30
0.0
 11
28.5
 21
23.76706299999999
 31
0.0
  0
LINE
  5
12C
330
1E
100
AcDbEntity
  8
0
100
AcDbLine
 10
24.0
 20
118.1679629999999
 30
0.0
 11
30.0706
 21
117.349963
 31
0.0
  0
LINE
  5
12D
330
1E
100
AcDbEntity
  8
0
100
AcDbLine
 10
29.0
 20
29.504763
 30
0.0
 11
29.0
 21
27.339663
 31
0.0
  0
LINE
  5
12E
330
1E
100
AcDbEntity
  8
0
100
AcDbLine
 10
29.0
 20
29.504763
 30
0.0
 11
31.14705999999999
 21
29.504763
 31
0.0
  0
LINE
  5
12F
330
1E
100
AcDbEntity
  8
0
100
AcDbLine
 10
30.02352999999999
 20
64.532463
 30
0.0
 11
35.6706
 21
66.805263
 31
0.0
  0
LINE
  5
130
330
1E
100
AcDbEntity
  8
0
100
AcDbLine
 10
31.36765
 20
29.812463
 30
0.0
 11
34.4559
 21
29.812463
 31
0.0
  0
LINE
  5
131
330
1E
100
AcDbEntity
  8
0
100
AcDbLine
 10
31.14705999999999
 20
29.504763
 30
0.0
 11
34.1471
 21
29.504763
 31
0.0
  0
LINE
  5
132
330
1E
100
AcDbEntity
  8
0
100
AcDbLine
 10
30.21176
 20
64.444563
 30
0.0
 11
35.9529
 21
66.717363
 31
0.0
  0
LINE
  5
133
330
1E
100
AcDbEntity
  8
0
100
AcDbLine
 10
30.21176
 20
115.600963
 30
0.0
 11
35.9529
 21
113.4749629999999
 31
0.0
  0
LINE
  5
134
330
1E
100
AcDbEntity
  8
0
100
AcDbLine
 10
30.02352999999999
 20
108.350963
 30
0.0
 11
35.6706
 21
106.0789629999999
 31
0.0
  0
LINE
  5
135
330
1E
100
AcDbEntity
  8
0
100
AcDbLine
 10
30.1412
 20
150.8979629999999
 30
0.0
 11
35.9294
 21
148.4979629999999
 31
0.0
  0
LINE
  5
136
330
1E
100
AcDbEntity
  8
0
100
AcDbLine
 10
30.0706
 20
117.349963
 30
0.0
 11
35.7882
 21
115.0999629999999
 31
0.0
  0
LINE
  5
137
330
1E
100
AcDbEntity
  8
0
100
AcDbLine
 10
29.0
 20
28.5648150114943
 30
0.0
 11
29.808
 21
28.525663
 31
0.0
  0
LINE
  5
138
330
1E
100
AcDbEntity
  8
0
100
AcDbLine
 10
29.808
 20
28.525663
 30
0.0
 11
32.256
 21
28.306463
 31
0.0
  0
LINE
  5
139
330
1E
100
AcDbEntity
  8
0
100
AcDbLine
 10
34.4559
 20
29.812463
 30
0.0
 11
36.7941
 21
29.812463
 31
0.0
  0
LINE
  5
13A
330
1E
100
AcDbEntity
  8
0
100
AcDbLine
 10
34.1471
 20
29.504763
 30
0.0
 11
36.3971
 21
29.504763
 31
0.0
  0
LINE
  5
13B
330
1E
100
AcDbEntity
  8
0
100
AcDbLine
 10
32.256
 20
28.306463
 30
0.0
 11
34.128
 21
28.019763
 31
0.0
  0
LINE
  5
13C
330
1E
100
AcDbEntity
  8
0
100
AcDbLine
 10
34.128
 20
28.019763
 30
0.0
 11
35.28
 21
27.693763
 31
0.0
  0
LINE
  5
13D
330
1E
100
AcDbEntity
  8
0
100
AcDbLine
 10
35.6706
 20
66.805263
 30
0.0
 11
40.65879999999999
 21
70.350763
 31
0.0
  0
LINE
  5
13E
330
1E
100
AcDbEntity
  8
0
100
AcDbLine
 10
35.6706
 20
106.0789629999999
 30
0.0
 11
40.65879999999999
 21
102.5329629999999
 31
0.0
  0
LINE
  5
13F
330
1E
100
AcDbEntity
  8
0
100
AcDbLine
 10
35.28
 20
27.693763
 30
0.0
 11
35.71199999999999
 21
27.339663
 31
0.0
  0
LINE
  5
140
330
1E
100
AcDbEntity
  8
0
100
AcDbLine
 10
35.28
 20
26.98556299999999
 30
0.0
 11
35.71199999999999
 21
27.339663
 31
0.0
  0
LINE
  5
141
330
1E
100
AcDbEntity
  8
0
100
AcDbLine
 10
36.3971
 20
29.504763
 30
0.0
 11
37.80879999999999
 21
29.504763
 31
0.0
  0
LINE
  5
142
330
1E
100
AcDbEntity
  8
0
100
AcDbLine
 10
38.25
 20
29.812463
 30
0.0
 11
38.7794
 21
29.812463
 31
0.0
  0
LINE
  5
143
330
1E
100
AcDbEntity
  8
0
100
AcDbLine
 10
37.80879999999999
 20
29.504763
 30
0.0
 11
38.3382
 21
29.504763
 31
0.0
  0
LINE
  5
144
330
1E
100
AcDbEntity
  8
0
100
AcDbLine
 10
38.3382
 20
29.504763
 30
0.0
 11
38.7794
 21
29.812463
 31
0.0
  0
LINE
  5
145
330
1E
100
AcDbEntity
  8
0
100
AcDbLine
 10
36.7941
 20
29.812463
 30
0.0
 11
38.25
 21
29.812463
 31
0.0
  0
LINE
  5
146
330
1E
100
AcDbEntity
  8
0
100
AcDbLine
 10
38.7794
 20
29.812463
 30
0.0
 11
39.0
 21
30.427863
 31
0.0
  0
LINE
  5
147
330
1E
100
AcDbEntity
  8
0
100
AcDbLine
 10
39.0
 20
30.427863
 30
0.0
 11
39.0
 21
68.9941819222781
 31
0.0
  0
LINE
  5
148
330
1E
100
AcDbEntity
  8
0
100
AcDbLine
 10
39.0
 20
68.9941819222781
 30
0.0
 11
39.0
 21
30.427863
 31
0.0
  0
LINE
  5
149
330
1E
100
AcDbEntity
  8
0
100
AcDbLine
 10
35.9529
 20
66.717363
 30
0.0
 11
40.9412
 21
70.444663
 31
0.0
  0
LINE
  5
14A
330
1E
100
AcDbEntity
  8
0
100
AcDbLine
 10
40.65879999999999
 20
70.350763
 30
0.0
 11
44.3294
 21
75.168963
 31
0.0
  0
LINE
  5
14B
330
1E
100
AcDbEntity
  8
0
100
AcDbLine
 10
35.9529
 20
113.4749629999999
 30
0.0
 11
40.9412
 21
110.0169629999999
 31
0.0
  0
LINE
  5
14C
330
1E
100
AcDbEntity
  8
0
100
AcDbLine
 10
40.65879999999999
 20
102.5329629999999
 30
0.0
 11
44.3294
 21
97.71476300000001
 31
0.0
  0
LINE
  5
14D
330
1E
100
AcDbEntity
  8
0
100
AcDbLine
 10
40.9412
 20
70.444663
 30
0.0
 11
44.79999999999999
 21
75.26286299999999
 31
0.0
  0
LINE
  5
14E
330
1E
100
AcDbEntity
  8
0
100
AcDbLine
 10
44.3294
 20
75.168963
 30
0.0
 11
46.68239999999999
 21
80.62356300000001
 31
0.0
  0
LINE
  5
14F
330
1E
100
AcDbEntity
  8
0
100
AcDbLine
 10
40.9412
 20
110.0169629999999
 30
0.0
 11
44.79999999999999
 21
105.564963
 31
0.0
  0
LINE
  5
150
330
1E
100
AcDbEntity
  8
0
100
AcDbLine
 10
44.3294
 20
97.71476300000001
 30
0.0
 11
46.68239999999999
 21
92.26016300000001
 31
0.0
  0
LINE
  5
151
330
1E
100
AcDbEntity
  8
0
100
AcDbLine
 10
40.7294
 20
111.4859629999999
 30
0.0
 11
44.47059999999999
 21
106.7129629999999
 31
0.0
  0
LINE
  5
152
330
1E
100
AcDbEntity
  8
0
100
AcDbLine
 10
40.9412
 20
144.6859629999999
 30
0.0
 11
44.7529
 21
139.6739629999999
 31
0.0
  0
LINE
  5
153
330
1E
100
AcDbEntity
  8
0
100
AcDbLine
 10
35.9294
 20
148.4979629999999
 30
0.0
 11
40.9412
 21
144.6859629999999
 31
0.0
  0
LINE
  5
154
330
1E
100
AcDbEntity
  8
0
100
AcDbLine
 10
35.7882
 20
115.0999629999999
 30
0.0
 11
40.7294
 21
111.4859629999999
 31
0.0
  0
LINE
  5
155
330
1E
100
AcDbEntity
  8
0
100
AcDbLine
 10
44.79999999999999
 20
75.26286299999999
 30
0.0
 11
47.1529
 21
80.80846300000001
 31
0.0
  0
LINE
  5
156
330
1E
100
AcDbEntity
  8
0
100
AcDbLine
 10
46.68239999999999
 20
80.62356300000001
 30
0.0
 11
47.5294
 21
86.44186299999999
 31
0.0
  0
LINE
  5
157
330
1E
100
AcDbEntity
  8
0
100
AcDbLine
 10
47.1529
 20
80.80846300000001
 30
0.0
 11
48.0
 21
86.80866299999999
 31
0.0
  0
LINE
  5
158
330
1E
100
AcDbEntity
  8
0
100
AcDbLine
 10
48.0
 20
94.874863
 30
0.0
 11
48.0
 21
86.80866299999999
 31
0.0
  0
LINE
  5
159
330
1E
100
AcDbEntity
  8
0
100
AcDbLine
 10
48.0
 20
86.80866299999999
 30
0.0
 11
48.0
 21
94.874863
 31
0.0
  0
LINE
  5
15A
330
1E
100
AcDbEntity
  8
0
100
AcDbLine
 10
46.68239999999999
 20
92.26016300000001
 30
0.0
 11
47.5294
 21
86.44186299999999
 31
0.0
  0
LINE
  5
15B
330
1E
100
AcDbEntity
  8
0
100
AcDbLine
 10
44.7529
 20
139.6739629999999
 30
0.0
 11
47.1529
 21
133.4249629999999
 31
0.0
  0
LINE
  5
15C
330
1E
100
AcDbEntity
  8
0
100
AcDbLine
 10
48.0
 20
95.48596299999999
 30
0.0
 11
48.0
 21
127.2049629999999
 31
0.0
  0
LINE
  5
15D
330
1E
100
AcDbEntity
  8
0
100
AcDbLine
 10
48.0
 20
127.2049629999999
 30
0.0
 11
48.0
 21
95.48596299999999
 31
0.0
  0
LINE
  5
15E
330
1E
100
AcDbEntity
  8
0
100
AcDbLine
 10
47.1529
 20
133.4249629999999
 30
0.0
 11
48.0
 21
127.2049629999999
 31
0.0
  0
LINE
  5
15F
330
1E
100
AcDbEntity
  8
0
100
AcDbLine
 10
47.1529
 20
100.4349629999999
 30
0.0
 11
48.0
 21
94.874863
 31
0.0
  0
LINE
  5
160
330
1E
100
AcDbEntity
  8
0
100
AcDbLine
 10
44.79999999999999
 20
105.564963
 30
0.0
 11
47.1529
 21
100.4349629999999
 31
0.0
  0
LINE
  5
161
330
1E
100
AcDbEntity
  8
0
100
AcDbLine
 10
47.95495450661329
 20
95.17052755882351
 30
0.0
 11
48.0
 21
95.48596299999999
 31
0.0
  0
LINE
  5
162
330
1E
100
AcDbEntity
  8
0
100
AcDbLine
 10
44.47059999999999
 20
106.7129629999999
 30
0.0
 11
46.72436793747911
 21
101.36928637997
 31
0.0
  0
LINE
  5
163
330
1E
100
AcDbEntity
  8
0
100
AcDbLine
 10
36.0
 20
27.034063
 30
0.0
 11
36.0
 21
17.408463
 31
0.0
  0
LINE
  5
164
330
1E
100
AcDbEntity
  8
0
100
AcDbLine
 10
35.71199999999999
 20
27.339663
 30
0.0
 11
36.0
 21
27.034063
 31
0.0
  0
LINE
  5
165
330
1E
100
AcDbEntity
  8
0
100
AcDbLine
 10
35.568
 20
26.674363
 30
0.0
 11
36.0
 21
27.034063
 31
0.0
  0
LINE
  5
166
330
1E
100
AcDbEntity
  8
0
100
AcDbLine
 10
22.8
 20
23.92896299999999
 30
0.0
 11
24.0
 21
23.93656299999999
 31
0.0
  0
LINE
  5
167
330
1E
100
AcDbEntity
  8
0
100
AcDbLine
 10
23.0
 20
23.414263
 30
0.0
 11
24.0
 21
23.418163
 31
0.0
  0
LINE
  5
168
330
1E
100
AcDbEntity
  8
0
100
AcDbLine
 10
22.0
 20
23.135463
 30
0.0
 11
23.0
 21
23.12046299999999
 31
0.0
  0
LINE
  5
169
330
1E
100
AcDbEntity
  8
0
100
AcDbLine
 10
23.0
 20
23.12046299999999
 30
0.0
 11
24.0
 21
23.116663
 31
0.0
  0
LINE
  5
16A
330
1E
100
AcDbEntity
  8
0
100
AcDbLine
 10
17.97647
 20
108.350963
 30
0.0
 11
24.0
 21
109.1699629999999
 31
0.0
  0
ENDSEC
  0
SECTION
  2
OBJECTS
  0
DICTIONARY
  5
C
330
0
100
AcDbDictionary
  3
ACAD_GROUP
350
D
  3
ACAD_LAYOUT
350
19
  3
ACAD_MLINESTYLE
350
16
  3
ACAD_PLOTSETTINGS
350
18
  3
ACAD_PLOTSTYLENAME
350
E
  3
ACDBHEADERROUNDTRIPXREC
350
172
  3
ACDBVARIABLEDICTIONARY
350
16F
  0
DICTIONARY
  5
194
330
1E
100
AcDbDictionary
280
     1
  3
ACAD_LAYOUTSELFREF
360
195
  0
DICTIONARY
  5
192
330
1A
100
AcDbDictionary
280
     1
  3
ACAD_LAYOUTSELFREF
360
193
  0
DICTIONARY
  5
D
102
{ACAD_REACTORS
330
C
102
}
330
C
100
AcDbDictionary
  0
DICTIONARY
  5
19
102
{ACAD_REACTORS
330
C
102
}
330
C
100
AcDbDictionary
  0
DICTIONARY
  5
16
102
{ACAD_REACTORS
330
C
102
}
330
C
100
AcDbDictionary
  3
STANDARD
350
17
  0
DICTIONARY
  5
18
102
{ACAD_REACTORS
330
C
102
}
330
C
100
AcDbDictionary
  0
ACDBDICTIONARYWDFLT
  5
E
102
{ACAD_REACTORS
330
C
102
}
330
C
100
AcDbDictionary
281
     1
  3
Normal
350
F
100
AcDbDictionaryWithDefault
340
F
  0
DICTIONARY
  5
172
102
{ACAD_REACTORS
330
C
102
}
330
C
100
AcDbDictionary
  3
CEPSNTYPE
350
17C
  3
FINGERPRINTGUID
350
17D
  3
HYPERLINKBASE
350
175
  3
INSUNITS
350
17B
  3
LAYOUTDICT
350
177
  3
LWETCUNION
350
17A
  3
PLOTSETDICT
350
178
  3
PLOTSTYLNAMDICT
350
179
  3
PSVPSCALE
350
17F
  3
PUCSBASE
350
182
  3
PUCSORGBACK
350
188
  3
PUCSORGBOTTOM
350
184
  3
PUCSORGFRONT
350
187
  3
PUCSORGLEFT
350
185
  3
PUCSORGRIGHT
350
186
  3
PUCSORGTOP
350
183
  3
PUCSORTHOREF
350
180
  3
PUCSORTHOVIEW
350
181
  3
STYLESHEET
350
176
  3
TSTACKALIGN
350
173
  3
TSTACKSIZE
350
174
  3
UCSBASE
350
18B
  3
UCSORGBACK
350
191
  3
UCSORGBOTTOM
350
18D
  3
UCSORGFRONT
350
190
  3
UCSORGLEFT
350
18E
  3
UCSORGRIGHT
350
18F
  3
UCSORGTOP
350
18C
  3
UCSORTHOREF
350
189
  3
UCSORTHOVIEW
350
18A
  3
VERSIONGUID
350
17E
  0
DICTIONARY
  5
16F
102
{ACAD_REACTORS
330
C
102
}
330
C
100
AcDbDictionary
  3
DIMASSOC
350
170
  0
XRECORD
  5
195
102
{ACAD_REACTORS
330
194
102
}
330
194
100
AcDbXrecord
340
1E
  0
XRECORD
  5
193
102
{ACAD_REACTORS
330
192
102
}
330
192
100
AcDbXrecord
340
1A
  0
MLINESTYLE
  5
17
102
{ACAD_REACTORS
330
16
102
}
330
16
100
AcDbMlineStyle
  2
STANDARD
 70
     0
  3

 62
   256
 51
90.0
 52
90.0
 71
     2
 49
0.5
 62
   256
  6
BYLAYER
 49
-0.5
 62
   256
  6
BYLAYER
  0
ACDBPLACEHOLDER
  5
F
102
{ACAD_REACTORS
330
E
102
}
330
E
100
AcDbPlaceHolder
280
     0
  0
XRECORD
  5
17C
102
{ACAD_REACTORS
330
172
102
}
330
172
100
AcDbXrecord
 90
        0
  0
XRECORD
  5
17D
102
{ACAD_REACTORS
330
172
102
}
330
172
100
AcDbXrecord
  1
{940B3B46-21BF-4070-A323-4173748B6303}
  0
XRECORD
  5
175
102
{ACAD_REACTORS
330
172
102
}
330
172
100
AcDbXrecord
  1

  0
XRECORD
  5
17B
102
{ACAD_REACTORS
330
172
102
}
330
172
100
AcDbXrecord
 90
        0
  0
XRECORD
  5
177
102
{ACAD_REACTORS
330
172
102
}
330
172
100
AcDbXrecord
340
19
  0
XRECORD
  5
17A
102
{ACAD_REACTORS
330
172
102
}
330
172
100
AcDbXrecord
 90
    10781
  0
XRECORD
  5
178
102
{ACAD_REACTORS
330
172
102
}
330
172
100
AcDbXrecord
340
18
  0
XRECORD
  5
179
102
{ACAD_REACTORS
330
172
102
}
330
172
100
AcDbXrecord
340
E
  0
XRECORD
  5
17F
102
{ACAD_REACTORS
330
172
102
}
330
172
100
AcDbXrecord
 40
0.0
  0
XRECORD
  5
182
102
{ACAD_REACTORS
330
172
102
}
330
172
100
AcDbXrecord
340
0
  0
XRECORD
  5
188
102
{ACAD_REACTORS
330
172
102
}
330
172
100
AcDbXrecord
 10
0.0
 20
0.0
 30
0.0
  0
XRECORD
  5
184
102
{ACAD_REACTORS
330
172
102
}
330
172
100
AcDbXrecord
 10
0.0
 20
0.0
 30
0.0
  0
XRECORD
  5
187
102
{ACAD_REACTORS
330
172
102
}
330
172
100
AcDbXrecord
 10
0.0
 20
0.0
 30
0.0
  0
XRECORD
  5
185
102
{ACAD_REACTORS
330
172
102
}
330
172
100
AcDbXrecord
 10
0.0
 20
0.0
 30
0.0
  0
XRECORD
  5
186
102
{ACAD_REACTORS
330
172
102
}
330
172
100
AcDbXrecord
 10
0.0
 20
0.0
 30
0.0
  0
XRECORD
  5
183
102
{ACAD_REACTORS
330
172
102
}
330
172
100
AcDbXrecord
 10
0.0
 20
0.0
 30
0.0
  0
XRECORD
  5
180
102
{ACAD_REACTORS
330
172
102
}
330
172
100
AcDbXrecord
340
0
  0
XRECORD
  5
181
102
{ACAD_REACTORS
330
172
102
}
330
172
100
AcDbXrecord
 70
     0
  0
XRECORD
  5
176
102
{ACAD_REACTORS
330
172
102
}
330
172
100
AcDbXrecord
  1

  0
XRECORD
  5
173
102
{ACAD_REACTORS
330
172
102
}
330
172
100
AcDbXrecord
 90
        1
  0
XRECORD
  5
174
102
{ACAD_REACTORS
330
172
102
}
330
172
100
AcDbXrecord
 90
       70
  0
XRECORD
  5
18B
102
{ACAD_REACTORS
330
172
102
}
330
172
100
AcDbXrecord
340
0
  0
XRECORD
  5
191
102
{ACAD_REACTORS
330
172
102
}
330
172
100
AcDbXrecord
 10
0.0
 20
0.0
 30
0.0
  0
XRECORD
  5
18D
102
{ACAD_REACTORS
330
172
102
}
330
172
100
AcDbXrecord
 10
0.0
 20
0.0
 30
0.0
  0
XRECORD
  5
190
102
{ACAD_REACTORS
330
172
102
}
330
172
100
AcDbXrecord
 10
0.0
 20
0.0
 30
0.0
  0
XRECORD
  5
18E
102
{ACAD_REACTORS
330
172
102
}
330
172
100
AcDbXrecord
 10
0.0
 20
0.0
 30
0.0
  0
XRECORD
  5
18F
102
{ACAD_REACTORS
330
172
102
}
330
172
100
AcDbXrecord
 10
0.0
 20
0.0
 30
0.0
  0
XRECORD
  5
18C
102
{ACAD_REACTORS
330
172
102
}
330
172
100
AcDbXrecord
 10
0.0
 20
0.0
 30
0.0
  0
XRECORD
  5
189
102
{ACAD_REACTORS
330
172
102
}
330
172
100
AcDbXrecord
340
0
  0
XRECORD
  5
18A
102
{ACAD_REACTORS
330
172
102
}
330
172
100
AcDbXrecord
 70
     1
  0
XRECORD
  5
17E
102
{ACAD_REACTORS
330
172
102
}
330
172
100
AcDbXrecord
  1
{AD92D150-84E2-4EBA-A084-69CCED38BFF1}
  0
DICTIONARYVAR
  5
170
102
{ACAD_REACTORS
330
16F
102
}
330
16F
100
DictionaryVariables
280
     0
  1
1
  0
ENDSEC
  0
EOF
