  0
SECTION
  2
HEADER
  9
$ACADVER
  1
AC1014
  9
$ACADMAINTVER
 70
     9
  9
$DWGCODEPAGE
  3
ANSI_1252
  9
$INSBASE
 10
0.0
 20
0.0
 30
0.0
  9
$EXTMIN
 10
-0.0000000000000061
 20
-0.231766
 30
0.0
  9
$EXTMAX
 10
218.0
 20
134.2317659999999
 30
0.0
  9
$LIMMIN
 10
0.0
 20
0.0
  9
$LIMMAX
 10
12.0
 20
9.0
  9
$ORTHOMODE
 70
     0
  9
$REGENMODE
 70
     1
  9
$FILLMODE
 70
     1
  9
$QTEXTMODE
 70
     0
  9
$MIRRTEXT
 70
     1
  9
$DRAGMODE
 70
     2
  9
$LTSCALE
 40
1.0
  9
$OSMODE
 70
    37
  9
$ATTMODE
 70
     1
  9
$TEXTSIZE
 40
0.2
  9
$TRACEWID
 40
0.05
  9
$TEXTSTYLE
  7
STANDARD
  9
$CLAYER
  8
0
  9
$CELTYPE
  6
CONTINUOUS
  9
$CECOLOR
 62
   256
  9
$CELTSCALE
 40
1.0
  9
$DELOBJ
 70
     1
  9
$DISPSILH
 70
     0
  9
$DIMSCALE
 40
1.0
  9
$DIMASZ
 40
0.18
  9
$DIMEXO
 40
0.0625
  9
$DIMDLI
 40
0.38
  9
$DIMRND
 40
0.0
  9
$DIMDLE
 40
0.0
  9
$DIMEXE
 40
0.18
  9
$DIMTP
 40
0.0
  9
$DIMTM
 40
0.0
  9
$DIMTXT
 40
0.18
  9
$DIMCEN
 40
0.09
  9
$DIMTSZ
 40
0.0
  9
$DIMTOL
 70
     0
  9
$DIMLIM
 70
     0
  9
$DIMTIH
 70
     1
  9
$DIMTOH
 70
     1
  9
$DIMSE1
 70
     0
  9
$DIMSE2
 70
     0
  9
$DIMTAD
 70
     0
  9
$DIMZIN
 70
     0
  9
$DIMBLK
  1

  9
$DIMASO
 70
     1
  9
$DIMSHO
 70
     1
  9
$DIMPOST
  1

  9
$DIMAPOST
  1

  9
$DIMALT
 70
     0
  9
$DIMALTD
 70
     2
  9
$DIMALTF
 40
25.4
  9
$DIMLFAC
 40
1.0
  9
$DIMTOFL
 70
     0
  9
$DIMTVP
 40
0.0
  9
$DIMTIX
 70
     0
  9
$DIMSOXD
 70
     0
  9
$DIMSAH
 70
     0
  9
$DIMBLK1
  1

  9
$DIMBLK2
  1

  9
$DIMSTYLE
  2
STANDARD
  9
$DIMCLRD
 70
     0
  9
$DIMCLRE
 70
     0
  9
$DIMCLRT
 70
     0
  9
$DIMTFAC
 40
1.0
  9
$DIMGAP
 40
0.09
  9
$DIMJUST
 70
     0
  9
$DIMSD1
 70
     0
  9
$DIMSD2
 70
     0
  9
$DIMTOLJ
 70
     1
  9
$DIMTZIN
 70
     0
  9
$DIMALTZ
 70
     0
  9
$DIMALTTZ
 70
     0
  9
$DIMFIT
 70
     3
  9
$DIMUPT
 70
     0
  9
$DIMUNIT
 70
     2
  9
$DIMDEC
 70
     4
  9
$DIMTDEC
 70
     4
  9
$DIMALTU
 70
     2
  9
$DIMALTTD
 70
     2
  9
$DIMTXSTY
  7
STANDARD
  9
$DIMAUNIT
 70
     0
  9
$LUNITS
 70
     2
  9
$LUPREC
 70
     4
  9
$SKETCHINC
 40
0.1
  9
$FILLETRAD
 40
0.0
  9
$AUNITS
 70
     0
  9
$AUPREC
 70
     0
  9
$MENU
  1
.
  9
$ELEVATION
 40
0.0
  9
$PELEVATION
 40
0.0
  9
$THICKNESS
 40
0.0
  9
$LIMCHECK
 70
     0
  9
$BLIPMODE
 70
     0
  9
$CHAMFERA
 40
0.0
  9
$CHAMFERB
 40
0.0
  9
$CHAMFERC
 40
0.0
  9
$CHAMFERD
 40
0.0
  9
$SKPOLY
 70
     0
  9
$TDCREATE
 40
2454700.556196285
  9
$TDUPDATE
 40
2454700.559875035
  9
$TDINDWG
 40
0.0036787500
  9
$TDUSRTIMER
 40
0.0036787500
  9
$USRTIMER
 70
     1
  9
$ANGBASE
 50
0.0
  9
$ANGDIR
 70
     0
  9
$PDMODE
 70
     0
  9
$PDSIZE
 40
0.0
  9
$PLINEWID
 40
0.0
  9
$COORDS
 70
     1
  9
$SPLFRAME
 70
     0
  9
$SPLINETYPE
 70
     6
  9
$SPLINESEGS
 70
     8
  9
$ATTDIA
 70
     0
  9
$ATTREQ
 70
     1
  9
$HANDLING
 70
 22529
  9
$HANDSEED
  5
21A
  9
$SURFTAB1
 70
     6
  9
$SURFTAB2
 70
     6
  9
$SURFTYPE
 70
     6
  9
$SURFU
 70
     6
  9
$SURFV
 70
     6
  9
$UCSNAME
  2

  9
$UCSORG
 10
0.0
 20
0.0
 30
0.0
  9
$UCSXDIR
 10
1.0
 20
0.0
 30
0.0
  9
$UCSYDIR
 10
0.0
 20
1.0
 30
0.0
  9
$PUCSNAME
  2

  9
$PUCSORG
 10
0.0
 20
0.0
 30
0.0
  9
$PUCSXDIR
 10
1.0
 20
0.0
 30
0.0
  9
$PUCSYDIR
 10
0.0
 20
1.0
 30
0.0
  9
$USERI1
 70
     0
  9
$USERI2
 70
     0
  9
$USERI3
 70
     0
  9
$USERI4
 70
     0
  9
$USERI5
 70
     0
  9
$USERR1
 40
0.0
  9
$USERR2
 40
0.0
  9
$USERR3
 40
0.0
  9
$USERR4
 40
0.0
  9
$USERR5
 40
0.0
  9
$WORLDVIEW
 70
     1
  9
$SHADEDGE
 70
     3
  9
$SHADEDIF
 70
    70
  9
$TILEMODE
 70
     1
  9
$MAXACTVP
 70
    64
  9
$PINSBASE
 10
0.0
 20
0.0
 30
0.0
  9
$PLIMCHECK
 70
     0
  9
$PEXTMIN
 10
1.000000000000000E+20
 20
1.000000000000000E+20
 30
1.000000000000000E+20
  9
$PEXTMAX
 10
-1.000000000000000E+20
 20
-1.000000000000000E+20
 30
-1.000000000000000E+20
  9
$PLIMMIN
 10
0.0
 20
0.0
  9
$PLIMMAX
 10
12.0
 20
9.0
  9
$UNITMODE
 70
     0
  9
$VISRETAIN
 70
     1
  9
$PLINEGEN
 70
     0
  9
$PSLTSCALE
 70
     1
  9
$TREEDEPTH
 70
  3020
  9
$PICKSTYLE
 70
     1
  9
$CMLSTYLE
  2
STANDARD
  9
$CMLJUST
 70
     0
  9
$CMLSCALE
 40
1.0
  9
$PROXYGRAPHICS
 70
     1
  9
$MEASUREMENT
 70
     0
  0
ENDSEC
  0
SECTION
  2
CLASSES
  0
CLASS
  1
ACDBDICTIONARYWDFLT
  2
AcDbDictionaryWithDefault
  3
AutoCAD 2000
 90
        0
280
     0
281
     0
  0
CLASS
  1
ACDBPLACEHOLDER
  2
AcDbPlaceHolder
  3
AutoCAD 2000
 90
        0
280
     0
281
     0
  0
CLASS
  1
LAYOUT
  2
AcDbLayout
  3
AutoCAD 2000
 90
        0
280
     0
281
     0
  0
CLASS
  1
DICTIONARYVAR
  2
AcDbDictionaryVar
  3
AutoCAD 2000
 90
        0
280
     0
281
     0
  0
CLASS
  1
LONG_TRANSACTION
  2
AcDbLongTransaction
  3
AutoCAD 2000
 90
        0
280
     0
281
     0
  0
CLASS
  1
LWPOLYLINE
  2
AcDbPolyline
  3
AutoCAD 2000
 90
        0
280
     0
281
     1
  0
CLASS
  1
HATCH
  2
AcDbHatch
  3
AutoCAD 2000
 90
        0
280
     0
281
     1
  0
CLASS
  1
XRECORD
  2
AcDbXrecord
  3
AutoCAD 2000
 90
        0
280
     0
281
     0
  0
ENDSEC
  0
SECTION
  2
TABLES
  0
TABLE
  2
VPORT
  5
8
330
0
100
AcDbSymbolTable
 70
     3
  0
VPORT
  5
1F5
330
8
100
AcDbSymbolTableRecord
100
AcDbViewportTableRecord
  2
*ACTIVE
 70
     0
 10
0.0
 20
0.0
 11
1.0
 21
1.0
 12
109.0
 22
67.0
 13
0.0
 23
0.0
 14
1.0
 24
1.0
 15
0.0
 25
0.0
 16
0.0
 26
0.0
 36
1.0
 17
0.0
 27
0.0
 37
0.0
 40
135.4952215038362
 41
2.078104993597951
 42
50.0
 43
0.0
 44
0.0
 50
0.0
 51
0.0
 71
     0
 72
   100
 73
     1
 74
     3
 75
     0
 76
     0
 77
     0
 78
     0
  0
ENDTAB
  0
TABLE
  2
LTYPE
  5
5
330
0
100
AcDbSymbolTable
 70
     1
  0
LTYPE
  5
13
330
5
100
AcDbSymbolTableRecord
100
AcDbLinetypeTableRecord
  2
BYBLOCK
 70
     0
  3

 72
    65
 73
     0
 40
0.0
  0
LTYPE
  5
14
330
5
100
AcDbSymbolTableRecord
100
AcDbLinetypeTableRecord
  2
BYLAYER
 70
     0
  3

 72
    65
 73
     0
 40
0.0
  0
LTYPE
  5
15
330
5
100
AcDbSymbolTableRecord
100
AcDbLinetypeTableRecord
  2
CONTINUOUS
 70
     0
  3
Solid line
 72
    65
 73
     0
 40
0.0
  0
ENDTAB
  0
TABLE
  2
LAYER
  5
2
330
0
100
AcDbSymbolTable
 70
     1
  0
LAYER
  5
10
330
2
100
AcDbSymbolTableRecord
100
AcDbLayerTableRecord
  2
0
 70
     0
 62
     7
  6
CONTINUOUS
  0
ENDTAB
  0
TABLE
  2
STYLE
  5
3
330
0
100
AcDbSymbolTable
 70
     1
  0
STYLE
  5
11
330
3
100
AcDbSymbolTableRecord
100
AcDbTextStyleTableRecord
  2
STANDARD
 70
     0
 40
0.0
 41
1.0
 50
0.0
 71
     0
 42
0.2
  3
txt
  4

  0
ENDTAB
  0
TABLE
  2
VIEW
  5
6
330
0
100
AcDbSymbolTable
 70
     0
  0
ENDTAB
  0
TABLE
  2
UCS
  5
7
330
0
100
AcDbSymbolTable
 70
     0
  0
ENDTAB
  0
TABLE
  2
APPID
  5
9
330
0
100
AcDbSymbolTable
 70
     1
  0
APPID
  5
12
330
9
100
AcDbSymbolTableRecord
100
AcDbRegAppTableRecord
  2
ACAD
 70
     0
  0
ENDTAB
  0
TABLE
  2
DIMSTYLE
  5
A
330
0
100
AcDbSymbolTable
 70
     1
  0
DIMSTYLE
105
17B
330
A
100
AcDbSymbolTableRecord
100
AcDbDimStyleTableRecord
  2
STANDARD
 70
     0
  3

  4

  5

  6

  7

 40
1.0
 41
0.18
 42
0.0625
 43
0.38
 44
0.18
 45
0.0
 46
0.0
 47
0.0
 48
0.0
140
0.18
141
0.09
142
0.0
143
25.4
144
1.0
145
0.0
146
1.0
147
0.09
 71
     0
 72
     0
 73
     1
 74
     1
 75
     0
 76
     0
 77
     0
 78
     0
170
     0
171
     2
172
     0
173
     0
174
     0
175
     0
176
     0
177
     0
178
     0
270
     2
271
     4
272
     4
273
     2
274
     2
340
11
275
     0
280
     0
281
     0
282
     0
283
     1
284
     0
285
     0
286
     0
287
     3
288
     0
  0
ENDTAB
  0
TABLE
  2
BLOCK_RECORD
  5
1
330
0
100
AcDbSymbolTable
 70
     0
  0
BLOCK_RECORD
  5
1E
102
{ACAD_XDICTIONARY
360
218
102
}
330
1
100
AcDbSymbolTableRecord
100
AcDbBlockTableRecord
  2
*MODEL_SPACE
  0
BLOCK_RECORD
  5
1A
102
{ACAD_XDICTIONARY
360
216
102
}
330
1
100
AcDbSymbolTableRecord
100
AcDbBlockTableRecord
  2
*PAPER_SPACE
  0
ENDTAB
  0
ENDSEC
  0
SECTION
  2
BLOCKS
  0
BLOCK
  5
1F
330
1E
100
AcDbEntity
  8
0
100
AcDbBlockBegin
  2
*MODEL_SPACE
 70
     0
 10
0.0
 20
0.0
 30
0.0
  3
*MODEL_SPACE
  1

  0
ENDBLK
  5
20
330
1E
100
AcDbEntity
  8
0
100
AcDbBlockEnd
  0
BLOCK
  5
1B
330
1A
100
AcDbEntity
 67
     1
  8
0
100
AcDbBlockBegin
  2
*PAPER_SPACE
 70
     0
 10
0.0
 20
0.0
 30
0.0
  3
*PAPER_SPACE
  1

  0
ENDBLK
  5
1C
330
1A
100
AcDbEntity
 67
     1
  8
0
100
AcDbBlockEnd
  0
ENDSEC
  0
SECTION
  2
ENTITIES
  0
LINE
  5
22
330
1E
100
AcDbEntity
  8
0
100
AcDbLine
 10
-0.0000000000000061
 20
91.231766
 30
0.0
 11
-0.0000000000000061
 21
88.731766
 31
0.0
  0
LINE
  5
23
330
1E
100
AcDbEntity
  8
0
100
AcDbLine
 10
-0.0000000000000061
 20
91.231766
 30
0.0
 11
0.499999999999994
 21
92.73176600000001
 31
0.0
  0
LINE
  5
24
330
1E
100
AcDbEntity
  8
0
100
AcDbLine
 10
-0.0000000000000061
 20
88.731766
 30
0.0
 11
-0.0000000000000061
 21
91.231766
 31
0.0
  0
LINE
  5
25
330
1E
100
AcDbEntity
  8
0
100
AcDbLine
 10
-0.0000000000000061
 20
88.731766
 30
0.0
 11
-0.0000000000000061
 21
83.43176600000001
 31
0.0
  0
LINE
  5
26
330
1E
100
AcDbEntity
  8
0
100
AcDbLine
 10
-0.0000000000000061
 20
83.43176600000001
 30
0.0
 11
-0.0000000000000061
 21
88.731766
 31
0.0
  0
LINE
  5
27
330
1E
100
AcDbEntity
  8
0
100
AcDbLine
 10
-0.0000000000000061
 20
83.43176600000001
 30
0.0
 11
-0.0000000000000061
 21
77.23176600000001
 31
0.0
  0
LINE
  5
28
330
1E
100
AcDbEntity
  8
0
100
AcDbLine
 10
-0.0000000000000061
 20
77.23176600000001
 30
0.0
 11
-0.0000000000000061
 21
83.43176600000001
 31
0.0
  0
LINE
  5
29
330
1E
100
AcDbEntity
  8
0
100
AcDbLine
 10
-0.0000000000000061
 20
77.23176600000001
 30
0.0
 11
-0.0000000000000061
 21
70.731766
 31
0.0
  0
LINE
  5
2A
330
1E
100
AcDbEntity
  8
0
100
AcDbLine
 10
-0.0000000000000061
 20
70.731766
 30
0.0
 11
-0.0000000000000061
 21
77.23176600000001
 31
0.0
  0
LINE
  5
2B
330
1E
100
AcDbEntity
  8
0
100
AcDbLine
 10
-0.0000000000000061
 20
70.731766
 30
0.0
 11
-0.0000000000000061
 21
65.43176600000001
 31
0.0
  0
LINE
  5
2C
330
1E
100
AcDbEntity
  8
0
100
AcDbLine
 10
-0.0000000000000061
 20
65.43176600000001
 30
0.0
 11
-0.0000000000000061
 21
70.731766
 31
0.0
  0
LINE
  5
2D
330
1E
100
AcDbEntity
  8
0
100
AcDbLine
 10
-0.0000000000000061
 20
65.43176600000001
 30
0.0
 11
-0.0000000000000061
 21
60.531766
 31
0.0
  0
LINE
  5
2E
330
1E
100
AcDbEntity
  8
0
100
AcDbLine
 10
-0.0000000000000061
 20
60.531766
 30
0.0
 11
-0.0000000000000061
 21
65.43176600000001
 31
0.0
  0
LINE
  5
2F
330
1E
100
AcDbEntity
  8
0
100
AcDbLine
 10
-0.0000000000000061
 20
60.531766
 30
0.0
 11
-0.0000000000000061
 21
56.231766
 31
0.0
  0
LINE
  5
30
330
1E
100
AcDbEntity
  8
0
100
AcDbLine
 10
-0.0000000000000061
 20
56.231766
 30
0.0
 11
-0.0000000000000061
 21
60.531766
 31
0.0
  0
LINE
  5
31
330
1E
100
AcDbEntity
  8
0
100
AcDbLine
 10
-0.0000000000000061
 20
56.231766
 30
0.0
 11
-0.0000000000000061
 21
53.031766
 31
0.0
  0
LINE
  5
32
330
1E
100
AcDbEntity
  8
0
100
AcDbLine
 10
-0.0000000000000061
 20
53.031766
 30
0.0
 11
-0.0000000000000061
 21
56.231766
 31
0.0
  0
LINE
  5
33
330
1E
100
AcDbEntity
  8
0
100
AcDbLine
 10
-0.0000000000000061
 20
53.031766
 30
0.0
 11
-0.0000000000000061
 21
50.93176599999999
 31
0.0
  0
LINE
  5
34
330
1E
100
AcDbEntity
  8
0
100
AcDbLine
 10
-0.0000000000000061
 20
50.93176599999999
 30
0.0
 11
-0.0000000000000061
 21
53.031766
 31
0.0
  0
LINE
  5
35
330
1E
100
AcDbEntity
  8
0
100
AcDbLine
 10
-0.0000000000000061
 20
50.93176599999999
 30
0.0
 11
-0.0000000000000061
 21
50.231766
 31
0.0
  0
LINE
  5
36
330
1E
100
AcDbEntity
  8
0
100
AcDbLine
 10
1.999999999999989
 20
48.231766
 30
0.0
 11
131.560059809139
 21
48.231766
 31
0.0
  0
LINE
  5
37
330
1E
100
AcDbEntity
  8
0
100
AcDbLine
 10
1.999999999999989
 20
48.231766
 30
0.0
 11
131.560059809139
 21
48.231766
 31
0.0
  0
LINE
  5
38
330
1E
100
AcDbEntity
  8
0
100
AcDbLine
 10
0.499999999999994
 20
92.73176600000001
 30
0.0
 11
0.499999999999994
 21
90.03176600000001
 31
0.0
  0
LINE
  5
39
330
1E
100
AcDbEntity
  8
0
100
AcDbLine
 10
0.499999999999994
 20
92.73176600000001
 30
0.0
 11
1.999999999999989
 21
93.23176600000001
 31
0.0
  0
LINE
  5
3A
330
1E
100
AcDbEntity
  8
0
100
AcDbLine
 10
0.499999999999994
 20
90.03176600000001
 30
0.0
 11
0.499999999999994
 21
92.73176600000001
 31
0.0
  0
LINE
  5
3B
330
1E
100
AcDbEntity
  8
0
100
AcDbLine
 10
0.499999999999994
 20
90.03176600000001
 30
0.0
 11
0.499999999999994
 21
84.33176600000001
 31
0.0
  0
LINE
  5
3C
330
1E
100
AcDbEntity
  8
0
100
AcDbLine
 10
0.499999999999994
 20
84.33176600000001
 30
0.0
 11
0.499999999999994
 21
90.03176600000001
 31
0.0
  0
LINE
  5
3D
330
1E
100
AcDbEntity
  8
0
100
AcDbLine
 10
0.499999999999994
 20
84.33176600000001
 30
0.0
 11
0.499999999999994
 21
77.73176600000001
 31
0.0
  0
LINE
  5
3E
330
1E
100
AcDbEntity
  8
0
100
AcDbLine
 10
0.499999999999994
 20
77.73176600000001
 30
0.0
 11
0.499999999999994
 21
84.33176600000001
 31
0.0
  0
LINE
  5
3F
330
1E
100
AcDbEntity
  8
0
100
AcDbLine
 10
0.499999999999994
 20
77.73176600000001
 30
0.0
 11
0.499999999999994
 21
70.731766
 31
0.0
  0
LINE
  5
40
330
1E
100
AcDbEntity
  8
0
100
AcDbLine
 10
0.499999999999994
 20
70.731766
 30
0.0
 11
0.499999999999994
 21
77.73176600000001
 31
0.0
  0
LINE
  5
41
330
1E
100
AcDbEntity
  8
0
100
AcDbLine
 10
0.499999999999994
 20
70.731766
 30
0.0
 11
0.499999999999994
 21
65.031766
 31
0.0
  0
LINE
  5
42
330
1E
100
AcDbEntity
  8
0
100
AcDbLine
 10
0.499999999999994
 20
65.031766
 30
0.0
 11
0.499999999999994
 21
70.731766
 31
0.0
  0
LINE
  5
43
330
1E
100
AcDbEntity
  8
0
100
AcDbLine
 10
0.499999999999994
 20
65.031766
 30
0.0
 11
0.499999999999994
 21
59.831766
 31
0.0
  0
LINE
  5
44
330
1E
100
AcDbEntity
  8
0
100
AcDbLine
 10
0.499999999999994
 20
59.831766
 30
0.0
 11
0.499999999999994
 21
65.031766
 31
0.0
  0
LINE
  5
45
330
1E
100
AcDbEntity
  8
0
100
AcDbLine
 10
0.499999999999994
 20
59.831766
 30
0.0
 11
0.499999999999994
 21
55.231766
 31
0.0
  0
LINE
  5
46
330
1E
100
AcDbEntity
  8
0
100
AcDbLine
 10
0.499999999999994
 20
55.231766
 30
0.0
 11
0.499999999999994
 21
59.831766
 31
0.0
  0
LINE
  5
47
330
1E
100
AcDbEntity
  8
0
100
AcDbLine
 10
0.499999999999994
 20
55.231766
 30
0.0
 11
0.499999999999994
 21
51.731766
 31
0.0
  0
LINE
  5
48
330
1E
100
AcDbEntity
  8
0
100
AcDbLine
 10
0.499999999999994
 20
51.731766
 30
0.0
 11
0.499999999999994
 21
55.231766
 31
0.0
  0
LINE
  5
49
330
1E
100
AcDbEntity
  8
0
100
AcDbLine
 10
0.499999999999994
 20
51.731766
 30
0.0
 11
0.499999999999994
 21
49.53176599999999
 31
0.0
  0
LINE
  5
4A
330
1E
100
AcDbEntity
  8
0
100
AcDbLine
 10
1.999999999999989
 20
93.23176600000001
 30
0.0
 11
109.0
 21
93.23176600000001
 31
0.0
  0
LINE
  5
4B
330
1E
100
AcDbEntity
  8
0
100
AcDbLine
 10
1.999999999999989
 20
93.23176600000001
 30
0.0
 11
109.0
 21
93.23176600000001
 31
0.0
  0
LINE
  5
4C
330
1E
100
AcDbEntity
  8
0
100
AcDbLine
 10
0.499999999999994
 20
49.53176599999999
 30
0.0
 11
0.499999999999994
 21
51.731766
 31
0.0
  0
LINE
  5
4D
330
1E
100
AcDbEntity
  8
0
100
AcDbLine
 10
0.499999999999994
 20
49.53176599999999
 30
0.0
 11
0.499999999999994
 21
48.731766
 31
0.0
  0
LINE
  5
4E
330
1E
100
AcDbEntity
  8
0
100
AcDbLine
 10
0.499999999999994
 20
48.731766
 30
0.0
 11
0.499999999999994
 21
49.53176599999999
 31
0.0
  0
LINE
  5
4F
330
1E
100
AcDbEntity
  8
0
100
AcDbLine
 10
0.499999999999994
 20
48.731766
 30
0.0
 11
1.999999999999989
 21
48.231766
 31
0.0
  0
LINE
  5
50
330
1E
100
AcDbEntity
  8
0
100
AcDbLine
 10
-0.0000000000000061
 20
50.231766
 30
0.0
 11
-0.0000000000000061
 21
50.93176599999999
 31
0.0
  0
LINE
  5
51
330
1E
100
AcDbEntity
  8
0
100
AcDbLine
 10
-0.0000000000000061
 20
50.231766
 30
0.0
 11
0.499999999999994
 21
48.731766
 31
0.0
  0
LINE
  5
52
330
1E
100
AcDbEntity
  8
0
100
AcDbLine
 10
2.66666999999999
 20
111.2317659999999
 30
0.0
 11
23.0
 21
111.2317659999999
 31
0.0
  0
LINE
  5
53
330
1E
100
AcDbEntity
  8
0
100
AcDbLine
 10
2.66666999999999
 20
111.2317659999999
 30
0.0
 11
3.86666999999999
 21
111.2317659999999
 31
0.0
  0
LINE
  5
54
330
1E
100
AcDbEntity
  8
0
100
AcDbLine
 10
2.66666999999999
 20
111.2317659999999
 30
0.0
 11
23.0
 21
111.2317659999999
 31
0.0
  0
LINE
  5
55
330
1E
100
AcDbEntity
  8
0
100
AcDbLine
 10
3.86666999999999
 20
111.2317659999999
 30
0.0
 11
6.79999999999999
 21
111.2317659999999
 31
0.0
  0
LINE
  5
56
330
1E
100
AcDbEntity
  8
0
100
AcDbLine
 10
6.79999999999999
 20
111.2317659999999
 30
0.0
 11
11.8667
 21
111.2317659999999
 31
0.0
  0
LINE
  5
57
330
1E
100
AcDbEntity
  8
0
100
AcDbLine
 10
0.6666669999999941
 20
111.7317659999999
 30
0.0
 11
2.66666999999999
 21
111.2317659999999
 31
0.0
  0
LINE
  5
58
330
1E
100
AcDbEntity
  8
0
100
AcDbLine
 10
0.6666669999999941
 20
111.7317659999999
 30
0.0
 11
1.866669999999989
 21
111.7317659999999
 31
0.0
  0
LINE
  5
59
330
1E
100
AcDbEntity
  8
0
100
AcDbLine
 10
-0.0000000000000061
 20
134.2317659999999
 30
0.0
 11
1.199999999999989
 21
134.2317659999999
 31
0.0
  0
LINE
  5
5A
330
1E
100
AcDbEntity
  8
0
100
AcDbLine
 10
-0.0000000000000061
 20
134.2317659999999
 30
0.0
 11
-0.0000000000000061
 21
113.231766
 31
0.0
  0
LINE
  5
5B
330
1E
100
AcDbEntity
  8
0
100
AcDbLine
 10
-0.0000000000000061
 20
113.231766
 30
0.0
 11
0.6666669999999941
 21
111.7317659999999
 31
0.0
  0
LINE
  5
5C
330
1E
100
AcDbEntity
  8
0
100
AcDbLine
 10
-0.0000000000000061
 20
113.231766
 30
0.0
 11
-0.0000000000000061
 21
134.2317659999999
 31
0.0
  0
LINE
  5
5D
330
1E
100
AcDbEntity
  8
0
100
AcDbLine
 10
1.866669999999989
 20
111.7317659999999
 30
0.0
 11
5.19999999999999
 21
111.7317659999999
 31
0.0
  0
LINE
  5
5E
330
1E
100
AcDbEntity
  8
0
100
AcDbLine
 10
5.19999999999999
 20
111.7317659999999
 30
0.0
 11
10.4
 21
111.7317659999999
 31
0.0
  0
LINE
  5
5F
330
1E
100
AcDbEntity
  8
0
100
AcDbLine
 10
4.53329999999999
 20
134.2317659999999
 30
0.0
 11
9.999999999999991
 21
134.2317659999999
 31
0.0
  0
LINE
  5
60
330
1E
100
AcDbEntity
  8
0
100
AcDbLine
 10
1.199999999999989
 20
134.2317659999999
 30
0.0
 11
4.53329999999999
 21
134.2317659999999
 31
0.0
  0
LINE
  5
61
330
1E
100
AcDbEntity
  8
0
100
AcDbLine
 10
10.4
 20
111.7317659999999
 30
0.0
 11
17.46669999999999
 21
111.7317659999999
 31
0.0
  0
LINE
  5
62
330
1E
100
AcDbEntity
  8
0
100
AcDbLine
 10
17.46669999999999
 20
111.7317659999999
 30
0.0
 11
25.4667
 21
111.7317659999999
 31
0.0
  0
LINE
  5
63
330
1E
100
AcDbEntity
  8
0
100
AcDbLine
 10
9.999999999999991
 20
134.2317659999999
 30
0.0
 11
17.0667
 21
134.2317659999999
 31
0.0
  0
LINE
  5
64
330
1E
100
AcDbEntity
  8
0
100
AcDbLine
 10
17.0667
 20
134.2317659999999
 30
0.0
 11
25.2
 21
134.2317659999999
 31
0.0
  0
LINE
  5
65
330
1E
100
AcDbEntity
  8
0
100
AcDbLine
 10
0.6666669999999941
 20
111.7317659999999
 30
0.0
 11
2.66666999999999
 21
111.2317659999999
 31
0.0
  0
LINE
  5
66
330
1E
100
AcDbEntity
  8
0
100
AcDbLine
 10
0.6666669999999941
 20
111.7317659999999
 30
0.0
 11
1.866669999999989
 21
111.7317659999999
 31
0.0
  0
LINE
  5
67
330
1E
100
AcDbEntity
  8
0
100
AcDbLine
 10
11.8667
 20
111.2317659999999
 30
0.0
 11
18.39999999999999
 21
111.2317659999999
 31
0.0
  0
LINE
  5
68
330
1E
100
AcDbEntity
  8
0
100
AcDbLine
 10
24.8
 20
95.23176600000001
 30
0.0
 11
27.5
 21
95.23176600000001
 31
0.0
  0
LINE
  5
69
330
1E
100
AcDbEntity
  8
0
100
AcDbLine
 10
27.5
 20
95.23176600000001
 30
0.0
 11
30.6
 21
95.23176600000001
 31
0.0
  0
LINE
  5
6A
330
1E
100
AcDbEntity
  8
0
100
AcDbLine
 10
40.49999999999999
 20
95.23176600000001
 30
0.0
 11
43.2
 21
95.23176600000001
 31
0.0
  0
LINE
  5
6B
330
1E
100
AcDbEntity
  8
0
100
AcDbLine
 10
37.4
 20
95.23176600000001
 30
0.0
 11
40.49999999999999
 21
95.23176600000001
 31
0.0
  0
LINE
  5
6C
330
1E
100
AcDbEntity
  8
0
100
AcDbLine
 10
115.0239999999999
 20
0.0579600000000001
 30
0.0
 11
120.671
 21
0.8626959999999998
 31
0.0
  0
LINE
  5
6D
330
1E
100
AcDbEntity
  8
0
100
AcDbLine
 10
109.0
 20
-0.231766
 30
0.0
 11
115.0239999999999
 21
0.0579600000000001
 31
0.0
  0
LINE
  5
6E
330
1E
100
AcDbEntity
  8
0
100
AcDbLine
 10
115.0239999999999
 20
0.0579600000000001
 30
0.0
 11
120.671
 21
0.8626959999999998
 31
0.0
  0
LINE
  5
6F
330
1E
100
AcDbEntity
  8
0
100
AcDbLine
 10
109.0
 20
-0.231766
 30
0.0
 11
115.0239999999999
 21
0.0579600000000001
 31
0.0
  0
LINE
  5
70
330
1E
100
AcDbEntity
  8
0
100
AcDbLine
 10
102.976
 20
0.0579600000000001
 30
0.0
 11
109.0
 21
-0.231766
 31
0.0
  0
LINE
  5
71
330
1E
100
AcDbEntity
  8
0
100
AcDbLine
 10
47.0
 20
95.23176600000001
 30
0.0
 11
47.0
 21
97.23176600000002
 31
0.0
  0
LINE
  5
72
330
1E
100
AcDbEntity
  8
0
100
AcDbLine
 10
21.49999999999999
 20
95.23176600000001
 30
0.0
 11
47.0
 21
95.23176600000001
 31
0.0
  0
LINE
  5
73
330
1E
100
AcDbEntity
  8
0
100
AcDbLine
 10
85.0
 20
48.231766
 30
0.0
 11
85.0
 21
41.131266
 31
0.0
  0
LINE
  5
74
330
1E
100
AcDbEntity
  8
0
100
AcDbLine
 10
85.0
 20
41.131266
 30
0.0
 11
85.84709999999999
 21
39.03086599999999
 31
0.0
  0
LINE
  5
75
330
1E
100
AcDbEntity
  8
0
100
AcDbLine
 10
85.0
 20
41.131266
 30
0.0
 11
85.0
 21
48.231766
 31
0.0
  0
LINE
  5
76
330
1E
100
AcDbEntity
  8
0
100
AcDbLine
 10
85.0
 20
38.43346599999999
 30
0.0
 11
85.0
 21
9.146575999999999
 31
0.0
  0
LINE
  5
77
330
1E
100
AcDbEntity
  8
0
100
AcDbLine
 10
85.0
 20
38.43346599999999
 30
0.0
 11
85.84709999999999
 21
34.71136599999999
 31
0.0
  0
LINE
  5
78
330
1E
100
AcDbEntity
  8
0
100
AcDbLine
 10
85.0
 20
38.43346599999999
 30
0.0
 11
85.54093932823629
 21
39.7899970057519
 31
0.0
  0
LINE
  5
79
330
1E
100
AcDbEntity
  8
0
100
AcDbLine
 10
85.0
 20
9.146575999999999
 30
0.0
 11
85.4706
 21
7.815255999999999
 31
0.0
  0
LINE
  5
7A
330
1E
100
AcDbEntity
  8
0
100
AcDbLine
 10
85.0
 20
9.146575999999999
 30
0.0
 11
85.0
 21
38.43346599999999
 31
0.0
  0
LINE
  5
7B
330
1E
100
AcDbEntity
  8
0
100
AcDbLine
 10
85.84709999999999
 20
39.03086599999999
 30
0.0
 11
86.2
 21
38.47676599999999
 31
0.0
  0
LINE
  5
7C
330
1E
100
AcDbEntity
  8
0
100
AcDbLine
 10
88.5294
 20
36.52126599999999
 30
0.0
 11
92.27059999999999
 21
34.831266
 31
0.0
  0
LINE
  5
7D
330
1E
100
AcDbEntity
  8
0
100
AcDbLine
 10
86.48940000000001
 20
37.99276599999999
 30
0.0
 11
87.27304520533719
 21
34.9832545370591
 31
0.0
  0
LINE
  5
7E
330
1E
100
AcDbEntity
  8
0
100
AcDbLine
 10
86.2
 20
38.47676599999999
 30
0.0
 11
88.5294
 21
36.52126599999999
 31
0.0
  0
LINE
  5
7F
330
1E
100
AcDbEntity
  8
0
100
AcDbLine
 10
86.4404097886627
 20
38.27494521278879
 30
0.0
 11
86.48940000000001
 21
37.99276599999999
 31
0.0
  0
LINE
  5
80
330
1E
100
AcDbEntity
  8
0
100
AcDbLine
 10
86.1027732179877
 20
38.6294249966366
 30
0.0
 11
86.78819999999999
 21
35.69576599999999
 31
0.0
  0
LINE
  5
81
330
1E
100
AcDbEntity
  8
0
100
AcDbLine
 10
86.78819999999999
 20
35.69576599999999
 30
0.0
 11
89.04709999999999
 21
32.37616599999999
 31
0.0
  0
LINE
  5
82
330
1E
100
AcDbEntity
  8
0
100
AcDbLine
 10
85.84709999999999
 20
34.71136599999999
 30
0.0
 11
88.2
 21
31.238966
 31
0.0
  0
LINE
  5
83
330
1E
100
AcDbEntity
  8
0
100
AcDbLine
 10
88.2
 20
31.238966
 30
0.0
 11
92.0588
 21
28.20136599999999
 31
0.0
  0
LINE
  5
84
330
1E
100
AcDbEntity
  8
0
100
AcDbLine
 10
85.4706
 20
7.815255999999999
 30
0.0
 11
86.31759999999999
 21
5.755475999999999
 31
0.0
  0
LINE
  5
85
330
1E
100
AcDbEntity
  8
0
100
AcDbLine
 10
86.31759999999999
 20
5.755475999999999
 30
0.0
 11
88.6706
 21
3.823995999999999
 31
0.0
  0
LINE
  5
86
330
1E
100
AcDbEntity
  8
0
100
AcDbLine
 10
89.04709999999999
 20
32.37616599999999
 30
0.0
 11
92.7176
 21
29.49226599999999
 31
0.0
  0
LINE
  5
87
330
1E
100
AcDbEntity
  8
0
100
AcDbLine
 10
92.27059999999999
 20
34.831266
 30
0.0
 11
97.2118
 21
33.55166599999999
 31
0.0
  0
LINE
  5
88
330
1E
100
AcDbEntity
  8
0
100
AcDbLine
 10
97.2118
 20
33.55166599999999
 30
0.0
 11
102.929
 21
32.75496599999999
 31
0.0
  0
LINE
  5
89
330
1E
100
AcDbEntity
  8
0
100
AcDbLine
 10
97.2118
 20
33.55166599999999
 30
0.0
 11
97.5647
 21
33.47986599999999
 31
0.0
  0
LINE
  5
8A
330
1E
100
AcDbEntity
  8
0
100
AcDbLine
 10
92.7176
 20
29.49226599999999
 30
0.0
 11
97.5176
 21
27.34876599999999
 31
0.0
  0
LINE
  5
8B
330
1E
100
AcDbEntity
  8
0
100
AcDbLine
 10
92.0588
 20
28.20136599999999
 30
0.0
 11
97.0471
 21
25.905966
 31
0.0
  0
LINE
  5
8C
330
1E
100
AcDbEntity
  8
0
100
AcDbLine
 10
97.0471
 20
25.905966
 30
0.0
 11
102.7879999999999
 21
24.568366
 31
0.0
  0
LINE
  5
8D
330
1E
100
AcDbEntity
  8
0
100
AcDbLine
 10
88.6706
 20
3.823995999999999
 30
0.0
 11
92.3412
 21
2.117706
 31
0.0
  0
LINE
  5
8E
330
1E
100
AcDbEntity
  8
0
100
AcDbLine
 10
92.3412
 20
2.117706
 30
0.0
 11
97.32940000000001
 21
0.8626959999999998
 31
0.0
  0
LINE
  5
8F
330
1E
100
AcDbEntity
  8
0
100
AcDbLine
 10
115.212
 20
24.568366
 30
0.0
 11
120.9529999999999
 21
25.905966
 31
0.0
  0
LINE
  5
90
330
1E
100
AcDbEntity
  8
0
100
AcDbLine
 10
109.0
 20
24.012166
 30
0.0
 11
115.212
 21
24.568366
 31
0.0
  0
LINE
  5
91
330
1E
100
AcDbEntity
  8
0
100
AcDbLine
 10
133.0
 20
9.146575999999999
 30
0.0
 11
133.0
 21
38.43346599999999
 31
0.0
  0
LINE
  5
92
330
1E
100
AcDbEntity
  8
0
100
AcDbLine
 10
132.529
 20
7.815255999999999
 30
0.0
 11
133.0
 21
9.146575999999999
 31
0.0
  0
LINE
  5
93
330
1E
100
AcDbEntity
  8
0
100
AcDbLine
 10
131.682
 20
5.755475999999999
 30
0.0
 11
132.529
 21
7.815255999999999
 31
0.0
  0
LINE
  5
94
330
1E
100
AcDbEntity
  8
0
100
AcDbLine
 10
129.329
 20
3.823995999999999
 30
0.0
 11
131.682
 21
5.755475999999999
 31
0.0
  0
LINE
  5
95
330
1E
100
AcDbEntity
  8
0
100
AcDbLine
 10
125.6589999999999
 20
2.117706
 30
0.0
 11
129.329
 21
3.823995999999999
 31
0.0
  0
LINE
  5
96
330
1E
100
AcDbEntity
  8
0
100
AcDbLine
 10
120.671
 20
0.8626959999999998
 30
0.0
 11
125.6589999999999
 21
2.117706
 31
0.0
  0
LINE
  5
97
330
1E
100
AcDbEntity
  8
0
100
AcDbLine
 10
100.3212995921319
 20
26.6452410636303
 30
0.0
 11
103.421
 21
26.128066
 31
0.0
  0
LINE
  5
98
330
1E
100
AcDbEntity
  8
0
100
AcDbLine
 10
102.929
 20
32.75496599999999
 30
0.0
 11
109.0
 21
32.465266
 31
0.0
  0
LINE
  5
99
330
1E
100
AcDbEntity
  8
0
100
AcDbLine
 10
97.5176
 20
27.34876599999999
 30
0.0
 11
103.071
 21
25.955266
 31
0.0
  0
LINE
  5
9A
330
1E
100
AcDbEntity
  8
0
100
AcDbLine
 10
114.5789999999999
 20
26.128066
 30
0.0
 11
117.678230245694
 21
26.645172779646
 31
0.0
  0
LINE
  5
9B
330
1E
100
AcDbEntity
  8
0
100
AcDbLine
 10
109.0
 20
25.85896599999999
 30
0.0
 11
114.5789999999999
 21
26.128066
 31
0.0
  0
LINE
  5
9C
330
1E
100
AcDbEntity
  8
0
100
AcDbLine
 10
114.929
 20
25.955266
 30
0.0
 11
120.482
 21
27.34876599999999
 31
0.0
  0
LINE
  5
9D
330
1E
100
AcDbEntity
  8
0
100
AcDbLine
 10
109.0
 20
25.488166
 30
0.0
 11
114.929
 21
25.955266
 31
0.0
  0
LINE
  5
9E
330
1E
100
AcDbEntity
  8
0
100
AcDbLine
 10
120.9529999999999
 20
25.905966
 30
0.0
 11
125.941
 21
28.20136599999999
 31
0.0
  0
LINE
  5
9F
330
1E
100
AcDbEntity
  8
0
100
AcDbLine
 10
109.0
 20
32.465266
 30
0.0
 11
115.0709999999999
 21
32.75496599999999
 31
0.0
  0
LINE
  5
A0
330
1E
100
AcDbEntity
  8
0
100
AcDbLine
 10
125.282
 20
29.49226599999999
 30
0.0
 11
128.953
 21
32.37616599999999
 31
0.0
  0
LINE
  5
A1
330
1E
100
AcDbEntity
  8
0
100
AcDbLine
 10
120.482
 20
27.34876599999999
 30
0.0
 11
125.282
 21
29.49226599999999
 31
0.0
  0
LINE
  5
A2
330
1E
100
AcDbEntity
  8
0
100
AcDbLine
 10
128.953
 20
32.37616599999999
 30
0.0
 11
131.212
 21
35.69576599999999
 31
0.0
  0
LINE
  5
A3
330
1E
100
AcDbEntity
  8
0
100
AcDbLine
 10
129.8
 20
31.238966
 30
0.0
 11
132.1529999999999
 21
34.71136599999999
 31
0.0
  0
LINE
  5
A4
330
1E
100
AcDbEntity
  8
0
100
AcDbLine
 10
125.941
 20
28.20136599999999
 30
0.0
 11
129.8
 21
31.238966
 31
0.0
  0
LINE
  5
A5
330
1E
100
AcDbEntity
  8
0
100
AcDbLine
 10
120.788
 20
33.55166599999999
 30
0.0
 11
125.729
 21
34.831266
 31
0.0
  0
LINE
  5
A6
330
1E
100
AcDbEntity
  8
0
100
AcDbLine
 10
125.729
 20
34.831266
 30
0.0
 11
129.471
 21
36.52126599999999
 31
0.0
  0
LINE
  5
A7
330
1E
100
AcDbEntity
  8
0
100
AcDbLine
 10
130.727102959802
 20
34.9832099067553
 30
0.0
 11
131.511
 21
37.99276599999999
 31
0.0
  0
LINE
  5
A8
330
1E
100
AcDbEntity
  8
0
100
AcDbLine
 10
129.471
 20
36.52126599999999
 30
0.0
 11
131.8
 21
38.47676599999999
 31
0.0
  0
LINE
  5
A9
330
1E
100
AcDbEntity
  8
0
100
AcDbLine
 10
131.8
 20
38.47676599999999
 30
0.0
 11
132.1529999999999
 21
39.03086599999999
 31
0.0
  0
LINE
  5
AA
330
1E
100
AcDbEntity
  8
0
100
AcDbLine
 10
131.511
 20
37.99276599999999
 30
0.0
 11
131.5600044994109
 21
38.2752583995698
 31
0.0
  0
LINE
  5
AB
330
1E
100
AcDbEntity
  8
0
100
AcDbLine
 10
131.212
 20
35.69576599999999
 30
0.0
 11
131.897526654951
 21
38.6298524575308
 31
0.0
  0
LINE
  5
AC
330
1E
100
AcDbEntity
  8
0
100
AcDbLine
 10
133.0
 20
38.43346599999999
 30
0.0
 11
133.0
 21
9.146575999999999
 31
0.0
  0
LINE
  5
AD
330
1E
100
AcDbEntity
  8
0
100
AcDbLine
 10
132.1529999999999
 20
34.71136599999999
 30
0.0
 11
133.0
 21
38.43346599999999
 31
0.0
  0
LINE
  5
AE
330
1E
100
AcDbEntity
  8
0
100
AcDbLine
 10
120.435
 20
33.47986599999999
 30
0.0
 11
120.788
 21
33.55166599999999
 31
0.0
  0
LINE
  5
AF
330
1E
100
AcDbEntity
  8
0
100
AcDbLine
 10
115.0709999999999
 20
32.75496599999999
 30
0.0
 11
120.788
 21
33.55166599999999
 31
0.0
  0
LINE
  5
B0
330
1E
100
AcDbEntity
  8
0
100
AcDbLine
 10
132.459124529552
 20
39.7899970057519
 30
0.0
 11
133.0
 21
38.43346599999999
 31
0.0
  0
LINE
  5
B1
330
1E
100
AcDbEntity
  8
0
100
AcDbLine
 10
133.0
 20
48.231766
 30
0.0
 11
133.0
 21
41.131266
 31
0.0
  0
LINE
  5
B2
330
1E
100
AcDbEntity
  8
0
100
AcDbLine
 10
133.0
 20
41.131266
 30
0.0
 11
133.0
 21
48.231766
 31
0.0
  0
LINE
  5
B3
330
1E
100
AcDbEntity
  8
0
100
AcDbLine
 10
132.1529999999999
 20
39.03086599999999
 30
0.0
 11
133.0
 21
41.131266
 31
0.0
  0
LINE
  5
B4
330
1E
100
AcDbEntity
  8
0
100
AcDbLine
 10
216.0
 20
48.231766
 30
0.0
 11
217.5
 21
48.731766
 31
0.0
  0
LINE
  5
B5
330
1E
100
AcDbEntity
  8
0
100
AcDbLine
 10
217.5
 20
48.731766
 30
0.0
 11
218.0
 21
50.231766
 31
0.0
  0
LINE
  5
B6
330
1E
100
AcDbEntity
  8
0
100
AcDbLine
 10
217.5
 20
48.731766
 30
0.0
 11
217.5
 21
49.53176599999999
 31
0.0
  0
LINE
  5
B7
330
1E
100
AcDbEntity
  8
0
100
AcDbLine
 10
217.5
 20
49.53176599999999
 30
0.0
 11
217.5
 21
51.731766
 31
0.0
  0
LINE
  5
B8
330
1E
100
AcDbEntity
  8
0
100
AcDbLine
 10
217.5
 20
49.53176599999999
 30
0.0
 11
217.5
 21
48.731766
 31
0.0
  0
LINE
  5
B9
330
1E
100
AcDbEntity
  8
0
100
AcDbLine
 10
217.5
 20
51.731766
 30
0.0
 11
217.5
 21
49.53176599999999
 31
0.0
  0
LINE
  5
BA
330
1E
100
AcDbEntity
  8
0
100
AcDbLine
 10
217.5
 20
51.731766
 30
0.0
 11
217.5
 21
55.231766
 31
0.0
  0
LINE
  5
BB
330
1E
100
AcDbEntity
  8
0
100
AcDbLine
 10
218.0
 20
50.231766
 30
0.0
 11
218.0
 21
88.731766
 31
0.0
  0
LINE
  5
BD
330
1E
100
AcDbEntity
  8
0
100
AcDbLine
 10
217.5
 20
55.231766
 30
0.0
 11
217.5
 21
59.831766
 31
0.0
  0
LINE
  5
BE
330
1E
100
AcDbEntity
  8
0
100
AcDbLine
 10
217.5
 20
55.231766
 30
0.0
 11
217.5
 21
51.731766
 31
0.0
  0
LINE
  5
BF
330
1E
100
AcDbEntity
  8
0
100
AcDbLine
 10
217.5
 20
59.831766
 30
0.0
 11
217.5
 21
55.231766
 31
0.0
  0
LINE
  5
C0
330
1E
100
AcDbEntity
  8
0
100
AcDbLine
 10
217.5
 20
59.831766
 30
0.0
 11
217.5
 21
65.031766
 31
0.0
  0
LINE
  5
C1
330
1E
100
AcDbEntity
  8
0
100
AcDbLine
 10
217.5
 20
65.031766
 30
0.0
 11
217.5
 21
70.731766
 31
0.0
  0
LINE
  5
C2
330
1E
100
AcDbEntity
  8
0
100
AcDbLine
 10
217.5
 20
65.031766
 30
0.0
 11
217.5
 21
59.831766
 31
0.0
  0
LINE
  5
C4
330
1E
100
AcDbEntity
  8
0
100
AcDbLine
 10
217.5
 20
70.731766
 30
0.0
 11
217.5
 21
65.031766
 31
0.0
  0
LINE
  5
C5
330
1E
100
AcDbEntity
  8
0
100
AcDbLine
 10
217.5
 20
70.731766
 30
0.0
 11
217.5
 21
77.73176600000001
 31
0.0
  0
LINE
  5
C6
330
1E
100
AcDbEntity
  8
0
100
AcDbLine
 10
217.5
 20
77.73176600000001
 30
0.0
 11
217.5
 21
70.731766
 31
0.0
  0
LINE
  5
C7
330
1E
100
AcDbEntity
  8
0
100
AcDbLine
 10
217.5
 20
77.73176600000001
 30
0.0
 11
217.5
 21
84.33176600000001
 31
0.0
  0
LINE
  5
CA
330
1E
100
AcDbEntity
  8
0
100
AcDbLine
 10
218.0
 20
88.731766
 30
0.0
 11
218.0
 21
91.231766
 31
0.0
  0
LINE
  5
CB
330
1E
100
AcDbEntity
  8
0
100
AcDbLine
 10
217.5
 20
84.33176600000001
 30
0.0
 11
217.5
 21
90.03176600000001
 31
0.0
  0
LINE
  5
CC
330
1E
100
AcDbEntity
  8
0
100
AcDbLine
 10
217.5
 20
84.33176600000001
 30
0.0
 11
217.5
 21
77.73176600000001
 31
0.0
  0
LINE
  5
CD
330
1E
100
AcDbEntity
  8
0
100
AcDbLine
 10
171.0
 20
95.23176600000001
 30
0.0
 11
173.0
 21
93.23176600000001
 31
0.0
  0
LINE
  5
CE
330
1E
100
AcDbEntity
  8
0
100
AcDbLine
 10
171.0
 20
95.23176600000001
 30
0.0
 11
171.0
 21
97.23176600000002
 31
0.0
  0
LINE
  5
CF
330
1E
100
AcDbEntity
  8
0
100
AcDbLine
 10
171.0
 20
95.23176600000001
 30
0.0
 11
171.5
 21
95.23176600000001
 31
0.0
  0
LINE
  5
D0
330
1E
100
AcDbEntity
  8
0
100
AcDbLine
 10
177.5
 20
95.23176600000001
 30
0.0
 11
180.6
 21
95.23176600000001
 31
0.0
  0
LINE
  5
D1
330
1E
100
AcDbEntity
  8
0
100
AcDbLine
 10
187.4
 20
95.23176600000001
 30
0.0
 11
190.5
 21
95.23176600000001
 31
0.0
  0
LINE
  5
D2
330
1E
100
AcDbEntity
  8
0
100
AcDbLine
 10
190.5
 20
95.23176600000001
 30
0.0
 11
193.2
 21
95.23176600000001
 31
0.0
  0
LINE
  5
D3
330
1E
100
AcDbEntity
  8
0
100
AcDbLine
 10
174.8
 20
95.23176600000001
 30
0.0
 11
177.5
 21
95.23176600000001
 31
0.0
  0
LINE
  5
D4
330
1E
100
AcDbEntity
  8
0
100
AcDbLine
 10
171.5
 20
95.23176600000001
 30
0.0
 11
197.0
 21
95.23176600000001
 31
0.0
  0
LINE
  5
D5
330
1E
100
AcDbEntity
  8
0
100
AcDbLine
 10
197.0
 20
95.23176600000001
 30
0.0
 11
197.0
 21
97.23176600000002
 31
0.0
  0
LINE
  5
D6
330
1E
100
AcDbEntity
  8
0
100
AcDbLine
 10
195.0
 20
93.23176600000001
 30
0.0
 11
197.0
 21
95.23176600000001
 31
0.0
  0
LINE
  5
D7
330
1E
100
AcDbEntity
  8
0
100
AcDbLine
 10
216.0
 20
93.23176600000001
 30
0.0
 11
217.5
 21
92.73176600000001
 31
0.0
  0
LINE
  5
D8
330
1E
100
AcDbEntity
  8
0
100
AcDbLine
 10
217.5
 20
92.73176600000001
 30
0.0
 11
218.0
 21
91.231766
 31
0.0
  0
LINE
  5
D9
330
1E
100
AcDbEntity
  8
0
100
AcDbLine
 10
217.5
 20
92.73176600000001
 30
0.0
 11
217.5
 21
90.03176600000001
 31
0.0
  0
LINE
  5
DA
330
1E
100
AcDbEntity
  8
0
100
AcDbLine
 10
218.0
 20
91.231766
 30
0.0
 11
218.0
 21
88.731766
 31
0.0
  0
LINE
  5
DB
330
1E
100
AcDbEntity
  8
0
100
AcDbLine
 10
217.5
 20
90.03176600000001
 30
0.0
 11
217.5
 21
84.33176600000001
 31
0.0
  0
LINE
  5
DC
330
1E
100
AcDbEntity
  8
0
100
AcDbLine
 10
217.5
 20
90.03176600000001
 30
0.0
 11
217.5
 21
92.73176600000001
 31
0.0
  0
LINE
  5
E3
330
1E
100
AcDbEntity
  8
0
100
AcDbLine
 10
218.0
 20
88.731766
 30
0.0
 11
218.0
 21
50.231766
 31
0.0
  0
LINE
  5
E4
330
1E
100
AcDbEntity
  8
0
100
AcDbLine
 10
131.560059809139
 20
48.231766
 30
0.0
 11
216.0
 21
48.231766
 31
0.0
  0
LINE
  5
E5
330
1E
100
AcDbEntity
  8
0
100
AcDbLine
 10
109.0
 20
93.23176600000001
 30
0.0
 11
216.0
 21
93.23176600000001
 31
0.0
  0
LINE
  5
E6
330
1E
100
AcDbEntity
  8
0
100
AcDbLine
 10
103.421
 20
26.128066
 30
0.0
 11
109.0
 21
25.85896599999999
 31
0.0
  0
LINE
  5
E7
330
1E
100
AcDbEntity
  8
0
100
AcDbLine
 10
103.071
 20
25.955266
 30
0.0
 11
109.0
 21
25.488166
 31
0.0
  0
LINE
  5
E8
330
1E
100
AcDbEntity
  8
0
100
AcDbLine
 10
102.7879999999999
 20
24.568366
 30
0.0
 11
109.0
 21
24.012166
 31
0.0
  0
LINE
  5
E9
330
1E
100
AcDbEntity
  8
0
100
AcDbLine
 10
97.32940000000001
 20
0.8626959999999998
 30
0.0
 11
102.976
 21
0.0579600000000001
 31
0.0
  0
LINE
  5
EA
330
1E
100
AcDbEntity
  8
0
100
AcDbLine
 10
97.32940000000001
 20
0.8626959999999998
 30
0.0
 11
102.976
 21
0.0579600000000001
 31
0.0
  0
LINE
  5
EB
330
1E
100
AcDbEntity
  8
0
100
AcDbLine
 10
102.976
 20
0.0579600000000001
 30
0.0
 11
109.0
 21
-0.231766
 31
0.0
  0
LINE
  5
EC
330
1E
100
AcDbEntity
  8
0
100
AcDbLine
 10
45.0
 20
93.23176600000001
 30
0.0
 11
47.0
 21
95.23176600000001
 31
0.0
  0
LINE
  5
ED
330
1E
100
AcDbEntity
  8
0
100
AcDbLine
 10
21.0
 20
97.23176600000002
 30
0.0
 11
21.0
 21
100.231766
 31
0.0
  0
LINE
  5
EE
330
1E
100
AcDbEntity
  8
0
100
AcDbLine
 10
21.0
 20
97.23176600000002
 30
0.0
 11
21.0
 21
95.23176600000001
 31
0.0
  0
LINE
  5
EF
330
1E
100
AcDbEntity
  8
0
100
AcDbLine
 10
21.0
 20
100.231766
 30
0.0
 11
21.0
 21
97.23176600000002
 31
0.0
  0
LINE
  5
F0
330
1E
100
AcDbEntity
  8
0
100
AcDbLine
 10
21.0
 20
100.231766
 30
0.0
 11
21.0
 21
103.231766
 31
0.0
  0
LINE
  5
F1
330
1E
100
AcDbEntity
  8
0
100
AcDbLine
 10
21.0
 20
103.231766
 30
0.0
 11
21.0
 21
105.2317659999999
 31
0.0
  0
LINE
  5
F2
330
1E
100
AcDbEntity
  8
0
100
AcDbLine
 10
21.0
 20
103.231766
 30
0.0
 11
21.0
 21
100.231766
 31
0.0
  0
LINE
  5
F3
330
1E
100
AcDbEntity
  8
0
100
AcDbLine
 10
24.8
 20
105.2317659999999
 30
0.0
 11
27.5
 21
105.2317659999999
 31
0.0
  0
LINE
  5
F4
330
1E
100
AcDbEntity
  8
0
100
AcDbLine
 10
27.5
 20
105.2317659999999
 30
0.0
 11
30.6
 21
105.2317659999999
 31
0.0
  0
LINE
  5
F5
330
1E
100
AcDbEntity
  8
0
100
AcDbLine
 10
26.2
 20
107.2317659999999
 30
0.0
 11
28.5
 21
107.2317659999999
 31
0.0
  0
LINE
  5
F6
330
1E
100
AcDbEntity
  8
0
100
AcDbLine
 10
28.5
 20
107.2317659999999
 30
0.0
 11
31.2
 21
107.2317659999999
 31
0.0
  0
LINE
  5
F7
330
1E
100
AcDbEntity
  8
0
100
AcDbLine
 10
31.2
 20
107.2317659999999
 30
0.0
 11
34.0
 21
107.2317659999999
 31
0.0
  0
LINE
  5
F8
330
1E
100
AcDbEntity
  8
0
100
AcDbLine
 10
40.49999999999999
 20
105.2317659999999
 30
0.0
 11
43.2
 21
105.2317659999999
 31
0.0
  0
LINE
  5
F9
330
1E
100
AcDbEntity
  8
0
100
AcDbLine
 10
37.4
 20
105.2317659999999
 30
0.0
 11
40.49999999999999
 21
105.2317659999999
 31
0.0
  0
LINE
  5
FA
330
1E
100
AcDbEntity
  8
0
100
AcDbLine
 10
41.79999999999999
 20
107.2317659999999
 30
0.0
 11
43.5
 21
107.2317659999999
 31
0.0
  0
LINE
  5
FB
330
1E
100
AcDbEntity
  8
0
100
AcDbLine
 10
47.0
 20
105.2317659999999
 30
0.0
 11
47.0
 21
100.231766
 31
0.0
  0
LINE
  5
FC
330
1E
100
AcDbEntity
  8
0
100
AcDbLine
 10
21.49999999999999
 20
105.2317659999999
 30
0.0
 11
47.0
 21
105.2317659999999
 31
0.0
  0
LINE
  5
FD
330
1E
100
AcDbEntity
  8
0
100
AcDbLine
 10
47.0
 20
100.231766
 30
0.0
 11
47.0
 21
97.23176600000002
 31
0.0
  0
LINE
  5
FE
330
1E
100
AcDbEntity
  8
0
100
AcDbLine
 10
47.0
 20
100.231766
 30
0.0
 11
47.0
 21
105.2317659999999
 31
0.0
  0
LINE
  5
FF
330
1E
100
AcDbEntity
  8
0
100
AcDbLine
 10
44.59999999999999
 20
107.2317659999999
 30
0.0
 11
45.0
 21
107.2317659999999
 31
0.0
  0
LINE
  5
100
330
1E
100
AcDbEntity
  8
0
100
AcDbLine
 10
43.5
 20
107.2317659999999
 30
0.0
 11
44.59999999999999
 21
107.2317659999999
 31
0.0
  0
LINE
  5
101
330
1E
100
AcDbEntity
  8
0
100
AcDbLine
 10
36.79999999999999
 20
107.2317659999999
 30
0.0
 11
39.5
 21
107.2317659999999
 31
0.0
  0
LINE
  5
102
330
1E
100
AcDbEntity
  8
0
100
AcDbLine
 10
39.5
 20
107.2317659999999
 30
0.0
 11
41.79999999999999
 21
107.2317659999999
 31
0.0
  0
LINE
  5
103
330
1E
100
AcDbEntity
  8
0
100
AcDbLine
 10
34.0
 20
107.2317659999999
 30
0.0
 11
36.79999999999999
 21
107.2317659999999
 31
0.0
  0
LINE
  5
104
330
1E
100
AcDbEntity
  8
0
100
AcDbLine
 10
24.5
 20
107.2317659999999
 30
0.0
 11
26.2
 21
107.2317659999999
 31
0.0
  0
LINE
  5
105
330
1E
100
AcDbEntity
  8
0
100
AcDbLine
 10
23.39999999999999
 20
107.2317659999999
 30
0.0
 11
24.5
 21
107.2317659999999
 31
0.0
  0
LINE
  5
106
330
1E
100
AcDbEntity
  8
0
100
AcDbLine
 10
45.0
 20
107.2317659999999
 30
0.0
 11
47.0
 21
105.2317659999999
 31
0.0
  0
LINE
  5
107
330
1E
100
AcDbEntity
  8
0
100
AcDbLine
 10
45.0
 20
107.2317659999999
 30
0.0
 11
45.0
 21
111.2317659999999
 31
0.0
  0
LINE
  5
108
330
1E
100
AcDbEntity
  8
0
100
AcDbLine
 10
171.0
 20
97.23176600000002
 30
0.0
 11
171.0
 21
100.231766
 31
0.0
  0
LINE
  5
109
330
1E
100
AcDbEntity
  8
0
100
AcDbLine
 10
171.0
 20
97.23176600000002
 30
0.0
 11
171.0
 21
95.23176600000001
 31
0.0
  0
LINE
  5
10A
330
1E
100
AcDbEntity
  8
0
100
AcDbLine
 10
171.0
 20
105.2317659999999
 30
0.0
 11
171.0
 21
103.231766
 31
0.0
  0
LINE
  5
10B
330
1E
100
AcDbEntity
  8
0
100
AcDbLine
 10
171.0
 20
105.2317659999999
 30
0.0
 11
171.5
 21
105.2317659999999
 31
0.0
  0
LINE
  5
10C
330
1E
100
AcDbEntity
  8
0
100
AcDbLine
 10
171.0
 20
105.2317659999999
 30
0.0
 11
173.0
 21
107.2317659999999
 31
0.0
  0
LINE
  5
10D
330
1E
100
AcDbEntity
  8
0
100
AcDbLine
 10
171.0
 20
103.231766
 30
0.0
 11
171.0
 21
105.2317659999999
 31
0.0
  0
LINE
  5
10E
330
1E
100
AcDbEntity
  8
0
100
AcDbLine
 10
171.0
 20
103.231766
 30
0.0
 11
171.0
 21
100.231766
 31
0.0
  0
LINE
  5
10F
330
1E
100
AcDbEntity
  8
0
100
AcDbLine
 10
171.0
 20
100.231766
 30
0.0
 11
171.0
 21
97.23176600000002
 31
0.0
  0
LINE
  5
110
330
1E
100
AcDbEntity
  8
0
100
AcDbLine
 10
171.0
 20
100.231766
 30
0.0
 11
171.0
 21
103.231766
 31
0.0
  0
LINE
  5
111
330
1E
100
AcDbEntity
  8
0
100
AcDbLine
 10
174.8
 20
105.2317659999999
 30
0.0
 11
177.5
 21
105.2317659999999
 31
0.0
  0
LINE
  5
112
330
1E
100
AcDbEntity
  8
0
100
AcDbLine
 10
174.5
 20
107.2317659999999
 30
0.0
 11
176.2
 21
107.2317659999999
 31
0.0
  0
LINE
  5
113
330
1E
100
AcDbEntity
  8
0
100
AcDbLine
 10
173.3999999999999
 20
107.2317659999999
 30
0.0
 11
174.5
 21
107.2317659999999
 31
0.0
  0
LINE
  5
114
330
1E
100
AcDbEntity
  8
0
100
AcDbLine
 10
177.5
 20
105.2317659999999
 30
0.0
 11
180.6
 21
105.2317659999999
 31
0.0
  0
LINE
  5
115
330
1E
100
AcDbEntity
  8
0
100
AcDbLine
 10
178.5
 20
107.2317659999999
 30
0.0
 11
181.1999999999999
 21
107.2317659999999
 31
0.0
  0
LINE
  5
116
330
1E
100
AcDbEntity
  8
0
100
AcDbLine
 10
176.2
 20
107.2317659999999
 30
0.0
 11
178.5
 21
107.2317659999999
 31
0.0
  0
LINE
  5
117
330
1E
100
AcDbEntity
  8
0
100
AcDbLine
 10
173.0
 20
107.2317659999999
 30
0.0
 11
173.3999999999999
 21
107.2317659999999
 31
0.0
  0
LINE
  5
118
330
1E
100
AcDbEntity
  8
0
100
AcDbLine
 10
173.0
 20
107.2317659999999
 30
0.0
 11
173.0
 21
111.2317659999999
 31
0.0
  0
LINE
  5
119
330
1E
100
AcDbEntity
  8
0
100
AcDbLine
 10
187.4
 20
105.2317659999999
 30
0.0
 11
190.5
 21
105.2317659999999
 31
0.0
  0
LINE
  5
11A
330
1E
100
AcDbEntity
  8
0
100
AcDbLine
 10
190.5
 20
105.2317659999999
 30
0.0
 11
193.2
 21
105.2317659999999
 31
0.0
  0
LINE
  5
11B
330
1E
100
AcDbEntity
  8
0
100
AcDbLine
 10
186.8
 20
107.2317659999999
 30
0.0
 11
189.4999999999999
 21
107.2317659999999
 31
0.0
  0
LINE
  5
11C
330
1E
100
AcDbEntity
  8
0
100
AcDbLine
 10
189.4999999999999
 20
107.2317659999999
 30
0.0
 11
191.8
 21
107.2317659999999
 31
0.0
  0
LINE
  5
11D
330
1E
100
AcDbEntity
  8
0
100
AcDbLine
 10
184.0
 20
107.2317659999999
 30
0.0
 11
186.8
 21
107.2317659999999
 31
0.0
  0
LINE
  5
11E
330
1E
100
AcDbEntity
  8
0
100
AcDbLine
 10
181.1999999999999
 20
107.2317659999999
 30
0.0
 11
184.0
 21
107.2317659999999
 31
0.0
  0
LINE
  5
11F
330
1E
100
AcDbEntity
  8
0
100
AcDbLine
 10
197.0
 20
105.2317659999999
 30
0.0
 11
197.0
 21
100.231766
 31
0.0
  0
LINE
  5
120
330
1E
100
AcDbEntity
  8
0
100
AcDbLine
 10
171.5
 20
105.2317659999999
 30
0.0
 11
197.0
 21
105.2317659999999
 31
0.0
  0
LINE
  5
121
330
1E
100
AcDbEntity
  8
0
100
AcDbLine
 10
197.0
 20
100.231766
 30
0.0
 11
197.0
 21
97.23176600000002
 31
0.0
  0
LINE
  5
122
330
1E
100
AcDbEntity
  8
0
100
AcDbLine
 10
197.0
 20
100.231766
 30
0.0
 11
197.0
 21
105.2317659999999
 31
0.0
  0
LINE
  5
123
330
1E
100
AcDbEntity
  8
0
100
AcDbLine
 10
197.0
 20
97.23176600000002
 30
0.0
 11
197.0
 21
100.231766
 31
0.0
  0
LINE
  5
124
330
1E
100
AcDbEntity
  8
0
100
AcDbLine
 10
197.0
 20
97.23176600000002
 30
0.0
 11
197.0
 21
95.23176600000001
 31
0.0
  0
LINE
  5
125
330
1E
100
AcDbEntity
  8
0
100
AcDbLine
 10
194.5999999999999
 20
107.2317659999999
 30
0.0
 11
195.0
 21
107.2317659999999
 31
0.0
  0
LINE
  5
126
330
1E
100
AcDbEntity
  8
0
100
AcDbLine
 10
195.0
 20
107.2317659999999
 30
0.0
 11
195.0
 21
111.2317659999999
 31
0.0
  0
LINE
  5
127
330
1E
100
AcDbEntity
  8
0
100
AcDbLine
 10
195.0
 20
107.2317659999999
 30
0.0
 11
197.0
 21
105.2317659999999
 31
0.0
  0
LINE
  5
128
330
1E
100
AcDbEntity
  8
0
100
AcDbLine
 10
193.5
 20
107.2317659999999
 30
0.0
 11
194.5999999999999
 21
107.2317659999999
 31
0.0
  0
LINE
  5
129
330
1E
100
AcDbEntity
  8
0
100
AcDbLine
 10
191.8
 20
107.2317659999999
 30
0.0
 11
193.5
 21
107.2317659999999
 31
0.0
  0
LINE
  5
12A
330
1E
100
AcDbEntity
  8
0
100
AcDbLine
 10
47.0
 20
97.23176600000002
 30
0.0
 11
47.0
 21
95.23176600000001
 31
0.0
  0
LINE
  5
12B
330
1E
100
AcDbEntity
  8
0
100
AcDbLine
 10
47.0
 20
97.23176600000002
 30
0.0
 11
47.0
 21
100.231766
 31
0.0
  0
LINE
  5
12C
330
1E
100
AcDbEntity
  8
0
100
AcDbLine
 10
25.4667
 20
111.7317659999999
 30
0.0
 11
34.0
 21
111.7317659999999
 31
0.0
  0
LINE
  5
12D
330
1E
100
AcDbEntity
  8
0
100
AcDbLine
 10
34.0
 20
111.7317659999999
 30
0.0
 11
42.5333
 21
111.7317659999999
 31
0.0
  0
LINE
  5
12E
330
1E
100
AcDbEntity
  8
0
100
AcDbLine
 10
25.2
 20
134.2317659999999
 30
0.0
 11
34.0
 21
134.2317659999999
 31
0.0
  0
LINE
  5
12F
330
1E
100
AcDbEntity
  8
0
100
AcDbLine
 10
42.5333
 20
111.7317659999999
 30
0.0
 11
50.53329999999999
 21
111.7317659999999
 31
0.0
  0
LINE
  5
130
330
1E
100
AcDbEntity
  8
0
100
AcDbLine
 10
42.8
 20
134.2317659999999
 30
0.0
 11
50.9333
 21
134.2317659999999
 31
0.0
  0
LINE
  5
131
330
1E
100
AcDbEntity
  8
0
100
AcDbLine
 10
34.0
 20
134.2317659999999
 30
0.0
 11
42.8
 21
134.2317659999999
 31
0.0
  0
LINE
  5
132
330
1E
100
AcDbEntity
  8
0
100
AcDbLine
 10
23.0
 20
111.2317659999999
 30
0.0
 11
23.0
 21
107.2317659999999
 31
0.0
  0
LINE
  5
133
330
1E
100
AcDbEntity
  8
0
100
AcDbLine
 10
152.667
 20
111.2317659999999
 30
0.0
 11
153.867
 21
111.2317659999999
 31
0.0
  0
LINE
  5
134
330
1E
100
AcDbEntity
  8
0
100
AcDbLine
 10
152.667
 20
111.2317659999999
 30
0.0
 11
173.0
 21
111.2317659999999
 31
0.0
  0
LINE
  5
135
330
1E
100
AcDbEntity
  8
0
100
AcDbLine
 10
153.867
 20
111.2317659999999
 30
0.0
 11
156.8
 21
111.2317659999999
 31
0.0
  0
LINE
  5
136
330
1E
100
AcDbEntity
  8
0
100
AcDbLine
 10
168.4
 20
111.2317659999999
 30
0.0
 11
173.0
 21
111.2317659999999
 31
0.0
  0
LINE
  5
137
330
1E
100
AcDbEntity
  8
0
100
AcDbLine
 10
161.867
 20
111.2317659999999
 30
0.0
 11
168.4
 21
111.2317659999999
 31
0.0
  0
LINE
  5
138
330
1E
100
AcDbEntity
  8
0
100
AcDbLine
 10
173.0
 20
111.2317659999999
 30
0.0
 11
173.0
 21
107.2317659999999
 31
0.0
  0
LINE
  5
139
330
1E
100
AcDbEntity
  8
0
100
AcDbLine
 10
215.3329999999999
 20
111.2317659999999
 30
0.0
 11
217.3329999999999
 21
111.7317659999999
 31
0.0
  0
LINE
  5
13A
330
1E
100
AcDbEntity
  8
0
100
AcDbLine
 10
214.1329999999999
 20
111.2317659999999
 30
0.0
 11
215.3329999999999
 21
111.2317659999999
 31
0.0
  0
LINE
  5
13B
330
1E
100
AcDbEntity
  8
0
100
AcDbLine
 10
211.2
 20
111.2317659999999
 30
0.0
 11
214.1329999999999
 21
111.2317659999999
 31
0.0
  0
LINE
  5
13C
330
1E
100
AcDbEntity
  8
0
100
AcDbLine
 10
206.1329999999999
 20
111.2317659999999
 30
0.0
 11
211.2
 21
111.2317659999999
 31
0.0
  0
LINE
  5
13D
330
1E
100
AcDbEntity
  8
0
100
AcDbLine
 10
199.6
 20
111.2317659999999
 30
0.0
 11
206.1329999999999
 21
111.2317659999999
 31
0.0
  0
LINE
  5
13E
330
1E
100
AcDbEntity
  8
0
100
AcDbLine
 10
195.0
 20
111.2317659999999
 30
0.0
 11
215.3329999999999
 21
111.2317659999999
 31
0.0
  0
LINE
  5
13F
330
1E
100
AcDbEntity
  8
0
100
AcDbLine
 10
195.0
 20
111.2317659999999
 30
0.0
 11
199.6
 21
111.2317659999999
 31
0.0
  0
LINE
  5
140
330
1E
100
AcDbEntity
  8
0
100
AcDbLine
 10
195.0
 20
111.2317659999999
 30
0.0
 11
195.0
 21
107.2317659999999
 31
0.0
  0
LINE
  5
141
330
1E
100
AcDbEntity
  8
0
100
AcDbLine
 10
156.8
 20
111.2317659999999
 30
0.0
 11
161.867
 21
111.2317659999999
 31
0.0
  0
LINE
  5
142
330
1E
100
AcDbEntity
  8
0
100
AcDbLine
 10
65.33329999999999
 20
111.2317659999999
 30
0.0
 11
67.33329999999999
 21
111.7317659999999
 31
0.0
  0
LINE
  5
143
330
1E
100
AcDbEntity
  8
0
100
AcDbLine
 10
61.2
 20
111.2317659999999
 30
0.0
 11
64.13330000000001
 21
111.2317659999999
 31
0.0
  0
LINE
  5
144
330
1E
100
AcDbEntity
  8
0
100
AcDbLine
 10
64.13330000000001
 20
111.2317659999999
 30
0.0
 11
65.33329999999999
 21
111.2317659999999
 31
0.0
  0
LINE
  5
145
330
1E
100
AcDbEntity
  8
0
100
AcDbLine
 10
49.6
 20
111.2317659999999
 30
0.0
 11
56.1333
 21
111.2317659999999
 31
0.0
  0
LINE
  5
146
330
1E
100
AcDbEntity
  8
0
100
AcDbLine
 10
66.13330000000001
 20
111.7317659999999
 30
0.0
 11
67.33329999999999
 21
111.7317659999999
 31
0.0
  0
LINE
  5
147
330
1E
100
AcDbEntity
  8
0
100
AcDbLine
 10
57.6
 20
111.7317659999999
 30
0.0
 11
62.8
 21
111.7317659999999
 31
0.0
  0
LINE
  5
148
330
1E
100
AcDbEntity
  8
0
100
AcDbLine
 10
62.8
 20
111.7317659999999
 30
0.0
 11
66.13330000000001
 21
111.7317659999999
 31
0.0
  0
LINE
  5
149
330
1E
100
AcDbEntity
  8
0
100
AcDbLine
 10
50.53329999999999
 20
111.7317659999999
 30
0.0
 11
57.6
 21
111.7317659999999
 31
0.0
  0
LINE
  5
14A
330
1E
100
AcDbEntity
  8
0
100
AcDbLine
 10
68.0
 20
113.231766
 30
0.0
 11
68.0
 21
134.2317659999999
 31
0.0
  0
LINE
  5
14B
330
1E
100
AcDbEntity
  8
0
100
AcDbLine
 10
63.4667
 20
134.2317659999999
 30
0.0
 11
66.79999999999999
 21
134.2317659999999
 31
0.0
  0
LINE
  5
14C
330
1E
100
AcDbEntity
  8
0
100
AcDbLine
 10
58.0
 20
134.2317659999999
 30
0.0
 11
63.4667
 21
134.2317659999999
 31
0.0
  0
LINE
  5
14D
330
1E
100
AcDbEntity
  8
0
100
AcDbLine
 10
66.79999999999999
 20
134.2317659999999
 30
0.0
 11
68.0
 21
134.2317659999999
 31
0.0
  0
LINE
  5
14E
330
1E
100
AcDbEntity
  8
0
100
AcDbLine
 10
50.9333
 20
134.2317659999999
 30
0.0
 11
58.0
 21
134.2317659999999
 31
0.0
  0
LINE
  5
14F
330
1E
100
AcDbEntity
  8
0
100
AcDbLine
 10
67.33329999999999
 20
111.7317659999999
 30
0.0
 11
68.0
 21
113.231766
 31
0.0
  0
LINE
  5
150
330
1E
100
AcDbEntity
  8
0
100
AcDbLine
 10
150.6669999999999
 20
111.7317659999999
 30
0.0
 11
151.867
 21
111.7317659999999
 31
0.0
  0
LINE
  5
151
330
1E
100
AcDbEntity
  8
0
100
AcDbLine
 10
150.6669999999999
 20
111.7317659999999
 30
0.0
 11
152.667
 21
111.2317659999999
 31
0.0
  0
LINE
  5
152
330
1E
100
AcDbEntity
  8
0
100
AcDbLine
 10
160.4
 20
111.7317659999999
 30
0.0
 11
167.467
 21
111.7317659999999
 31
0.0
  0
LINE
  5
153
330
1E
100
AcDbEntity
  8
0
100
AcDbLine
 10
175.467
 20
111.7317659999999
 30
0.0
 11
184.0
 21
111.7317659999999
 31
0.0
  0
LINE
  5
154
330
1E
100
AcDbEntity
  8
0
100
AcDbLine
 10
184.0
 20
111.7317659999999
 30
0.0
 11
192.5329999999999
 21
111.7317659999999
 31
0.0
  0
LINE
  5
155
330
1E
100
AcDbEntity
  8
0
100
AcDbLine
 10
167.467
 20
111.7317659999999
 30
0.0
 11
175.467
 21
111.7317659999999
 31
0.0
  0
LINE
  5
156
330
1E
100
AcDbEntity
  8
0
100
AcDbLine
 10
207.6
 20
111.7317659999999
 30
0.0
 11
212.8
 21
111.7317659999999
 31
0.0
  0
LINE
  5
157
330
1E
100
AcDbEntity
  8
0
100
AcDbLine
 10
200.5329999999999
 20
111.7317659999999
 30
0.0
 11
207.6
 21
111.7317659999999
 31
0.0
  0
LINE
  5
158
330
1E
100
AcDbEntity
  8
0
100
AcDbLine
 10
217.3329999999999
 20
111.7317659999999
 30
0.0
 11
218.0
 21
113.231766
 31
0.0
  0
LINE
  5
159
330
1E
100
AcDbEntity
  8
0
100
AcDbLine
 10
216.1329999999999
 20
111.7317659999999
 30
0.0
 11
217.3329999999999
 21
111.7317659999999
 31
0.0
  0
LINE
  5
15A
330
1E
100
AcDbEntity
  8
0
100
AcDbLine
 10
212.8
 20
111.7317659999999
 30
0.0
 11
216.1329999999999
 21
111.7317659999999
 31
0.0
  0
LINE
  5
15B
330
1E
100
AcDbEntity
  8
0
100
AcDbLine
 10
192.5329999999999
 20
111.7317659999999
 30
0.0
 11
200.5329999999999
 21
111.7317659999999
 31
0.0
  0
LINE
  5
15C
330
1E
100
AcDbEntity
  8
0
100
AcDbLine
 10
151.867
 20
111.7317659999999
 30
0.0
 11
155.1999999999999
 21
111.7317659999999
 31
0.0
  0
LINE
  5
15D
330
1E
100
AcDbEntity
  8
0
100
AcDbLine
 10
150.0
 20
113.231766
 30
0.0
 11
150.0
 21
134.2317659999999
 31
0.0
  0
LINE
  5
15E
330
1E
100
AcDbEntity
  8
0
100
AcDbLine
 10
150.0
 20
113.231766
 30
0.0
 11
150.6669999999999
 21
111.7317659999999
 31
0.0
  0
LINE
  5
15F
330
1E
100
AcDbEntity
  8
0
100
AcDbLine
 10
151.2
 20
134.2317659999999
 30
0.0
 11
154.5329999999999
 21
134.2317659999999
 31
0.0
  0
LINE
  5
160
330
1E
100
AcDbEntity
  8
0
100
AcDbLine
 10
150.0
 20
134.2317659999999
 30
0.0
 11
151.2
 21
134.2317659999999
 31
0.0
  0
LINE
  5
161
330
1E
100
AcDbEntity
  8
0
100
AcDbLine
 10
218.0
 20
134.2317659999999
 30
0.0
 11
218.0
 21
113.231766
 31
0.0
  0
LINE
  5
162
330
1E
100
AcDbEntity
  8
0
100
AcDbLine
 10
216.8
 20
134.2317659999999
 30
0.0
 11
218.0
 21
134.2317659999999
 31
0.0
  0
LINE
  5
163
330
1E
100
AcDbEntity
  8
0
100
AcDbLine
 10
184.0
 20
134.2317659999999
 30
0.0
 11
192.8
 21
134.2317659999999
 31
0.0
  0
LINE
  5
164
330
1E
100
AcDbEntity
  8
0
100
AcDbLine
 10
175.1999999999999
 20
134.2317659999999
 30
0.0
 11
184.0
 21
134.2317659999999
 31
0.0
  0
LINE
  5
165
330
1E
100
AcDbEntity
  8
0
100
AcDbLine
 10
160.0
 20
134.2317659999999
 30
0.0
 11
167.067
 21
134.2317659999999
 31
0.0
  0
LINE
  5
166
330
1E
100
AcDbEntity
  8
0
100
AcDbLine
 10
167.067
 20
134.2317659999999
 30
0.0
 11
175.1999999999999
 21
134.2317659999999
 31
0.0
  0
LINE
  5
167
330
1E
100
AcDbEntity
  8
0
100
AcDbLine
 10
208.0
 20
134.2317659999999
 30
0.0
 11
213.467
 21
134.2317659999999
 31
0.0
  0
LINE
  5
168
330
1E
100
AcDbEntity
  8
0
100
AcDbLine
 10
213.467
 20
134.2317659999999
 30
0.0
 11
216.8
 21
134.2317659999999
 31
0.0
  0
LINE
  5
169
330
1E
100
AcDbEntity
  8
0
100
AcDbLine
 10
200.9329999999999
 20
134.2317659999999
 30
0.0
 11
208.0
 21
134.2317659999999
 31
0.0
  0
LINE
  5
16A
330
1E
100
AcDbEntity
  8
0
100
AcDbLine
 10
192.8
 20
134.2317659999999
 30
0.0
 11
200.9329999999999
 21
134.2317659999999
 31
0.0
  0
LINE
  5
16B
330
1E
100
AcDbEntity
  8
0
100
AcDbLine
 10
154.5329999999999
 20
134.2317659999999
 30
0.0
 11
160.0
 21
134.2317659999999
 31
0.0
  0
LINE
  5
16C
330
1E
100
AcDbEntity
  8
0
100
AcDbLine
 10
155.1999999999999
 20
111.7317659999999
 30
0.0
 11
160.4
 21
111.7317659999999
 31
0.0
  0
LINE
  5
16D
330
1E
100
AcDbEntity
  8
0
100
AcDbLine
 10
68.0
 20
134.2317659999999
 30
0.0
 11
68.0
 21
113.231766
 31
0.0
  0
LINE
  5
16E
330
1E
100
AcDbEntity
  8
0
100
AcDbLine
 10
56.1333
 20
111.2317659999999
 30
0.0
 11
61.2
 21
111.2317659999999
 31
0.0
  0
LINE
  5
16F
330
1E
100
AcDbEntity
  8
0
100
AcDbLine
 10
45.0
 20
111.2317659999999
 30
0.0
 11
45.0
 21
107.2317659999999
 31
0.0
  0
LINE
  5
170
330
1E
100
AcDbEntity
  8
0
100
AcDbLine
 10
45.0
 20
111.2317659999999
 30
0.0
 11
49.6
 21
111.2317659999999
 31
0.0
  0
LINE
  5
171
330
1E
100
AcDbEntity
  8
0
100
AcDbLine
 10
45.0
 20
111.2317659999999
 30
0.0
 11
65.33329999999999
 21
111.2317659999999
 31
0.0
  0
LINE
  5
172
330
1E
100
AcDbEntity
  8
0
100
AcDbLine
 10
23.0
 20
107.2317659999999
 30
0.0
 11
23.0
 21
111.2317659999999
 31
0.0
  0
LINE
  5
173
330
1E
100
AcDbEntity
  8
0
100
AcDbLine
 10
23.0
 20
107.2317659999999
 30
0.0
 11
23.39999999999999
 21
107.2317659999999
 31
0.0
  0
LINE
  5
174
330
1E
100
AcDbEntity
  8
0
100
AcDbLine
 10
21.0
 20
105.2317659999999
 30
0.0
 11
23.0
 21
107.2317659999999
 31
0.0
  0
LINE
  5
175
330
1E
100
AcDbEntity
  8
0
100
AcDbLine
 10
21.0
 20
105.2317659999999
 30
0.0
 11
21.49999999999999
 21
105.2317659999999
 31
0.0
  0
LINE
  5
176
330
1E
100
AcDbEntity
  8
0
100
AcDbLine
 10
21.0
 20
105.2317659999999
 30
0.0
 11
21.0
 21
103.231766
 31
0.0
  0
LINE
  5
177
330
1E
100
AcDbEntity
  8
0
100
AcDbLine
 10
21.0
 20
95.23176600000001
 30
0.0
 11
23.0
 21
93.23176600000001
 31
0.0
  0
LINE
  5
178
330
1E
100
AcDbEntity
  8
0
100
AcDbLine
 10
21.0
 20
95.23176600000001
 30
0.0
 11
21.0
 21
97.23176600000002
 31
0.0
  0
LINE
  5
179
330
1E
100
AcDbEntity
  8
0
100
AcDbLine
 10
21.0
 20
95.23176600000001
 30
0.0
 11
21.49999999999999
 21
95.23176600000001
 31
0.0
  0
LINE
  5
17A
330
1E
100
AcDbEntity
  8
0
100
AcDbLine
 10
18.39999999999999
 20
111.2317659999999
 30
0.0
 11
23.0
 21
111.2317659999999
 31
0.0
  0
ENDSEC
  0
SECTION
  2
OBJECTS
  0
DICTIONARY
  5
C
330
0
100
AcDbDictionary
  3
ACAD_GROUP
350
D
  3
ACAD_LAYOUT
350
19
  3
ACAD_MLINESTYLE
350
16
  3
ACAD_PLOTSETTINGS
350
18
  3
ACAD_PLOTSTYLENAME
350
E
  3
ACDBHEADERROUNDTRIPXREC
350
1F6
  3
ACDBVARIABLEDICTIONARY
350
17F
  0
DICTIONARY
  5
218
330
1E
100
AcDbDictionary
280
     1
  3
ACAD_LAYOUTSELFREF
360
219
  0
DICTIONARY
  5
216
330
1A
100
AcDbDictionary
280
     1
  3
ACAD_LAYOUTSELFREF
360
217
  0
DICTIONARY
  5
D
102
{ACAD_REACTORS
330
C
102
}
330
C
100
AcDbDictionary
  0
DICTIONARY
  5
19
102
{ACAD_REACTORS
330
C
102
}
330
C
100
AcDbDictionary
  0
DICTIONARY
  5
16
102
{ACAD_REACTORS
330
C
102
}
330
C
100
AcDbDictionary
  3
STANDARD
350
17
  0
DICTIONARY
  5
18
102
{ACAD_REACTORS
330
C
102
}
330
C
100
AcDbDictionary
  0
ACDBDICTIONARYWDFLT
  5
E
102
{ACAD_REACTORS
330
C
102
}
330
C
100
AcDbDictionary
281
     1
  3
Normal
350
F
100
AcDbDictionaryWithDefault
340
F
  0
DICTIONARY
  5
1F6
102
{ACAD_REACTORS
330
C
102
}
330
C
100
AcDbDictionary
  3
CEPSNTYPE
350
200
  3
FINGERPRINTGUID
350
201
  3
HYPERLINKBASE
350
1F9
  3
INSUNITS
350
1FF
  3
LAYOUTDICT
350
1FB
  3
LWETCUNION
350
1FE
  3
PLOTSETDICT
350
1FC
  3
PLOTSTYLNAMDICT
350
1FD
  3
PSVPSCALE
350
203
  3
PUCSBASE
350
206
  3
PUCSORGBACK
350
20C
  3
PUCSORGBOTTOM
350
208
  3
PUCSORGFRONT
350
20B
  3
PUCSORGLEFT
350
209
  3
PUCSORGRIGHT
350
20A
  3
PUCSORGTOP
350
207
  3
PUCSORTHOREF
350
204
  3
PUCSORTHOVIEW
350
205
  3
STYLESHEET
350
1FA
  3
TSTACKALIGN
350
1F7
  3
TSTACKSIZE
350
1F8
  3
UCSBASE
350
20F
  3
UCSORGBACK
350
215
  3
UCSORGBOTTOM
350
211
  3
UCSORGFRONT
350
214
  3
UCSORGLEFT
350
212
  3
UCSORGRIGHT
350
213
  3
UCSORGTOP
350
210
  3
UCSORTHOREF
350
20D
  3
UCSORTHOVIEW
350
20E
  3
VERSIONGUID
350
202
  0
DICTIONARY
  5
17F
102
{ACAD_REACTORS
330
C
102
}
330
C
100
AcDbDictionary
  3
DIMASSOC
350
180
  0
XRECORD
  5
219
102
{ACAD_REACTORS
330
218
102
}
330
218
100
AcDbXrecord
340
1E
  0
XRECORD
  5
217
102
{ACAD_REACTORS
330
216
102
}
330
216
100
AcDbXrecord
340
1A
  0
MLINESTYLE
  5
17
102
{ACAD_REACTORS
330
16
102
}
330
16
100
AcDbMlineStyle
  2
STANDARD
 70
     0
  3

 62
   256
 51
90.0
 52
90.0
 71
     2
 49
0.5
 62
   256
  6
BYLAYER
 49
-0.5
 62
   256
  6
BYLAYER
  0
ACDBPLACEHOLDER
  5
F
102
{ACAD_REACTORS
330
E
102
}
330
E
100
AcDbPlaceHolder
280
     0
  0
XRECORD
  5
200
102
{ACAD_REACTORS
330
1F6
102
}
330
1F6
100
AcDbXrecord
 90
        0
  0
XRECORD
  5
201
102
{ACAD_REACTORS
330
1F6
102
}
330
1F6
100
AcDbXrecord
  1
{ACFA429F-623D-4C64-90B4-52975DA0D689}
  0
XRECORD
  5
1F9
102
{ACAD_REACTORS
330
1F6
102
}
330
1F6
100
AcDbXrecord
  1

  0
XRECORD
  5
1FF
102
{ACAD_REACTORS
330
1F6
102
}
330
1F6
100
AcDbXrecord
 90
        0
  0
XRECORD
  5
1FB
102
{ACAD_REACTORS
330
1F6
102
}
330
1F6
100
AcDbXrecord
340
19
  0
XRECORD
  5
1FE
102
{ACAD_REACTORS
330
1F6
102
}
330
1F6
100
AcDbXrecord
 90
    10781
  0
XRECORD
  5
1FC
102
{ACAD_REACTORS
330
1F6
102
}
330
1F6
100
AcDbXrecord
340
18
  0
XRECORD
  5
1FD
102
{ACAD_REACTORS
330
1F6
102
}
330
1F6
100
AcDbXrecord
340
E
  0
XRECORD
  5
203
102
{ACAD_REACTORS
330
1F6
102
}
330
1F6
100
AcDbXrecord
 40
0.0
  0
XRECORD
  5
206
102
{ACAD_REACTORS
330
1F6
102
}
330
1F6
100
AcDbXrecord
340
0
  0
XRECORD
  5
20C
102
{ACAD_REACTORS
330
1F6
102
}
330
1F6
100
AcDbXrecord
 10
0.0
 20
0.0
 30
0.0
  0
XRECORD
  5
208
102
{ACAD_REACTORS
330
1F6
102
}
330
1F6
100
AcDbXrecord
 10
0.0
 20
0.0
 30
0.0
  0
XRECORD
  5
20B
102
{ACAD_REACTORS
330
1F6
102
}
330
1F6
100
AcDbXrecord
 10
0.0
 20
0.0
 30
0.0
  0
XRECORD
  5
209
102
{ACAD_REACTORS
330
1F6
102
}
330
1F6
100
AcDbXrecord
 10
0.0
 20
0.0
 30
0.0
  0
XRECORD
  5
20A
102
{ACAD_REACTORS
330
1F6
102
}
330
1F6
100
AcDbXrecord
 10
0.0
 20
0.0
 30
0.0
  0
XRECORD
  5
207
102
{ACAD_REACTORS
330
1F6
102
}
330
1F6
100
AcDbXrecord
 10
0.0
 20
0.0
 30
0.0
  0
XRECORD
  5
204
102
{ACAD_REACTORS
330
1F6
102
}
330
1F6
100
AcDbXrecord
340
0
  0
XRECORD
  5
205
102
{ACAD_REACTORS
330
1F6
102
}
330
1F6
100
AcDbXrecord
 70
     0
  0
XRECORD
  5
1FA
102
{ACAD_REACTORS
330
1F6
102
}
330
1F6
100
AcDbXrecord
  1

  0
XRECORD
  5
1F7
102
{ACAD_REACTORS
330
1F6
102
}
330
1F6
100
AcDbXrecord
 90
        1
  0
XRECORD
  5
1F8
102
{ACAD_REACTORS
330
1F6
102
}
330
1F6
100
AcDbXrecord
 90
       70
  0
XRECORD
  5
20F
102
{ACAD_REACTORS
330
1F6
102
}
330
1F6
100
AcDbXrecord
340
0
  0
XRECORD
  5
215
102
{ACAD_REACTORS
330
1F6
102
}
330
1F6
100
AcDbXrecord
 10
0.0
 20
0.0
 30
0.0
  0
XRECORD
  5
211
102
{ACAD_REACTORS
330
1F6
102
}
330
1F6
100
AcDbXrecord
 10
0.0
 20
0.0
 30
0.0
  0
XRECORD
  5
214
102
{ACAD_REACTORS
330
1F6
102
}
330
1F6
100
AcDbXrecord
 10
0.0
 20
0.0
 30
0.0
  0
XRECORD
  5
212
102
{ACAD_REACTORS
330
1F6
102
}
330
1F6
100
AcDbXrecord
 10
0.0
 20
0.0
 30
0.0
  0
XRECORD
  5
213
102
{ACAD_REACTORS
330
1F6
102
}
330
1F6
100
AcDbXrecord
 10
0.0
 20
0.0
 30
0.0
  0
XRECORD
  5
210
102
{ACAD_REACTORS
330
1F6
102
}
330
1F6
100
AcDbXrecord
 10
0.0
 20
0.0
 30
0.0
  0
XRECORD
  5
20D
102
{ACAD_REACTORS
330
1F6
102
}
330
1F6
100
AcDbXrecord
340
0
  0
XRECORD
  5
20E
102
{ACAD_REACTORS
330
1F6
102
}
330
1F6
100
AcDbXrecord
 70
     1
  0
XRECORD
  5
202
102
{ACAD_REACTORS
330
1F6
102
}
330
1F6
100
AcDbXrecord
  1
{B9808249-CFCB-40D0-8DE4-00B84FB081B5}
  0
DICTIONARYVAR
  5
180
102
{ACAD_REACTORS
330
17F
102
}
330
17F
100
DictionaryVariables
280
     0
  1
1
  0
ENDSEC
  0
EOF
