  0
SECTION
  2
HEADER
  9
$ACADVER
  1
AC1015
  9
$ACADMAINTVER
 70
    13
  9
$DWGCODEPAGE
  3
ANSI_1252
  9
$INSBASE
 10
0.0
 20
0.0
 30
0.0
  9
$EXTMIN
 10
4.5
 20
0.0000000000000043
 30
0.0
  9
$EXTMAX
 10
155.4999999999999
 20
181.0
 30
0.0
  9
$LIMMIN
 10
0.0
 20
0.0
  9
$LIMMAX
 10
12.0
 20
9.0
  9
$ORTHOMODE
 70
     0
  9
$REGENMODE
 70
     1
  9
$FILLMODE
 70
     1
  9
$QTEXTMODE
 70
     0
  9
$MIRRTEXT
 70
     1
  9
$LTSCALE
 40
1.0
  9
$ATTMODE
 70
     1
  9
$TEXTSIZE
 40
0.2
  9
$TRACEWID
 40
0.05
  9
$TEXTSTYLE
  7
Standard
  9
$CLAYER
  8
0
  9
$CELTYPE
  6
Continuous
  9
$CECOLOR
 62
   256
  9
$CELTSCALE
 40
1.0
  9
$DISPSILH
 70
     0
  9
$DIMSCALE
 40
1.0
  9
$DIMASZ
 40
0.18
  9
$DIMEXO
 40
0.0625
  9
$DIMDLI
 40
0.38
  9
$DIMRND
 40
0.0
  9
$DIMDLE
 40
0.0
  9
$DIMEXE
 40
0.18
  9
$DIMTP
 40
0.0
  9
$DIMTM
 40
0.0
  9
$DIMTXT
 40
0.18
  9
$DIMCEN
 40
0.09
  9
$DIMTSZ
 40
0.0
  9
$DIMTOL
 70
     0
  9
$DIMLIM
 70
     0
  9
$DIMTIH
 70
     1
  9
$DIMTOH
 70
     1
  9
$DIMSE1
 70
     0
  9
$DIMSE2
 70
     0
  9
$DIMTAD
 70
     0
  9
$DIMZIN
 70
     0
  9
$DIMBLK
  1

  9
$DIMASO
 70
     1
  9
$DIMSHO
 70
     1
  9
$DIMPOST
  1

  9
$DIMAPOST
  1

  9
$DIMALT
 70
     0
  9
$DIMALTD
 70
     2
  9
$DIMALTF
 40
25.4
  9
$DIMLFAC
 40
1.0
  9
$DIMTOFL
 70
     0
  9
$DIMTVP
 40
0.0
  9
$DIMTIX
 70
     0
  9
$DIMSOXD
 70
     0
  9
$DIMSAH
 70
     0
  9
$DIMBLK1
  1

  9
$DIMBLK2
  1

  9
$DIMSTYLE
  2
Standard
  9
$DIMCLRD
 70
     0
  9
$DIMCLRE
 70
     0
  9
$DIMCLRT
 70
     0
  9
$DIMTFAC
 40
1.0
  9
$DIMGAP
 40
0.09
  9
$DIMJUST
 70
     0
  9
$DIMSD1
 70
     0
  9
$DIMSD2
 70
     0
  9
$DIMTOLJ
 70
     1
  9
$DIMTZIN
 70
     0
  9
$DIMALTZ
 70
     0
  9
$DIMALTTZ
 70
     0
  9
$DIMUPT
 70
     0
  9
$DIMDEC
 70
     4
  9
$DIMTDEC
 70
     4
  9
$DIMALTU
 70
     2
  9
$DIMALTTD
 70
     2
  9
$DIMTXSTY
  7
Standard
  9
$DIMAUNIT
 70
     0
  9
$DIMADEC
 70
     0
  9
$DIMALTRND
 40
0.0
  9
$DIMAZIN
 70
     0
  9
$DIMDSEP
 70
    46
  9
$DIMATFIT
 70
     3
  9
$DIMFRAC
 70
     0
  9
$DIMLDRBLK
  1

  9
$DIMLUNIT
 70
     2
  9
$DIMLWD
 70
    -2
  9
$DIMLWE
 70
    -2
  9
$DIMTMOVE
 70
     0
  9
$LUNITS
 70
     2
  9
$LUPREC
 70
     4
  9
$SKETCHINC
 40
0.1
  9
$FILLETRAD
 40
0.0
  9
$AUNITS
 70
     0
  9
$AUPREC
 70
     0
  9
$MENU
  1
.
  9
$ELEVATION
 40
0.0
  9
$PELEVATION
 40
0.0
  9
$THICKNESS
 40
0.0
  9
$LIMCHECK
 70
     0
  9
$CHAMFERA
 40
0.0
  9
$CHAMFERB
 40
0.0
  9
$CHAMFERC
 40
0.0
  9
$CHAMFERD
 40
0.0
  9
$SKPOLY
 70
     0
  9
$TDCREATE
 40
2455652.002153680
  9
$TDUCREATE
 40
2455651.918820347
  9
$TDUPDATE
 40
2455652.004707754
  9
$TDUUPDATE
 40
2455651.921374421
  9
$TDINDWG
 40
0.0025540741
  9
$TDUSRTIMER
 40
0.0025540741
  9
$USRTIMER
 70
     1
  9
$ANGBASE
 50
0.0
  9
$ANGDIR
 70
     0
  9
$PDMODE
 70
     0
  9
$PDSIZE
 40
0.0
  9
$PLINEWID
 40
0.0
  9
$SPLFRAME
 70
     0
  9
$SPLINETYPE
 70
     6
  9
$SPLINESEGS
 70
     8
  9
$HANDSEED
  5
34E
  9
$SURFTAB1
 70
     6
  9
$SURFTAB2
 70
     6
  9
$SURFTYPE
 70
     6
  9
$SURFU
 70
     6
  9
$SURFV
 70
     6
  9
$UCSBASE
  2

  9
$UCSNAME
  2

  9
$UCSORG
 10
0.0
 20
0.0
 30
0.0
  9
$UCSXDIR
 10
1.0
 20
0.0
 30
0.0
  9
$UCSYDIR
 10
0.0
 20
1.0
 30
0.0
  9
$UCSORTHOREF
  2

  9
$UCSORTHOVIEW
 70
     1
  9
$UCSORGTOP
 10
0.0
 20
0.0
 30
0.0
  9
$UCSORGBOTTOM
 10
0.0
 20
0.0
 30
0.0
  9
$UCSORGLEFT
 10
0.0
 20
0.0
 30
0.0
  9
$UCSORGRIGHT
 10
0.0
 20
0.0
 30
0.0
  9
$UCSORGFRONT
 10
0.0
 20
0.0
 30
0.0
  9
$UCSORGBACK
 10
0.0
 20
0.0
 30
0.0
  9
$PUCSBASE
  2

  9
$PUCSNAME
  2

  9
$PUCSORG
 10
0.0
 20
0.0
 30
0.0
  9
$PUCSXDIR
 10
1.0
 20
0.0
 30
0.0
  9
$PUCSYDIR
 10
0.0
 20
1.0
 30
0.0
  9
$PUCSORTHOREF
  2

  9
$PUCSORTHOVIEW
 70
     0
  9
$PUCSORGTOP
 10
0.0
 20
0.0
 30
0.0
  9
$PUCSORGBOTTOM
 10
0.0
 20
0.0
 30
0.0
  9
$PUCSORGLEFT
 10
0.0
 20
0.0
 30
0.0
  9
$PUCSORGRIGHT
 10
0.0
 20
0.0
 30
0.0
  9
$PUCSORGFRONT
 10
0.0
 20
0.0
 30
0.0
  9
$PUCSORGBACK
 10
0.0
 20
0.0
 30
0.0
  9
$USERI1
 70
     0
  9
$USERI2
 70
     0
  9
$USERI3
 70
     0
  9
$USERI4
 70
     0
  9
$USERI5
 70
     0
  9
$USERR1
 40
0.0
  9
$USERR2
 40
0.0
  9
$USERR3
 40
0.0
  9
$USERR4
 40
0.0
  9
$USERR5
 40
0.0
  9
$WORLDVIEW
 70
     1
  9
$SHADEDGE
 70
     3
  9
$SHADEDIF
 70
    70
  9
$TILEMODE
 70
     1
  9
$MAXACTVP
 70
    64
  9
$PINSBASE
 10
0.0
 20
0.0
 30
0.0
  9
$PLIMCHECK
 70
     0
  9
$PEXTMIN
 10
1.000000000000000E+20
 20
1.000000000000000E+20
 30
1.000000000000000E+20
  9
$PEXTMAX
 10
-1.000000000000000E+20
 20
-1.000000000000000E+20
 30
-1.000000000000000E+20
  9
$PLIMMIN
 10
0.0
 20
0.0
  9
$PLIMMAX
 10
12.0
 20
9.0
  9
$UNITMODE
 70
     0
  9
$VISRETAIN
 70
     1
  9
$PLINEGEN
 70
     0
  9
$PSLTSCALE
 70
     1
  9
$TREEDEPTH
 70
  3020
  9
$CMLSTYLE
  2
Standard
  9
$CMLJUST
 70
     0
  9
$CMLSCALE
 40
1.0
  9
$PROXYGRAPHICS
 70
     1
  9
$MEASUREMENT
 70
     0
  9
$CELWEIGHT
370
    -1
  9
$ENDCAPS
280
     0
  9
$JOINSTYLE
280
     0
  9
$LWDISPLAY
290
     0
  9
$INSUNITS
 70
     0
  9
$HYPERLINKBASE
  1

  9
$STYLESHEET
  1

  9
$XEDIT
290
     1
  9
$CEPSNTYPE
380
     0
  9
$PSTYLEMODE
290
     1
  9
$FINGERPRINTGUID
  2
{90EA15CA-2140-41F6-9B06-8023B14F2AE0}
  9
$VERSIONGUID
  2
{C0DB4E47-2C27-455C-84D5-35432BBA3C17}
  9
$EXTNAMES
290
     1
  9
$PSVPSCALE
 40
0.0
  9
$OLESTARTUP
290
     0
  0
ENDSEC
  0
SECTION
  2
CLASSES
  0
CLASS
  1
ACDBDICTIONARYWDFLT
  2
AcDbDictionaryWithDefault
  3
AutoCAD 2000
 90
        0
280
     0
281
     0
  0
CLASS
  1
ACDBPLACEHOLDER
  2
AcDbPlaceHolder
  3
AutoCAD 2000
 90
        0
280
     0
281
     0
  0
CLASS
  1
LAYOUT
  2
AcDbLayout
  3
AutoCAD 2000
 90
        0
280
     0
281
     0
  0
CLASS
  1
DICTIONARYVAR
  2
AcDbDictionaryVar
  3
AutoCAD 2000
 90
        0
280
     0
281
     0
  0
ENDSEC
  0
SECTION
  2
TABLES
  0
TABLE
  2
VPORT
  5
8
330
0
100
AcDbSymbolTable
 70
     4
  0
VPORT
  5
34D
330
8
100
AcDbSymbolTableRecord
100
AcDbViewportTableRecord
  2
*Active
 70
     0
 10
0.0
 20
0.0
 11
1.0
 21
1.0
 12
80.0
 22
90.5
 13
0.0
 23
0.0
 14
1.0
 24
1.0
 15
0.0
 25
0.0
 16
0.0
 26
0.0
 36
1.0
 17
0.0
 27
0.0
 37
0.0
 40
182.2243517474633
 41
2.073363431151241
 42
50.0
 43
0.0
 44
0.0
 50
0.0
 51
0.0
 71
     0
 72
   100
 73
     1
 74
     3
 75
     0
 76
     0
 77
     0
 78
     0
281
     0
 65
     1
110
0.0
120
0.0
130
0.0
111
1.0
121
0.0
131
0.0
112
0.0
122
1.0
132
0.0
 79
     1
146
0.0
  0
ENDTAB
  0
TABLE
  2
LTYPE
  5
5
330
0
100
AcDbSymbolTable
 70
     1
  0
LTYPE
  5
13
330
5
100
AcDbSymbolTableRecord
100
AcDbLinetypeTableRecord
  2
ByBlock
 70
     0
  3

 72
    65
 73
     0
 40
0.0
  0
LTYPE
  5
14
330
5
100
AcDbSymbolTableRecord
100
AcDbLinetypeTableRecord
  2
ByLayer
 70
     0
  3

 72
    65
 73
     0
 40
0.0
  0
LTYPE
  5
15
330
5
100
AcDbSymbolTableRecord
100
AcDbLinetypeTableRecord
  2
Continuous
 70
     0
  3
Solid line
 72
    65
 73
     0
 40
0.0
  0
ENDTAB
  0
TABLE
  2
LAYER
  5
2
330
0
100
AcDbSymbolTable
 70
     1
  0
LAYER
  5
10
330
2
100
AcDbSymbolTableRecord
100
AcDbLayerTableRecord
  2
0
 70
     0
 62
     7
  6
Continuous
370
    -3
390
F
  0
ENDTAB
  0
TABLE
  2
STYLE
  5
3
330
0
100
AcDbSymbolTable
 70
     1
  0
STYLE
  5
11
330
3
100
AcDbSymbolTableRecord
100
AcDbTextStyleTableRecord
  2
Standard
 70
     0
 40
0.0
 41
1.0
 50
0.0
 71
     0
 42
0.2
  3
txt
  4

  0
ENDTAB
  0
TABLE
  2
VIEW
  5
6
330
0
100
AcDbSymbolTable
 70
     0
  0
ENDTAB
  0
TABLE
  2
UCS
  5
7
330
0
100
AcDbSymbolTable
 70
     0
  0
ENDTAB
  0
TABLE
  2
APPID
  5
9
330
0
100
AcDbSymbolTable
 70
     1
  0
APPID
  5
12
330
9
100
AcDbSymbolTableRecord
100
AcDbRegAppTableRecord
  2
ACAD
 70
     0
  0
ENDTAB
  0
TABLE
  2
DIMSTYLE
  5
A
330
0
100
AcDbSymbolTable
 70
     1
100
AcDbDimStyleTable
 71
     0
  0
DIMSTYLE
105
345
330
A
100
AcDbSymbolTableRecord
100
AcDbDimStyleTableRecord
  2
Standard
 70
     0
340
11
  0
ENDTAB
  0
TABLE
  2
BLOCK_RECORD
  5
1
330
0
100
AcDbSymbolTable
 70
     0
  0
BLOCK_RECORD
  5
1E
330
1
100
AcDbSymbolTableRecord
100
AcDbBlockTableRecord
  2
*Model_Space
340
21
  0
BLOCK_RECORD
  5
1A
330
1
100
AcDbSymbolTableRecord
100
AcDbBlockTableRecord
  2
*Paper_Space
340
1D
  0
ENDTAB
  0
ENDSEC
  0
SECTION
  2
BLOCKS
  0
BLOCK
  5
1F
330
1E
100
AcDbEntity
  8
0
100
AcDbBlockBegin
  2
*Model_Space
 70
     0
 10
0.0
 20
0.0
 30
0.0
  3
*Model_Space
  1

  0
ENDBLK
  5
20
330
1E
100
AcDbEntity
  8
0
100
AcDbBlockEnd
  0
BLOCK
  5
1B
330
1A
100
AcDbEntity
 67
     1
  8
0
100
AcDbBlockBegin
  2
*Paper_Space
 70
     0
 10
0.0
 20
0.0
 30
0.0
  3
*Paper_Space
  1

  0
ENDBLK
  5
1C
330
1A
100
AcDbEntity
 67
     1
  8
0
100
AcDbBlockEnd
  0
ENDSEC
  0
SECTION
  2
ENTITIES
  0
LINE
  5
22
330
1E
100
AcDbEntity
  8
0
100
AcDbLine
 10
4.5
 20
112.0
 30
0.0
 11
54.5
 21
112.0
 31
0.0
  0
LINE
  5
23
330
1E
100
AcDbEntity
  8
0
100
AcDbLine
 10
4.5
 20
112.0
 30
0.0
 11
4.5
 21
108.0
 31
0.0
  0
LINE
  5
24
330
1E
100
AcDbEntity
  8
0
100
AcDbLine
 10
4.5
 20
108.0
 30
0.0
 11
19.0
 21
108.0
 31
0.0
  0
LINE
  5
25
330
1E
100
AcDbEntity
  8
0
100
AcDbLine
 10
4.5
 20
108.0
 30
0.0
 11
54.5
 21
108.0
 31
0.0
  0
LINE
  5
26
330
1E
100
AcDbEntity
  8
0
100
AcDbLine
 10
4.644000000000005
 20
108.0
 30
0.0
 11
5.028000000000005
 21
108.0
 31
0.0
  0
LINE
  5
27
330
1E
100
AcDbEntity
  8
0
100
AcDbLine
 10
4.644000000000005
 20
108.0
 30
0.0
 11
5.028000000000005
 21
108.0
 31
0.0
  0
LINE
  5
28
330
1E
100
AcDbEntity
  8
0
100
AcDbLine
 10
5.028000000000005
 20
108.0
 30
0.0
 11
5.668000000000006
 21
108.0
 31
0.0
  0
LINE
  5
29
330
1E
100
AcDbEntity
  8
0
100
AcDbLine
 10
5.668000000000006
 20
108.0
 30
0.0
 11
6.516000000000005
 21
108.0
 31
0.0
  0
LINE
  5
2A
330
1E
100
AcDbEntity
  8
0
100
AcDbLine
 10
5.5
 20
108.0
 30
0.0
 11
10.5
 21
108.0
 31
0.0
  0
LINE
  5
2B
330
1E
100
AcDbEntity
  8
0
100
AcDbLine
 10
5.5
 20
108.0
 30
0.0
 11
10.5
 21
108.0
 31
0.0
  0
LINE
  5
2C
330
1E
100
AcDbEntity
  8
0
100
AcDbLine
 10
6.516000000000005
 20
108.0
 30
0.0
 11
7.475999999999999
 21
108.0
 31
0.0
  0
LINE
  5
2D
330
1E
100
AcDbEntity
  8
0
100
AcDbLine
 10
8.5
 20
108.0
 30
0.0
 11
9.524
 21
108.0
 31
0.0
  0
LINE
  5
2E
330
1E
100
AcDbEntity
  8
0
100
AcDbLine
 10
7.475999999999999
 20
108.0
 30
0.0
 11
8.5
 21
108.0
 31
0.0
  0
LINE
  5
2F
330
1E
100
AcDbEntity
  8
0
100
AcDbLine
 10
7.437399999999996
 20
108.0
 30
0.0
 11
19.0
 21
108.0
 31
0.0
  0
LINE
  5
30
330
1E
100
AcDbEntity
  8
0
100
AcDbLine
 10
7.437399999999996
 20
108.0
 30
0.0
 11
31.16179999999999
 21
108.0
 31
0.0
  0
LINE
  5
31
330
1E
100
AcDbEntity
  8
0
100
AcDbLine
 10
8.695509999999998
 20
108.0
 30
0.0
 11
19.0
 21
108.0
 31
0.0
  0
LINE
  5
32
330
1E
100
AcDbEntity
  8
0
100
AcDbLine
 10
8.695509999999998
 20
108.0
 30
0.0
 11
29.8138
 21
108.0
 31
0.0
  0
LINE
  5
33
330
1E
100
AcDbEntity
  8
0
100
AcDbLine
 10
8.695509999999998
 20
108.0
 30
0.0
 11
19.0
 21
108.0
 31
0.0
  0
LINE
  5
34
330
1E
100
AcDbEntity
  8
0
100
AcDbLine
 10
8.695509999999998
 20
108.0
 30
0.0
 11
29.8138
 21
108.0
 31
0.0
  0
LINE
  5
35
330
1E
100
AcDbEntity
  8
0
100
AcDbLine
 10
7.437399999999996
 20
108.0
 30
0.0
 11
8.695509999999998
 21
108.0
 31
0.0
  0
LINE
  5
36
330
1E
100
AcDbEntity
  8
0
100
AcDbLine
 10
7.437399999999996
 20
108.0
 30
0.0
 11
19.0
 21
108.0
 31
0.0
  0
LINE
  5
37
330
1E
100
AcDbEntity
  8
0
100
AcDbLine
 10
7.437399999999996
 20
108.0
 30
0.0
 11
31.16179999999999
 21
108.0
 31
0.0
  0
LINE
  5
38
330
1E
100
AcDbEntity
  8
0
100
AcDbLine
 10
6.5
 20
108.0
 30
0.0
 11
55.3
 21
108.0
 31
0.0
  0
LINE
  5
39
330
1E
100
AcDbEntity
  8
0
100
AcDbLine
 10
6.500000000000014
 20
108.0
 30
0.0
 11
19.0
 21
108.0
 31
0.0
  0
LINE
  5
3A
330
1E
100
AcDbEntity
  8
0
100
AcDbLine
 10
4.5
 20
108.0
 30
0.0
 11
4.5
 21
112.0
 31
0.0
  0
LINE
  5
3B
330
1E
100
AcDbEntity
  8
0
100
AcDbLine
 10
4.5
 20
108.0
 30
0.0
 11
6.5
 21
108.0
 31
0.0
  0
LINE
  5
3C
330
1E
100
AcDbEntity
  8
0
100
AcDbLine
 10
4.5
 20
108.0
 30
0.0
 11
19.0
 21
108.0
 31
0.0
  0
LINE
  5
3D
330
1E
100
AcDbEntity
  8
0
100
AcDbLine
 10
4.5
 20
108.0
 30
0.0
 11
54.5
 21
108.0
 31
0.0
  0
LINE
  5
3E
330
1E
100
AcDbEntity
  8
0
100
AcDbLine
 10
4.5
 20
108.0
 30
0.0
 11
4.644000000000005
 21
108.0
 31
0.0
  0
LINE
  5
3F
330
1E
100
AcDbEntity
  8
0
100
AcDbLine
 10
5.0
 20
73.0
 30
0.0
 11
5.5
 21
73.0
 31
0.0
  0
LINE
  5
40
330
1E
100
AcDbEntity
  8
0
100
AcDbLine
 10
5.0
 20
73.0
 30
0.0
 11
5.0
 21
64.0
 31
0.0
  0
LINE
  5
41
330
1E
100
AcDbEntity
  8
0
100
AcDbLine
 10
44.13839999999999
 20
61.0
 30
0.0
 11
52.4316
 21
61.0
 31
0.0
  0
LINE
  5
42
330
1E
100
AcDbEntity
  8
0
100
AcDbLine
 10
29.0
 20
61.0
 30
0.0
 11
36.1636
 21
61.0
 31
0.0
  0
LINE
  5
43
330
1E
100
AcDbEntity
  8
0
100
AcDbLine
 10
36.1636
 20
61.0
 30
0.0
 11
44.13839999999999
 21
61.0
 31
0.0
  0
LINE
  5
44
330
1E
100
AcDbEntity
  8
0
100
AcDbLine
 10
53.9
 20
4.0
 30
0.0
 11
58.39999999999999
 21
2.5
 31
0.0
  0
LINE
  5
45
330
1E
100
AcDbEntity
  8
0
100
AcDbLine
 10
53.99
 20
5.000000000000009
 30
0.0
 11
56.6
 21
5.000000000000009
 31
0.0
  0
LINE
  5
46
330
1E
100
AcDbEntity
  8
0
100
AcDbLine
 10
53.99
 20
49.0
 30
0.0
 11
56.6
 21
49.0
 31
0.0
  0
LINE
  5
47
330
1E
100
AcDbEntity
  8
0
100
AcDbLine
 10
53.0
 20
5.0
 30
0.0
 11
53.0
 21
49.0
 31
0.0
  0
LINE
  5
48
330
1E
100
AcDbEntity
  8
0
100
AcDbLine
 10
53.0
 20
5.0
 30
0.0
 11
53.9
 21
4.0
 31
0.0
  0
LINE
  5
49
330
1E
100
AcDbEntity
  8
0
100
AcDbLine
 10
53.0
 20
5.0
 30
0.0
 11
53.99
 21
5.000000000000009
 31
0.0
  0
LINE
  5
4A
330
1E
100
AcDbEntity
  8
0
100
AcDbLine
 10
52.4316
 20
61.0
 30
0.0
 11
55.5
 21
61.0
 31
0.0
  0
LINE
  5
4B
330
1E
100
AcDbEntity
  8
0
100
AcDbLine
 10
53.9
 20
50.0
 30
0.0
 11
54.8
 21
50.0
 31
0.0
  0
LINE
  5
4C
330
1E
100
AcDbEntity
  8
0
100
AcDbLine
 10
53.0
 20
49.0
 30
0.0
 11
53.9
 21
50.0
 31
0.0
  0
LINE
  5
4D
330
1E
100
AcDbEntity
  8
0
100
AcDbLine
 10
53.0
 20
49.0
 30
0.0
 11
53.99
 21
49.0
 31
0.0
  0
LINE
  5
4E
330
1E
100
AcDbEntity
  8
0
100
AcDbLine
 10
53.0
 20
49.0
 30
0.0
 11
53.0
 21
5.000000000000009
 31
0.0
  0
LINE
  5
4F
330
1E
100
AcDbEntity
  8
0
100
AcDbLine
 10
56.6
 20
5.000000000000009
 30
0.0
 11
60.92
 21
5.000000000000009
 31
0.0
  0
LINE
  5
50
330
1E
100
AcDbEntity
  8
0
100
AcDbLine
 10
80.0
 20
0.0000000000000043
 30
0.0
 11
81.17
 21
0.0000000000000043
 31
0.0
  0
LINE
  5
51
330
1E
100
AcDbEntity
  8
0
100
AcDbLine
 10
81.17
 20
0.0000000000000043
 30
0.0
 11
82.24999999999999
 21
0.0000000000000044
 31
0.0
  0
LINE
  5
52
330
1E
100
AcDbEntity
  8
0
100
AcDbLine
 10
82.24999999999999
 20
0.0000000000000044
 30
0.0
 11
83.15000000000001
 21
0.0000000000000044
 31
0.0
  0
LINE
  5
53
330
1E
100
AcDbEntity
  8
0
100
AcDbLine
 10
83.15000000000001
 20
0.0000000000000044
 30
0.0
 11
83.87
 21
0.0000000000000045
 31
0.0
  0
LINE
  5
54
330
1E
100
AcDbEntity
  8
0
100
AcDbLine
 10
78.83
 20
0.0000000000000043
 30
0.0
 11
80.0
 21
0.0000000000000043
 31
0.0
  0
LINE
  5
55
330
1E
100
AcDbEntity
  8
0
100
AcDbLine
 10
77.75
 20
0.0000000000000044
 30
0.0
 11
78.83
 21
0.0000000000000043
 31
0.0
  0
LINE
  5
56
330
1E
100
AcDbEntity
  8
0
100
AcDbLine
 10
83.87
 20
0.0000000000000045
 30
0.0
 11
84.32
 21
0.0000000000000045
 31
0.0
  0
LINE
  5
57
330
1E
100
AcDbEntity
  8
0
100
AcDbLine
 10
84.32
 20
0.0000000000000045
 30
0.0
 11
84.50000000000001
 21
0.0000000000000046
 31
0.0
  0
LINE
  5
58
330
1E
100
AcDbEntity
  8
0
100
AcDbLine
 10
76.84999999999999
 20
0.0000000000000044
 30
0.0
 11
77.75
 21
0.0000000000000044
 31
0.0
  0
LINE
  5
59
330
1E
100
AcDbEntity
  8
0
100
AcDbLine
 10
76.12999999999999
 20
0.0000000000000045
 30
0.0
 11
76.84999999999999
 21
0.0000000000000044
 31
0.0
  0
LINE
  5
5A
330
1E
100
AcDbEntity
  8
0
100
AcDbLine
 10
84.50000000000001
 20
0.0000000000000046
 30
0.0
 11
94.40000000000001
 21
1.0
 31
0.0
  0
LINE
  5
5B
330
1E
100
AcDbEntity
  8
0
100
AcDbLine
 10
84.50000000000001
 20
0.0000000000000046
 30
0.0
 11
94.40000000000001
 21
1.0
 31
0.0
  0
LINE
  5
5C
330
1E
100
AcDbEntity
  8
0
100
AcDbLine
 10
94.40000000000001
 20
1.0
 30
0.0
 11
101.6
 21
2.5
 31
0.0
  0
LINE
  5
5D
330
1E
100
AcDbEntity
  8
0
100
AcDbLine
 10
75.68000000000001
 20
0.0000000000000045
 30
0.0
 11
76.12999999999999
 21
0.0000000000000045
 31
0.0
  0
LINE
  5
5E
330
1E
100
AcDbEntity
  8
0
100
AcDbLine
 10
75.5
 20
0.0000000000000046
 30
0.0
 11
75.68000000000001
 21
0.0000000000000045
 31
0.0
  0
LINE
  5
5F
330
1E
100
AcDbEntity
  8
0
100
AcDbLine
 10
60.92
 20
5.000000000000009
 30
0.0
 11
66.59
 21
5.000000000000009
 31
0.0
  0
LINE
  5
60
330
1E
100
AcDbEntity
  8
0
100
AcDbLine
 10
73.06999999999999
 20
5.000000000000009
 30
0.0
 11
80.0
 21
5.000000000000009
 31
0.0
  0
LINE
  5
61
330
1E
100
AcDbEntity
  8
0
100
AcDbLine
 10
66.59
 20
5.000000000000009
 30
0.0
 11
73.06999999999999
 21
5.000000000000009
 31
0.0
  0
LINE
  5
62
330
1E
100
AcDbEntity
  8
0
100
AcDbLine
 10
80.0
 20
5.000000000000009
 30
0.0
 11
86.93000000000001
 21
5.000000000000009
 31
0.0
  0
LINE
  5
63
330
1E
100
AcDbEntity
  8
0
100
AcDbLine
 10
86.93000000000001
 20
5.000000000000009
 30
0.0
 11
93.40999999999999
 21
5.000000000000009
 31
0.0
  0
LINE
  5
64
330
1E
100
AcDbEntity
  8
0
100
AcDbLine
 10
93.40999999999999
 20
5.000000000000009
 30
0.0
 11
99.08000000000001
 21
5.000000000000009
 31
0.0
  0
LINE
  5
65
330
1E
100
AcDbEntity
  8
0
100
AcDbLine
 10
99.08000000000001
 20
5.000000000000009
 30
0.0
 11
103.4
 21
5.000000000000009
 31
0.0
  0
LINE
  5
66
330
1E
100
AcDbEntity
  8
0
100
AcDbLine
 10
103.4
 20
5.000000000000009
 30
0.0
 11
106.01
 21
5.000000000000009
 31
0.0
  0
LINE
  5
67
330
1E
100
AcDbEntity
  8
0
100
AcDbLine
 10
101.6
 20
2.5
 30
0.0
 11
106.0999999999999
 21
4.0
 31
0.0
  0
LINE
  5
68
330
1E
100
AcDbEntity
  8
0
100
AcDbLine
 10
65.59999999999999
 20
1.0
 30
0.0
 11
75.5
 21
0.0000000000000046
 31
0.0
  0
LINE
  5
69
330
1E
100
AcDbEntity
  8
0
100
AcDbLine
 10
65.59999999999999
 20
1.0
 30
0.0
 11
75.5
 21
0.0000000000000046
 31
0.0
  0
LINE
  5
6A
330
1E
100
AcDbEntity
  8
0
100
AcDbLine
 10
58.39999999999999
 20
2.5
 30
0.0
 11
65.59999999999999
 21
1.0
 31
0.0
  0
LINE
  5
6B
330
1E
100
AcDbEntity
  8
0
100
AcDbLine
 10
75.4
 20
31.89999999999999
 30
0.0
 11
76.5
 21
33.5
 31
0.0
  0
LINE
  5
6C
330
1E
100
AcDbEntity
  8
0
100
AcDbLine
 10
76.5
 20
33.5
 30
0.0
 11
78.09999999999999
 21
34.6
 31
0.0
  0
LINE
  5
6D
330
1E
100
AcDbEntity
  8
0
100
AcDbLine
 10
75.0
 20
30.0
 30
0.0
 11
75.4
 21
28.1
 31
0.0
  0
LINE
  5
6E
330
1E
100
AcDbEntity
  8
0
100
AcDbLine
 10
75.0
 20
30.0
 30
0.0
 11
75.4
 21
31.89999999999999
 31
0.0
  0
LINE
  5
6F
330
1E
100
AcDbEntity
  8
0
100
AcDbLine
 10
75.4
 20
28.1
 30
0.0
 11
76.5
 21
26.5
 31
0.0
  0
LINE
  5
70
330
1E
100
AcDbEntity
  8
0
100
AcDbLine
 10
78.09999999999999
 20
34.6
 30
0.0
 11
80.0
 21
35.0
 31
0.0
  0
LINE
  5
71
330
1E
100
AcDbEntity
  8
0
100
AcDbLine
 10
76.5
 20
26.5
 30
0.0
 11
78.09999999999999
 21
25.4
 31
0.0
  0
LINE
  5
72
330
1E
100
AcDbEntity
  8
0
100
AcDbLine
 10
78.09999999999999
 20
25.4
 30
0.0
 11
80.0
 21
25.0
 31
0.0
  0
LINE
  5
73
330
1E
100
AcDbEntity
  8
0
100
AcDbLine
 10
81.90000000000001
 20
34.6
 30
0.0
 11
83.49999999999999
 21
33.5
 31
0.0
  0
LINE
  5
74
330
1E
100
AcDbEntity
  8
0
100
AcDbLine
 10
54.8
 20
50.0
 30
0.0
 11
57.40999999999999
 21
50.0
 31
0.0
  0
LINE
  5
75
330
1E
100
AcDbEntity
  8
0
100
AcDbLine
 10
73.06999999999999
 20
49.0
 30
0.0
 11
80.0
 21
49.0
 31
0.0
  0
LINE
  5
76
330
1E
100
AcDbEntity
  8
0
100
AcDbLine
 10
66.59
 20
49.0
 30
0.0
 11
73.06999999999999
 21
49.0
 31
0.0
  0
LINE
  5
77
330
1E
100
AcDbEntity
  8
0
100
AcDbLine
 10
60.92
 20
49.0
 30
0.0
 11
66.59
 21
49.0
 31
0.0
  0
LINE
  5
78
330
1E
100
AcDbEntity
  8
0
100
AcDbLine
 10
56.6
 20
49.0
 30
0.0
 11
60.92
 21
49.0
 31
0.0
  0
LINE
  5
79
330
1E
100
AcDbEntity
  8
0
100
AcDbLine
 10
73.25
 20
50.0
 30
0.0
 11
80.0
 21
50.0
 31
0.0
  0
LINE
  5
7A
330
1E
100
AcDbEntity
  8
0
100
AcDbLine
 10
67.04
 20
50.0
 30
0.0
 11
73.25
 21
50.0
 31
0.0
  0
LINE
  5
7B
330
1E
100
AcDbEntity
  8
0
100
AcDbLine
 10
61.55
 20
50.0
 30
0.0
 11
67.04
 21
50.0
 31
0.0
  0
LINE
  5
7C
330
1E
100
AcDbEntity
  8
0
100
AcDbLine
 10
57.40999999999999
 20
50.0
 30
0.0
 11
61.55
 21
50.0
 31
0.0
  0
LINE
  5
7D
330
1E
100
AcDbEntity
  8
0
100
AcDbLine
 10
80.0
 20
49.0
 30
0.0
 11
86.93000000000001
 21
49.0
 31
0.0
  0
LINE
  5
7E
330
1E
100
AcDbEntity
  8
0
100
AcDbLine
 10
80.0
 20
50.0
 30
0.0
 11
86.75
 21
50.0
 31
0.0
  0
LINE
  5
7F
330
1E
100
AcDbEntity
  8
0
100
AcDbLine
 10
55.5
 20
50.0
 30
0.0
 11
55.5
 21
61.0
 31
0.0
  0
LINE
  5
80
330
1E
100
AcDbEntity
  8
0
100
AcDbLine
 10
80.0
 20
35.0
 30
0.0
 11
81.90000000000001
 21
34.6
 31
0.0
  0
LINE
  5
81
330
1E
100
AcDbEntity
  8
0
100
AcDbLine
 10
84.59999999999999
 20
31.89999999999999
 30
0.0
 11
85.0
 21
30.0
 31
0.0
  0
LINE
  5
82
330
1E
100
AcDbEntity
  8
0
100
AcDbLine
 10
83.49999999999999
 20
33.5
 30
0.0
 11
84.59999999999999
 21
31.89999999999999
 31
0.0
  0
LINE
  5
83
330
1E
100
AcDbEntity
  8
0
100
AcDbLine
 10
86.93000000000001
 20
49.0
 30
0.0
 11
93.40999999999999
 21
49.0
 31
0.0
  0
LINE
  5
84
330
1E
100
AcDbEntity
  8
0
100
AcDbLine
 10
93.40999999999999
 20
49.0
 30
0.0
 11
99.08000000000001
 21
49.0
 31
0.0
  0
LINE
  5
85
330
1E
100
AcDbEntity
  8
0
100
AcDbLine
 10
99.08000000000001
 20
49.0
 30
0.0
 11
103.4
 21
49.0
 31
0.0
  0
LINE
  5
86
330
1E
100
AcDbEntity
  8
0
100
AcDbLine
 10
103.4
 20
49.0
 30
0.0
 11
106.01
 21
49.0
 31
0.0
  0
LINE
  5
87
330
1E
100
AcDbEntity
  8
0
100
AcDbLine
 10
86.75
 20
50.0
 30
0.0
 11
92.95999999999999
 21
50.0
 31
0.0
  0
LINE
  5
88
330
1E
100
AcDbEntity
  8
0
100
AcDbLine
 10
92.95999999999999
 20
50.0
 30
0.0
 11
98.45
 21
50.0
 31
0.0
  0
LINE
  5
89
330
1E
100
AcDbEntity
  8
0
100
AcDbLine
 10
98.45
 20
50.0
 30
0.0
 11
102.59
 21
50.0
 31
0.0
  0
LINE
  5
8A
330
1E
100
AcDbEntity
  8
0
100
AcDbLine
 10
102.59
 20
50.0
 30
0.0
 11
105.2
 21
50.0
 31
0.0
  0
LINE
  5
8B
330
1E
100
AcDbEntity
  8
0
100
AcDbLine
 10
104.4999999999999
 20
50.0
 30
0.0
 11
104.4999999999999
 21
61.0
 31
0.0
  0
LINE
  5
8C
330
1E
100
AcDbEntity
  8
0
100
AcDbLine
 10
84.59999999999999
 20
28.1
 30
0.0
 11
85.0
 21
30.0
 31
0.0
  0
LINE
  5
8D
330
1E
100
AcDbEntity
  8
0
100
AcDbLine
 10
83.49999999999999
 20
26.5
 30
0.0
 11
84.59999999999999
 21
28.1
 31
0.0
  0
LINE
  5
8E
330
1E
100
AcDbEntity
  8
0
100
AcDbLine
 10
81.90000000000001
 20
25.4
 30
0.0
 11
83.49999999999999
 21
26.5
 31
0.0
  0
LINE
  5
8F
330
1E
100
AcDbEntity
  8
0
100
AcDbLine
 10
80.0
 20
25.0
 30
0.0
 11
81.90000000000001
 21
25.4
 31
0.0
  0
LINE
  5
90
330
1E
100
AcDbEntity
  8
0
100
AcDbLine
 10
106.01
 20
5.000000000000009
 30
0.0
 11
107.0
 21
5.0
 31
0.0
  0
LINE
  5
91
330
1E
100
AcDbEntity
  8
0
100
AcDbLine
 10
107.0
 20
5.0
 30
0.0
 11
107.0
 21
49.0
 31
0.0
  0
LINE
  5
92
330
1E
100
AcDbEntity
  8
0
100
AcDbLine
 10
106.01
 20
49.0
 30
0.0
 11
107.0
 21
49.0
 31
0.0
  0
LINE
  5
93
330
1E
100
AcDbEntity
  8
0
100
AcDbLine
 10
105.2
 20
50.0
 30
0.0
 11
106.0999999999999
 21
50.0
 31
0.0
  0
LINE
  5
94
330
1E
100
AcDbEntity
  8
0
100
AcDbLine
 10
106.0999999999999
 20
4.0
 30
0.0
 11
107.0
 21
5.0
 31
0.0
  0
LINE
  5
95
330
1E
100
AcDbEntity
  8
0
100
AcDbLine
 10
107.0
 20
49.0
 30
0.0
 11
107.0
 21
5.000000000000009
 31
0.0
  0
LINE
  5
96
330
1E
100
AcDbEntity
  8
0
100
AcDbLine
 10
106.0999999999999
 20
50.0
 30
0.0
 11
107.0
 21
49.0
 31
0.0
  0
LINE
  5
97
330
1E
100
AcDbEntity
  8
0
100
AcDbLine
 10
104.4999999999999
 20
61.0
 30
0.0
 11
105.8
 21
61.0
 31
0.0
  0
LINE
  5
98
330
1E
100
AcDbEntity
  8
0
100
AcDbLine
 10
104.4999999999999
 20
61.0
 30
0.0
 11
107.5679999999999
 21
61.0
 31
0.0
  0
LINE
  5
99
330
1E
100
AcDbEntity
  8
0
100
AcDbLine
 10
105.8
 20
61.0
 30
0.0
 11
107.0
 21
61.0
 31
0.0
  0
LINE
  5
9A
330
1E
100
AcDbEntity
  8
0
100
AcDbLine
 10
115.862
 20
61.0
 30
0.0
 11
123.8359999999999
 21
61.0
 31
0.0
  0
LINE
  5
9B
330
1E
100
AcDbEntity
  8
0
100
AcDbLine
 10
152.0
 20
61.0
 30
0.0
 11
153.3999999999999
 21
61.5
 31
0.0
  0
LINE
  5
9C
330
1E
100
AcDbEntity
  8
0
100
AcDbLine
 10
151.3279999999999
 20
61.0
 30
0.0
 11
152.0
 21
61.0
 31
0.0
  0
LINE
  5
9D
330
1E
100
AcDbEntity
  8
0
100
AcDbLine
 10
149.476
 20
61.0
 30
0.0
 11
151.3279999999999
 21
61.0
 31
0.0
  0
LINE
  5
9E
330
1E
100
AcDbEntity
  8
0
100
AcDbLine
 10
142.398
 20
61.0
 30
0.0
 11
146.4879999999999
 21
61.0
 31
0.0
  0
LINE
  5
9F
330
1E
100
AcDbEntity
  8
0
100
AcDbLine
 10
146.4879999999999
 20
61.0
 30
0.0
 11
149.476
 21
61.0
 31
0.0
  0
LINE
  5
A0
330
1E
100
AcDbEntity
  8
0
100
AcDbLine
 10
131.0
 20
61.0
 30
0.0
 11
137.08
 21
61.0
 31
0.0
  0
LINE
  5
A1
330
1E
100
AcDbEntity
  8
0
100
AcDbLine
 10
137.08
 20
61.0
 30
0.0
 11
142.398
 21
61.0
 31
0.0
  0
LINE
  5
A2
330
1E
100
AcDbEntity
  8
0
100
AcDbLine
 10
123.8359999999999
 20
61.0
 30
0.0
 11
131.0
 21
61.0
 31
0.0
  0
LINE
  5
A3
330
1E
100
AcDbEntity
  8
0
100
AcDbLine
 10
107.5679999999999
 20
61.0
 30
0.0
 11
115.862
 21
61.0
 31
0.0
  0
LINE
  5
A4
330
1E
100
AcDbEntity
  8
0
100
AcDbLine
 10
107.0
 20
61.0
 30
0.0
 11
107.6999999999999
 21
61.0
 31
0.0
  0
LINE
  5
A5
330
1E
100
AcDbEntity
  8
0
100
AcDbLine
 10
107.6999999999999
 20
61.0
 30
0.0
 11
108.0
 21
61.0
 31
0.0
  0
LINE
  5
A6
330
1E
100
AcDbEntity
  8
0
100
AcDbLine
 10
54.2
 20
61.0
 30
0.0
 11
55.5
 21
61.0
 31
0.0
  0
LINE
  5
A7
330
1E
100
AcDbEntity
  8
0
100
AcDbLine
 10
53.0
 20
61.0
 30
0.0
 11
54.2
 21
61.0
 31
0.0
  0
LINE
  5
A8
330
1E
100
AcDbEntity
  8
0
100
AcDbLine
 10
52.3
 20
61.0
 30
0.0
 11
53.0
 21
61.0
 31
0.0
  0
LINE
  5
A9
330
1E
100
AcDbEntity
  8
0
100
AcDbLine
 10
52.3
 20
61.0
 30
0.0
 11
53.0
 21
61.0
 31
0.0
  0
LINE
  5
AA
330
1E
100
AcDbEntity
  8
0
100
AcDbLine
 10
52.0
 20
61.0
 30
0.0
 11
52.3
 21
61.0
 31
0.0
  0
LINE
  5
AB
330
1E
100
AcDbEntity
  8
0
100
AcDbLine
 10
22.91959999999999
 20
61.0
 30
0.0
 11
29.0
 21
61.0
 31
0.0
  0
LINE
  5
AC
330
1E
100
AcDbEntity
  8
0
100
AcDbLine
 10
17.6025
 20
61.0
 30
0.0
 11
22.91959999999999
 21
61.0
 31
0.0
  0
LINE
  5
AD
330
1E
100
AcDbEntity
  8
0
100
AcDbLine
 10
13.51241
 20
61.0
 30
0.0
 11
17.6025
 21
61.0
 31
0.0
  0
LINE
  5
AE
330
1E
100
AcDbEntity
  8
0
100
AcDbLine
 10
10.52351999999999
 20
61.0
 30
0.0
 11
13.51241
 21
61.0
 31
0.0
  0
LINE
  5
AF
330
1E
100
AcDbEntity
  8
0
100
AcDbLine
 10
8.67168
 20
61.0
 30
0.0
 11
10.52351999999999
 21
61.0
 31
0.0
  0
LINE
  5
B0
330
1E
100
AcDbEntity
  8
0
100
AcDbLine
 10
55.5
 20
61.0
 30
0.0
 11
55.5
 21
50.0
 31
0.0
  0
LINE
  5
B1
330
1E
100
AcDbEntity
  8
0
100
AcDbLine
 10
57.8
 20
61.0
 30
0.0
 11
60.2
 21
61.0
 31
0.0
  0
LINE
  5
B2
330
1E
100
AcDbEntity
  8
0
100
AcDbLine
 10
55.8
 20
61.0
 30
0.0
 11
57.8
 21
61.0
 31
0.0
  0
LINE
  5
B3
330
1E
100
AcDbEntity
  8
0
100
AcDbLine
 10
54.2
 20
61.0
 30
0.0
 11
55.8
 21
61.0
 31
0.0
  0
LINE
  5
B4
330
1E
100
AcDbEntity
  8
0
100
AcDbLine
 10
53.0
 20
61.0
 30
0.0
 11
54.2
 21
61.0
 31
0.0
  0
LINE
  5
B5
330
1E
100
AcDbEntity
  8
0
100
AcDbLine
 10
60.2
 20
61.0
 30
0.0
 11
63.0
 21
61.0
 31
0.0
  0
LINE
  5
B6
330
1E
100
AcDbEntity
  8
0
100
AcDbLine
 10
63.0
 20
61.0
 30
0.0
 11
66.09999999999999
 21
61.0
 31
0.0
  0
LINE
  5
B7
330
1E
100
AcDbEntity
  8
0
100
AcDbLine
 10
66.09999999999999
 20
61.0
 30
0.0
 11
69.29999999999999
 21
61.0
 31
0.0
  0
LINE
  5
B8
330
1E
100
AcDbEntity
  8
0
100
AcDbLine
 10
69.29999999999999
 20
61.0
 30
0.0
 11
72.8
 21
61.0
 31
0.0
  0
LINE
  5
B9
330
1E
100
AcDbEntity
  8
0
100
AcDbLine
 10
99.8
 20
61.0
 30
0.0
 11
102.2
 21
61.0
 31
0.0
  0
LINE
  5
BA
330
1E
100
AcDbEntity
  8
0
100
AcDbLine
 10
104.4999999999999
 20
61.0
 30
0.0
 11
104.4999999999999
 21
50.0
 31
0.0
  0
LINE
  5
BB
330
1E
100
AcDbEntity
  8
0
100
AcDbLine
 10
102.2
 20
61.0
 30
0.0
 11
104.2
 21
61.0
 31
0.0
  0
LINE
  5
BC
330
1E
100
AcDbEntity
  8
0
100
AcDbLine
 10
104.2
 20
61.0
 30
0.0
 11
105.8
 21
61.0
 31
0.0
  0
LINE
  5
BD
330
1E
100
AcDbEntity
  8
0
100
AcDbLine
 10
105.8
 20
61.0
 30
0.0
 11
107.0
 21
61.0
 31
0.0
  0
LINE
  5
BE
330
1E
100
AcDbEntity
  8
0
100
AcDbLine
 10
107.0
 20
61.0
 30
0.0
 11
107.6999999999999
 21
61.0
 31
0.0
  0
LINE
  5
BF
330
1E
100
AcDbEntity
  8
0
100
AcDbLine
 10
97.0
 20
61.0
 30
0.0
 11
99.8
 21
61.0
 31
0.0
  0
LINE
  5
C0
330
1E
100
AcDbEntity
  8
0
100
AcDbLine
 10
93.9
 20
61.0
 30
0.0
 11
97.0
 21
61.0
 31
0.0
  0
LINE
  5
C1
330
1E
100
AcDbEntity
  8
0
100
AcDbLine
 10
90.7
 20
61.0
 30
0.0
 11
93.9
 21
61.0
 31
0.0
  0
LINE
  5
C2
330
1E
100
AcDbEntity
  8
0
100
AcDbLine
 10
87.2
 20
61.0
 30
0.0
 11
90.7
 21
61.0
 31
0.0
  0
LINE
  5
C3
330
1E
100
AcDbEntity
  8
0
100
AcDbLine
 10
83.59999999999999
 20
61.0
 30
0.0
 11
87.2
 21
61.0
 31
0.0
  0
LINE
  5
C4
330
1E
100
AcDbEntity
  8
0
100
AcDbLine
 10
80.0
 20
61.0
 30
0.0
 11
83.59999999999999
 21
61.0
 31
0.0
  0
LINE
  5
C5
330
1E
100
AcDbEntity
  8
0
100
AcDbLine
 10
72.8
 20
61.0
 30
0.0
 11
76.4
 21
61.0
 31
0.0
  0
LINE
  5
C6
330
1E
100
AcDbEntity
  8
0
100
AcDbLine
 10
76.4
 20
61.0
 30
0.0
 11
80.0
 21
61.0
 31
0.0
  0
LINE
  5
C7
330
1E
100
AcDbEntity
  8
0
100
AcDbLine
 10
153.3999999999999
 20
61.5
 30
0.0
 11
154.4999999999999
 21
62.6
 31
0.0
  0
LINE
  5
C8
330
1E
100
AcDbEntity
  8
0
100
AcDbLine
 10
154.4999999999999
 20
62.6
 30
0.0
 11
155.0
 21
64.0
 31
0.0
  0
LINE
  5
C9
330
1E
100
AcDbEntity
  8
0
100
AcDbLine
 10
8.0
 20
61.0
 30
0.0
 11
8.67168
 21
61.0
 31
0.0
  0
LINE
  5
CA
330
1E
100
AcDbEntity
  8
0
100
AcDbLine
 10
6.599999999999999
 20
61.5
 30
0.0
 11
8.0
 21
61.0
 31
0.0
  0
LINE
  5
CB
330
1E
100
AcDbEntity
  8
0
100
AcDbLine
 10
7.5
 20
73.0
 30
0.0
 11
10.7
 21
73.0
 31
0.0
  0
LINE
  5
CC
330
1E
100
AcDbEntity
  8
0
100
AcDbLine
 10
5.5
 20
73.0
 30
0.0
 11
7.5
 21
73.0
 31
0.0
  0
LINE
  5
CD
330
1E
100
AcDbEntity
  8
0
100
AcDbLine
 10
19.0
 20
73.0
 30
0.0
 11
19.0
 21
108.0
 31
0.0
  0
LINE
  5
CE
330
1E
100
AcDbEntity
  8
0
100
AcDbLine
 10
14.9
 20
73.0
 30
0.0
 11
20.5
 21
73.0
 31
0.0
  0
LINE
  5
CF
330
1E
100
AcDbEntity
  8
0
100
AcDbLine
 10
10.7
 20
73.0
 30
0.0
 11
14.9
 21
73.0
 31
0.0
  0
LINE
  5
D0
330
1E
100
AcDbEntity
  8
0
100
AcDbLine
 10
20.5
 20
73.0
 30
0.0
 11
27.0
 21
73.0
 31
0.0
  0
LINE
  5
D1
330
1E
100
AcDbEntity
  8
0
100
AcDbLine
 10
60.6
 20
73.0
 30
0.0
 11
70.09999999999999
 21
73.0
 31
0.0
  0
LINE
  5
D2
330
1E
100
AcDbEntity
  8
0
100
AcDbLine
 10
70.09999999999999
 20
73.0
 30
0.0
 11
80.0
 21
73.0
 31
0.0
  0
LINE
  5
D3
330
1E
100
AcDbEntity
  8
0
100
AcDbLine
 10
108.8
 20
73.0
 30
0.0
 11
117.4
 21
73.0
 31
0.0
  0
LINE
  5
D4
330
1E
100
AcDbEntity
  8
0
100
AcDbLine
 10
99.40000000000001
 20
73.0
 30
0.0
 11
108.8
 21
73.0
 31
0.0
  0
LINE
  5
D5
330
1E
100
AcDbEntity
  8
0
100
AcDbLine
 10
80.0
 20
73.0
 30
0.0
 11
89.9
 21
73.0
 31
0.0
  0
LINE
  5
D6
330
1E
100
AcDbEntity
  8
0
100
AcDbLine
 10
89.9
 20
73.0
 30
0.0
 11
99.40000000000001
 21
73.0
 31
0.0
  0
LINE
  5
D7
330
1E
100
AcDbEntity
  8
0
100
AcDbLine
 10
42.6
 20
73.0
 30
0.0
 11
51.2
 21
73.0
 31
0.0
  0
LINE
  5
D8
330
1E
100
AcDbEntity
  8
0
100
AcDbLine
 10
34.29999999999999
 20
73.0
 30
0.0
 11
42.6
 21
73.0
 31
0.0
  0
LINE
  5
D9
330
1E
100
AcDbEntity
  8
0
100
AcDbLine
 10
27.0
 20
73.0
 30
0.0
 11
34.29999999999999
 21
73.0
 31
0.0
  0
LINE
  5
DA
330
1E
100
AcDbEntity
  8
0
100
AcDbLine
 10
51.2
 20
73.0
 30
0.0
 11
60.6
 21
73.0
 31
0.0
  0
LINE
  5
DB
330
1E
100
AcDbEntity
  8
0
100
AcDbLine
 10
125.7
 20
73.0
 30
0.0
 11
133.0
 21
73.0
 31
0.0
  0
LINE
  5
DC
330
1E
100
AcDbEntity
  8
0
100
AcDbLine
 10
117.4
 20
73.0
 30
0.0
 11
125.7
 21
73.0
 31
0.0
  0
LINE
  5
DD
330
1E
100
AcDbEntity
  8
0
100
AcDbLine
 10
141.0
 20
73.0
 30
0.0
 11
141.0
 21
108.0
 31
0.0
  0
LINE
  5
DE
330
1E
100
AcDbEntity
  8
0
100
AcDbLine
 10
155.0
 20
64.0
 30
0.0
 11
155.0
 21
73.0
 31
0.0
  0
LINE
  5
DF
330
1E
100
AcDbEntity
  8
0
100
AcDbLine
 10
152.5
 20
73.0
 30
0.0
 11
154.4999999999999
 21
73.0
 31
0.0
  0
LINE
  5
E0
330
1E
100
AcDbEntity
  8
0
100
AcDbLine
 10
154.4999999999999
 20
73.0
 30
0.0
 11
155.0
 21
73.0
 31
0.0
  0
LINE
  5
E1
330
1E
100
AcDbEntity
  8
0
100
AcDbLine
 10
145.1
 20
73.0
 30
0.0
 11
149.3
 21
73.0
 31
0.0
  0
LINE
  5
E2
330
1E
100
AcDbEntity
  8
0
100
AcDbLine
 10
139.5
 20
73.0
 30
0.0
 11
145.1
 21
73.0
 31
0.0
  0
LINE
  5
E3
330
1E
100
AcDbEntity
  8
0
100
AcDbLine
 10
133.0
 20
73.0
 30
0.0
 11
139.5
 21
73.0
 31
0.0
  0
LINE
  5
E4
330
1E
100
AcDbEntity
  8
0
100
AcDbLine
 10
9.524
 20
108.0
 30
0.0
 11
10.48399999999999
 21
108.0
 31
0.0
  0
LINE
  5
E5
330
1E
100
AcDbEntity
  8
0
100
AcDbLine
 10
10.48399999999999
 20
108.0
 30
0.0
 11
11.33199999999999
 21
108.0
 31
0.0
  0
LINE
  5
E6
330
1E
100
AcDbEntity
  8
0
100
AcDbLine
 10
10.11032
 20
108.0
 30
0.0
 11
10.25432
 21
108.0
 31
0.0
  0
LINE
  5
E7
330
1E
100
AcDbEntity
  8
0
100
AcDbLine
 10
10.25432
 20
108.0
 30
0.0
 11
10.63831999999999
 21
108.0
 31
0.0
  0
LINE
  5
E8
330
1E
100
AcDbEntity
  8
0
100
AcDbLine
 10
10.63831999999999
 20
108.0
 30
0.0
 11
11.27832
 21
108.0
 31
0.0
  0
LINE
  5
E9
330
1E
100
AcDbEntity
  8
0
100
AcDbLine
 10
10.84241
 20
108.0
 30
0.0
 11
19.0
 21
108.0
 31
0.0
  0
LINE
  5
EA
330
1E
100
AcDbEntity
  8
0
100
AcDbLine
 10
10.84241
 20
108.0
 30
0.0
 11
21.54619999999999
 21
108.0
 31
0.0
  0
LINE
  5
EB
330
1E
100
AcDbEntity
  8
0
100
AcDbLine
 10
11.972
 20
108.0
 30
0.0
 11
12.35599999999999
 21
108.0
 31
0.0
  0
LINE
  5
EC
330
1E
100
AcDbEntity
  8
0
100
AcDbLine
 10
11.33199999999999
 20
108.0
 30
0.0
 11
11.972
 21
108.0
 31
0.0
  0
LINE
  5
ED
330
1E
100
AcDbEntity
  8
0
100
AcDbLine
 10
11.27832
 20
108.0
 30
0.0
 11
12.12631999999999
 21
108.0
 31
0.0
  0
LINE
  5
EE
330
1E
100
AcDbEntity
  8
0
100
AcDbLine
 10
12.35599999999999
 20
108.0
 30
0.0
 11
12.5
 21
108.0
 31
0.0
  0
LINE
  5
EF
330
1E
100
AcDbEntity
  8
0
100
AcDbLine
 10
16.9423
 20
108.0
 30
0.0
 11
17.5823
 21
108.0
 31
0.0
  0
LINE
  5
F0
330
1E
100
AcDbEntity
  8
0
100
AcDbLine
 10
16.0943
 20
108.0
 30
0.0
 11
16.9423
 21
108.0
 31
0.0
  0
LINE
  5
F1
330
1E
100
AcDbEntity
  8
0
100
AcDbLine
 10
15.13429999999999
 20
108.0
 30
0.0
 11
16.0943
 21
108.0
 31
0.0
  0
LINE
  5
F2
330
1E
100
AcDbEntity
  8
0
100
AcDbLine
 10
14.11032
 20
108.0
 30
0.0
 11
15.13429999999999
 21
108.0
 31
0.0
  0
LINE
  5
F3
330
1E
100
AcDbEntity
  8
0
100
AcDbLine
 10
12.12631999999999
 20
108.0
 30
0.0
 11
13.08632
 21
108.0
 31
0.0
  0
LINE
  5
F4
330
1E
100
AcDbEntity
  8
0
100
AcDbLine
 10
13.08632
 20
108.0
 30
0.0
 11
14.11032
 21
108.0
 31
0.0
  0
LINE
  5
F5
330
1E
100
AcDbEntity
  8
0
100
AcDbLine
 10
11.18492
 20
108.0
 30
0.0
 11
19.0
 21
108.0
 31
0.0
  0
LINE
  5
F6
330
1E
100
AcDbEntity
  8
0
100
AcDbLine
 10
11.18492
 20
108.0
 30
0.0
 11
19.0
 21
108.0
 31
0.0
  0
LINE
  5
F7
330
1E
100
AcDbEntity
  8
0
100
AcDbLine
 10
11.18492
 20
108.0
 30
0.0
 11
22.355
 21
108.0
 31
0.0
  0
LINE
  5
F8
330
1E
100
AcDbEntity
  8
0
100
AcDbLine
 10
10.84241
 20
108.0
 30
0.0
 11
11.18492
 21
108.0
 31
0.0
  0
LINE
  5
F9
330
1E
100
AcDbEntity
  8
0
100
AcDbLine
 10
10.84241
 20
108.0
 30
0.0
 11
19.0
 21
108.0
 31
0.0
  0
LINE
  5
FA
330
1E
100
AcDbEntity
  8
0
100
AcDbLine
 10
10.84241
 20
108.0
 30
0.0
 11
21.54619999999999
 21
108.0
 31
0.0
  0
LINE
  5
FB
330
1E
100
AcDbEntity
  8
0
100
AcDbLine
 10
17.9663
 20
108.0
 30
0.0
 11
18.1103
 21
108.0
 31
0.0
  0
LINE
  5
FC
330
1E
100
AcDbEntity
  8
0
100
AcDbLine
 10
17.5823
 20
108.0
 30
0.0
 11
17.9663
 21
108.0
 31
0.0
  0
LINE
  5
FD
330
1E
100
AcDbEntity
  8
0
100
AcDbLine
 10
17.756
 20
108.0
 30
0.0
 11
19.0
 21
108.0
 31
0.0
  0
LINE
  5
FE
330
1E
100
AcDbEntity
  8
0
100
AcDbLine
 10
17.756
 20
108.0
 30
0.0
 11
19.268
 21
108.0
 31
0.0
  0
LINE
  5
FF
330
1E
100
AcDbEntity
  8
0
100
AcDbLine
 10
17.0
 20
108.0
 30
0.0
 11
17.756
 21
108.0
 31
0.0
  0
LINE
  5
100
330
1E
100
AcDbEntity
  8
0
100
AcDbLine
 10
17.0
 20
139.7199999999999
 30
0.0
 11
17.0
 21
141.6399999999999
 31
0.0
  0
LINE
  5
101
330
1E
100
AcDbEntity
  8
0
100
AcDbLine
 10
17.0
 20
139.7199999999999
 30
0.0
 11
17.0
 21
139.0
 31
0.0
  0
LINE
  5
102
330
1E
100
AcDbEntity
  8
0
100
AcDbLine
 10
17.0
 20
139.7199999999999
 30
0.0
 11
17.0
 21
141.6399999999999
 31
0.0
  0
LINE
  5
103
330
1E
100
AcDbEntity
  8
0
100
AcDbLine
 10
17.0
 20
139.0
 30
0.0
 11
17.0
 21
139.7199999999999
 31
0.0
  0
LINE
  5
104
330
1E
100
AcDbEntity
  8
0
100
AcDbLine
 10
17.0
 20
139.0
 30
0.0
 11
19.0
 21
139.0
 31
0.0
  0
LINE
  5
105
330
1E
100
AcDbEntity
  8
0
100
AcDbLine
 10
17.0
 20
141.6399999999999
 30
0.0
 11
17.0
 21
144.84
 31
0.0
  0
LINE
  5
106
330
1E
100
AcDbEntity
  8
0
100
AcDbLine
 10
17.0
 20
141.6399999999999
 30
0.0
 11
17.0
 21
139.7199999999999
 31
0.0
  0
LINE
  5
107
330
1E
100
AcDbEntity
  8
0
100
AcDbLine
 10
17.0
 20
142.0
 30
0.0
 11
17.0
 21
142.612
 31
0.0
  0
LINE
  5
108
330
1E
100
AcDbEntity
  8
0
100
AcDbLine
 10
17.0
 20
141.6399999999999
 30
0.0
 11
17.0
 21
144.84
 31
0.0
  0
LINE
  5
109
330
1E
100
AcDbEntity
  8
0
100
AcDbLine
 10
17.0
 20
141.6399999999999
 30
0.0
 11
17.0
 21
139.7199999999999
 31
0.0
  0
LINE
  5
10A
330
1E
100
AcDbEntity
  8
0
100
AcDbLine
 10
17.0
 20
144.84
 30
0.0
 11
17.0
 21
149.08
 31
0.0
  0
LINE
  5
10B
330
1E
100
AcDbEntity
  8
0
100
AcDbLine
 10
17.0
 20
144.84
 30
0.0
 11
17.0
 21
141.6399999999999
 31
0.0
  0
LINE
  5
10C
330
1E
100
AcDbEntity
  8
0
100
AcDbLine
 10
17.0
 20
144.84
 30
0.0
 11
17.0
 21
141.6399999999999
 31
0.0
  0
LINE
  5
10D
330
1E
100
AcDbEntity
  8
0
100
AcDbLine
 10
17.0
 20
144.2439999999999
 30
0.0
 11
17.0
 21
142.612
 31
0.0
  0
LINE
  5
10E
330
1E
100
AcDbEntity
  8
0
100
AcDbLine
 10
17.0
 20
144.2439999999999
 30
0.0
 11
17.0
 21
146.964
 31
0.0
  0
LINE
  5
10F
330
1E
100
AcDbEntity
  8
0
100
AcDbLine
 10
17.0
 20
144.2439999999999
 30
0.0
 11
17.0
 21
146.964
 31
0.0
  0
LINE
  5
110
330
1E
100
AcDbEntity
  8
0
100
AcDbLine
 10
17.0
 20
142.612
 30
0.0
 11
17.0
 21
142.0
 31
0.0
  0
LINE
  5
111
330
1E
100
AcDbEntity
  8
0
100
AcDbLine
 10
17.0
 20
142.612
 30
0.0
 11
17.0
 21
144.2439999999999
 31
0.0
  0
LINE
  5
112
330
1E
100
AcDbEntity
  8
0
100
AcDbLine
 10
17.0
 20
146.964
 30
0.0
 11
17.0
 21
144.2439999999999
 31
0.0
  0
LINE
  5
113
330
1E
100
AcDbEntity
  8
0
100
AcDbLine
 10
17.0
 20
146.964
 30
0.0
 11
17.0
 21
150.5679999999999
 31
0.0
  0
LINE
  5
114
330
1E
100
AcDbEntity
  8
0
100
AcDbLine
 10
17.0
 20
149.08
 30
0.0
 11
17.0
 21
153.8799999999999
 31
0.0
  0
LINE
  5
115
330
1E
100
AcDbEntity
  8
0
100
AcDbLine
 10
17.0
 20
149.08
 30
0.0
 11
17.0
 21
144.84
 31
0.0
  0
LINE
  5
116
330
1E
100
AcDbEntity
  8
0
100
AcDbLine
 10
17.0
 20
153.8799999999999
 30
0.0
 11
17.0
 21
159.0
 31
0.0
  0
LINE
  5
117
330
1E
100
AcDbEntity
  8
0
100
AcDbLine
 10
17.0
 20
153.8799999999999
 30
0.0
 11
17.0
 21
149.08
 31
0.0
  0
LINE
  5
118
330
1E
100
AcDbEntity
  8
0
100
AcDbLine
 10
17.0
 20
153.8799999999999
 30
0.0
 11
17.0
 21
159.0
 31
0.0
  0
LINE
  5
119
330
1E
100
AcDbEntity
  8
0
100
AcDbLine
 10
17.0
 20
150.5679999999999
 30
0.0
 11
17.0
 21
146.964
 31
0.0
  0
LINE
  5
11A
330
1E
100
AcDbEntity
  8
0
100
AcDbLine
 10
17.0
 20
150.5679999999999
 30
0.0
 11
17.0
 21
154.648
 31
0.0
  0
LINE
  5
11B
330
1E
100
AcDbEntity
  8
0
100
AcDbLine
 10
17.0
 20
150.5679999999999
 30
0.0
 11
17.0
 21
146.964
 31
0.0
  0
LINE
  5
11C
330
1E
100
AcDbEntity
  8
0
100
AcDbLine
 10
17.0
 20
146.964
 30
0.0
 11
17.0
 21
144.2439999999999
 31
0.0
  0
LINE
  5
11D
330
1E
100
AcDbEntity
  8
0
100
AcDbLine
 10
17.0
 20
146.964
 30
0.0
 11
17.0
 21
150.5679999999999
 31
0.0
  0
LINE
  5
11E
330
1E
100
AcDbEntity
  8
0
100
AcDbLine
 10
17.0
 20
154.648
 30
0.0
 11
17.0
 21
150.5679999999999
 31
0.0
  0
LINE
  5
11F
330
1E
100
AcDbEntity
  8
0
100
AcDbLine
 10
17.0
 20
154.648
 30
0.0
 11
17.0
 21
159.0
 31
0.0
  0
LINE
  5
120
330
1E
100
AcDbEntity
  8
0
100
AcDbLine
 10
17.0
 20
154.648
 30
0.0
 11
17.0
 21
159.0
 31
0.0
  0
LINE
  5
121
330
1E
100
AcDbEntity
  8
0
100
AcDbLine
 10
17.0
 20
159.0
 30
0.0
 11
17.0
 21
154.648
 31
0.0
  0
LINE
  5
122
330
1E
100
AcDbEntity
  8
0
100
AcDbLine
 10
17.0
 20
159.0
 30
0.0
 11
17.0
 21
153.8799999999999
 31
0.0
  0
LINE
  5
123
330
1E
100
AcDbEntity
  8
0
100
AcDbLine
 10
17.0
 20
159.0
 30
0.0
 11
17.0
 21
163.352
 31
0.0
  0
LINE
  5
124
330
1E
100
AcDbEntity
  8
0
100
AcDbLine
 10
17.0
 20
159.0
 30
0.0
 11
17.0
 21
164.1199999999999
 31
0.0
  0
LINE
  5
125
330
1E
100
AcDbEntity
  8
0
100
AcDbLine
 10
17.0
 20
159.0
 30
0.0
 11
17.0
 21
163.352
 31
0.0
  0
LINE
  5
126
330
1E
100
AcDbEntity
  8
0
100
AcDbLine
 10
17.0
 20
159.0
 30
0.0
 11
17.0
 21
164.1199999999999
 31
0.0
  0
LINE
  5
127
330
1E
100
AcDbEntity
  8
0
100
AcDbLine
 10
17.0
 20
159.0
 30
0.0
 11
17.0
 21
154.648
 31
0.0
  0
LINE
  5
128
330
1E
100
AcDbEntity
  8
0
100
AcDbLine
 10
17.0
 20
159.0
 30
0.0
 11
17.0
 21
153.8799999999999
 31
0.0
  0
LINE
  5
129
330
1E
100
AcDbEntity
  8
0
100
AcDbLine
 10
17.0
 20
163.352
 30
0.0
 11
17.0
 21
167.432
 31
0.0
  0
LINE
  5
12A
330
1E
100
AcDbEntity
  8
0
100
AcDbLine
 10
17.0
 20
163.352
 30
0.0
 11
17.0
 21
159.0
 31
0.0
  0
LINE
  5
12B
330
1E
100
AcDbEntity
  8
0
100
AcDbLine
 10
17.0
 20
163.352
 30
0.0
 11
17.0
 21
159.0
 31
0.0
  0
LINE
  5
12C
330
1E
100
AcDbEntity
  8
0
100
AcDbLine
 10
17.0
 20
167.432
 30
0.0
 11
17.0
 21
171.0359999999999
 31
0.0
  0
LINE
  5
12D
330
1E
100
AcDbEntity
  8
0
100
AcDbLine
 10
17.0
 20
167.432
 30
0.0
 11
17.0
 21
163.352
 31
0.0
  0
LINE
  5
12E
330
1E
100
AcDbEntity
  8
0
100
AcDbLine
 10
19.0
 20
164.1199999999999
 30
0.0
 11
19.0
 21
159.0
 31
0.0
  0
LINE
  5
12F
330
1E
100
AcDbEntity
  8
0
100
AcDbLine
 10
19.0
 20
168.9199999999999
 30
0.0
 11
19.0
 21
164.1199999999999
 31
0.0
  0
LINE
  5
130
330
1E
100
AcDbEntity
  8
0
100
AcDbLine
 10
17.0
 20
164.1199999999999
 30
0.0
 11
17.0
 21
159.0
 31
0.0
  0
LINE
  5
131
330
1E
100
AcDbEntity
  8
0
100
AcDbLine
 10
17.0
 20
164.1199999999999
 30
0.0
 11
17.0
 21
168.9199999999999
 31
0.0
  0
LINE
  5
132
330
1E
100
AcDbEntity
  8
0
100
AcDbLine
 10
17.0
 20
164.1199999999999
 30
0.0
 11
17.0
 21
159.0
 31
0.0
  0
LINE
  5
133
330
1E
100
AcDbEntity
  8
0
100
AcDbLine
 10
17.0
 20
168.9199999999999
 30
0.0
 11
17.0
 21
164.1199999999999
 31
0.0
  0
LINE
  5
134
330
1E
100
AcDbEntity
  8
0
100
AcDbLine
 10
17.0
 20
168.9199999999999
 30
0.0
 11
17.0
 21
173.16
 31
0.0
  0
LINE
  5
135
330
1E
100
AcDbEntity
  8
0
100
AcDbLine
 10
19.0
 20
159.0
 30
0.0
 11
19.0
 21
153.8799999999999
 31
0.0
  0
LINE
  5
136
330
1E
100
AcDbEntity
  8
0
100
AcDbLine
 10
19.0
 20
153.8799999999999
 30
0.0
 11
19.0
 21
149.08
 31
0.0
  0
LINE
  5
137
330
1E
100
AcDbEntity
  8
0
100
AcDbLine
 10
19.0
 20
149.08
 30
0.0
 11
19.0
 21
144.84
 31
0.0
  0
LINE
  5
138
330
1E
100
AcDbEntity
  8
0
100
AcDbLine
 10
19.0
 20
144.84
 30
0.0
 11
19.0
 21
141.6399999999999
 31
0.0
  0
LINE
  5
139
330
1E
100
AcDbEntity
  8
0
100
AcDbLine
 10
19.0
 20
141.6399999999999
 30
0.0
 11
19.0
 21
139.7199999999999
 31
0.0
  0
LINE
  5
13A
330
1E
100
AcDbEntity
  8
0
100
AcDbLine
 10
19.0
 20
139.7199999999999
 30
0.0
 11
19.0
 21
139.0
 31
0.0
  0
LINE
  5
13B
330
1E
100
AcDbEntity
  8
0
100
AcDbLine
 10
19.0
 20
139.7199999999999
 30
0.0
 11
19.0
 21
139.0
 31
0.0
  0
LINE
  5
13C
330
1E
100
AcDbEntity
  8
0
100
AcDbLine
 10
19.0
 20
164.1199999999999
 30
0.0
 11
19.0
 21
159.0
 31
0.0
  0
LINE
  5
13D
330
1E
100
AcDbEntity
  8
0
100
AcDbLine
 10
17.0
 20
171.0359999999999
 30
0.0
 11
17.0
 21
173.7559999999999
 31
0.0
  0
LINE
  5
13E
330
1E
100
AcDbEntity
  8
0
100
AcDbLine
 10
17.0
 20
171.0359999999999
 30
0.0
 11
17.0
 21
167.432
 31
0.0
  0
LINE
  5
13F
330
1E
100
AcDbEntity
  8
0
100
AcDbLine
 10
17.0
 20
176.0
 30
0.0
 11
17.0
 21
175.388
 31
0.0
  0
LINE
  5
140
330
1E
100
AcDbEntity
  8
0
100
AcDbLine
 10
17.0
 20
173.7559999999999
 30
0.0
 11
17.0
 21
175.388
 31
0.0
  0
LINE
  5
141
330
1E
100
AcDbEntity
  8
0
100
AcDbLine
 10
17.0
 20
173.7559999999999
 30
0.0
 11
17.0
 21
171.0359999999999
 31
0.0
  0
LINE
  5
142
330
1E
100
AcDbEntity
  8
0
100
AcDbLine
 10
17.0
 20
175.388
 30
0.0
 11
17.0
 21
176.0
 31
0.0
  0
LINE
  5
143
330
1E
100
AcDbEntity
  8
0
100
AcDbLine
 10
17.0
 20
175.388
 30
0.0
 11
17.0
 21
173.7559999999999
 31
0.0
  0
LINE
  5
144
330
1E
100
AcDbEntity
  8
0
100
AcDbLine
 10
17.0
 20
173.16
 30
0.0
 11
17.0
 21
168.9199999999999
 31
0.0
  0
LINE
  5
145
330
1E
100
AcDbEntity
  8
0
100
AcDbLine
 10
17.0
 20
173.16
 30
0.0
 11
17.0
 21
176.36
 31
0.0
  0
LINE
  5
146
330
1E
100
AcDbEntity
  8
0
100
AcDbLine
 10
19.0
 20
173.16
 30
0.0
 11
19.0
 21
168.9199999999999
 31
0.0
  0
LINE
  5
147
330
1E
100
AcDbEntity
  8
0
100
AcDbLine
 10
17.0
 20
176.36
 30
0.0
 11
17.0
 21
173.16
 31
0.0
  0
LINE
  5
148
330
1E
100
AcDbEntity
  8
0
100
AcDbLine
 10
17.0
 20
176.36
 30
0.0
 11
17.0
 21
178.2799999999999
 31
0.0
  0
LINE
  5
149
330
1E
100
AcDbEntity
  8
0
100
AcDbLine
 10
19.0
 20
168.9199999999999
 30
0.0
 11
19.0
 21
164.1199999999999
 31
0.0
  0
LINE
  5
14A
330
1E
100
AcDbEntity
  8
0
100
AcDbLine
 10
19.0
 20
173.16
 30
0.0
 11
19.0
 21
168.9199999999999
 31
0.0
  0
LINE
  5
14B
330
1E
100
AcDbEntity
  8
0
100
AcDbLine
 10
17.0
 20
178.2799999999999
 30
0.0
 11
17.0
 21
176.36
 31
0.0
  0
LINE
  5
14C
330
1E
100
AcDbEntity
  8
0
100
AcDbLine
 10
17.0
 20
178.2799999999999
 30
0.0
 11
17.0
 21
179.0
 31
0.0
  0
LINE
  5
14D
330
1E
100
AcDbEntity
  8
0
100
AcDbLine
 10
19.0
 20
178.2799999999999
 30
0.0
 11
19.0
 21
176.36
 31
0.0
  0
LINE
  5
14E
330
1E
100
AcDbEntity
  8
0
100
AcDbLine
 10
17.0
 20
179.0
 30
0.0
 11
17.0
 21
178.2799999999999
 31
0.0
  0
LINE
  5
14F
330
1E
100
AcDbEntity
  8
0
100
AcDbLine
 10
17.0
 20
179.0
 30
0.0
 11
19.0
 21
179.0
 31
0.0
  0
LINE
  5
150
330
1E
100
AcDbEntity
  8
0
100
AcDbLine
 10
19.0
 20
176.36
 30
0.0
 11
19.0
 21
173.16
 31
0.0
  0
LINE
  5
151
330
1E
100
AcDbEntity
  8
0
100
AcDbLine
 10
19.0
 20
176.36
 30
0.0
 11
19.0
 21
173.16
 31
0.0
  0
LINE
  5
152
330
1E
100
AcDbEntity
  8
0
100
AcDbLine
 10
19.0
 20
178.2799999999999
 30
0.0
 11
19.0
 21
176.36
 31
0.0
  0
LINE
  5
153
330
1E
100
AcDbEntity
  8
0
100
AcDbLine
 10
19.0
 20
108.0
 30
0.0
 11
19.0
 21
73.0
 31
0.0
  0
LINE
  5
154
330
1E
100
AcDbEntity
  8
0
100
AcDbLine
 10
19.0
 20
139.0
 30
0.0
 11
19.4072
 21
139.7199999999999
 31
0.0
  0
LINE
  5
155
330
1E
100
AcDbEntity
  8
0
100
AcDbLine
 10
19.0
 20
139.0
 30
0.0
 11
19.0
 21
112.0
 31
0.0
  0
LINE
  5
156
330
1E
100
AcDbEntity
  8
0
100
AcDbLine
 10
19.0
 20
181.0
 30
0.0
 11
19.0
 21
179.0
 31
0.0
  0
LINE
  5
157
330
1E
100
AcDbEntity
  8
0
100
AcDbLine
 10
19.0
 20
181.0
 30
0.0
 11
19.64209999999999
 21
181.0
 31
0.0
  0
LINE
  5
158
330
1E
100
AcDbEntity
  8
0
100
AcDbLine
 10
19.0
 20
179.0
 30
0.0
 11
19.0
 21
181.0
 31
0.0
  0
LINE
  5
159
330
1E
100
AcDbEntity
  8
0
100
AcDbLine
 10
19.0
 20
179.0
 30
0.0
 11
19.4072
 21
178.2799999999999
 31
0.0
  0
LINE
  5
15A
330
1E
100
AcDbEntity
  8
0
100
AcDbLine
 10
19.0
 20
179.0
 30
0.0
 11
19.0
 21
178.2799999999999
 31
0.0
  0
LINE
  5
15B
330
1E
100
AcDbEntity
  8
0
100
AcDbLine
 10
19.0
 20
179.0
 30
0.0
 11
19.0
 21
178.2799999999999
 31
0.0
  0
LINE
  5
15C
330
1E
100
AcDbEntity
  8
0
100
AcDbLine
 10
19.268
 20
108.0
 30
0.0
 11
22.04
 21
108.0
 31
0.0
  0
LINE
  5
15D
330
1E
100
AcDbEntity
  8
0
100
AcDbLine
 10
21.54619999999999
 20
108.0
 30
0.0
 11
22.355
 21
108.0
 31
0.0
  0
LINE
  5
15E
330
1E
100
AcDbEntity
  8
0
100
AcDbLine
 10
29.8138
 20
108.0
 30
0.0
 11
31.16179999999999
 21
108.0
 31
0.0
  0
LINE
  5
15F
330
1E
100
AcDbEntity
  8
0
100
AcDbLine
 10
33.25069999999999
 20
108.0
 30
0.0
 11
34.27469999999999
 21
108.0
 31
0.0
  0
LINE
  5
160
330
1E
100
AcDbEntity
  8
0
100
AcDbLine
 10
34.27469999999999
 20
108.0
 30
0.0
 11
35.2347
 21
108.0
 31
0.0
  0
LINE
  5
161
330
1E
100
AcDbEntity
  8
0
100
AcDbLine
 10
35.2347
 20
108.0
 30
0.0
 11
36.0827
 21
108.0
 31
0.0
  0
LINE
  5
162
330
1E
100
AcDbEntity
  8
0
100
AcDbLine
 10
32.2267
 20
108.0
 30
0.0
 11
33.25069999999999
 21
108.0
 31
0.0
  0
LINE
  5
163
330
1E
100
AcDbEntity
  8
0
100
AcDbLine
 10
31.2667
 20
108.0
 30
0.0
 11
32.2267
 21
108.0
 31
0.0
  0
LINE
  5
164
330
1E
100
AcDbEntity
  8
0
100
AcDbLine
 10
30.4187
 20
108.0
 30
0.0
 11
31.2667
 21
108.0
 31
0.0
  0
LINE
  5
165
330
1E
100
AcDbEntity
  8
0
100
AcDbLine
 10
29.7787
 20
108.0
 30
0.0
 11
30.4187
 21
108.0
 31
0.0
  0
LINE
  5
166
330
1E
100
AcDbEntity
  8
0
100
AcDbLine
 10
29.3947
 20
108.0
 30
0.0
 11
29.7787
 21
108.0
 31
0.0
  0
LINE
  5
167
330
1E
100
AcDbEntity
  8
0
100
AcDbLine
 10
29.25069999999999
 20
108.0
 30
0.0
 11
29.3947
 21
108.0
 31
0.0
  0
LINE
  5
168
330
1E
100
AcDbEntity
  8
0
100
AcDbLine
 10
30.104
 20
108.0
 30
0.0
 11
35.648
 21
108.0
 31
0.0
  0
LINE
  5
169
330
1E
100
AcDbEntity
  8
0
100
AcDbLine
 10
25.316
 20
108.0
 30
0.0
 11
30.104
 21
108.0
 31
0.0
  0
LINE
  5
16A
330
1E
100
AcDbEntity
  8
0
100
AcDbLine
 10
22.04
 20
108.0
 30
0.0
 11
25.316
 21
108.0
 31
0.0
  0
LINE
  5
16B
330
1E
100
AcDbEntity
  8
0
100
AcDbLine
 10
36.0827
 20
108.0
 30
0.0
 11
36.7227
 21
108.0
 31
0.0
  0
LINE
  5
16C
330
1E
100
AcDbEntity
  8
0
100
AcDbLine
 10
44.8391
 20
108.0
 30
0.0
 11
53.8304
 21
108.0
 31
0.0
  0
LINE
  5
16D
330
1E
100
AcDbEntity
  8
0
100
AcDbLine
 10
42.1417
 20
108.0
 30
0.0
 11
52.57159999999999
 21
108.0
 31
0.0
  0
LINE
  5
16E
330
1E
100
AcDbEntity
  8
0
100
AcDbLine
 10
42.1417
 20
108.0
 30
0.0
 11
44.8391
 21
108.0
 31
0.0
  0
LINE
  5
16F
330
1E
100
AcDbEntity
  8
0
100
AcDbLine
 10
36.7227
 20
108.0
 30
0.0
 11
37.10669999999999
 21
108.0
 31
0.0
  0
LINE
  5
170
330
1E
100
AcDbEntity
  8
0
100
AcDbLine
 10
37.10669999999999
 20
108.0
 30
0.0
 11
37.2507
 21
108.0
 31
0.0
  0
LINE
  5
171
330
1E
100
AcDbEntity
  8
0
100
AcDbLine
 10
35.648
 20
108.0
 30
0.0
 11
41.69599999999999
 21
108.0
 31
0.0
  0
LINE
  5
172
330
1E
100
AcDbEntity
  8
0
100
AcDbLine
 10
41.69599999999999
 20
108.0
 30
0.0
 11
48.75199999999999
 21
108.0
 31
0.0
  0
LINE
  5
173
330
1E
100
AcDbEntity
  8
0
100
AcDbLine
 10
55.126
 20
108.0
 30
0.0
 11
56.15
 21
108.0
 31
0.0
  0
LINE
  5
174
330
1E
100
AcDbEntity
  8
0
100
AcDbLine
 10
54.166
 20
108.0
 30
0.0
 11
55.126
 21
108.0
 31
0.0
  0
LINE
  5
175
330
1E
100
AcDbEntity
  8
0
100
AcDbLine
 10
53.31800000000001
 20
108.0
 30
0.0
 11
54.166
 21
108.0
 31
0.0
  0
LINE
  5
176
330
1E
100
AcDbEntity
  8
0
100
AcDbLine
 10
52.67800000000001
 20
108.0
 30
0.0
 11
53.31800000000001
 21
108.0
 31
0.0
  0
LINE
  5
177
330
1E
100
AcDbEntity
  8
0
100
AcDbLine
 10
52.294
 20
108.0
 30
0.0
 11
52.67800000000001
 21
108.0
 31
0.0
  0
LINE
  5
178
330
1E
100
AcDbEntity
  8
0
100
AcDbLine
 10
52.14999999999999
 20
108.0
 30
0.0
 11
52.294
 21
108.0
 31
0.0
  0
LINE
  5
179
330
1E
100
AcDbEntity
  8
0
100
AcDbLine
 10
52.57159999999999
 20
108.0
 30
0.0
 11
53.8304
 21
108.0
 31
0.0
  0
LINE
  5
17A
330
1E
100
AcDbEntity
  8
0
100
AcDbLine
 10
56.5539
 20
108.0
 30
0.0
 11
58.5243
 21
108.0
 31
0.0
  0
LINE
  5
17B
330
1E
100
AcDbEntity
  8
0
100
AcDbLine
 10
56.5539
 20
108.0
 30
0.0
 11
58.416
 21
108.0
 31
0.0
  0
LINE
  5
17C
330
1E
100
AcDbEntity
  8
0
100
AcDbLine
 10
56.15
 20
108.0
 30
0.0
 11
57.174
 21
108.0
 31
0.0
  0
LINE
  5
17D
330
1E
100
AcDbEntity
  8
0
100
AcDbLine
 10
57.174
 20
108.0
 30
0.0
 11
58.13399999999999
 21
108.0
 31
0.0
  0
LINE
  5
17E
330
1E
100
AcDbEntity
  8
0
100
AcDbLine
 10
58.5243
 20
108.0
 30
0.0
 11
60.48399999999999
 21
108.0
 31
0.0
  0
LINE
  5
17F
330
1E
100
AcDbEntity
  8
0
100
AcDbLine
 10
58.416
 20
108.0
 30
0.0
 11
60.48399999999999
 21
108.0
 31
0.0
  0
LINE
  5
180
330
1E
100
AcDbEntity
  8
0
100
AcDbLine
 10
58.13399999999999
 20
108.0
 30
0.0
 11
58.982
 21
108.0
 31
0.0
  0
LINE
  5
181
330
1E
100
AcDbEntity
  8
0
100
AcDbLine
 10
58.982
 20
108.0
 30
0.0
 11
59.622
 21
108.0
 31
0.0
  0
LINE
  5
182
330
1E
100
AcDbEntity
  8
0
100
AcDbLine
 10
59.622
 20
108.0
 30
0.0
 11
60.006
 21
108.0
 31
0.0
  0
LINE
  5
183
330
1E
100
AcDbEntity
  8
0
100
AcDbLine
 10
60.006
 20
108.0
 30
0.0
 11
60.15
 21
108.0
 31
0.0
  0
LINE
  5
184
330
1E
100
AcDbEntity
  8
0
100
AcDbLine
 10
55.3
 20
108.0
 30
0.0
 11
104.7
 21
108.0
 31
0.0
  0
LINE
  5
185
330
1E
100
AcDbEntity
  8
0
100
AcDbLine
 10
54.5
 20
108.0
 30
0.0
 11
54.5
 21
112.0
 31
0.0
  0
LINE
  5
186
330
1E
100
AcDbEntity
  8
0
100
AcDbLine
 10
54.5
 20
108.0
 30
0.0
 11
55.3
 21
108.0
 31
0.0
  0
LINE
  5
187
330
1E
100
AcDbEntity
  8
0
100
AcDbLine
 10
54.5
 20
108.0
 30
0.0
 11
105.4999999999999
 21
108.0
 31
0.0
  0
LINE
  5
188
330
1E
100
AcDbEntity
  8
0
100
AcDbLine
 10
48.75199999999999
 20
108.0
 30
0.0
 11
56.06
 21
108.0
 31
0.0
  0
LINE
  5
189
330
1E
100
AcDbEntity
  8
0
100
AcDbLine
 10
33.25069999999999
 20
112.0
 30
0.0
 11
34.27469999999999
 21
112.0
 31
0.0
  0
LINE
  5
18A
330
1E
100
AcDbEntity
  8
0
100
AcDbLine
 10
34.27469999999999
 20
112.0
 30
0.0
 11
35.2347
 21
112.0
 31
0.0
  0
LINE
  5
18B
330
1E
100
AcDbEntity
  8
0
100
AcDbLine
 10
35.2347
 20
112.0
 30
0.0
 11
36.0827
 21
112.0
 31
0.0
  0
LINE
  5
18C
330
1E
100
AcDbEntity
  8
0
100
AcDbLine
 10
54.166
 20
112.0
 30
0.0
 11
54.5
 21
112.0
 31
0.0
  0
LINE
  5
18D
330
1E
100
AcDbEntity
  8
0
100
AcDbLine
 10
53.31800000000001
 20
112.0
 30
0.0
 11
54.166
 21
112.0
 31
0.0
  0
LINE
  5
18E
330
1E
100
AcDbEntity
  8
0
100
AcDbLine
 10
52.67800000000001
 20
112.0
 30
0.0
 11
53.31800000000001
 21
112.0
 31
0.0
  0
LINE
  5
18F
330
1E
100
AcDbEntity
  8
0
100
AcDbLine
 10
52.294
 20
112.0
 30
0.0
 11
52.67800000000001
 21
112.0
 31
0.0
  0
LINE
  5
190
330
1E
100
AcDbEntity
  8
0
100
AcDbLine
 10
52.14999999999999
 20
112.0
 30
0.0
 11
52.294
 21
112.0
 31
0.0
  0
LINE
  5
191
330
1E
100
AcDbEntity
  8
0
100
AcDbLine
 10
42.4115
 20
112.0
 30
0.0
 11
52.14999999999999
 21
112.0
 31
0.0
  0
LINE
  5
192
330
1E
100
AcDbEntity
  8
0
100
AcDbLine
 10
36.0827
 20
112.0
 30
0.0
 11
36.7227
 21
112.0
 31
0.0
  0
LINE
  5
193
330
1E
100
AcDbEntity
  8
0
100
AcDbLine
 10
32.2267
 20
112.0
 30
0.0
 11
33.25069999999999
 21
112.0
 31
0.0
  0
LINE
  5
194
330
1E
100
AcDbEntity
  8
0
100
AcDbLine
 10
31.2667
 20
112.0
 30
0.0
 11
32.2267
 21
112.0
 31
0.0
  0
LINE
  5
195
330
1E
100
AcDbEntity
  8
0
100
AcDbLine
 10
30.4187
 20
112.0
 30
0.0
 11
31.2667
 21
112.0
 31
0.0
  0
LINE
  5
196
330
1E
100
AcDbEntity
  8
0
100
AcDbLine
 10
29.7787
 20
112.0
 30
0.0
 11
30.4187
 21
112.0
 31
0.0
  0
LINE
  5
197
330
1E
100
AcDbEntity
  8
0
100
AcDbLine
 10
41.69599999999999
 20
112.0
 30
0.0
 11
42.4115
 21
112.0
 31
0.0
  0
LINE
  5
198
330
1E
100
AcDbEntity
  8
0
100
AcDbLine
 10
54.5
 20
112.0
 30
0.0
 11
54.5
 21
108.0
 31
0.0
  0
LINE
  5
199
330
1E
100
AcDbEntity
  8
0
100
AcDbLine
 10
54.5
 20
112.0
 30
0.0
 11
105.4999999999999
 21
112.0
 31
0.0
  0
LINE
  5
19A
330
1E
100
AcDbEntity
  8
0
100
AcDbLine
 10
56.06
 20
108.0
 30
0.0
 11
63.87199999999999
 21
108.0
 31
0.0
  0
LINE
  5
19B
330
1E
100
AcDbEntity
  8
0
100
AcDbLine
 10
63.87199999999999
 20
108.0
 30
0.0
 11
71.684
 21
108.0
 31
0.0
  0
LINE
  5
19C
330
1E
100
AcDbEntity
  8
0
100
AcDbLine
 10
20.0876
 20
141.6399999999999
 30
0.0
 11
20.8896
 21
144.84
 31
0.0
  0
LINE
  5
19D
330
1E
100
AcDbEntity
  8
0
100
AcDbLine
 10
19.4072
 20
139.7199999999999
 30
0.0
 11
20.0876
 21
141.6399999999999
 31
0.0
  0
LINE
  5
19E
330
1E
100
AcDbEntity
  8
0
100
AcDbLine
 10
21.74009999999999
 20
149.08
 30
0.0
 11
22.39629999999999
 21
153.8799999999999
 31
0.0
  0
LINE
  5
19F
330
1E
100
AcDbEntity
  8
0
100
AcDbLine
 10
20.8896
 20
144.84
 30
0.0
 11
21.74009999999999
 21
149.08
 31
0.0
  0
LINE
  5
1A0
330
1E
100
AcDbEntity
  8
0
100
AcDbLine
 10
62.64
 20
149.08
 30
0.0
 11
65.84
 21
144.84
 31
0.0
  0
LINE
  5
1A1
330
1E
100
AcDbEntity
  8
0
100
AcDbLine
 10
22.39629999999999
 20
153.8799999999999
 30
0.0
 11
22.65
 21
159.0
 31
0.0
  0
LINE
  5
1A2
330
1E
100
AcDbEntity
  8
0
100
AcDbLine
 10
22.39629999999999
 20
164.1199999999999
 30
0.0
 11
22.65
 21
159.0
 31
0.0
  0
LINE
  5
1A3
330
1E
100
AcDbEntity
  8
0
100
AcDbLine
 10
60.0
 20
159.0
 30
0.0
 11
60.6958
 21
153.8799999999999
 31
0.0
  0
LINE
  5
1A4
330
1E
100
AcDbEntity
  8
0
100
AcDbLine
 10
60.0
 20
159.0
 30
0.0
 11
60.72
 21
153.8799999999999
 31
0.0
  0
LINE
  5
1A5
330
1E
100
AcDbEntity
  8
0
100
AcDbLine
 10
60.0
 20
159.0
 30
0.0
 11
60.72
 21
164.1199999999999
 31
0.0
  0
LINE
  5
1A6
330
1E
100
AcDbEntity
  8
0
100
AcDbLine
 10
60.0
 20
159.0
 30
0.0
 11
60.6958
 21
164.1199999999999
 31
0.0
  0
LINE
  5
1A7
330
1E
100
AcDbEntity
  8
0
100
AcDbLine
 10
60.0
 20
159.0
 30
0.0
 11
60.72
 21
164.1199999999999
 31
0.0
  0
LINE
  5
1A8
330
1E
100
AcDbEntity
  8
0
100
AcDbLine
 10
65.24399999999999
 20
150.5679999999999
 30
0.0
 11
67.964
 21
146.964
 31
0.0
  0
LINE
  5
1A9
330
1E
100
AcDbEntity
  8
0
100
AcDbLine
 10
60.72
 20
164.1199999999999
 30
0.0
 11
62.64
 21
168.9199999999999
 31
0.0
  0
LINE
  5
1AA
330
1E
100
AcDbEntity
  8
0
100
AcDbLine
 10
63.612
 20
154.648
 30
0.0
 11
65.24399999999999
 21
150.5679999999999
 31
0.0
  0
LINE
  5
1AB
330
1E
100
AcDbEntity
  8
0
100
AcDbLine
 10
63.0
 20
159.0
 30
0.0
 11
63.612
 21
163.352
 31
0.0
  0
LINE
  5
1AC
330
1E
100
AcDbEntity
  8
0
100
AcDbLine
 10
63.0
 20
159.0
 30
0.0
 11
63.612
 21
154.648
 31
0.0
  0
LINE
  5
1AD
330
1E
100
AcDbEntity
  8
0
100
AcDbLine
 10
63.612
 20
163.352
 30
0.0
 11
65.24399999999999
 21
167.432
 31
0.0
  0
LINE
  5
1AE
330
1E
100
AcDbEntity
  8
0
100
AcDbLine
 10
65.42860000000001
 20
159.0
 30
0.0
 11
65.95310000000001
 21
162.7302999999999
 31
0.0
  0
LINE
  5
1AF
330
1E
100
AcDbEntity
  8
0
100
AcDbLine
 10
65.42860000000001
 20
159.0
 30
0.0
 11
65.95310000000001
 21
155.2697
 31
0.0
  0
LINE
  5
1B0
330
1E
100
AcDbEntity
  8
0
100
AcDbLine
 10
60.72
 20
164.1199999999999
 30
0.0
 11
62.64
 21
168.9199999999999
 31
0.0
  0
LINE
  5
1B1
330
1E
100
AcDbEntity
  8
0
100
AcDbLine
 10
60.72
 20
153.8799999999999
 30
0.0
 11
62.64
 21
149.08
 31
0.0
  0
LINE
  5
1B2
330
1E
100
AcDbEntity
  8
0
100
AcDbLine
 10
60.6958
 20
153.8799999999999
 30
0.0
 11
62.63889999999999
 21
149.08
 31
0.0
  0
LINE
  5
1B3
330
1E
100
AcDbEntity
  8
0
100
AcDbLine
 10
62.63889999999999
 20
149.08
 30
0.0
 11
65.8207
 21
144.84
 31
0.0
  0
LINE
  5
1B4
330
1E
100
AcDbEntity
  8
0
100
AcDbLine
 10
67.964
 20
146.964
 30
0.0
 11
71.568
 21
144.2439999999999
 31
0.0
  0
LINE
  5
1B5
330
1E
100
AcDbEntity
  8
0
100
AcDbLine
 10
65.84
 20
144.84
 30
0.0
 11
70.08
 21
141.6399999999999
 31
0.0
  0
LINE
  5
1B6
330
1E
100
AcDbEntity
  8
0
100
AcDbLine
 10
67.352
 20
151.7726
 30
0.0
 11
69.68340000000001
 21
148.6833999999999
 31
0.0
  0
LINE
  5
1B7
330
1E
100
AcDbEntity
  8
0
100
AcDbLine
 10
69.68340000000001
 20
148.6833999999999
 30
0.0
 11
72.7726
 21
146.352
 31
0.0
  0
LINE
  5
1B8
330
1E
100
AcDbEntity
  8
0
100
AcDbLine
 10
65.95310000000001
 20
162.7302999999999
 30
0.0
 11
67.352
 21
166.2274
 31
0.0
  0
LINE
  5
1B9
330
1E
100
AcDbEntity
  8
0
100
AcDbLine
 10
65.95310000000001
 20
155.2697
 30
0.0
 11
67.352
 21
151.7726
 31
0.0
  0
LINE
  5
1BA
330
1E
100
AcDbEntity
  8
0
100
AcDbLine
 10
65.8207
 20
144.84
 30
0.0
 11
70.0713
 21
141.6399999999999
 31
0.0
  0
LINE
  5
1BB
330
1E
100
AcDbEntity
  8
0
100
AcDbLine
 10
70.0713
 20
141.6399999999999
 30
0.0
 11
74.8561
 21
139.7199999999999
 31
0.0
  0
LINE
  5
1BC
330
1E
100
AcDbEntity
  8
0
100
AcDbLine
 10
79.0714
 20
108.0
 30
0.0
 11
80.09539999999999
 21
108.0
 31
0.0
  0
LINE
  5
1BD
330
1E
100
AcDbEntity
  8
0
100
AcDbLine
 10
78.1114
 20
108.0
 30
0.0
 11
79.0714
 21
108.0
 31
0.0
  0
LINE
  5
1BE
330
1E
100
AcDbEntity
  8
0
100
AcDbLine
 10
77.2634
 20
108.0
 30
0.0
 11
78.1114
 21
108.0
 31
0.0
  0
LINE
  5
1BF
330
1E
100
AcDbEntity
  8
0
100
AcDbLine
 10
76.6234
 20
108.0
 30
0.0
 11
77.2634
 21
108.0
 31
0.0
  0
LINE
  5
1C0
330
1E
100
AcDbEntity
  8
0
100
AcDbLine
 10
76.23940000000001
 20
108.0
 30
0.0
 11
76.6234
 21
108.0
 31
0.0
  0
LINE
  5
1C1
330
1E
100
AcDbEntity
  8
0
100
AcDbLine
 10
76.09539999999999
 20
108.0
 30
0.0
 11
76.23940000000001
 21
108.0
 31
0.0
  0
LINE
  5
1C2
330
1E
100
AcDbEntity
  8
0
100
AcDbLine
 10
79.0
 20
108.0
 30
0.0
 11
81.0
 21
108.0
 31
0.0
  0
LINE
  5
1C3
330
1E
100
AcDbEntity
  8
0
100
AcDbLine
 10
80.0
 20
108.0
 30
0.0
 11
88.31599999999999
 21
108.0
 31
0.0
  0
LINE
  5
1C4
330
1E
100
AcDbEntity
  8
0
100
AcDbLine
 10
74.87999999999999
 20
139.7199999999999
 30
0.0
 11
80.0
 21
139.0
 31
0.0
  0
LINE
  5
1C5
330
1E
100
AcDbEntity
  8
0
100
AcDbLine
 10
80.0
 20
139.0
 30
0.0
 11
85.12
 21
139.7199999999999
 31
0.0
  0
LINE
  5
1C6
330
1E
100
AcDbEntity
  8
0
100
AcDbLine
 10
71.684
 20
108.0
 30
0.0
 11
80.0
 21
108.0
 31
0.0
  0
LINE
  5
1C7
330
1E
100
AcDbEntity
  8
0
100
AcDbLine
 10
80.09539999999999
 20
108.0
 30
0.0
 11
81.1194
 21
108.0
 31
0.0
  0
LINE
  5
1C8
330
1E
100
AcDbEntity
  8
0
100
AcDbLine
 10
81.1194
 20
108.0
 30
0.0
 11
82.0794
 21
108.0
 31
0.0
  0
LINE
  5
1C9
330
1E
100
AcDbEntity
  8
0
100
AcDbLine
 10
82.0794
 20
108.0
 30
0.0
 11
82.9274
 21
108.0
 31
0.0
  0
LINE
  5
1CA
330
1E
100
AcDbEntity
  8
0
100
AcDbLine
 10
82.9274
 20
108.0
 30
0.0
 11
83.5674
 21
108.0
 31
0.0
  0
LINE
  5
1CB
330
1E
100
AcDbEntity
  8
0
100
AcDbLine
 10
83.5674
 20
108.0
 30
0.0
 11
83.95140000000001
 21
108.0
 31
0.0
  0
LINE
  5
1CC
330
1E
100
AcDbEntity
  8
0
100
AcDbLine
 10
83.95140000000001
 20
108.0
 30
0.0
 11
84.09539999999999
 21
108.0
 31
0.0
  0
LINE
  5
1CD
330
1E
100
AcDbEntity
  8
0
100
AcDbLine
 10
99.516
 20
108.0
 30
0.0
 11
101.584
 21
108.0
 31
0.0
  0
LINE
  5
1CE
330
1E
100
AcDbEntity
  8
0
100
AcDbLine
 10
99.516
 20
108.0
 30
0.0
 11
101.4757
 21
108.0
 31
0.0
  0
LINE
  5
1CF
330
1E
100
AcDbEntity
  8
0
100
AcDbLine
 10
101.584
 20
108.0
 30
0.0
 11
103.4461
 21
108.0
 31
0.0
  0
LINE
  5
1D0
330
1E
100
AcDbEntity
  8
0
100
AcDbLine
 10
101.4757
 20
108.0
 30
0.0
 11
103.4461
 21
108.0
 31
0.0
  0
LINE
  5
1D1
330
1E
100
AcDbEntity
  8
0
100
AcDbLine
 10
102.826
 20
108.0
 30
0.0
 11
103.8499999999999
 21
108.0
 31
0.0
  0
LINE
  5
1D2
330
1E
100
AcDbEntity
  8
0
100
AcDbLine
 10
101.866
 20
108.0
 30
0.0
 11
102.826
 21
108.0
 31
0.0
  0
LINE
  5
1D3
330
1E
100
AcDbEntity
  8
0
100
AcDbLine
 10
101.0179999999999
 20
108.0
 30
0.0
 11
101.866
 21
108.0
 31
0.0
  0
LINE
  5
1D4
330
1E
100
AcDbEntity
  8
0
100
AcDbLine
 10
100.3779999999999
 20
108.0
 30
0.0
 11
101.0179999999999
 21
108.0
 31
0.0
  0
LINE
  5
1D5
330
1E
100
AcDbEntity
  8
0
100
AcDbLine
 10
99.99400000000001
 20
108.0
 30
0.0
 11
100.3779999999999
 21
108.0
 31
0.0
  0
LINE
  5
1D6
330
1E
100
AcDbEntity
  8
0
100
AcDbLine
 10
99.84999999999999
 20
108.0
 30
0.0
 11
99.99400000000001
 21
108.0
 31
0.0
  0
LINE
  5
1D7
330
1E
100
AcDbEntity
  8
0
100
AcDbLine
 10
103.8499999999999
 20
108.0
 30
0.0
 11
104.874
 21
108.0
 31
0.0
  0
LINE
  5
1D8
330
1E
100
AcDbEntity
  8
0
100
AcDbLine
 10
104.874
 20
108.0
 30
0.0
 11
105.834
 21
108.0
 31
0.0
  0
LINE
  5
1D9
330
1E
100
AcDbEntity
  8
0
100
AcDbLine
 10
106.17
 20
108.0
 30
0.0
 11
107.4279999999999
 21
108.0
 31
0.0
  0
LINE
  5
1DA
330
1E
100
AcDbEntity
  8
0
100
AcDbLine
 10
106.17
 20
108.0
 30
0.0
 11
115.161
 21
108.0
 31
0.0
  0
LINE
  5
1DB
330
1E
100
AcDbEntity
  8
0
100
AcDbLine
 10
105.834
 20
108.0
 30
0.0
 11
106.682
 21
108.0
 31
0.0
  0
LINE
  5
1DC
330
1E
100
AcDbEntity
  8
0
100
AcDbLine
 10
106.682
 20
108.0
 30
0.0
 11
107.322
 21
108.0
 31
0.0
  0
LINE
  5
1DD
330
1E
100
AcDbEntity
  8
0
100
AcDbLine
 10
115.161
 20
108.0
 30
0.0
 11
117.8579999999999
 21
108.0
 31
0.0
  0
LINE
  5
1DE
330
1E
100
AcDbEntity
  8
0
100
AcDbLine
 10
107.4279999999999
 20
108.0
 30
0.0
 11
117.8579999999999
 21
108.0
 31
0.0
  0
LINE
  5
1DF
330
1E
100
AcDbEntity
  8
0
100
AcDbLine
 10
107.322
 20
108.0
 30
0.0
 11
107.706
 21
108.0
 31
0.0
  0
LINE
  5
1E0
330
1E
100
AcDbEntity
  8
0
100
AcDbLine
 10
107.706
 20
108.0
 30
0.0
 11
107.85
 21
108.0
 31
0.0
  0
LINE
  5
1E1
330
1E
100
AcDbEntity
  8
0
100
AcDbLine
 10
104.7
 20
108.0
 30
0.0
 11
153.5
 21
108.0
 31
0.0
  0
LINE
  5
1E2
330
1E
100
AcDbEntity
  8
0
100
AcDbLine
 10
104.7
 20
108.0
 30
0.0
 11
105.4999999999999
 21
108.0
 31
0.0
  0
LINE
  5
1E3
330
1E
100
AcDbEntity
  8
0
100
AcDbLine
 10
105.4999999999999
 20
108.0
 30
0.0
 11
155.4999999999999
 21
108.0
 31
0.0
  0
LINE
  5
1E4
330
1E
100
AcDbEntity
  8
0
100
AcDbLine
 10
105.4999999999999
 20
108.0
 30
0.0
 11
105.4999999999999
 21
112.0
 31
0.0
  0
LINE
  5
1E5
330
1E
100
AcDbEntity
  8
0
100
AcDbLine
 10
125.7249999999999
 20
108.0
 30
0.0
 11
126.749
 21
108.0
 31
0.0
  0
LINE
  5
1E6
330
1E
100
AcDbEntity
  8
0
100
AcDbLine
 10
124.7649999999999
 20
108.0
 30
0.0
 11
125.7249999999999
 21
108.0
 31
0.0
  0
LINE
  5
1E7
330
1E
100
AcDbEntity
  8
0
100
AcDbLine
 10
123.917
 20
108.0
 30
0.0
 11
124.7649999999999
 21
108.0
 31
0.0
  0
LINE
  5
1E8
330
1E
100
AcDbEntity
  8
0
100
AcDbLine
 10
123.277
 20
108.0
 30
0.0
 11
123.917
 21
108.0
 31
0.0
  0
LINE
  5
1E9
330
1E
100
AcDbEntity
  8
0
100
AcDbLine
 10
122.8929999999999
 20
108.0
 30
0.0
 11
123.277
 21
108.0
 31
0.0
  0
LINE
  5
1EA
330
1E
100
AcDbEntity
  8
0
100
AcDbLine
 10
122.7489999999999
 20
108.0
 30
0.0
 11
122.8929999999999
 21
108.0
 31
0.0
  0
LINE
  5
1EB
330
1E
100
AcDbEntity
  8
0
100
AcDbLine
 10
126.749
 20
108.0
 30
0.0
 11
127.773
 21
108.0
 31
0.0
  0
LINE
  5
1EC
330
1E
100
AcDbEntity
  8
0
100
AcDbLine
 10
127.773
 20
108.0
 30
0.0
 11
128.733
 21
108.0
 31
0.0
  0
LINE
  5
1ED
330
1E
100
AcDbEntity
  8
0
100
AcDbLine
 10
128.8379999999999
 20
108.0
 30
0.0
 11
152.5629999999999
 21
108.0
 31
0.0
  0
LINE
  5
1EE
330
1E
100
AcDbEntity
  8
0
100
AcDbLine
 10
128.8379999999999
 20
108.0
 30
0.0
 11
130.186
 21
108.0
 31
0.0
  0
LINE
  5
1EF
330
1E
100
AcDbEntity
  8
0
100
AcDbLine
 10
128.733
 20
108.0
 30
0.0
 11
129.581
 21
108.0
 31
0.0
  0
LINE
  5
1F0
330
1E
100
AcDbEntity
  8
0
100
AcDbLine
 10
129.581
 20
108.0
 30
0.0
 11
130.221
 21
108.0
 31
0.0
  0
LINE
  5
1F1
330
1E
100
AcDbEntity
  8
0
100
AcDbLine
 10
118.304
 20
108.0
 30
0.0
 11
124.3519999999999
 21
108.0
 31
0.0
  0
LINE
  5
1F2
330
1E
100
AcDbEntity
  8
0
100
AcDbLine
 10
111.2479999999999
 20
108.0
 30
0.0
 11
118.304
 21
108.0
 31
0.0
  0
LINE
  5
1F3
330
1E
100
AcDbEntity
  8
0
100
AcDbLine
 10
103.94
 20
108.0
 30
0.0
 11
111.2479999999999
 21
108.0
 31
0.0
  0
LINE
  5
1F4
330
1E
100
AcDbEntity
  8
0
100
AcDbLine
 10
96.128
 20
108.0
 30
0.0
 11
103.94
 21
108.0
 31
0.0
  0
LINE
  5
1F5
330
1E
100
AcDbEntity
  8
0
100
AcDbLine
 10
88.31599999999999
 20
108.0
 30
0.0
 11
96.128
 21
108.0
 31
0.0
  0
LINE
  5
1F6
330
1E
100
AcDbEntity
  8
0
100
AcDbLine
 10
124.3519999999999
 20
108.0
 30
0.0
 11
129.896
 21
108.0
 31
0.0
  0
LINE
  5
1F7
330
1E
100
AcDbEntity
  8
0
100
AcDbLine
 10
130.186
 20
108.0
 30
0.0
 11
151.304
 21
108.0
 31
0.0
  0
LINE
  5
1F8
330
1E
100
AcDbEntity
  8
0
100
AcDbLine
 10
137.645
 20
108.0
 30
0.0
 11
148.815
 21
108.0
 31
0.0
  0
LINE
  5
1F9
330
1E
100
AcDbEntity
  8
0
100
AcDbLine
 10
137.645
 20
108.0
 30
0.0
 11
138.454
 21
108.0
 31
0.0
  0
LINE
  5
1FA
330
1E
100
AcDbEntity
  8
0
100
AcDbLine
 10
130.221
 20
108.0
 30
0.0
 11
130.605
 21
108.0
 31
0.0
  0
LINE
  5
1FB
330
1E
100
AcDbEntity
  8
0
100
AcDbLine
 10
130.605
 20
108.0
 30
0.0
 11
130.749
 21
108.0
 31
0.0
  0
LINE
  5
1FC
330
1E
100
AcDbEntity
  8
0
100
AcDbLine
 10
129.896
 20
108.0
 30
0.0
 11
134.684
 21
108.0
 31
0.0
  0
LINE
  5
1FD
330
1E
100
AcDbEntity
  8
0
100
AcDbLine
 10
105.834
 20
112.0
 30
0.0
 11
106.682
 21
112.0
 31
0.0
  0
LINE
  5
1FE
330
1E
100
AcDbEntity
  8
0
100
AcDbLine
 10
106.682
 20
112.0
 30
0.0
 11
107.322
 21
112.0
 31
0.0
  0
LINE
  5
1FF
330
1E
100
AcDbEntity
  8
0
100
AcDbLine
 10
107.322
 20
112.0
 30
0.0
 11
107.706
 21
112.0
 31
0.0
  0
LINE
  5
200
330
1E
100
AcDbEntity
  8
0
100
AcDbLine
 10
125.7249999999999
 20
112.0
 30
0.0
 11
126.749
 21
112.0
 31
0.0
  0
LINE
  5
201
330
1E
100
AcDbEntity
  8
0
100
AcDbLine
 10
124.7649999999999
 20
112.0
 30
0.0
 11
125.7249999999999
 21
112.0
 31
0.0
  0
LINE
  5
202
330
1E
100
AcDbEntity
  8
0
100
AcDbLine
 10
123.917
 20
112.0
 30
0.0
 11
124.7649999999999
 21
112.0
 31
0.0
  0
LINE
  5
203
330
1E
100
AcDbEntity
  8
0
100
AcDbLine
 10
123.277
 20
112.0
 30
0.0
 11
123.917
 21
112.0
 31
0.0
  0
LINE
  5
204
330
1E
100
AcDbEntity
  8
0
100
AcDbLine
 10
126.749
 20
112.0
 30
0.0
 11
127.773
 21
112.0
 31
0.0
  0
LINE
  5
205
330
1E
100
AcDbEntity
  8
0
100
AcDbLine
 10
127.773
 20
112.0
 30
0.0
 11
128.733
 21
112.0
 31
0.0
  0
LINE
  5
206
330
1E
100
AcDbEntity
  8
0
100
AcDbLine
 10
128.733
 20
112.0
 30
0.0
 11
129.581
 21
112.0
 31
0.0
  0
LINE
  5
207
330
1E
100
AcDbEntity
  8
0
100
AcDbLine
 10
129.581
 20
112.0
 30
0.0
 11
130.221
 21
112.0
 31
0.0
  0
LINE
  5
208
330
1E
100
AcDbEntity
  8
0
100
AcDbLine
 10
107.85
 20
112.0
 30
0.0
 11
117.589
 21
112.0
 31
0.0
  0
LINE
  5
209
330
1E
100
AcDbEntity
  8
0
100
AcDbLine
 10
107.706
 20
112.0
 30
0.0
 11
107.85
 21
112.0
 31
0.0
  0
LINE
  5
20A
330
1E
100
AcDbEntity
  8
0
100
AcDbLine
 10
117.589
 20
112.0
 30
0.0
 11
118.304
 21
112.0
 31
0.0
  0
LINE
  5
20B
330
1E
100
AcDbEntity
  8
0
100
AcDbLine
 10
105.4999999999999
 20
112.0
 30
0.0
 11
105.4999999999999
 21
108.0
 31
0.0
  0
LINE
  5
20C
330
1E
100
AcDbEntity
  8
0
100
AcDbLine
 10
105.4999999999999
 20
112.0
 30
0.0
 11
155.4999999999999
 21
112.0
 31
0.0
  0
LINE
  5
20D
330
1E
100
AcDbEntity
  8
0
100
AcDbLine
 10
105.4999999999999
 20
112.0
 30
0.0
 11
105.834
 21
112.0
 31
0.0
  0
LINE
  5
20E
330
1E
100
AcDbEntity
  8
0
100
AcDbLine
 10
134.684
 20
108.0
 30
0.0
 11
137.96
 21
108.0
 31
0.0
  0
LINE
  5
20F
330
1E
100
AcDbEntity
  8
0
100
AcDbLine
 10
138.454
 20
108.0
 30
0.0
 11
149.1579999999999
 21
108.0
 31
0.0
  0
LINE
  5
210
330
1E
100
AcDbEntity
  8
0
100
AcDbLine
 10
137.96
 20
108.0
 30
0.0
 11
140.732
 21
108.0
 31
0.0
  0
LINE
  5
211
330
1E
100
AcDbEntity
  8
0
100
AcDbLine
 10
85.12
 20
139.7199999999999
 30
0.0
 11
89.91999999999
 21
141.639999999996
 31
0.0
  0
LINE
  5
212
330
1E
100
AcDbEntity
  8
0
100
AcDbLine
 10
85.12
 20
139.7199999999999
 30
0.0
 11
89.92
 21
141.6399999999999
 31
0.0
  0
LINE
  5
213
330
1E
100
AcDbEntity
  8
0
100
AcDbLine
 10
140.732
 20
108.0
 30
0.0
 11
142.2439999999999
 21
108.0
 31
0.0
  0
LINE
  5
214
330
1E
100
AcDbEntity
  8
0
100
AcDbLine
 10
141.8899999999999
 20
108.0
 30
0.0
 11
142.0339999999999
 21
108.0
 31
0.0
  0
LINE
  5
215
330
1E
100
AcDbEntity
  8
0
100
AcDbLine
 10
142.0339999999999
 20
108.0
 30
0.0
 11
142.4179999999999
 21
108.0
 31
0.0
  0
LINE
  5
216
330
1E
100
AcDbEntity
  8
0
100
AcDbLine
 10
142.4179999999999
 20
108.0
 30
0.0
 11
143.0579999999999
 21
108.0
 31
0.0
  0
LINE
  5
217
330
1E
100
AcDbEntity
  8
0
100
AcDbLine
 10
143.0579999999999
 20
108.0
 30
0.0
 11
143.906
 21
108.0
 31
0.0
  0
LINE
  5
218
330
1E
100
AcDbEntity
  8
0
100
AcDbLine
 10
143.906
 20
108.0
 30
0.0
 11
144.866
 21
108.0
 31
0.0
  0
LINE
  5
219
330
1E
100
AcDbEntity
  8
0
100
AcDbLine
 10
144.866
 20
108.0
 30
0.0
 11
145.8899999999999
 21
108.0
 31
0.0
  0
LINE
  5
21A
330
1E
100
AcDbEntity
  8
0
100
AcDbLine
 10
146.9139999999999
 20
108.0
 30
0.0
 11
147.8739999999999
 21
108.0
 31
0.0
  0
LINE
  5
21B
330
1E
100
AcDbEntity
  8
0
100
AcDbLine
 10
145.8899999999999
 20
108.0
 30
0.0
 11
146.9139999999999
 21
108.0
 31
0.0
  0
LINE
  5
21C
330
1E
100
AcDbEntity
  8
0
100
AcDbLine
 10
147.8739999999999
 20
108.0
 30
0.0
 11
148.722
 21
108.0
 31
0.0
  0
LINE
  5
21D
330
1E
100
AcDbEntity
  8
0
100
AcDbLine
 10
147.5
 20
108.0
 30
0.0
 11
147.644
 21
108.0
 31
0.0
  0
LINE
  5
21E
330
1E
100
AcDbEntity
  8
0
100
AcDbLine
 10
147.644
 20
108.0
 30
0.0
 11
148.028
 21
108.0
 31
0.0
  0
LINE
  5
21F
330
1E
100
AcDbEntity
  8
0
100
AcDbLine
 10
149.5
 20
108.0
 30
0.0
 11
154.4999999999999
 21
108.0
 31
0.0
  0
LINE
  5
220
330
1E
100
AcDbEntity
  8
0
100
AcDbLine
 10
149.3619999999999
 20
108.0
 30
0.0
 11
149.746
 21
108.0
 31
0.0
  0
LINE
  5
221
330
1E
100
AcDbEntity
  8
0
100
AcDbLine
 10
148.722
 20
108.0
 30
0.0
 11
149.3619999999999
 21
108.0
 31
0.0
  0
LINE
  5
222
330
1E
100
AcDbEntity
  8
0
100
AcDbLine
 10
148.815
 20
108.0
 30
0.0
 11
149.1579999999999
 21
108.0
 31
0.0
  0
LINE
  5
223
330
1E
100
AcDbEntity
  8
0
100
AcDbLine
 10
148.028
 20
108.0
 30
0.0
 11
148.6679999999999
 21
108.0
 31
0.0
  0
LINE
  5
224
330
1E
100
AcDbEntity
  8
0
100
AcDbLine
 10
148.6679999999999
 20
108.0
 30
0.0
 11
149.516
 21
108.0
 31
0.0
  0
LINE
  5
225
330
1E
100
AcDbEntity
  8
0
100
AcDbLine
 10
149.746
 20
108.0
 30
0.0
 11
149.8899999999999
 21
108.0
 31
0.0
  0
LINE
  5
226
330
1E
100
AcDbEntity
  8
0
100
AcDbLine
 10
151.304
 20
108.0
 30
0.0
 11
152.5629999999999
 21
108.0
 31
0.0
  0
LINE
  5
227
330
1E
100
AcDbEntity
  8
0
100
AcDbLine
 10
149.516
 20
108.0
 30
0.0
 11
150.476
 21
108.0
 31
0.0
  0
LINE
  5
228
330
1E
100
AcDbEntity
  8
0
100
AcDbLine
 10
150.476
 20
108.0
 30
0.0
 11
151.5
 21
108.0
 31
0.0
  0
LINE
  5
229
330
1E
100
AcDbEntity
  8
0
100
AcDbLine
 10
153.484
 20
108.0
 30
0.0
 11
154.332
 21
108.0
 31
0.0
  0
LINE
  5
22A
330
1E
100
AcDbEntity
  8
0
100
AcDbLine
 10
152.524
 20
108.0
 30
0.0
 11
153.484
 21
108.0
 31
0.0
  0
LINE
  5
22B
330
1E
100
AcDbEntity
  8
0
100
AcDbLine
 10
151.5
 20
108.0
 30
0.0
 11
152.524
 21
108.0
 31
0.0
  0
LINE
  5
22C
330
1E
100
AcDbEntity
  8
0
100
AcDbLine
 10
155.356
 20
108.0
 30
0.0
 11
155.4999999999999
 21
108.0
 31
0.0
  0
LINE
  5
22D
330
1E
100
AcDbEntity
  8
0
100
AcDbLine
 10
154.972
 20
108.0
 30
0.0
 11
155.356
 21
108.0
 31
0.0
  0
LINE
  5
22E
330
1E
100
AcDbEntity
  8
0
100
AcDbLine
 10
154.332
 20
108.0
 30
0.0
 11
154.972
 21
108.0
 31
0.0
  0
LINE
  5
22F
330
1E
100
AcDbEntity
  8
0
100
AcDbLine
 10
155.4999999999999
 20
108.0
 30
0.0
 11
155.4999999999999
 21
112.0
 31
0.0
  0
LINE
  5
230
330
1E
100
AcDbEntity
  8
0
100
AcDbLine
 10
153.5
 20
108.0
 30
0.0
 11
155.4999999999999
 21
108.0
 31
0.0
  0
LINE
  5
231
330
1E
100
AcDbEntity
  8
0
100
AcDbLine
 10
155.4999999999999
 20
112.0
 30
0.0
 11
155.4999999999999
 21
108.0
 31
0.0
  0
LINE
  5
232
330
1E
100
AcDbEntity
  8
0
100
AcDbLine
 10
142.2439999999999
 20
108.0
 30
0.0
 11
143.0
 21
108.0
 31
0.0
  0
LINE
  5
233
330
1E
100
AcDbEntity
  8
0
100
AcDbLine
 10
141.0
 20
108.0
 30
0.0
 11
141.0
 21
73.0
 31
0.0
  0
LINE
  5
234
330
1E
100
AcDbEntity
  8
0
100
AcDbLine
 10
141.0
 20
108.0
 30
0.0
 11
142.2439999999999
 21
108.0
 31
0.0
  0
LINE
  5
235
330
1E
100
AcDbEntity
  8
0
100
AcDbLine
 10
141.0
 20
108.0
 30
0.0
 11
155.4999999999999
 21
108.0
 31
0.0
  0
LINE
  5
236
330
1E
100
AcDbEntity
  8
0
100
AcDbLine
 10
141.0
 20
108.0
 30
0.0
 11
153.5
 21
108.0
 31
0.0
  0
LINE
  5
237
330
1E
100
AcDbEntity
  8
0
100
AcDbLine
 10
141.0
 20
108.0
 30
0.0
 11
148.815
 21
108.0
 31
0.0
  0
LINE
  5
238
330
1E
100
AcDbEntity
  8
0
100
AcDbLine
 10
141.0
 20
108.0
 30
0.0
 11
149.1579999999999
 21
108.0
 31
0.0
  0
LINE
  5
239
330
1E
100
AcDbEntity
  8
0
100
AcDbLine
 10
141.0
 20
108.0
 30
0.0
 11
152.5629999999999
 21
108.0
 31
0.0
  0
LINE
  5
23A
330
1E
100
AcDbEntity
  8
0
100
AcDbLine
 10
141.0
 20
108.0
 30
0.0
 11
151.304
 21
108.0
 31
0.0
  0
LINE
  5
23B
330
1E
100
AcDbEntity
  8
0
100
AcDbLine
 10
141.0
 20
139.0
 30
0.0
 11
143.0
 21
139.0
 31
0.0
  0
LINE
  5
23C
330
1E
100
AcDbEntity
  8
0
100
AcDbLine
 10
141.0
 20
139.7199999999999
 30
0.0
 11
141.0
 21
141.6399999999999
 31
0.0
  0
LINE
  5
23D
330
1E
100
AcDbEntity
  8
0
100
AcDbLine
 10
141.0
 20
139.7199999999999
 30
0.0
 11
141.0
 21
139.0
 31
0.0
  0
LINE
  5
23E
330
1E
100
AcDbEntity
  8
0
100
AcDbLine
 10
143.0
 20
139.7199999999999
 30
0.0
 11
143.0
 21
141.6399999999999
 31
0.0
  0
LINE
  5
23F
330
1E
100
AcDbEntity
  8
0
100
AcDbLine
 10
143.0
 20
139.7199999999999
 30
0.0
 11
143.0
 21
139.0
 31
0.0
  0
LINE
  5
240
330
1E
100
AcDbEntity
  8
0
100
AcDbLine
 10
143.0
 20
139.0
 30
0.0
 11
143.0
 21
139.7199999999999
 31
0.0
  0
LINE
  5
241
330
1E
100
AcDbEntity
  8
0
100
AcDbLine
 10
141.0
 20
139.0
 30
0.0
 11
141.0
 21
112.0
 31
0.0
  0
LINE
  5
242
330
1E
100
AcDbEntity
  8
0
100
AcDbLine
 10
141.0
 20
139.0
 30
0.0
 11
141.0
 21
139.7199999999999
 31
0.0
  0
LINE
  5
243
330
1E
100
AcDbEntity
  8
0
100
AcDbLine
 10
141.0
 20
112.0
 30
0.0
 11
141.0
 21
139.0
 31
0.0
  0
LINE
  5
244
330
1E
100
AcDbEntity
  8
0
100
AcDbLine
 10
140.5929999999999
 20
139.7199999999999
 30
0.0
 11
141.0
 21
139.0
 31
0.0
  0
LINE
  5
245
330
1E
100
AcDbEntity
  8
0
100
AcDbLine
 10
85.1439
 20
139.7199999999999
 30
0.0
 11
89.92870000000001
 21
141.6399999999999
 31
0.0
  0
LINE
  5
246
330
1E
100
AcDbEntity
  8
0
100
AcDbLine
 10
80.00000000003069
 20
139.000000000004
 30
0.0
 11
85.1439
 21
139.7199999999999
 31
0.0
  0
LINE
  5
247
330
1E
100
AcDbEntity
  8
0
100
AcDbLine
 10
70.08
 20
141.6399999999999
 30
0.0
 11
74.87999999999999
 21
139.7199999999999
 31
0.0
  0
LINE
  5
248
330
1E
100
AcDbEntity
  8
0
100
AcDbLine
 10
71.568
 20
144.2439999999999
 30
0.0
 11
75.64799999999999
 21
142.612
 31
0.0
  0
LINE
  5
249
330
1E
100
AcDbEntity
  8
0
100
AcDbLine
 10
75.64799999999999
 20
142.612
 30
0.0
 11
80.0
 21
142.0
 31
0.0
  0
LINE
  5
24A
330
1E
100
AcDbEntity
  8
0
100
AcDbLine
 10
89.92
 20
141.6399999999999
 30
0.0
 11
94.16
 21
144.84
 31
0.0
  0
LINE
  5
24B
330
1E
100
AcDbEntity
  8
0
100
AcDbLine
 10
83.73029999999999
 20
144.9531
 30
0.0
 11
87.22739999999999
 21
146.352
 31
0.0
  0
LINE
  5
24C
330
1E
100
AcDbEntity
  8
0
100
AcDbLine
 10
80.0
 20
144.4285999999999
 30
0.0
 11
83.73029999999999
 21
144.9531
 31
0.0
  0
LINE
  5
24D
330
1E
100
AcDbEntity
  8
0
100
AcDbLine
 10
87.22739999999999
 20
146.352
 30
0.0
 11
90.3166
 21
148.6833999999999
 31
0.0
  0
LINE
  5
24E
330
1E
100
AcDbEntity
  8
0
100
AcDbLine
 10
88.43200000000001
 20
144.2439999999999
 30
0.0
 11
92.03599999999999
 21
146.964
 31
0.0
  0
LINE
  5
24F
330
1E
100
AcDbEntity
  8
0
100
AcDbLine
 10
84.352
 20
142.612
 30
0.0
 11
88.43200000000001
 21
144.2439999999999
 31
0.0
  0
LINE
  5
250
330
1E
100
AcDbEntity
  8
0
100
AcDbLine
 10
80.0
 20
142.0
 30
0.0
 11
84.352
 21
142.612
 31
0.0
  0
LINE
  5
251
330
1E
100
AcDbEntity
  8
0
100
AcDbLine
 10
76.2697
 20
144.9531
 30
0.0
 11
80.0
 21
144.4285999999999
 31
0.0
  0
LINE
  5
252
330
1E
100
AcDbEntity
  8
0
100
AcDbLine
 10
72.7726
 20
146.352
 30
0.0
 11
76.2697
 21
144.9531
 31
0.0
  0
LINE
  5
253
330
1E
100
AcDbEntity
  8
0
100
AcDbLine
 10
89.92
 20
141.6399999999999
 30
0.0
 11
94.16
 21
144.84
 31
0.0
  0
LINE
  5
254
330
1E
100
AcDbEntity
  8
0
100
AcDbLine
 10
94.16
 20
144.84
 30
0.0
 11
97.36
 21
149.08
 31
0.0
  0
LINE
  5
255
330
1E
100
AcDbEntity
  8
0
100
AcDbLine
 10
139.11
 20
144.84
 30
0.0
 11
139.912
 21
141.6399999999999
 31
0.0
  0
LINE
  5
256
330
1E
100
AcDbEntity
  8
0
100
AcDbLine
 10
143.0
 20
141.6399999999999
 30
0.0
 11
143.0
 21
144.84
 31
0.0
  0
LINE
  5
257
330
1E
100
AcDbEntity
  8
0
100
AcDbLine
 10
143.0
 20
141.6399999999999
 30
0.0
 11
143.0
 21
139.7199999999999
 31
0.0
  0
LINE
  5
258
330
1E
100
AcDbEntity
  8
0
100
AcDbLine
 10
143.0
 20
144.84
 30
0.0
 11
143.0
 21
149.08
 31
0.0
  0
LINE
  5
259
330
1E
100
AcDbEntity
  8
0
100
AcDbLine
 10
143.0
 20
144.84
 30
0.0
 11
143.0
 21
141.6399999999999
 31
0.0
  0
LINE
  5
25A
330
1E
100
AcDbEntity
  8
0
100
AcDbLine
 10
141.0
 20
144.84
 30
0.0
 11
141.0
 21
149.08
 31
0.0
  0
LINE
  5
25B
330
1E
100
AcDbEntity
  8
0
100
AcDbLine
 10
141.0
 20
144.84
 30
0.0
 11
141.0
 21
141.6399999999999
 31
0.0
  0
LINE
  5
25C
330
1E
100
AcDbEntity
  8
0
100
AcDbLine
 10
141.0
 20
141.6399999999999
 30
0.0
 11
141.0
 21
144.84
 31
0.0
  0
LINE
  5
25D
330
1E
100
AcDbEntity
  8
0
100
AcDbLine
 10
141.0
 20
141.6399999999999
 30
0.0
 11
141.0
 21
139.7199999999999
 31
0.0
  0
LINE
  5
25E
330
1E
100
AcDbEntity
  8
0
100
AcDbLine
 10
139.912
 20
141.6399999999999
 30
0.0
 11
140.5929999999999
 21
139.7199999999999
 31
0.0
  0
LINE
  5
25F
330
1E
100
AcDbEntity
  8
0
100
AcDbLine
 10
92.03599999999999
 20
146.964
 30
0.0
 11
94.756
 21
150.5679999999999
 31
0.0
  0
LINE
  5
260
330
1E
100
AcDbEntity
  8
0
100
AcDbLine
 10
97.36
 20
149.08
 30
0.0
 11
99.28
 21
153.8799999999999
 31
0.0
  0
LINE
  5
261
330
1E
100
AcDbEntity
  8
0
100
AcDbLine
 10
96.38799999999999
 20
154.648
 30
0.0
 11
97.0
 21
159.0
 31
0.0
  0
LINE
  5
262
330
1E
100
AcDbEntity
  8
0
100
AcDbLine
 10
94.756
 20
150.5679999999999
 30
0.0
 11
96.38799999999999
 21
154.648
 31
0.0
  0
LINE
  5
263
330
1E
100
AcDbEntity
  8
0
100
AcDbLine
 10
94.0469
 20
162.7302999999999
 30
0.0
 11
94.5714
 21
159.0
 31
0.0
  0
LINE
  5
264
330
1E
100
AcDbEntity
  8
0
100
AcDbLine
 10
94.0469
 20
162.7302999999999
 30
0.0
 11
94.5714
 21
159.0
 31
0.0
  0
LINE
  5
265
330
1E
100
AcDbEntity
  8
0
100
AcDbLine
 10
96.38799999999999
 20
163.352
 30
0.0
 11
97.0
 21
159.0
 31
0.0
  0
LINE
  5
266
330
1E
100
AcDbEntity
  8
0
100
AcDbLine
 10
94.0469
 20
155.2697
 30
0.0
 11
94.5714
 21
159.0
 31
0.0
  0
LINE
  5
267
330
1E
100
AcDbEntity
  8
0
100
AcDbLine
 10
92.64799999999999
 20
151.7726
 30
0.0
 11
94.0469
 21
155.2697
 31
0.0
  0
LINE
  5
268
330
1E
100
AcDbEntity
  8
0
100
AcDbLine
 10
92.64799999999999
 20
151.7726
 30
0.0
 11
94.0469
 21
155.2697
 31
0.0
  0
LINE
  5
269
330
1E
100
AcDbEntity
  8
0
100
AcDbLine
 10
90.3166
 20
148.6833999999999
 30
0.0
 11
92.64799999999999
 21
151.7726
 31
0.0
  0
LINE
  5
26A
330
1E
100
AcDbEntity
  8
0
100
AcDbLine
 10
99.28
 20
153.8799999999999
 30
0.0
 11
100.0
 21
159.0
 31
0.0
  0
LINE
  5
26B
330
1E
100
AcDbEntity
  8
0
100
AcDbLine
 10
137.6039999999999
 20
153.8799999999999
 30
0.0
 11
138.2599999999999
 21
149.08
 31
0.0
  0
LINE
  5
26C
330
1E
100
AcDbEntity
  8
0
100
AcDbLine
 10
143.0
 20
149.08
 30
0.0
 11
143.0
 21
153.8799999999999
 31
0.0
  0
LINE
  5
26D
330
1E
100
AcDbEntity
  8
0
100
AcDbLine
 10
143.0
 20
149.08
 30
0.0
 11
143.0
 21
144.84
 31
0.0
  0
LINE
  5
26E
330
1E
100
AcDbEntity
  8
0
100
AcDbLine
 10
143.0
 20
153.8799999999999
 30
0.0
 11
143.0
 21
159.0
 31
0.0
  0
LINE
  5
26F
330
1E
100
AcDbEntity
  8
0
100
AcDbLine
 10
143.0
 20
153.8799999999999
 30
0.0
 11
143.0
 21
149.08
 31
0.0
  0
LINE
  5
270
330
1E
100
AcDbEntity
  8
0
100
AcDbLine
 10
141.0
 20
153.8799999999999
 30
0.0
 11
141.0
 21
159.0
 31
0.0
  0
LINE
  5
271
330
1E
100
AcDbEntity
  8
0
100
AcDbLine
 10
141.0
 20
153.8799999999999
 30
0.0
 11
141.0
 21
149.08
 31
0.0
  0
LINE
  5
272
330
1E
100
AcDbEntity
  8
0
100
AcDbLine
 10
141.0
 20
149.08
 30
0.0
 11
141.0
 21
153.8799999999999
 31
0.0
  0
LINE
  5
273
330
1E
100
AcDbEntity
  8
0
100
AcDbLine
 10
141.0
 20
149.08
 30
0.0
 11
141.0
 21
144.84
 31
0.0
  0
LINE
  5
274
330
1E
100
AcDbEntity
  8
0
100
AcDbLine
 10
138.2599999999999
 20
149.08
 30
0.0
 11
139.11
 21
144.84
 31
0.0
  0
LINE
  5
275
330
1E
100
AcDbEntity
  8
0
100
AcDbLine
 10
99.28
 20
164.1199999999999
 30
0.0
 11
100.0
 21
159.0
 31
0.0
  0
LINE
  5
276
330
1E
100
AcDbEntity
  8
0
100
AcDbLine
 10
143.0
 20
159.0
 30
0.0
 11
143.0
 21
153.8799999999999
 31
0.0
  0
LINE
  5
277
330
1E
100
AcDbEntity
  8
0
100
AcDbLine
 10
143.0
 20
159.0
 30
0.0
 11
143.0
 21
164.1199999999999
 31
0.0
  0
LINE
  5
278
330
1E
100
AcDbEntity
  8
0
100
AcDbLine
 10
141.0
 20
159.0
 30
0.0
 11
141.0
 21
164.1199999999999
 31
0.0
  0
LINE
  5
279
330
1E
100
AcDbEntity
  8
0
100
AcDbLine
 10
141.0
 20
159.0
 30
0.0
 11
141.0
 21
153.8799999999999
 31
0.0
  0
LINE
  5
27A
330
1E
100
AcDbEntity
  8
0
100
AcDbLine
 10
141.0
 20
164.1199999999999
 30
0.0
 11
141.0
 21
159.0
 31
0.0
  0
LINE
  5
27B
330
1E
100
AcDbEntity
  8
0
100
AcDbLine
 10
143.0
 20
164.1199999999999
 30
0.0
 11
143.0
 21
159.0
 31
0.0
  0
LINE
  5
27C
330
1E
100
AcDbEntity
  8
0
100
AcDbLine
 10
143.0
 20
164.1199999999999
 30
0.0
 11
143.0
 21
168.9199999999999
 31
0.0
  0
LINE
  5
27D
330
1E
100
AcDbEntity
  8
0
100
AcDbLine
 10
141.0
 20
164.1199999999999
 30
0.0
 11
141.0
 21
168.9199999999999
 31
0.0
  0
LINE
  5
27E
330
1E
100
AcDbEntity
  8
0
100
AcDbLine
 10
137.6039999999999
 20
164.1199999999999
 30
0.0
 11
138.2599999999999
 21
168.9199999999999
 31
0.0
  0
LINE
  5
27F
330
1E
100
AcDbEntity
  8
0
100
AcDbLine
 10
137.3499999999999
 20
159.0
 30
0.0
 11
137.6039999999999
 21
153.8799999999999
 31
0.0
  0
LINE
  5
280
330
1E
100
AcDbEntity
  8
0
100
AcDbLine
 10
137.3499999999999
 20
159.0
 30
0.0
 11
137.6039999999999
 21
164.1199999999999
 31
0.0
  0
LINE
  5
281
330
1E
100
AcDbEntity
  8
0
100
AcDbLine
 10
99.30419999999999
 20
164.1199999999999
 30
0.0
 11
100.0
 21
159.0
 31
0.0
  0
LINE
  5
282
330
1E
100
AcDbEntity
  8
0
100
AcDbLine
 10
99.30419999999999
 20
153.8799999999999
 30
0.0
 11
100.0
 21
159.0
 31
0.0
  0
LINE
  5
283
330
1E
100
AcDbEntity
  8
0
100
AcDbLine
 10
97.3611
 20
149.08
 30
0.0
 11
99.30419999999999
 21
153.8799999999999
 31
0.0
  0
LINE
  5
284
330
1E
100
AcDbEntity
  8
0
100
AcDbLine
 10
94.1793
 20
144.84
 30
0.0
 11
97.3611
 21
149.08
 31
0.0
  0
LINE
  5
285
330
1E
100
AcDbEntity
  8
0
100
AcDbLine
 10
89.92870000000001
 20
141.6399999999999
 30
0.0
 11
94.1793
 21
144.84
 31
0.0
  0
LINE
  5
286
330
1E
100
AcDbEntity
  8
0
100
AcDbLine
 10
74.8561
 20
139.7199999999999
 30
0.0
 11
79.9999999999693
 21
139.000000000004
 31
0.0
  0
LINE
  5
287
330
1E
100
AcDbEntity
  8
0
100
AcDbLine
 10
74.8561
 20
139.7199999999999
 30
0.0
 11
79.9999999999693
 21
139.000000000004
 31
0.0
  0
LINE
  5
288
330
1E
100
AcDbEntity
  8
0
100
AcDbLine
 10
21.74009999999999
 20
168.9199999999999
 30
0.0
 11
22.39629999999999
 21
164.1199999999999
 31
0.0
  0
LINE
  5
289
330
1E
100
AcDbEntity
  8
0
100
AcDbLine
 10
65.24399999999999
 20
167.432
 30
0.0
 11
67.964
 21
171.0359999999999
 31
0.0
  0
LINE
  5
28A
330
1E
100
AcDbEntity
  8
0
100
AcDbLine
 10
62.64
 20
168.9199999999999
 30
0.0
 11
65.84
 21
173.16
 31
0.0
  0
LINE
  5
28B
330
1E
100
AcDbEntity
  8
0
100
AcDbLine
 10
62.63889999999999
 20
168.9199999999999
 30
0.0
 11
65.8207
 21
173.16
 31
0.0
  0
LINE
  5
28C
330
1E
100
AcDbEntity
  8
0
100
AcDbLine
 10
20.8896
 20
173.16
 30
0.0
 11
21.74009999999999
 21
168.9199999999999
 31
0.0
  0
LINE
  5
28D
330
1E
100
AcDbEntity
  8
0
100
AcDbLine
 10
62.64
 20
168.9199999999999
 30
0.0
 11
65.84
 21
173.16
 31
0.0
  0
LINE
  5
28E
330
1E
100
AcDbEntity
  8
0
100
AcDbLine
 10
67.964
 20
171.0359999999999
 30
0.0
 11
71.568
 21
173.7559999999999
 31
0.0
  0
LINE
  5
28F
330
1E
100
AcDbEntity
  8
0
100
AcDbLine
 10
67.352
 20
166.2274
 30
0.0
 11
69.68340000000001
 21
169.3165999999999
 31
0.0
  0
LINE
  5
290
330
1E
100
AcDbEntity
  8
0
100
AcDbLine
 10
69.68340000000001
 20
169.3165999999999
 30
0.0
 11
72.7726
 21
171.6479999999999
 31
0.0
  0
LINE
  5
291
330
1E
100
AcDbEntity
  8
0
100
AcDbLine
 10
65.84
 20
173.16
 30
0.0
 11
70.08
 21
176.36
 31
0.0
  0
LINE
  5
292
330
1E
100
AcDbEntity
  8
0
100
AcDbLine
 10
72.7726
 20
171.6479999999999
 30
0.0
 11
76.2697
 21
173.0469999999999
 31
0.0
  0
LINE
  5
293
330
1E
100
AcDbEntity
  8
0
100
AcDbLine
 10
65.8207
 20
173.16
 30
0.0
 11
70.0713
 21
176.36
 31
0.0
  0
LINE
  5
294
330
1E
100
AcDbEntity
  8
0
100
AcDbLine
 10
20.65869999999999
 20
174.0
 30
0.0
 11
21.3307
 21
174.0
 31
0.0
  0
LINE
  5
295
330
1E
100
AcDbEntity
  8
0
100
AcDbLine
 10
20.40669999999999
 20
174.0
 30
0.0
 11
20.65869999999999
 21
174.0
 31
0.0
  0
LINE
  5
296
330
1E
100
AcDbEntity
  8
0
100
AcDbLine
 10
20.40669999999999
 20
174.0
 30
0.0
 11
20.40669999999999
 21
181.0
 31
0.0
  0
LINE
  5
297
330
1E
100
AcDbEntity
  8
0
100
AcDbLine
 10
22.45069999999999
 20
174.0
 30
0.0
 11
23.9347
 21
174.0
 31
0.0
  0
LINE
  5
298
330
1E
100
AcDbEntity
  8
0
100
AcDbLine
 10
21.3307
 20
174.0
 30
0.0
 11
22.45069999999999
 21
174.0
 31
0.0
  0
LINE
  5
299
330
1E
100
AcDbEntity
  8
0
100
AcDbLine
 10
24.2227
 20
174.0
 30
0.0
 11
28.72339999999999
 21
174.0
 31
0.0
  0
LINE
  5
29A
330
1E
100
AcDbEntity
  8
0
100
AcDbLine
 10
24.2227
 20
174.0
 30
0.0
 11
27.1048
 21
174.0
 31
0.0
  0
LINE
  5
29B
330
1E
100
AcDbEntity
  8
0
100
AcDbLine
 10
23.9347
 20
174.0
 30
0.0
 11
25.61469999999999
 21
174.0
 31
0.0
  0
LINE
  5
29C
330
1E
100
AcDbEntity
  8
0
100
AcDbLine
 10
27.1048
 20
174.0
 30
0.0
 11
31.1624
 21
174.0
 31
0.0
  0
LINE
  5
29D
330
1E
100
AcDbEntity
  8
0
100
AcDbLine
 10
27.4067
 20
174.0
 30
0.0
 11
29.1987
 21
174.0
 31
0.0
  0
LINE
  5
29E
330
1E
100
AcDbEntity
  8
0
100
AcDbLine
 10
27.4067
 20
174.0
 30
0.0
 11
28.60139999999999
 21
174.0
 31
0.0
  0
LINE
  5
29F
330
1E
100
AcDbEntity
  8
0
100
AcDbLine
 10
28.60139999999999
 20
174.0
 30
0.0
 11
29.7214
 21
174.0
 31
0.0
  0
LINE
  5
2A0
330
1E
100
AcDbEntity
  8
0
100
AcDbLine
 10
29.1987
 20
174.0
 30
0.0
 11
30.87869999999999
 21
174.0
 31
0.0
  0
LINE
  5
2A1
330
1E
100
AcDbEntity
  8
0
100
AcDbLine
 10
29.7214
 20
174.0
 30
0.0
 11
30.7107
 21
174.0
 31
0.0
  0
LINE
  5
2A2
330
1E
100
AcDbEntity
  8
0
100
AcDbLine
 10
30.87869999999999
 20
174.0
 30
0.0
 11
32.3627
 21
174.0
 31
0.0
  0
LINE
  5
2A3
330
1E
100
AcDbEntity
  8
0
100
AcDbLine
 10
30.7107
 20
174.0
 30
0.0
 11
31.45739999999999
 21
174.0
 31
0.0
  0
LINE
  5
2A4
330
1E
100
AcDbEntity
  8
0
100
AcDbLine
 10
31.45739999999999
 20
174.0
 30
0.0
 11
31.9054
 21
174.0
 31
0.0
  0
LINE
  5
2A5
330
1E
100
AcDbEntity
  8
0
100
AcDbLine
 10
31.9054
 20
174.0
 30
0.0
 11
32.0734
 21
174.0
 31
0.0
  0
LINE
  5
2A6
330
1E
100
AcDbEntity
  8
0
100
AcDbLine
 10
25.61469999999999
 20
174.0
 30
0.0
 11
27.4067
 21
174.0
 31
0.0
  0
LINE
  5
2A7
330
1E
100
AcDbEntity
  8
0
100
AcDbLine
 10
26.212
 20
174.0
 30
0.0
 11
27.4067
 21
174.0
 31
0.0
  0
LINE
  5
2A8
330
1E
100
AcDbEntity
  8
0
100
AcDbLine
 10
25.09199999999999
 20
174.0
 30
0.0
 11
26.212
 21
174.0
 31
0.0
  0
LINE
  5
2A9
330
1E
100
AcDbEntity
  8
0
100
AcDbLine
 10
24.1027
 20
174.0
 30
0.0
 11
25.09199999999999
 21
174.0
 31
0.0
  0
LINE
  5
2AA
330
1E
100
AcDbEntity
  8
0
100
AcDbLine
 10
23.35599999999999
 20
174.0
 30
0.0
 11
24.1027
 21
174.0
 31
0.0
  0
LINE
  5
2AB
330
1E
100
AcDbEntity
  8
0
100
AcDbLine
 10
22.908
 20
174.0
 30
0.0
 11
23.35599999999999
 21
174.0
 31
0.0
  0
LINE
  5
2AC
330
1E
100
AcDbEntity
  8
0
100
AcDbLine
 10
22.73999999999999
 20
174.0
 30
0.0
 11
22.908
 21
174.0
 31
0.0
  0
LINE
  5
2AD
330
1E
100
AcDbEntity
  8
0
100
AcDbLine
 10
30.27639999999999
 20
174.0
 30
0.0
 11
32.3977
 21
174.0
 31
0.0
  0
LINE
  5
2AE
330
1E
100
AcDbEntity
  8
0
100
AcDbLine
 10
30.27639999999999
 20
174.0
 30
0.0
 11
36.5775981481481
 21
174.0
 31
0.0
  0
LINE
  5
2AF
330
1E
100
AcDbEntity
  8
0
100
AcDbLine
 10
30.27639999999999
 20
174.0
 30
0.0
 11
36.5775981481481
 21
174.0
 31
0.0
  0
LINE
  5
2B0
330
1E
100
AcDbEntity
  8
0
100
AcDbLine
 10
32.3627
 20
174.0
 30
0.0
 11
33.4827
 21
174.0
 31
0.0
  0
LINE
  5
2B1
330
1E
100
AcDbEntity
  8
0
100
AcDbLine
 10
33.4827
 20
174.0
 30
0.0
 11
34.1547
 21
174.0
 31
0.0
  0
LINE
  5
2B2
330
1E
100
AcDbEntity
  8
0
100
AcDbLine
 10
34.1547
 20
174.0
 30
0.0
 11
34.4067
 21
174.0
 31
0.0
  0
LINE
  5
2B3
330
1E
100
AcDbEntity
  8
0
100
AcDbLine
 10
32.3977
 20
174.0
 30
0.0
 11
37.30174814814819
 21
174.0
 31
0.0
  0
LINE
  5
2B4
330
1E
100
AcDbEntity
  8
0
100
AcDbLine
 10
32.2207
 20
174.0
 30
0.0
 11
33.0535
 21
174.0
 31
0.0
  0
LINE
  5
2B5
330
1E
100
AcDbEntity
  8
0
100
AcDbLine
 10
32.2207
 20
174.0
 30
0.0
 11
43.323287962963
 21
174.0
 31
0.0
  0
LINE
  5
2B6
330
1E
100
AcDbEntity
  8
0
100
AcDbLine
 10
33.0535
 20
174.0
 30
0.0
 11
48.5067
 21
174.0
 31
0.0
  0
LINE
  5
2B7
330
1E
100
AcDbEntity
  8
0
100
AcDbLine
 10
20.679075
 20
174.0
 30
0.0
 11
20.8896
 21
173.16
 31
0.0
  0
LINE
  5
2B8
330
1E
100
AcDbEntity
  8
0
100
AcDbLine
 10
27.4067
 20
181.0
 30
0.0
 11
29.1987
 21
181.0
 31
0.0
  0
LINE
  5
2B9
330
1E
100
AcDbEntity
  8
0
100
AcDbLine
 10
29.1987
 20
181.0
 30
0.0
 11
30.87869999999999
 21
181.0
 31
0.0
  0
LINE
  5
2BA
330
1E
100
AcDbEntity
  8
0
100
AcDbLine
 10
30.87869999999999
 20
181.0
 30
0.0
 11
32.3627
 21
181.0
 31
0.0
  0
LINE
  5
2BB
330
1E
100
AcDbEntity
  8
0
100
AcDbLine
 10
32.3627
 20
181.0
 30
0.0
 11
33.4827
 21
181.0
 31
0.0
  0
LINE
  5
2BC
330
1E
100
AcDbEntity
  8
0
100
AcDbLine
 10
25.61469999999999
 20
181.0
 30
0.0
 11
27.4067
 21
181.0
 31
0.0
  0
LINE
  5
2BD
330
1E
100
AcDbEntity
  8
0
100
AcDbLine
 10
23.9347
 20
181.0
 30
0.0
 11
25.61469999999999
 21
181.0
 31
0.0
  0
LINE
  5
2BE
330
1E
100
AcDbEntity
  8
0
100
AcDbLine
 10
22.45069999999999
 20
181.0
 30
0.0
 11
23.9347
 21
181.0
 31
0.0
  0
LINE
  5
2BF
330
1E
100
AcDbEntity
  8
0
100
AcDbLine
 10
21.3307
 20
181.0
 30
0.0
 11
22.45069999999999
 21
181.0
 31
0.0
  0
LINE
  5
2C0
330
1E
100
AcDbEntity
  8
0
100
AcDbLine
 10
20.65869999999999
 20
181.0
 30
0.0
 11
21.3307
 21
181.0
 31
0.0
  0
LINE
  5
2C1
330
1E
100
AcDbEntity
  8
0
100
AcDbLine
 10
20.40669999999999
 20
181.0
 30
0.0
 11
20.40669999999999
 21
174.0
 31
0.0
  0
LINE
  5
2C2
330
1E
100
AcDbEntity
  8
0
100
AcDbLine
 10
20.40669999999999
 20
181.0
 30
0.0
 11
20.65869999999999
 21
181.0
 31
0.0
  0
LINE
  5
2C3
330
1E
100
AcDbEntity
  8
0
100
AcDbLine
 10
33.4827
 20
181.0
 30
0.0
 11
49.4105
 21
181.0
 31
0.0
  0
LINE
  5
2C4
330
1E
100
AcDbEntity
  8
0
100
AcDbLine
 10
33.4827
 20
181.0
 30
0.0
 11
49.4105
 21
181.0
 31
0.0
  0
LINE
  5
2C5
330
1E
100
AcDbEntity
  8
0
100
AcDbLine
 10
19.64209999999999
 20
181.0
 30
0.0
 11
20.40669999999999
 21
181.0
 31
0.0
  0
LINE
  5
2C6
330
1E
100
AcDbEntity
  8
0
100
AcDbLine
 10
20.0876
 20
176.36
 30
0.0
 11
20.40669999999999
 21
175.0867830423939
 31
0.0
  0
LINE
  5
2C7
330
1E
100
AcDbEntity
  8
0
100
AcDbLine
 10
19.4072
 20
178.2799999999999
 30
0.0
 11
20.0876
 21
176.36
 31
0.0
  0
LINE
  5
2C8
330
1E
100
AcDbEntity
  8
0
100
AcDbLine
 10
49.4105
 20
181.0
 30
0.0
 11
49.62839999999999
 21
181.0
 31
0.0
  0
LINE
  5
2C9
330
1E
100
AcDbEntity
  8
0
100
AcDbLine
 10
70.0713
 20
176.36
 30
0.0
 11
74.8561
 21
178.2799999999999
 31
0.0
  0
LINE
  5
2CA
330
1E
100
AcDbEntity
  8
0
100
AcDbLine
 10
71.568
 20
173.7559999999999
 30
0.0
 11
75.64799999999999
 21
175.388
 31
0.0
  0
LINE
  5
2CB
330
1E
100
AcDbEntity
  8
0
100
AcDbLine
 10
74.87999999999999
 20
178.2799999999999
 30
0.0
 11
80.0
 21
179.0
 31
0.0
  0
LINE
  5
2CC
330
1E
100
AcDbEntity
  8
0
100
AcDbLine
 10
74.87999999999999
 20
178.2799999999999
 30
0.0
 11
80.0
 21
179.0
 31
0.0
  0
LINE
  5
2CD
330
1E
100
AcDbEntity
  8
0
100
AcDbLine
 10
70.08
 20
176.36
 30
0.0
 11
74.87999999999999
 21
178.2799999999999
 31
0.0
  0
LINE
  5
2CE
330
1E
100
AcDbEntity
  8
0
100
AcDbLine
 10
70.08
 20
176.36
 30
0.0
 11
74.87999999999999
 21
178.2799999999999
 31
0.0
  0
LINE
  5
2CF
330
1E
100
AcDbEntity
  8
0
100
AcDbLine
 10
56.6916
 20
181.0
 30
0.0
 11
64.2684
 21
181.0
 31
0.0
  0
LINE
  5
2D0
330
1E
100
AcDbEntity
  8
0
100
AcDbLine
 10
64.2684
 20
181.0
 30
0.0
 11
72.03789999999999
 21
181.0
 31
0.0
  0
LINE
  5
2D1
330
1E
100
AcDbEntity
  8
0
100
AcDbLine
 10
72.03789999999999
 20
181.0
 30
0.0
 11
80.0
 21
181.0
 31
0.0
  0
LINE
  5
2D2
330
1E
100
AcDbEntity
  8
0
100
AcDbLine
 10
74.8561
 20
178.2799999999999
 30
0.0
 11
80.0
 21
179.0
 31
0.0
  0
LINE
  5
2D3
330
1E
100
AcDbEntity
  8
0
100
AcDbLine
 10
49.62839999999999
 20
181.0
 30
0.0
 11
56.6916
 21
181.0
 31
0.0
  0
LINE
  5
2D4
330
1E
100
AcDbEntity
  8
0
100
AcDbLine
 10
65.84
 20
173.16
 30
0.0
 11
70.08
 21
176.36
 31
0.0
  0
LINE
  5
2D5
330
1E
100
AcDbEntity
  8
0
100
AcDbLine
 10
75.64799999999999
 20
175.388
 30
0.0
 11
80.0
 21
176.0
 31
0.0
  0
LINE
  5
2D6
330
1E
100
AcDbEntity
  8
0
100
AcDbLine
 10
80.0
 20
176.0
 30
0.0
 11
84.352
 21
175.388
 31
0.0
  0
LINE
  5
2D7
330
1E
100
AcDbEntity
  8
0
100
AcDbLine
 10
76.2697
 20
173.0469999999999
 30
0.0
 11
80.0
 21
173.571
 31
0.0
  0
LINE
  5
2D8
330
1E
100
AcDbEntity
  8
0
100
AcDbLine
 10
85.12
 20
178.2799999999999
 30
0.0
 11
89.92
 21
176.36
 31
0.0
  0
LINE
  5
2D9
330
1E
100
AcDbEntity
  8
0
100
AcDbLine
 10
84.352
 20
175.388
 30
0.0
 11
88.43200000000001
 21
173.7559999999999
 31
0.0
  0
LINE
  5
2DA
330
1E
100
AcDbEntity
  8
0
100
AcDbLine
 10
83.73029999999999
 20
173.0469999999999
 30
0.0
 11
87.22739999999999
 21
171.6479999999999
 31
0.0
  0
LINE
  5
2DB
330
1E
100
AcDbEntity
  8
0
100
AcDbLine
 10
80.0
 20
173.571
 30
0.0
 11
83.73029999999999
 21
173.0469999999999
 31
0.0
  0
LINE
  5
2DC
330
1E
100
AcDbEntity
  8
0
100
AcDbLine
 10
85.12
 20
178.2799999999999
 30
0.0
 11
89.92
 21
176.36
 31
0.0
  0
LINE
  5
2DD
330
1E
100
AcDbEntity
  8
0
100
AcDbLine
 10
92.64799999999999
 20
166.2274
 30
0.0
 11
94.0469
 21
162.7302999999999
 31
0.0
  0
LINE
  5
2DE
330
1E
100
AcDbEntity
  8
0
100
AcDbLine
 10
94.16
 20
173.16
 30
0.0
 11
97.36
 21
168.9199999999999
 31
0.0
  0
LINE
  5
2DF
330
1E
100
AcDbEntity
  8
0
100
AcDbLine
 10
92.03599999999999
 20
171.0359999999999
 30
0.0
 11
94.756
 21
167.432
 31
0.0
  0
LINE
  5
2E0
330
1E
100
AcDbEntity
  8
0
100
AcDbLine
 10
88.43200000000001
 20
173.7559999999999
 30
0.0
 11
92.03599999999999
 21
171.0359999999999
 31
0.0
  0
LINE
  5
2E1
330
1E
100
AcDbEntity
  8
0
100
AcDbLine
 10
90.3166
 20
169.3165999999999
 30
0.0
 11
92.64799999999999
 21
166.2274
 31
0.0
  0
LINE
  5
2E2
330
1E
100
AcDbEntity
  8
0
100
AcDbLine
 10
87.22739999999999
 20
171.6479999999999
 30
0.0
 11
90.3166
 21
169.3165999999999
 31
0.0
  0
LINE
  5
2E3
330
1E
100
AcDbEntity
  8
0
100
AcDbLine
 10
89.92
 20
176.36
 30
0.0
 11
94.16
 21
173.16
 31
0.0
  0
LINE
  5
2E4
330
1E
100
AcDbEntity
  8
0
100
AcDbLine
 10
89.92
 20
176.36
 30
0.0
 11
94.16
 21
173.16
 31
0.0
  0
LINE
  5
2E5
330
1E
100
AcDbEntity
  8
0
100
AcDbLine
 10
97.36
 20
168.9199999999999
 30
0.0
 11
99.28
 21
164.1199999999999
 31
0.0
  0
LINE
  5
2E6
330
1E
100
AcDbEntity
  8
0
100
AcDbLine
 10
94.756
 20
167.432
 30
0.0
 11
96.38799999999999
 21
163.352
 31
0.0
  0
LINE
  5
2E7
330
1E
100
AcDbEntity
  8
0
100
AcDbLine
 10
141.0
 20
168.9199999999999
 30
0.0
 11
141.0
 21
164.1199999999999
 31
0.0
  0
LINE
  5
2E8
330
1E
100
AcDbEntity
  8
0
100
AcDbLine
 10
143.0
 20
168.9199999999999
 30
0.0
 11
143.0
 21
164.1199999999999
 31
0.0
  0
LINE
  5
2E9
330
1E
100
AcDbEntity
  8
0
100
AcDbLine
 10
143.0
 20
168.9199999999999
 30
0.0
 11
143.0
 21
173.16
 31
0.0
  0
LINE
  5
2EA
330
1E
100
AcDbEntity
  8
0
100
AcDbLine
 10
141.0
 20
168.9199999999999
 30
0.0
 11
141.0
 21
173.16
 31
0.0
  0
LINE
  5
2EB
330
1E
100
AcDbEntity
  8
0
100
AcDbLine
 10
138.2599999999999
 20
168.9199999999999
 30
0.0
 11
139.11
 21
173.16
 31
0.0
  0
LINE
  5
2EC
330
1E
100
AcDbEntity
  8
0
100
AcDbLine
 10
97.36
 20
168.9199999999999
 30
0.0
 11
99.28
 21
164.1199999999999
 31
0.0
  0
LINE
  5
2ED
330
1E
100
AcDbEntity
  8
0
100
AcDbLine
 10
114.566
 20
174.0
 30
0.0
 11
127.7789999999999
 21
174.0
 31
0.0
  0
LINE
  5
2EE
330
1E
100
AcDbEntity
  8
0
100
AcDbLine
 10
111.4929999999999
 20
174.0
 30
0.0
 11
126.946
 21
174.0
 31
0.0
  0
LINE
  5
2EF
330
1E
100
AcDbEntity
  8
0
100
AcDbLine
 10
123.153
 20
174.0
 30
0.0
 11
129.7239999999999
 21
174.0
 31
0.0
  0
LINE
  5
2F0
330
1E
100
AcDbEntity
  8
0
100
AcDbLine
 10
120.8929999999999
 20
174.0
 30
0.0
 11
127.602
 21
174.0
 31
0.0
  0
LINE
  5
2F1
330
1E
100
AcDbEntity
  8
0
100
AcDbLine
 10
126.946
 20
174.0
 30
0.0
 11
127.7789999999999
 21
174.0
 31
0.0
  0
LINE
  5
2F2
330
1E
100
AcDbEntity
  8
0
100
AcDbLine
 10
127.602
 20
174.0
 30
0.0
 11
129.7239999999999
 21
174.0
 31
0.0
  0
LINE
  5
2F3
330
1E
100
AcDbEntity
  8
0
100
AcDbLine
 10
127.637
 20
174.0
 30
0.0
 11
129.121
 21
174.0
 31
0.0
  0
LINE
  5
2F4
330
1E
100
AcDbEntity
  8
0
100
AcDbLine
 10
126.517
 20
174.0
 30
0.0
 11
127.637
 21
174.0
 31
0.0
  0
LINE
  5
2F5
330
1E
100
AcDbEntity
  8
0
100
AcDbLine
 10
125.845
 20
174.0
 30
0.0
 11
126.517
 21
174.0
 31
0.0
  0
LINE
  5
2F6
330
1E
100
AcDbEntity
  8
0
100
AcDbLine
 10
128.8379999999999
 20
174.0
 30
0.0
 11
132.895
 21
174.0
 31
0.0
  0
LINE
  5
2F7
330
1E
100
AcDbEntity
  8
0
100
AcDbLine
 10
131.2769999999999
 20
174.0
 30
0.0
 11
135.777
 21
174.0
 31
0.0
  0
LINE
  5
2F8
330
1E
100
AcDbEntity
  8
0
100
AcDbLine
 10
131.3989999999999
 20
174.0
 30
0.0
 11
132.5929999999999
 21
174.0
 31
0.0
  0
LINE
  5
2F9
330
1E
100
AcDbEntity
  8
0
100
AcDbLine
 10
130.8009999999999
 20
174.0
 30
0.0
 11
132.5929999999999
 21
174.0
 31
0.0
  0
LINE
  5
2FA
330
1E
100
AcDbEntity
  8
0
100
AcDbLine
 10
130.2789999999999
 20
174.0
 30
0.0
 11
131.3989999999999
 21
174.0
 31
0.0
  0
LINE
  5
2FB
330
1E
100
AcDbEntity
  8
0
100
AcDbLine
 10
129.121
 20
174.0
 30
0.0
 11
130.8009999999999
 21
174.0
 31
0.0
  0
LINE
  5
2FC
330
1E
100
AcDbEntity
  8
0
100
AcDbLine
 10
129.2889999999999
 20
174.0
 30
0.0
 11
130.2789999999999
 21
174.0
 31
0.0
  0
LINE
  5
2FD
330
1E
100
AcDbEntity
  8
0
100
AcDbLine
 10
128.543
 20
174.0
 30
0.0
 11
129.2889999999999
 21
174.0
 31
0.0
  0
LINE
  5
2FE
330
1E
100
AcDbEntity
  8
0
100
AcDbLine
 10
128.095
 20
174.0
 30
0.0
 11
128.543
 21
174.0
 31
0.0
  0
LINE
  5
2FF
330
1E
100
AcDbEntity
  8
0
100
AcDbLine
 10
127.927
 20
174.0
 30
0.0
 11
128.095
 21
174.0
 31
0.0
  0
LINE
  5
300
330
1E
100
AcDbEntity
  8
0
100
AcDbLine
 10
125.5929999999999
 20
174.0
 30
0.0
 11
125.845
 21
174.0
 31
0.0
  0
LINE
  5
301
330
1E
100
AcDbEntity
  8
0
100
AcDbLine
 10
132.895
 20
174.0
 30
0.0
 11
135.777
 21
174.0
 31
0.0
  0
LINE
  5
302
330
1E
100
AcDbEntity
  8
0
100
AcDbLine
 10
134.3849999999999
 20
174.0
 30
0.0
 11
136.0649999999999
 21
174.0
 31
0.0
  0
LINE
  5
303
330
1E
100
AcDbEntity
  8
0
100
AcDbLine
 10
132.5929999999999
 20
174.0
 30
0.0
 11
133.7879999999999
 21
174.0
 31
0.0
  0
LINE
  5
304
330
1E
100
AcDbEntity
  8
0
100
AcDbLine
 10
132.5929999999999
 20
174.0
 30
0.0
 11
134.3849999999999
 21
174.0
 31
0.0
  0
LINE
  5
305
330
1E
100
AcDbEntity
  8
0
100
AcDbLine
 10
133.7879999999999
 20
174.0
 30
0.0
 11
134.9079999999999
 21
174.0
 31
0.0
  0
LINE
  5
306
330
1E
100
AcDbEntity
  8
0
100
AcDbLine
 10
136.0649999999999
 20
174.0
 30
0.0
 11
137.549
 21
174.0
 31
0.0
  0
LINE
  5
307
330
1E
100
AcDbEntity
  8
0
100
AcDbLine
 10
134.9079999999999
 20
174.0
 30
0.0
 11
135.897
 21
174.0
 31
0.0
  0
LINE
  5
308
330
1E
100
AcDbEntity
  8
0
100
AcDbLine
 10
135.897
 20
174.0
 30
0.0
 11
136.644
 21
174.0
 31
0.0
  0
LINE
  5
309
330
1E
100
AcDbEntity
  8
0
100
AcDbLine
 10
137.549
 20
174.0
 30
0.0
 11
138.6689999999999
 21
174.0
 31
0.0
  0
LINE
  5
30A
330
1E
100
AcDbEntity
  8
0
100
AcDbLine
 10
139.5929999999999
 20
174.0
 30
0.0
 11
139.5929999999999
 21
181.0
 31
0.0
  0
LINE
  5
30B
330
1E
100
AcDbEntity
  8
0
100
AcDbLine
 10
138.6689999999999
 20
174.0
 30
0.0
 11
139.341
 21
174.0
 31
0.0
  0
LINE
  5
30C
330
1E
100
AcDbEntity
  8
0
100
AcDbLine
 10
139.341
 20
174.0
 30
0.0
 11
139.5929999999999
 21
174.0
 31
0.0
  0
LINE
  5
30D
330
1E
100
AcDbEntity
  8
0
100
AcDbLine
 10
136.644
 20
174.0
 30
0.0
 11
137.092
 21
174.0
 31
0.0
  0
LINE
  5
30E
330
1E
100
AcDbEntity
  8
0
100
AcDbLine
 10
137.092
 20
174.0
 30
0.0
 11
137.26
 21
174.0
 31
0.0
  0
LINE
  5
30F
330
1E
100
AcDbEntity
  8
0
100
AcDbLine
 10
139.5929999999999
 20
175.087182044888
 30
0.0
 11
139.912
 21
176.36
 31
0.0
  0
LINE
  5
310
330
1E
100
AcDbEntity
  8
0
100
AcDbLine
 10
139.11
 20
173.16
 30
0.0
 11
139.320525
 21
174.0
 31
0.0
  0
LINE
  5
311
330
1E
100
AcDbEntity
  8
0
100
AcDbLine
 10
141.0
 20
173.16
 30
0.0
 11
141.0
 21
168.9199999999999
 31
0.0
  0
LINE
  5
312
330
1E
100
AcDbEntity
  8
0
100
AcDbLine
 10
143.0
 20
173.16
 30
0.0
 11
143.0
 21
168.9199999999999
 31
0.0
  0
LINE
  5
313
330
1E
100
AcDbEntity
  8
0
100
AcDbLine
 10
143.0
 20
173.16
 30
0.0
 11
143.0
 21
176.36
 31
0.0
  0
LINE
  5
314
330
1E
100
AcDbEntity
  8
0
100
AcDbLine
 10
143.0
 20
176.36
 30
0.0
 11
143.0
 21
173.16
 31
0.0
  0
LINE
  5
315
330
1E
100
AcDbEntity
  8
0
100
AcDbLine
 10
143.0
 20
176.36
 30
0.0
 11
143.0
 21
178.2799999999999
 31
0.0
  0
LINE
  5
316
330
1E
100
AcDbEntity
  8
0
100
AcDbLine
 10
141.0
 20
173.16
 30
0.0
 11
141.0
 21
176.36
 31
0.0
  0
LINE
  5
317
330
1E
100
AcDbEntity
  8
0
100
AcDbLine
 10
141.0
 20
176.36
 30
0.0
 11
141.0
 21
178.2799999999999
 31
0.0
  0
LINE
  5
318
330
1E
100
AcDbEntity
  8
0
100
AcDbLine
 10
141.0
 20
176.36
 30
0.0
 11
141.0
 21
173.16
 31
0.0
  0
LINE
  5
319
330
1E
100
AcDbEntity
  8
0
100
AcDbLine
 10
139.912
 20
176.36
 30
0.0
 11
140.5929999999999
 21
178.2799999999999
 31
0.0
  0
LINE
  5
31A
330
1E
100
AcDbEntity
  8
0
100
AcDbLine
 10
97.3611
 20
168.9199999999999
 30
0.0
 11
99.30419999999999
 21
164.1199999999999
 31
0.0
  0
LINE
  5
31B
330
1E
100
AcDbEntity
  8
0
100
AcDbLine
 10
94.1793
 20
173.16
 30
0.0
 11
97.3611
 21
168.9199999999999
 31
0.0
  0
LINE
  5
31C
330
1E
100
AcDbEntity
  8
0
100
AcDbLine
 10
141.0
 20
178.2799999999999
 30
0.0
 11
141.0
 21
176.36
 31
0.0
  0
LINE
  5
31D
330
1E
100
AcDbEntity
  8
0
100
AcDbLine
 10
141.0
 20
178.2799999999999
 30
0.0
 11
141.0
 21
179.0
 31
0.0
  0
LINE
  5
31E
330
1E
100
AcDbEntity
  8
0
100
AcDbLine
 10
140.5929999999999
 20
178.2799999999999
 30
0.0
 11
141.0
 21
179.0
 31
0.0
  0
LINE
  5
31F
330
1E
100
AcDbEntity
  8
0
100
AcDbLine
 10
143.0
 20
178.2799999999999
 30
0.0
 11
143.0
 21
176.36
 31
0.0
  0
LINE
  5
320
330
1E
100
AcDbEntity
  8
0
100
AcDbLine
 10
143.0
 20
178.2799999999999
 30
0.0
 11
143.0
 21
179.0
 31
0.0
  0
LINE
  5
321
330
1E
100
AcDbEntity
  8
0
100
AcDbLine
 10
143.0
 20
179.0
 30
0.0
 11
143.0
 21
178.2799999999999
 31
0.0
  0
LINE
  5
322
330
1E
100
AcDbEntity
  8
0
100
AcDbLine
 10
141.0
 20
179.0
 30
0.0
 11
141.0
 21
181.0
 31
0.0
  0
LINE
  5
323
330
1E
100
AcDbEntity
  8
0
100
AcDbLine
 10
141.0
 20
179.0
 30
0.0
 11
143.0
 21
179.0
 31
0.0
  0
LINE
  5
324
330
1E
100
AcDbEntity
  8
0
100
AcDbLine
 10
141.0
 20
179.0
 30
0.0
 11
141.0
 21
178.2799999999999
 31
0.0
  0
LINE
  5
325
330
1E
100
AcDbEntity
  8
0
100
AcDbLine
 10
89.92870000000001
 20
176.36
 30
0.0
 11
94.1793
 21
173.16
 31
0.0
  0
LINE
  5
326
330
1E
100
AcDbEntity
  8
0
100
AcDbLine
 10
85.1439
 20
178.2799999999999
 30
0.0
 11
89.92870000000001
 21
176.36
 31
0.0
  0
LINE
  5
327
330
1E
100
AcDbEntity
  8
0
100
AcDbLine
 10
95.73159999999999
 20
181.0
 30
0.0
 11
103.3084
 21
181.0
 31
0.0
  0
LINE
  5
328
330
1E
100
AcDbEntity
  8
0
100
AcDbLine
 10
87.9621
 20
181.0
 30
0.0
 11
95.73159999999999
 21
181.0
 31
0.0
  0
LINE
  5
329
330
1E
100
AcDbEntity
  8
0
100
AcDbLine
 10
80.0
 20
181.0
 30
0.0
 11
87.9621
 21
181.0
 31
0.0
  0
LINE
  5
32A
330
1E
100
AcDbEntity
  8
0
100
AcDbLine
 10
110.59
 20
181.0
 30
0.0
 11
126.517
 21
181.0
 31
0.0
  0
LINE
  5
32B
330
1E
100
AcDbEntity
  8
0
100
AcDbLine
 10
130.8009999999999
 20
181.0
 30
0.0
 11
132.5929999999999
 21
181.0
 31
0.0
  0
LINE
  5
32C
330
1E
100
AcDbEntity
  8
0
100
AcDbLine
 10
129.121
 20
181.0
 30
0.0
 11
130.8009999999999
 21
181.0
 31
0.0
  0
LINE
  5
32D
330
1E
100
AcDbEntity
  8
0
100
AcDbLine
 10
127.637
 20
181.0
 30
0.0
 11
129.121
 21
181.0
 31
0.0
  0
LINE
  5
32E
330
1E
100
AcDbEntity
  8
0
100
AcDbLine
 10
126.517
 20
181.0
 30
0.0
 11
127.637
 21
181.0
 31
0.0
  0
LINE
  5
32F
330
1E
100
AcDbEntity
  8
0
100
AcDbLine
 10
132.5929999999999
 20
181.0
 30
0.0
 11
134.3849999999999
 21
181.0
 31
0.0
  0
LINE
  5
330
330
1E
100
AcDbEntity
  8
0
100
AcDbLine
 10
134.3849999999999
 20
181.0
 30
0.0
 11
136.0649999999999
 21
181.0
 31
0.0
  0
LINE
  5
331
330
1E
100
AcDbEntity
  8
0
100
AcDbLine
 10
136.0649999999999
 20
181.0
 30
0.0
 11
137.549
 21
181.0
 31
0.0
  0
LINE
  5
332
330
1E
100
AcDbEntity
  8
0
100
AcDbLine
 10
137.549
 20
181.0
 30
0.0
 11
138.6689999999999
 21
181.0
 31
0.0
  0
LINE
  5
333
330
1E
100
AcDbEntity
  8
0
100
AcDbLine
 10
138.6689999999999
 20
181.0
 30
0.0
 11
139.341
 21
181.0
 31
0.0
  0
LINE
  5
334
330
1E
100
AcDbEntity
  8
0
100
AcDbLine
 10
139.341
 20
181.0
 30
0.0
 11
139.5929999999999
 21
181.0
 31
0.0
  0
LINE
  5
335
330
1E
100
AcDbEntity
  8
0
100
AcDbLine
 10
139.5929999999999
 20
181.0
 30
0.0
 11
140.358
 21
181.0
 31
0.0
  0
LINE
  5
336
330
1E
100
AcDbEntity
  8
0
100
AcDbLine
 10
139.5929999999999
 20
181.0
 30
0.0
 11
139.5929999999999
 21
174.0
 31
0.0
  0
LINE
  5
337
330
1E
100
AcDbEntity
  8
0
100
AcDbLine
 10
141.0
 20
181.0
 30
0.0
 11
141.0
 21
179.0
 31
0.0
  0
LINE
  5
338
330
1E
100
AcDbEntity
  8
0
100
AcDbLine
 10
140.358
 20
181.0
 30
0.0
 11
141.0
 21
181.0
 31
0.0
  0
LINE
  5
339
330
1E
100
AcDbEntity
  8
0
100
AcDbLine
 10
110.372
 20
181.0
 30
0.0
 11
110.59
 21
181.0
 31
0.0
  0
LINE
  5
33A
330
1E
100
AcDbEntity
  8
0
100
AcDbLine
 10
103.3084
 20
181.0
 30
0.0
 11
110.372
 21
181.0
 31
0.0
  0
LINE
  5
33B
330
1E
100
AcDbEntity
  8
0
100
AcDbLine
 10
80.0
 20
179.0
 30
0.0
 11
85.1439
 21
178.2799999999999
 31
0.0
  0
LINE
  5
33C
330
1E
100
AcDbEntity
  8
0
100
AcDbLine
 10
80.0
 20
179.0
 30
0.0
 11
85.12
 21
178.2799999999999
 31
0.0
  0
LINE
  5
33D
330
1E
100
AcDbEntity
  8
0
100
AcDbLine
 10
74.87999999999999
 20
178.2799999999999
 30
0.0
 11
80.0
 21
179.0
 31
0.0
  0
LINE
  5
33E
330
1E
100
AcDbEntity
  8
0
100
AcDbLine
 10
60.6958
 20
164.1199999999999
 30
0.0
 11
62.63889999999999
 21
168.9199999999999
 31
0.0
  0
LINE
  5
33F
330
1E
100
AcDbEntity
  8
0
100
AcDbLine
 10
19.0
 20
112.0
 30
0.0
 11
19.0
 21
139.0
 31
0.0
  0
LINE
  5
340
330
1E
100
AcDbEntity
  8
0
100
AcDbLine
 10
149.3
 20
73.0
 30
0.0
 11
152.5
 21
73.0
 31
0.0
  0
LINE
  5
341
330
1E
100
AcDbEntity
  8
0
100
AcDbLine
 10
155.0
 20
73.0
 30
0.0
 11
155.0
 21
64.0
 31
0.0
  0
LINE
  5
342
330
1E
100
AcDbEntity
  8
0
100
AcDbLine
 10
5.5
 20
62.6
 30
0.0
 11
6.599999999999999
 21
61.5
 31
0.0
  0
LINE
  5
343
330
1E
100
AcDbEntity
  8
0
100
AcDbLine
 10
5.0
 20
64.0
 30
0.0
 11
5.0
 21
73.0
 31
0.0
  0
LINE
  5
344
330
1E
100
AcDbEntity
  8
0
100
AcDbLine
 10
5.0
 20
64.0
 30
0.0
 11
5.5
 21
62.6
 31
0.0
  0
ENDSEC
  0
SECTION
  2
OBJECTS
  0
DICTIONARY
  5
C
330
0
100
AcDbDictionary
281
     1
  3
ACAD_GROUP
350
D
  3
ACAD_LAYOUT
350
19
  3
ACAD_MLINESTYLE
350
16
  3
ACAD_PLOTSETTINGS
350
18
  3
ACAD_PLOTSTYLENAME
350
E
  3
AcDbVariableDictionary
350
34A
  0
DICTIONARY
  5
D
102
{ACAD_REACTORS
330
C
102
}
330
C
100
AcDbDictionary
281
     1
  0
DICTIONARY
  5
19
102
{ACAD_REACTORS
330
C
102
}
330
C
100
AcDbDictionary
281
     1
  3
Layout1
350
1D
  3
Model
350
21
  0
DICTIONARY
  5
16
102
{ACAD_REACTORS
330
C
102
}
330
C
100
AcDbDictionary
281
     1
  3
Standard
350
17
  0
DICTIONARY
  5
18
102
{ACAD_REACTORS
330
C
102
}
330
C
100
AcDbDictionary
281
     1
  0
ACDBDICTIONARYWDFLT
  5
E
102
{ACAD_REACTORS
330
C
102
}
330
C
100
AcDbDictionary
281
     1
  3
Normal
350
F
100
AcDbDictionaryWithDefault
340
F
  0
DICTIONARY
  5
34A
102
{ACAD_REACTORS
330
C
102
}
330
C
100
AcDbDictionary
281
     1
  3
DIMASSOC
350
34B
  0
LAYOUT
  5
1D
102
{ACAD_REACTORS
330
19
102
}
330
19
100
AcDbPlotSettings
  1

  2
C:\Programme\AutoCAD LT 2002 Deu\plotters\DWF ePlot (optimized for plotting).pc3
  4

  6

 40
0.0
 41
0.0
 42
0.0
 43
0.0
 44
0.0
 45
0.0
 46
0.0
 47
0.0
 48
0.0
 49
0.0
140
0.0
141
0.0
142
1.0
143
1.0
 70
   688
 72
     0
 73
     0
 74
     5
  7

 75
    16
147
1.0
148
0.0
149
0.0
100
AcDbLayout
  1
Layout1
 70
     1
 71
     1
 10
0.0
 20
0.0
 11
12.0
 21
9.0
 12
0.0
 22
0.0
 32
0.0
 14
1.000000000000000E+20
 24
1.000000000000000E+20
 34
1.000000000000000E+20
 15
-1.000000000000000E+20
 25
-1.000000000000000E+20
 35
-1.000000000000000E+20
146
0.0
 13
0.0
 23
0.0
 33
0.0
 16
1.0
 26
0.0
 36
0.0
 17
0.0
 27
1.0
 37
0.0
 76
     0
330
1A
  0
LAYOUT
  5
21
102
{ACAD_REACTORS
330
19
102
}
330
19
100
AcDbPlotSettings
  1

  2
C:\Programme\AutoCAD LT 2002 Deu\plotters\DWF ePlot (optimized for plotting).pc3
  4

  6

 40
0.0
 41
0.0
 42
0.0
 43
0.0
 44
0.0
 45
0.0
 46
0.0
 47
0.0
 48
0.0
 49
0.0
140
0.0
141
0.0
142
1.0
143
1.0
 70
  1712
 72
     0
 73
     0
 74
     0
  7

 75
     0
147
1.0
148
0.0
149
0.0
100
AcDbLayout
  1
Model
 70
     1
 71
     0
 10
0.0
 20
0.0
 11
12.0
 21
9.0
 12
0.0
 22
0.0
 32
0.0
 14
0.0
 24
0.0
 34
0.0
 15
0.0
 25
0.0
 35
0.0
146
0.0
 13
0.0
 23
0.0
 33
0.0
 16
1.0
 26
0.0
 36
0.0
 17
0.0
 27
1.0
 37
0.0
 76
     0
330
1E
  0
MLINESTYLE
  5
17
102
{ACAD_REACTORS
330
16
102
}
330
16
100
AcDbMlineStyle
  2
STANDARD
 70
     0
  3

 62
   256
 51
90.0
 52
90.0
 71
     2
 49
0.5
 62
   256
  6
BYLAYER
 49
-0.5
 62
   256
  6
BYLAYER
  0
ACDBPLACEHOLDER
  5
F
102
{ACAD_REACTORS
330
E
102
}
330
E
  0
DICTIONARYVAR
  5
34B
102
{ACAD_REACTORS
330
34A
102
}
330
34A
100
DictionaryVariables
280
     0
  1
1
  0
ENDSEC
  0
EOF
