  0
SECTION
  2
HEADER
  9
$ACADVER
  1
AC1015
  9
$ACADMAINTVER
 70
    13
  9
$DWGCODEPAGE
  3
ANSI_1252
  9
$INSBASE
 10
0.0
 20
0.0
 30
0.0
  9
$EXTMIN
 10
-0.0000000000000027
 20
-0.0000000000000016
 30
0.0
  9
$EXTMAX
 10
285.0
 20
200.0
 30
0.0
  9
$LIMMIN
 10
0.0
 20
0.0
  9
$LIMMAX
 10
12.0
 20
9.0
  9
$ORTHOMODE
 70
     0
  9
$REGENMODE
 70
     1
  9
$FILLMODE
 70
     1
  9
$QTEXTMODE
 70
     0
  9
$MIRRTEXT
 70
     1
  9
$LTSCALE
 40
1.0
  9
$ATTMODE
 70
     1
  9
$TEXTSIZE
 40
0.2
  9
$TRACEWID
 40
0.05
  9
$TEXTSTYLE
  7
Standard
  9
$CLAYER
  8
0
  9
$CELTYPE
  6
Continuous
  9
$CECOLOR
 62
   256
  9
$CELTSCALE
 40
1.0
  9
$DISPSILH
 70
     0
  9
$DIMSCALE
 40
1.0
  9
$DIMASZ
 40
0.18
  9
$DIMEXO
 40
0.0625
  9
$DIMDLI
 40
0.38
  9
$DIMRND
 40
0.0
  9
$DIMDLE
 40
0.0
  9
$DIMEXE
 40
0.18
  9
$DIMTP
 40
0.0
  9
$DIMTM
 40
0.0
  9
$DIMTXT
 40
0.18
  9
$DIMCEN
 40
0.09
  9
$DIMTSZ
 40
0.0
  9
$DIMTOL
 70
     0
  9
$DIMLIM
 70
     0
  9
$DIMTIH
 70
     1
  9
$DIMTOH
 70
     1
  9
$DIMSE1
 70
     0
  9
$DIMSE2
 70
     0
  9
$DIMTAD
 70
     0
  9
$DIMZIN
 70
     0
  9
$DIMBLK
  1

  9
$DIMASO
 70
     1
  9
$DIMSHO
 70
     1
  9
$DIMPOST
  1

  9
$DIMAPOST
  1

  9
$DIMALT
 70
     0
  9
$DIMALTD
 70
     2
  9
$DIMALTF
 40
25.4
  9
$DIMLFAC
 40
1.0
  9
$DIMTOFL
 70
     0
  9
$DIMTVP
 40
0.0
  9
$DIMTIX
 70
     0
  9
$DIMSOXD
 70
     0
  9
$DIMSAH
 70
     0
  9
$DIMBLK1
  1

  9
$DIMBLK2
  1

  9
$DIMSTYLE
  2
Standard
  9
$DIMCLRD
 70
     0
  9
$DIMCLRE
 70
     0
  9
$DIMCLRT
 70
     0
  9
$DIMTFAC
 40
1.0
  9
$DIMGAP
 40
0.09
  9
$DIMJUST
 70
     0
  9
$DIMSD1
 70
     0
  9
$DIMSD2
 70
     0
  9
$DIMTOLJ
 70
     1
  9
$DIMTZIN
 70
     0
  9
$DIMALTZ
 70
     0
  9
$DIMALTTZ
 70
     0
  9
$DIMUPT
 70
     0
  9
$DIMDEC
 70
     4
  9
$DIMTDEC
 70
     4
  9
$DIMALTU
 70
     2
  9
$DIMALTTD
 70
     2
  9
$DIMTXSTY
  7
Standard
  9
$DIMAUNIT
 70
     0
  9
$DIMADEC
 70
     0
  9
$DIMALTRND
 40
0.0
  9
$DIMAZIN
 70
     0
  9
$DIMDSEP
 70
    46
  9
$DIMATFIT
 70
     3
  9
$DIMFRAC
 70
     0
  9
$DIMLDRBLK
  1

  9
$DIMLUNIT
 70
     2
  9
$DIMLWD
 70
    -2
  9
$DIMLWE
 70
    -2
  9
$DIMTMOVE
 70
     0
  9
$LUNITS
 70
     2
  9
$LUPREC
 70
     4
  9
$SKETCHINC
 40
0.1
  9
$FILLETRAD
 40
0.0
  9
$AUNITS
 70
     0
  9
$AUPREC
 70
     0
  9
$MENU
  1
.
  9
$ELEVATION
 40
0.0
  9
$PELEVATION
 40
0.0
  9
$THICKNESS
 40
0.0
  9
$LIMCHECK
 70
     0
  9
$CHAMFERA
 40
0.0
  9
$CHAMFERB
 40
0.0
  9
$CHAMFERC
 40
0.0
  9
$CHAMFERD
 40
0.0
  9
$SKPOLY
 70
     0
  9
$TDCREATE
 40
2454753.363187569
  9
$TDUCREATE
 40
2454753.279854236
  9
$TDUPDATE
 40
2454753.365798425
  9
$TDUUPDATE
 40
2454753.282465092
  9
$TDINDWG
 40
0.0026108565
  9
$TDUSRTIMER
 40
0.0026108565
  9
$USRTIMER
 70
     1
  9
$ANGBASE
 50
0.0
  9
$ANGDIR
 70
     0
  9
$PDMODE
 70
     0
  9
$PDSIZE
 40
0.0
  9
$PLINEWID
 40
0.0
  9
$SPLFRAME
 70
     0
  9
$SPLINETYPE
 70
     6
  9
$SPLINESEGS
 70
     8
  9
$HANDSEED
  5
3B1
  9
$SURFTAB1
 70
     6
  9
$SURFTAB2
 70
     6
  9
$SURFTYPE
 70
     6
  9
$SURFU
 70
     6
  9
$SURFV
 70
     6
  9
$UCSBASE
  2

  9
$UCSNAME
  2

  9
$UCSORG
 10
0.0
 20
0.0
 30
0.0
  9
$UCSXDIR
 10
1.0
 20
0.0
 30
0.0
  9
$UCSYDIR
 10
0.0
 20
1.0
 30
0.0
  9
$UCSORTHOREF
  2

  9
$UCSORTHOVIEW
 70
     1
  9
$UCSORGTOP
 10
0.0
 20
0.0
 30
0.0
  9
$UCSORGBOTTOM
 10
0.0
 20
0.0
 30
0.0
  9
$UCSORGLEFT
 10
0.0
 20
0.0
 30
0.0
  9
$UCSORGRIGHT
 10
0.0
 20
0.0
 30
0.0
  9
$UCSORGFRONT
 10
0.0
 20
0.0
 30
0.0
  9
$UCSORGBACK
 10
0.0
 20
0.0
 30
0.0
  9
$PUCSBASE
  2

  9
$PUCSNAME
  2

  9
$PUCSORG
 10
0.0
 20
0.0
 30
0.0
  9
$PUCSXDIR
 10
1.0
 20
0.0
 30
0.0
  9
$PUCSYDIR
 10
0.0
 20
1.0
 30
0.0
  9
$PUCSORTHOREF
  2

  9
$PUCSORTHOVIEW
 70
     0
  9
$PUCSORGTOP
 10
0.0
 20
0.0
 30
0.0
  9
$PUCSORGBOTTOM
 10
0.0
 20
0.0
 30
0.0
  9
$PUCSORGLEFT
 10
0.0
 20
0.0
 30
0.0
  9
$PUCSORGRIGHT
 10
0.0
 20
0.0
 30
0.0
  9
$PUCSORGFRONT
 10
0.0
 20
0.0
 30
0.0
  9
$PUCSORGBACK
 10
0.0
 20
0.0
 30
0.0
  9
$USERI1
 70
     0
  9
$USERI2
 70
     0
  9
$USERI3
 70
     0
  9
$USERI4
 70
     0
  9
$USERI5
 70
     0
  9
$USERR1
 40
0.0
  9
$USERR2
 40
0.0
  9
$USERR3
 40
0.0
  9
$USERR4
 40
0.0
  9
$USERR5
 40
0.0
  9
$WORLDVIEW
 70
     1
  9
$SHADEDGE
 70
     3
  9
$SHADEDIF
 70
    70
  9
$TILEMODE
 70
     1
  9
$MAXACTVP
 70
    64
  9
$PINSBASE
 10
0.0
 20
0.0
 30
0.0
  9
$PLIMCHECK
 70
     0
  9
$PEXTMIN
 10
1.000000000000000E+20
 20
1.000000000000000E+20
 30
1.000000000000000E+20
  9
$PEXTMAX
 10
-1.000000000000000E+20
 20
-1.000000000000000E+20
 30
-1.000000000000000E+20
  9
$PLIMMIN
 10
0.0
 20
0.0
  9
$PLIMMAX
 10
12.0
 20
9.0
  9
$UNITMODE
 70
     0
  9
$VISRETAIN
 70
     1
  9
$PLINEGEN
 70
     0
  9
$PSLTSCALE
 70
     1
  9
$TREEDEPTH
 70
  3020
  9
$CMLSTYLE
  2
Standard
  9
$CMLJUST
 70
     0
  9
$CMLSCALE
 40
1.0
  9
$PROXYGRAPHICS
 70
     1
  9
$MEASUREMENT
 70
     0
  9
$CELWEIGHT
370
    -1
  9
$ENDCAPS
280
     0
  9
$JOINSTYLE
280
     0
  9
$LWDISPLAY
290
     0
  9
$INSUNITS
 70
     0
  9
$HYPERLINKBASE
  1

  9
$STYLESHEET
  1

  9
$XEDIT
290
     1
  9
$CEPSNTYPE
380
     0
  9
$PSTYLEMODE
290
     1
  9
$FINGERPRINTGUID
  2
{A498361F-BCB9-4506-94B9-731828E4C1B5}
  9
$VERSIONGUID
  2
{F4AED3E5-BF90-4AAF-A053-535F6059DFC2}
  9
$EXTNAMES
290
     1
  9
$PSVPSCALE
 40
0.0
  9
$OLESTARTUP
290
     0
  0
ENDSEC
  0
SECTION
  2
CLASSES
  0
CLASS
  1
ACDBDICTIONARYWDFLT
  2
AcDbDictionaryWithDefault
  3
AutoCAD 2000
 90
        0
280
     0
281
     0
  0
CLASS
  1
ACDBPLACEHOLDER
  2
AcDbPlaceHolder
  3
AutoCAD 2000
 90
        0
280
     0
281
     0
  0
CLASS
  1
LAYOUT
  2
AcDbLayout
  3
AutoCAD 2000
 90
        0
280
     0
281
     0
  0
CLASS
  1
DICTIONARYVAR
  2
AcDbDictionaryVar
  3
AutoCAD 2000
 90
        0
280
     0
281
     0
  0
ENDSEC
  0
SECTION
  2
TABLES
  0
TABLE
  2
VPORT
  5
8
330
0
100
AcDbSymbolTable
 70
     2
  0
VPORT
  5
3B0
330
8
100
AcDbSymbolTableRecord
100
AcDbViewportTableRecord
  2
*Active
 70
     0
 10
0.0
 20
0.0
 11
1.0
 21
1.0
 12
142.5
 22
100.0
 13
0.0
 23
0.0
 14
1.0
 24
1.0
 15
0.0
 25
0.0
 16
0.0
 26
0.0
 36
1.0
 17
0.0
 27
0.0
 37
0.0
 40
201.5345268542199
 41
2.078104993597951
 42
50.0
 43
0.0
 44
0.0
 50
0.0
 51
0.0
 71
     0
 72
   100
 73
     1
 74
     3
 75
     0
 76
     0
 77
     0
 78
     0
281
     0
 65
     1
110
0.0
120
0.0
130
0.0
111
1.0
121
0.0
131
0.0
112
0.0
122
1.0
132
0.0
 79
     1
146
0.0
  0
ENDTAB
  0
TABLE
  2
LTYPE
  5
5
330
0
100
AcDbSymbolTable
 70
     1
  0
LTYPE
  5
13
330
5
100
AcDbSymbolTableRecord
100
AcDbLinetypeTableRecord
  2
ByBlock
 70
     0
  3

 72
    65
 73
     0
 40
0.0
  0
LTYPE
  5
14
330
5
100
AcDbSymbolTableRecord
100
AcDbLinetypeTableRecord
  2
ByLayer
 70
     0
  3

 72
    65
 73
     0
 40
0.0
  0
LTYPE
  5
15
330
5
100
AcDbSymbolTableRecord
100
AcDbLinetypeTableRecord
  2
Continuous
 70
     0
  3
Solid line
 72
    65
 73
     0
 40
0.0
  0
ENDTAB
  0
TABLE
  2
LAYER
  5
2
330
0
100
AcDbSymbolTable
 70
     1
  0
LAYER
  5
10
330
2
100
AcDbSymbolTableRecord
100
AcDbLayerTableRecord
  2
0
 70
     0
 62
     7
  6
Continuous
370
    -3
390
F
  0
ENDTAB
  0
TABLE
  2
STYLE
  5
3
330
0
100
AcDbSymbolTable
 70
     1
  0
STYLE
  5
11
330
3
100
AcDbSymbolTableRecord
100
AcDbTextStyleTableRecord
  2
Standard
 70
     0
 40
0.0
 41
1.0
 50
0.0
 71
     0
 42
0.2
  3
txt
  4

  0
ENDTAB
  0
TABLE
  2
VIEW
  5
6
330
0
100
AcDbSymbolTable
 70
     0
  0
ENDTAB
  0
TABLE
  2
UCS
  5
7
330
0
100
AcDbSymbolTable
 70
     0
  0
ENDTAB
  0
TABLE
  2
APPID
  5
9
330
0
100
AcDbSymbolTable
 70
     1
  0
APPID
  5
12
330
9
100
AcDbSymbolTableRecord
100
AcDbRegAppTableRecord
  2
ACAD
 70
     0
  0
ENDTAB
  0
TABLE
  2
DIMSTYLE
  5
A
330
0
100
AcDbSymbolTable
 70
     1
100
AcDbDimStyleTable
 71
     0
  0
DIMSTYLE
105
3A6
330
A
100
AcDbSymbolTableRecord
100
AcDbDimStyleTableRecord
  2
Standard
 70
     0
340
11
  0
ENDTAB
  0
TABLE
  2
BLOCK_RECORD
  5
1
330
0
100
AcDbSymbolTable
 70
     0
  0
BLOCK_RECORD
  5
1E
330
1
100
AcDbSymbolTableRecord
100
AcDbBlockTableRecord
  2
*Model_Space
340
21
  0
BLOCK_RECORD
  5
1A
330
1
100
AcDbSymbolTableRecord
100
AcDbBlockTableRecord
  2
*Paper_Space
340
1D
  0
ENDTAB
  0
ENDSEC
  0
SECTION
  2
BLOCKS
  0
BLOCK
  5
1F
330
1E
100
AcDbEntity
  8
0
100
AcDbBlockBegin
  2
*Model_Space
 70
     0
 10
0.0
 20
0.0
 30
0.0
  3
*Model_Space
  1

  0
ENDBLK
  5
20
330
1E
100
AcDbEntity
  8
0
100
AcDbBlockEnd
  0
BLOCK
  5
1B
330
1A
100
AcDbEntity
 67
     1
  8
0
100
AcDbBlockBegin
  2
*Paper_Space
 70
     0
 10
0.0
 20
0.0
 30
0.0
  3
*Paper_Space
  1

  0
ENDBLK
  5
1C
330
1A
100
AcDbEntity
 67
     1
  8
0
100
AcDbBlockEnd
  0
ENDSEC
  0
SECTION
  2
ENTITIES
  0
LINE
  5
22
330
1E
100
AcDbEntity
  8
0
100
AcDbLine
 10
131.0
 20
18.0
 30
0.0
 11
131.6999999999999
 21
13.4
 31
0.0
  0
LINE
  5
23
330
1E
100
AcDbEntity
  8
0
100
AcDbLine
 10
131.0
 20
18.0
 30
0.0
 11
131.0
 21
18.39999999999999
 31
0.0
  0
LINE
  5
24
330
1E
100
AcDbEntity
  8
0
100
AcDbLine
 10
131.0
 20
18.39999999999999
 30
0.0
 11
131.0
 21
20.2
 31
0.0
  0
LINE
  5
25
330
1E
100
AcDbEntity
  8
0
100
AcDbLine
 10
131.0
 20
18.39999999999999
 30
0.0
 11
131.0
 21
18.0
 31
0.0
  0
LINE
  5
26
330
1E
100
AcDbEntity
  8
0
100
AcDbLine
 10
149.0
 20
-0.0000000000000016
 30
0.0
 11
153.6
 21
0.599999999999999
 31
0.0
  0
LINE
  5
27
330
1E
100
AcDbEntity
  8
0
100
AcDbLine
 10
149.0
 20
-0.0000000000000016
 30
0.0
 11
153.6
 21
0.599999999999999
 31
0.0
  0
LINE
  5
28
330
1E
100
AcDbEntity
  8
0
100
AcDbLine
 10
153.6
 20
0.5999999999999979
 30
0.0
 11
158.0
 21
2.399999999999999
 31
0.0
  0
LINE
  5
29
330
1E
100
AcDbEntity
  8
0
100
AcDbLine
 10
149.0
 20
-0.0000000000000015
 30
0.0
 11
153.6
 21
0.599999999999999
 31
0.0
  0
LINE
  5
2A
330
1E
100
AcDbEntity
  8
0
100
AcDbLine
 10
131.6999999999999
 20
13.4
 30
0.0
 11
133.4
 21
9.0
 31
0.0
  0
LINE
  5
2B
330
1E
100
AcDbEntity
  8
0
100
AcDbLine
 10
133.4
 20
9.0
 30
0.0
 11
136.3
 21
5.299999999999999
 31
0.0
  0
LINE
  5
2C
330
1E
100
AcDbEntity
  8
0
100
AcDbLine
 10
136.3
 20
5.299999999999999
 30
0.0
 11
140.0
 21
2.399999999999999
 31
0.0
  0
LINE
  5
2D
330
1E
100
AcDbEntity
  8
0
100
AcDbLine
 10
166.3
 20
13.4
 30
0.0
 11
167.0
 21
18.0
 31
0.0
  0
LINE
  5
2E
330
1E
100
AcDbEntity
  8
0
100
AcDbLine
 10
167.0
 20
18.0
 30
0.0
 11
167.0
 21
18.39999999999999
 31
0.0
  0
LINE
  5
2F
330
1E
100
AcDbEntity
  8
0
100
AcDbLine
 10
167.0
 20
18.39999999999999
 30
0.0
 11
167.0
 21
20.2
 31
0.0
  0
LINE
  5
30
330
1E
100
AcDbEntity
  8
0
100
AcDbLine
 10
167.0
 20
18.39999999999999
 30
0.0
 11
167.0
 21
18.0
 31
0.0
  0
LINE
  5
31
330
1E
100
AcDbEntity
  8
0
100
AcDbLine
 10
167.0
 20
20.2
 30
0.0
 11
167.1
 21
23.19999999999999
 31
0.0
  0
LINE
  5
32
330
1E
100
AcDbEntity
  8
0
100
AcDbLine
 10
167.0
 20
20.2
 30
0.0
 11
167.0
 21
18.39999999999999
 31
0.0
  0
LINE
  5
33
330
1E
100
AcDbEntity
  8
0
100
AcDbLine
 10
167.1
 20
23.19999999999999
 30
0.0
 11
167.1999999999999
 21
27.7
 31
0.0
  0
LINE
  5
34
330
1E
100
AcDbEntity
  8
0
100
AcDbLine
 10
140.0
 20
2.399999999999999
 30
0.0
 11
144.4
 21
0.5999999999999979
 31
0.0
  0
LINE
  5
35
330
1E
100
AcDbEntity
  8
0
100
AcDbLine
 10
140.0
 20
2.399999999999999
 30
0.0
 11
144.4
 21
0.599999999999999
 31
0.0
  0
LINE
  5
36
330
1E
100
AcDbEntity
  8
0
100
AcDbLine
 10
144.4
 20
0.599999999999999
 30
0.0
 11
149.0
 21
-0.0000000000000016
 31
0.0
  0
LINE
  5
37
330
1E
100
AcDbEntity
  8
0
100
AcDbLine
 10
144.4
 20
0.599999999999999
 30
0.0
 11
149.0
 21
-0.0000000000000015
 31
0.0
  0
LINE
  5
38
330
1E
100
AcDbEntity
  8
0
100
AcDbLine
 10
144.4
 20
0.599999999999999
 30
0.0
 11
149.0
 21
-0.0000000000000016
 31
0.0
  0
LINE
  5
39
330
1E
100
AcDbEntity
  8
0
100
AcDbLine
 10
131.0
 20
20.2
 30
0.0
 11
131.0
 21
18.39999999999999
 31
0.0
  0
LINE
  5
3A
330
1E
100
AcDbEntity
  8
0
100
AcDbLine
 10
167.1999999999999
 20
27.7
 30
0.0
 11
167.4
 21
33.2
 31
0.0
  0
LINE
  5
3B
330
1E
100
AcDbEntity
  8
0
100
AcDbLine
 10
167.4
 20
33.2
 30
0.0
 11
167.6999999999999
 21
40.0
 31
0.0
  0
LINE
  5
3C
330
1E
100
AcDbEntity
  8
0
100
AcDbLine
 10
130.9
 20
23.19999999999999
 30
0.0
 11
131.0
 21
20.2
 31
0.0
  0
LINE
  5
3D
330
1E
100
AcDbEntity
  8
0
100
AcDbLine
 10
130.8
 20
27.7
 30
0.0
 11
130.9
 21
23.19999999999999
 31
0.0
  0
LINE
  5
3E
330
1E
100
AcDbEntity
  8
0
100
AcDbLine
 10
167.6999999999999
 20
40.0
 30
0.0
 11
170.0
 21
98.0
 31
0.0
  0
LINE
  5
3F
330
1E
100
AcDbEntity
  8
0
100
AcDbLine
 10
130.6
 20
33.2
 30
0.0
 11
130.8
 21
27.7
 31
0.0
  0
LINE
  5
40
330
1E
100
AcDbEntity
  8
0
100
AcDbLine
 10
130.3
 20
40.0
 30
0.0
 11
130.6
 21
33.2
 31
0.0
  0
LINE
  5
41
330
1E
100
AcDbEntity
  8
0
100
AcDbLine
 10
6.799999999999999
 20
97.0
 30
0.0
 11
7.0
 21
100.0
 31
0.0
  0
LINE
  5
42
330
1E
100
AcDbEntity
  8
0
100
AcDbLine
 10
6.5
 20
93.0
 30
0.0
 11
7.0
 21
89.50000000000001
 31
0.0
  0
LINE
  5
43
330
1E
100
AcDbEntity
  8
0
100
AcDbLine
 10
6.5
 20
93.0
 30
0.0
 11
6.799999999999999
 21
97.0
 31
0.0
  0
LINE
  5
44
330
1E
100
AcDbEntity
  8
0
100
AcDbLine
 10
7.0
 20
89.50000000000001
 30
0.0
 11
8.0
 21
87.0
 31
0.0
  0
LINE
  5
45
330
1E
100
AcDbEntity
  8
0
100
AcDbLine
 10
8.0
 20
87.0
 30
0.0
 11
9.5
 21
85.0
 31
0.0
  0
LINE
  5
46
330
1E
100
AcDbEntity
  8
0
100
AcDbLine
 10
9.5
 20
85.0
 30
0.0
 11
11.5
 21
83.49999999999999
 31
0.0
  0
LINE
  5
47
330
1E
100
AcDbEntity
  8
0
100
AcDbLine
 10
11.5
 20
83.49999999999999
 30
0.0
 11
14.0
 21
83.0
 31
0.0
  0
LINE
  5
48
330
1E
100
AcDbEntity
  8
0
100
AcDbLine
 10
53.14289999999999
 20
97.0
 30
0.0
 11
54.8571
 21
97.0
 31
0.0
  0
LINE
  5
4C
330
1E
100
AcDbEntity
  8
0
100
AcDbLine
 10
56.0
 20
98.0
 30
0.0
 11
56.0
 21
98.8
 31
0.0
  0
LINE
  5
4F
330
1E
100
AcDbEntity
  8
0
100
AcDbLine
 10
52.0
 20
98.0
 30
0.0
 11
53.14289999999999
 21
97.0
 31
0.0
  0
LINE
  5
50
330
1E
100
AcDbEntity
  8
0
100
AcDbLine
 10
52.0
 20
98.0
 30
0.0
 11
52.0
 21
98.8
 31
0.0
  0
LINE
  5
51
330
1E
100
AcDbEntity
  8
0
100
AcDbLine
 10
54.8571
 20
97.0
 30
0.0
 11
56.0
 21
98.0
 31
0.0
  0
LINE
  5
53
330
1E
100
AcDbEntity
  8
0
100
AcDbLine
 10
170.0
 20
98.0
 30
0.0
 11
241.0
 21
98.0
 31
0.0
  0
LINE
  5
54
330
1E
100
AcDbEntity
  8
0
100
AcDbLine
 10
241.0
 20
98.0
 30
0.0
 11
241.0
 21
98.8
 31
0.0
  0
LINE
  5
56
330
1E
100
AcDbEntity
  8
0
100
AcDbLine
 10
128.0
 20
98.0
 30
0.0
 11
130.3
 21
40.0
 31
0.0
  0
LINE
  5
57
330
1E
100
AcDbEntity
  8
0
100
AcDbLine
 10
57.0
 20
98.0
 30
0.0
 11
57.0
 21
98.8
 31
0.0
  0
LINE
  5
58
330
1E
100
AcDbEntity
  8
0
100
AcDbLine
 10
57.0
 20
98.0
 30
0.0
 11
128.0
 21
98.0
 31
0.0
  0
LINE
  5
59
330
1E
100
AcDbEntity
  8
0
100
AcDbLine
 10
21.2
 20
97.0
 30
0.0
 11
21.49999999999999
 21
93.0
 31
0.0
  0
LINE
  5
5A
330
1E
100
AcDbEntity
  8
0
100
AcDbLine
 10
21.0
 20
89.50000000000001
 30
0.0
 11
21.49999999999999
 21
93.0
 31
0.0
  0
LINE
  5
5B
330
1E
100
AcDbEntity
  8
0
100
AcDbLine
 10
20.0
 20
87.0
 30
0.0
 11
21.0
 21
89.50000000000001
 31
0.0
  0
LINE
  5
5C
330
1E
100
AcDbEntity
  8
0
100
AcDbLine
 10
18.5
 20
85.0
 30
0.0
 11
20.0
 21
87.0
 31
0.0
  0
LINE
  5
5D
330
1E
100
AcDbEntity
  8
0
100
AcDbLine
 10
16.5
 20
83.49999999999999
 30
0.0
 11
18.5
 21
85.0
 31
0.0
  0
LINE
  5
5E
330
1E
100
AcDbEntity
  8
0
100
AcDbLine
 10
14.0
 20
83.0
 30
0.0
 11
16.5
 21
83.49999999999999
 31
0.0
  0
LINE
  5
5F
330
1E
100
AcDbEntity
  8
0
100
AcDbLine
 10
243.0
 20
98.0
 30
0.0
 11
284.3329999999999
 21
98.0
 31
0.0
  0
LINE
  5
60
330
1E
100
AcDbEntity
  8
0
100
AcDbLine
 10
243.0
 20
98.0
 30
0.0
 11
243.0
 21
98.756
 31
0.0
  0
LINE
  5
61
330
1E
100
AcDbEntity
  8
0
100
AcDbLine
 10
8.0
 20
104.0
 30
0.0
 11
9.117647058823528
 21
106.980392156863
 31
0.0
  0
LINE
  5
62
330
1E
100
AcDbEntity
  8
0
100
AcDbLine
 10
7.0
 20
100.0
 30
0.0
 11
8.0
 21
104.0
 31
0.0
  0
LINE
  5
63
330
1E
100
AcDbEntity
  8
0
100
AcDbLine
 10
20.0
 20
104.0
 30
0.0
 11
21.0
 21
100.0
 31
0.0
  0
LINE
  5
64
330
1E
100
AcDbEntity
  8
0
100
AcDbLine
 10
52.0
 20
98.8
 30
0.0
 11
52.0
 21
99.0
 31
0.0
  0
LINE
  5
65
330
1E
100
AcDbEntity
  8
0
100
AcDbLine
 10
52.0
 20
98.8
 30
0.0
 11
52.0
 21
98.0
 31
0.0
  0
LINE
  5
66
330
1E
100
AcDbEntity
  8
0
100
AcDbLine
 10
52.0
 20
98.8
 30
0.0
 11
52.0
 21
100.8
 31
0.0
  0
LINE
  5
67
330
1E
100
AcDbEntity
  8
0
100
AcDbLine
 10
52.0
 20
99.0
 30
0.0
 11
52.0
 21
99.7
 31
0.0
  0
LINE
  5
68
330
1E
100
AcDbEntity
  8
0
100
AcDbLine
 10
52.0
 20
99.0
 30
0.0
 11
52.0
 21
98.8
 31
0.0
  0
LINE
  5
69
330
1E
100
AcDbEntity
  8
0
100
AcDbLine
 10
56.0
 20
98.8
 30
0.0
 11
56.0
 21
100.8
 31
0.0
  0
LINE
  5
6A
330
1E
100
AcDbEntity
  8
0
100
AcDbLine
 10
241.0
 20
98.8
 30
0.0
 11
241.0
 21
100.8
 31
0.0
  0
LINE
  5
6B
330
1E
100
AcDbEntity
  8
0
100
AcDbLine
 10
241.0
 20
98.8
 30
0.0
 11
241.0
 21
98.0
 31
0.0
  0
LINE
  5
72
330
1E
100
AcDbEntity
  8
0
100
AcDbLine
 10
56.0
 20
99.50000000000001
 30
0.0
 11
57.0
 21
99.50000000000001
 31
0.0
  0
LINE
  5
73
330
1E
100
AcDbEntity
  8
0
100
AcDbLine
 10
241.0
 20
99.50000000000001
 30
0.0
 11
243.0
 21
99.50000000000001
 31
0.0
  0
LINE
  5
74
330
1E
100
AcDbEntity
  8
0
100
AcDbLine
 10
243.0
 20
99.50000000000001
 30
0.0
 11
243.0
 21
100.2
 31
0.0
  0
LINE
  5
75
330
1E
100
AcDbEntity
  8
0
100
AcDbLine
 10
57.0
 20
99.50000000000001
 30
0.0
 11
57.0
 21
98.8
 31
0.0
  0
LINE
  5
76
330
1E
100
AcDbEntity
  8
0
100
AcDbLine
 10
57.0
 20
99.50000000000001
 30
0.0
 11
57.0
 21
100.2
 31
0.0
  0
LINE
  5
77
330
1E
100
AcDbEntity
  8
0
100
AcDbLine
 10
57.0
 20
98.8
 30
0.0
 11
57.0
 21
99.50000000000001
 31
0.0
  0
LINE
  5
78
330
1E
100
AcDbEntity
  8
0
100
AcDbLine
 10
57.0
 20
98.8
 30
0.0
 11
57.0
 21
98.0
 31
0.0
  0
LINE
  5
79
330
1E
100
AcDbEntity
  8
0
100
AcDbLine
 10
57.0
 20
98.8
 30
0.0
 11
57.0
 21
100.8
 31
0.0
  0
LINE
  5
7A
330
1E
100
AcDbEntity
  8
0
100
AcDbLine
 10
52.0
 20
99.7
 30
0.0
 11
52.0
 21
101.7
 31
0.0
  0
LINE
  5
7B
330
1E
100
AcDbEntity
  8
0
100
AcDbLine
 10
52.0
 20
99.7
 30
0.0
 11
52.0
 21
99.0
 31
0.0
  0
LINE
  5
7C
330
1E
100
AcDbEntity
  8
0
100
AcDbLine
 10
52.0
 20
100.8
 30
0.0
 11
52.0
 21
98.8
 31
0.0
  0
LINE
  5
7D
330
1E
100
AcDbEntity
  8
0
100
AcDbLine
 10
52.0
 20
100.8
 30
0.0
 11
52.0
 21
104.2
 31
0.0
  0
LINE
  5
7E
330
1E
100
AcDbEntity
  8
0
100
AcDbLine
 10
56.0
 20
100.8
 30
0.0
 11
56.0
 21
104.2
 31
0.0
  0
LINE
  5
7F
330
1E
100
AcDbEntity
  8
0
100
AcDbLine
 10
57.0
 20
100.2
 30
0.0
 11
57.0
 21
99.50000000000001
 31
0.0
  0
LINE
  5
80
330
1E
100
AcDbEntity
  8
0
100
AcDbLine
 10
57.0
 20
100.2
 30
0.0
 11
57.0
 21
102.0999999999999
 31
0.0
  0
LINE
  5
81
330
1E
100
AcDbEntity
  8
0
100
AcDbLine
 10
241.0
 20
100.8
 30
0.0
 11
241.0
 21
104.2
 31
0.0
  0
LINE
  5
82
330
1E
100
AcDbEntity
  8
0
100
AcDbLine
 10
241.0
 20
100.8
 30
0.0
 11
241.0
 21
98.8
 31
0.0
  0
LINE
  5
84
330
1E
100
AcDbEntity
  8
0
100
AcDbLine
 10
243.0
 20
100.2
 30
0.0
 11
243.0
 21
102.0999999999999
 31
0.0
  0
LINE
  5
86
330
1E
100
AcDbEntity
  8
0
100
AcDbLine
 10
57.0
 20
100.8
 30
0.0
 11
57.0
 21
98.8
 31
0.0
  0
LINE
  5
87
330
1E
100
AcDbEntity
  8
0
100
AcDbLine
 10
57.0
 20
100.8
 30
0.0
 11
57.0
 21
104.2
 31
0.0
  0
LINE
  5
8C
330
1E
100
AcDbEntity
  8
0
100
AcDbLine
 10
243.0
 20
102.0999999999999
 30
0.0
 11
243.0
 21
105.2
 31
0.0
  0
LINE
  5
8D
330
1E
100
AcDbEntity
  8
0
100
AcDbLine
 10
57.0
 20
102.0999999999999
 30
0.0
 11
57.0
 21
100.2
 31
0.0
  0
LINE
  5
8E
330
1E
100
AcDbEntity
  8
0
100
AcDbLine
 10
57.0
 20
102.0999999999999
 30
0.0
 11
57.0
 21
105.2
 31
0.0
  0
LINE
  5
8F
330
1E
100
AcDbEntity
  8
0
100
AcDbLine
 10
52.0
 20
101.7
 30
0.0
 11
52.0
 21
104.9
 31
0.0
  0
LINE
  5
90
330
1E
100
AcDbEntity
  8
0
100
AcDbLine
 10
52.0
 20
101.7
 30
0.0
 11
52.0
 21
99.7
 31
0.0
  0
LINE
  5
91
330
1E
100
AcDbEntity
  8
0
100
AcDbLine
 10
40.67919999999999
 20
102.0
 30
0.0
 11
46.566
 21
100.0
 31
0.0
  0
LINE
  5
92
330
1E
100
AcDbEntity
  8
0
100
AcDbLine
 10
46.566
 20
100.0
 30
0.0
 11
52.0
 21
99.0
 31
0.0
  0
LINE
  5
93
330
1E
100
AcDbEntity
  8
0
100
AcDbLine
 10
21.0
 20
100.0
 30
0.0
 11
21.2
 21
97.0
 31
0.0
  0
LINE
  5
94
330
1E
100
AcDbEntity
  8
0
100
AcDbLine
 10
243.0
 20
98.756
 30
0.0
 11
243.0
 21
98.0
 31
0.0
  0
LINE
  5
95
330
1E
100
AcDbEntity
  8
0
100
AcDbLine
 10
243.0
 20
98.756
 30
0.0
 11
243.0
 21
99.50000000000001
 31
0.0
  0
LINE
  5
96
330
1E
100
AcDbEntity
  8
0
100
AcDbLine
 10
243.0
 20
100.772
 30
0.0
 11
243.0
 21
98.756
 31
0.0
  0
LINE
  5
97
330
1E
100
AcDbEntity
  8
0
100
AcDbLine
 10
9.0
 20
107.0
 30
0.0
 11
9.117647058823528
 21
106.980392156863
 31
0.0
  0
LINE
  5
98
330
1E
100
AcDbEntity
  8
0
100
AcDbLine
 10
18.8823529411765
 20
106.980392156863
 30
0.0
 11
20.0
 21
104.0
 31
0.0
  0
LINE
  5
99
330
1E
100
AcDbEntity
  8
0
100
AcDbLine
 10
18.83399209486169
 20
106.97233201581
 30
0.0
 11
19.0
 21
107.0
 31
0.0
  0
LINE
  5
9A
330
1E
100
AcDbEntity
  8
0
100
AcDbLine
 10
4.5
 20
107.4999999999999
 30
0.0
 11
5.5
 21
107.4999999999999
 31
0.0
  0
LINE
  5
9C
330
1E
100
AcDbEntity
  8
0
100
AcDbLine
 10
4.0
 20
108.4
 30
0.0
 11
4.0
 21
108.0
 31
0.0
  0
LINE
  5
9D
330
1E
100
AcDbEntity
  8
0
100
AcDbLine
 10
4.0
 20
108.4
 30
0.0
 11
4.0
 21
109.4999999999999
 31
0.0
  0
LINE
  5
9E
330
1E
100
AcDbEntity
  8
0
100
AcDbLine
 10
4.0
 20
109.4999999999999
 30
0.0
 11
4.0
 21
108.4
 31
0.0
  0
LINE
  5
9F
330
1E
100
AcDbEntity
  8
0
100
AcDbLine
 10
4.0
 20
109.4999999999999
 30
0.0
 11
4.0
 21
111.2
 31
0.0
  0
LINE
  5
A8
330
1E
100
AcDbEntity
  8
0
100
AcDbLine
 10
4.0
 20
108.0
 30
0.0
 11
4.5
 21
107.4999999999999
 31
0.0
  0
LINE
  5
A9
330
1E
100
AcDbEntity
  8
0
100
AcDbLine
 10
4.0
 20
108.0
 30
0.0
 11
4.0
 21
108.4
 31
0.0
  0
LINE
  5
AA
330
1E
100
AcDbEntity
  8
0
100
AcDbLine
 10
5.5
 20
107.4999999999999
 30
0.0
 11
6.0
 21
108.0
 31
0.0
  0
LINE
  5
AC
330
1E
100
AcDbEntity
  8
0
100
AcDbLine
 10
6.0
 20
108.4
 30
0.0
 11
6.0
 21
108.0
 31
0.0
  0
LINE
  5
AD
330
1E
100
AcDbEntity
  8
0
100
AcDbLine
 10
6.0
 20
108.4
 30
0.0
 11
6.0
 21
109.4999999999999
 31
0.0
  0
LINE
  5
B0
330
1E
100
AcDbEntity
  8
0
100
AcDbLine
 10
1.5
 20
111.8
 30
0.0
 11
4.0
 21
108.0
 31
0.0
  0
LINE
  5
B1
330
1E
100
AcDbEntity
  8
0
100
AcDbLine
 10
1.5
 20
111.8
 30
0.0
 11
4.0
 21
108.0
 31
0.0
  0
LINE
  5
B2
330
1E
100
AcDbEntity
  8
0
100
AcDbLine
 10
4.0
 20
111.2
 30
0.0
 11
4.0
 21
109.4999999999999
 31
0.0
  0
LINE
  5
B3
330
1E
100
AcDbEntity
  8
0
100
AcDbLine
 10
4.0
 20
111.2
 30
0.0
 11
4.0
 21
113.5
 31
0.0
  0
LINE
  5
B4
330
1E
100
AcDbEntity
  8
0
100
AcDbLine
 10
4.0
 20
113.5
 30
0.0
 11
4.0
 21
111.2
 31
0.0
  0
LINE
  5
B5
330
1E
100
AcDbEntity
  8
0
100
AcDbLine
 10
4.0
 20
113.5
 30
0.0
 11
4.0
 21
116.2
 31
0.0
  0
LINE
  5
BC
330
1E
100
AcDbEntity
  8
0
100
AcDbLine
 10
6.0
 20
109.4999999999999
 30
0.0
 11
6.0
 21
108.4
 31
0.0
  0
LINE
  5
BD
330
1E
100
AcDbEntity
  8
0
100
AcDbLine
 10
6.0
 20
109.4999999999999
 30
0.0
 11
6.0
 21
111.2
 31
0.0
  0
LINE
  5
BE
330
1E
100
AcDbEntity
  8
0
100
AcDbLine
 10
6.0
 20
111.2
 30
0.0
 11
6.0
 21
109.4999999999999
 31
0.0
  0
LINE
  5
BF
330
1E
100
AcDbEntity
  8
0
100
AcDbLine
 10
6.0
 20
111.2
 30
0.0
 11
6.0
 21
113.5
 31
0.0
  0
LINE
  5
C0
330
1E
100
AcDbEntity
  8
0
100
AcDbLine
 10
6.0
 20
113.5
 30
0.0
 11
6.0
 21
111.2
 31
0.0
  0
LINE
  5
C1
330
1E
100
AcDbEntity
  8
0
100
AcDbLine
 10
6.0
 20
113.5
 30
0.0
 11
6.0
 21
116.2
 31
0.0
  0
LINE
  5
C2
330
1E
100
AcDbEntity
  8
0
100
AcDbLine
 10
10.2
 20
112.5
 30
0.0
 11
12.0
 21
111.8
 31
0.0
  0
LINE
  5
C3
330
1E
100
AcDbEntity
  8
0
100
AcDbLine
 10
12.0
 20
111.8
 30
0.0
 11
14.0
 21
111.4999999999999
 31
0.0
  0
LINE
  5
C4
330
1E
100
AcDbEntity
  8
0
100
AcDbLine
 10
17.8
 20
112.5
 30
0.0
 11
19.3
 21
113.7
 31
0.0
  0
LINE
  5
C5
330
1E
100
AcDbEntity
  8
0
100
AcDbLine
 10
16.0
 20
111.8
 30
0.0
 11
17.8
 21
112.5
 31
0.0
  0
LINE
  5
C6
330
1E
100
AcDbEntity
  8
0
100
AcDbLine
 10
14.0
 20
111.4999999999999
 30
0.0
 11
16.0
 21
111.8
 31
0.0
  0
LINE
  5
C7
330
1E
100
AcDbEntity
  8
0
100
AcDbLine
 10
6.0
 20
108.0
 30
0.0
 11
9.0
 21
107.0
 31
0.0
  0
LINE
  5
C8
330
1E
100
AcDbEntity
  8
0
100
AcDbLine
 10
6.0
 20
108.0
 30
0.0
 11
6.0
 21
108.4
 31
0.0
  0
LINE
  5
C9
330
1E
100
AcDbEntity
  8
0
100
AcDbLine
 10
19.0
 20
107.0
 30
0.0
 11
22.0
 21
108.0
 31
0.0
  0
LINE
  5
CA
330
1E
100
AcDbEntity
  8
0
100
AcDbLine
 10
25.0
 20
110.0
 30
0.0
 11
25.0
 21
110.2999999999999
 31
0.0
  0
LINE
  5
CB
330
1E
100
AcDbEntity
  8
0
100
AcDbLine
 10
25.0
 20
110.0
 30
0.0
 11
26.0
 21
109.0
 31
0.0
  0
LINE
  5
CC
330
1E
100
AcDbEntity
  8
0
100
AcDbLine
 10
25.0
 20
110.2999999999999
 30
0.0
 11
25.0
 21
111.2
 31
0.0
  0
LINE
  5
CD
330
1E
100
AcDbEntity
  8
0
100
AcDbLine
 10
25.0
 20
110.2999999999999
 30
0.0
 11
25.0
 21
110.0
 31
0.0
  0
LINE
  5
CE
330
1E
100
AcDbEntity
  8
0
100
AcDbLine
 10
52.0
 20
104.2
 30
0.0
 11
52.0
 21
100.8
 31
0.0
  0
LINE
  5
CF
330
1E
100
AcDbEntity
  8
0
100
AcDbLine
 10
52.0
 20
104.2
 30
0.0
 11
52.0
 21
108.4999999999999
 31
0.0
  0
LINE
  5
D0
330
1E
100
AcDbEntity
  8
0
100
AcDbLine
 10
56.0
 20
104.2
 30
0.0
 11
56.0
 21
108.4999999999999
 31
0.0
  0
LINE
  5
D1
330
1E
100
AcDbEntity
  8
0
100
AcDbLine
 10
241.0
 20
104.2
 30
0.0
 11
241.0
 21
108.4999999999999
 31
0.0
  0
LINE
  5
D2
330
1E
100
AcDbEntity
  8
0
100
AcDbLine
 10
241.0
 20
104.2
 30
0.0
 11
241.0
 21
100.8
 31
0.0
  0
LINE
  5
D5
330
1E
100
AcDbEntity
  8
0
100
AcDbLine
 10
57.0
 20
104.2
 30
0.0
 11
57.0
 21
100.8
 31
0.0
  0
LINE
  5
D6
330
1E
100
AcDbEntity
  8
0
100
AcDbLine
 10
57.0
 20
104.2
 30
0.0
 11
57.0
 21
108.4999999999999
 31
0.0
  0
LINE
  5
DB
330
1E
100
AcDbEntity
  8
0
100
AcDbLine
 10
26.0
 20
109.0
 30
0.0
 11
27.0
 21
109.0
 31
0.0
  0
LINE
  5
DD
330
1E
100
AcDbEntity
  8
0
100
AcDbLine
 10
27.0
 20
109.0
 30
0.0
 11
28.0
 21
110.0
 31
0.0
  0
LINE
  5
E3
330
1E
100
AcDbEntity
  8
0
100
AcDbLine
 10
28.0
 20
110.2999999999999
 30
0.0
 11
28.0
 21
110.0
 31
0.0
  0
LINE
  5
E4
330
1E
100
AcDbEntity
  8
0
100
AcDbLine
 10
28.0
 20
110.2999999999999
 30
0.0
 11
28.0
 21
111.2
 31
0.0
  0
LINE
  5
E9
330
1E
100
AcDbEntity
  8
0
100
AcDbLine
 10
28.0
 20
111.2
 30
0.0
 11
28.0
 21
110.2999999999999
 31
0.0
  0
LINE
  5
EA
330
1E
100
AcDbEntity
  8
0
100
AcDbLine
 10
28.0
 20
111.2
 30
0.0
 11
28.0
 21
112.5999999999999
 31
0.0
  0
LINE
  5
EB
330
1E
100
AcDbEntity
  8
0
100
AcDbLine
 10
28.0
 20
112.5999999999999
 30
0.0
 11
28.0
 21
111.2
 31
0.0
  0
LINE
  5
EC
330
1E
100
AcDbEntity
  8
0
100
AcDbLine
 10
28.0
 20
112.5999999999999
 30
0.0
 11
28.0
 21
114.5
 31
0.0
  0
LINE
  5
ED
330
1E
100
AcDbEntity
  8
0
100
AcDbLine
 10
28.0
 20
110.0
 30
0.0
 11
30.71699999999999
 21
107.0
 31
0.0
  0
LINE
  5
EE
330
1E
100
AcDbEntity
  8
0
100
AcDbLine
 10
28.0
 20
110.0
 30
0.0
 11
28.0
 21
110.2999999999999
 31
0.0
  0
LINE
  5
EF
330
1E
100
AcDbEntity
  8
0
100
AcDbLine
 10
52.0
 20
108.4999999999999
 30
0.0
 11
52.0
 21
104.2
 31
0.0
  0
LINE
  5
F0
330
1E
100
AcDbEntity
  8
0
100
AcDbLine
 10
52.0
 20
108.4999999999999
 30
0.0
 11
52.0
 21
113.5999999999999
 31
0.0
  0
LINE
  5
F5
330
1E
100
AcDbEntity
  8
0
100
AcDbLine
 10
56.0
 20
108.4999999999999
 30
0.0
 11
56.0
 21
113.5999999999999
 31
0.0
  0
LINE
  5
F6
330
1E
100
AcDbEntity
  8
0
100
AcDbLine
 10
241.0
 20
108.4999999999999
 30
0.0
 11
241.0
 21
113.5999999999999
 31
0.0
  0
LINE
  5
F7
330
1E
100
AcDbEntity
  8
0
100
AcDbLine
 10
241.0
 20
108.4999999999999
 30
0.0
 11
241.0
 21
104.2
 31
0.0
  0
LINE
  5
F9
330
1E
100
AcDbEntity
  8
0
100
AcDbLine
 10
243.0
 20
105.2
 30
0.0
 11
243.0
 21
109.2999999999999
 31
0.0
  0
LINE
  5
FA
330
1E
100
AcDbEntity
  8
0
100
AcDbLine
 10
57.0
 20
105.2
 30
0.0
 11
57.0
 21
102.0999999999999
 31
0.0
  0
LINE
  5
FB
330
1E
100
AcDbEntity
  8
0
100
AcDbLine
 10
57.0
 20
105.2
 30
0.0
 11
57.0
 21
109.2999999999999
 31
0.0
  0
LINE
  5
FC
330
1E
100
AcDbEntity
  8
0
100
AcDbLine
 10
57.0
 20
108.4999999999999
 30
0.0
 11
57.0
 21
104.2
 31
0.0
  0
LINE
  5
FD
330
1E
100
AcDbEntity
  8
0
100
AcDbLine
 10
57.0
 20
108.4999999999999
 30
0.0
 11
57.0
 21
113.5999999999999
 31
0.0
  0
LINE
  5
FE
330
1E
100
AcDbEntity
  8
0
100
AcDbLine
 10
52.0
 20
104.9
 30
0.0
 11
52.0
 21
109.0
 31
0.0
  0
LINE
  5
FF
330
1E
100
AcDbEntity
  8
0
100
AcDbLine
 10
52.0
 20
104.9
 30
0.0
 11
52.0
 21
101.7
 31
0.0
  0
LINE
  5
100
330
1E
100
AcDbEntity
  8
0
100
AcDbLine
 10
243.0
 20
109.2999999999999
 30
0.0
 11
243.0
 21
114.0
 31
0.0
  0
LINE
  5
101
330
1E
100
AcDbEntity
  8
0
100
AcDbLine
 10
57.0
 20
109.2999999999999
 30
0.0
 11
57.0
 21
105.2
 31
0.0
  0
LINE
  5
102
330
1E
100
AcDbEntity
  8
0
100
AcDbLine
 10
57.0
 20
109.2999999999999
 30
0.0
 11
57.0
 21
114.0
 31
0.0
  0
LINE
  5
103
330
1E
100
AcDbEntity
  8
0
100
AcDbLine
 10
52.0
 20
109.0
 30
0.0
 11
52.0
 21
113.7999999999999
 31
0.0
  0
LINE
  5
104
330
1E
100
AcDbEntity
  8
0
100
AcDbLine
 10
52.0
 20
109.0
 30
0.0
 11
52.0
 21
104.9
 31
0.0
  0
LINE
  5
105
330
1E
100
AcDbEntity
  8
0
100
AcDbLine
 10
30.71699999999999
 20
107.0
 30
0.0
 11
35.2453
 21
104.4999999999999
 31
0.0
  0
LINE
  5
106
330
1E
100
AcDbEntity
  8
0
100
AcDbLine
 10
35.2453
 20
104.4999999999999
 30
0.0
 11
40.67919999999999
 21
102.0
 31
0.0
  0
LINE
  5
107
330
1E
100
AcDbEntity
  8
0
100
AcDbLine
 10
25.0
 20
111.2
 30
0.0
 11
25.0
 21
112.5999999999999
 31
0.0
  0
LINE
  5
108
330
1E
100
AcDbEntity
  8
0
100
AcDbLine
 10
25.0
 20
111.2
 30
0.0
 11
25.0
 21
110.2999999999999
 31
0.0
  0
LINE
  5
109
330
1E
100
AcDbEntity
  8
0
100
AcDbLine
 10
52.0
 20
113.5999999999999
 30
0.0
 11
52.0
 21
108.4999999999999
 31
0.0
  0
LINE
  5
10A
330
1E
100
AcDbEntity
  8
0
100
AcDbLine
 10
52.0
 20
113.5999999999999
 30
0.0
 11
52.0
 21
119.0
 31
0.0
  0
LINE
  5
10F
330
1E
100
AcDbEntity
  8
0
100
AcDbLine
 10
56.0
 20
113.5999999999999
 30
0.0
 11
56.0
 21
119.0
 31
0.0
  0
LINE
  5
110
330
1E
100
AcDbEntity
  8
0
100
AcDbLine
 10
241.0
 20
113.5999999999999
 30
0.0
 11
241.0
 21
119.0
 31
0.0
  0
LINE
  5
111
330
1E
100
AcDbEntity
  8
0
100
AcDbLine
 10
241.0
 20
113.5999999999999
 30
0.0
 11
241.0
 21
108.4999999999999
 31
0.0
  0
LINE
  5
112
330
1E
100
AcDbEntity
  8
0
100
AcDbLine
 10
57.0
 20
113.5999999999999
 30
0.0
 11
57.0
 21
108.4999999999999
 31
0.0
  0
LINE
  5
113
330
1E
100
AcDbEntity
  8
0
100
AcDbLine
 10
57.0
 20
113.5999999999999
 30
0.0
 11
57.0
 21
119.0
 31
0.0
  0
LINE
  5
114
330
1E
100
AcDbEntity
  8
0
100
AcDbLine
 10
25.0
 20
112.5999999999999
 30
0.0
 11
25.0
 21
114.5
 31
0.0
  0
LINE
  5
115
330
1E
100
AcDbEntity
  8
0
100
AcDbLine
 10
25.0
 20
112.5999999999999
 30
0.0
 11
25.0
 21
111.2
 31
0.0
  0
LINE
  5
116
330
1E
100
AcDbEntity
  8
0
100
AcDbLine
 10
22.0
 20
108.0
 30
0.0
 11
25.0
 21
110.0
 31
0.0
  0
LINE
  5
117
330
1E
100
AcDbEntity
  8
0
100
AcDbLine
 10
243.0
 20
104.132
 30
0.0
 11
243.0
 21
100.772
 31
0.0
  0
LINE
  5
118
330
1E
100
AcDbEntity
  8
0
100
AcDbLine
 10
243.0
 20
108.584
 30
0.0
 11
243.0
 21
104.132
 31
0.0
  0
LINE
  5
119
330
1E
100
AcDbEntity
  8
0
100
AcDbLine
 10
8.699999999999999
 20
113.7
 30
0.0
 11
10.2
 21
112.5
 31
0.0
  0
LINE
  5
11A
330
1E
100
AcDbEntity
  8
0
100
AcDbLine
 10
19.3
 20
113.7
 30
0.0
 11
20.5
 21
115.2
 31
0.0
  0
LINE
  5
11B
330
1E
100
AcDbEntity
  8
0
100
AcDbLine
 10
0.199999999999997
 20
115.7
 30
0.0
 11
1.5
 21
111.8
 31
0.0
  0
LINE
  5
11C
330
1E
100
AcDbEntity
  8
0
100
AcDbLine
 10
0.199999999999997
 20
115.7
 30
0.0
 11
1.5
 21
111.8
 31
0.0
  0
LINE
  5
11D
330
1E
100
AcDbEntity
  8
0
100
AcDbLine
 10
4.0
 20
116.2
 30
0.0
 11
4.0
 21
113.5
 31
0.0
  0
LINE
  5
11E
330
1E
100
AcDbEntity
  8
0
100
AcDbLine
 10
4.0
 20
116.2
 30
0.0
 11
4.0
 21
119.0
 31
0.0
  0
LINE
  5
123
330
1E
100
AcDbEntity
  8
0
100
AcDbLine
 10
-0.0000000000000027
 20
119.0
 30
0.0
 11
0.199999999999997
 21
115.7
 31
0.0
  0
LINE
  5
124
330
1E
100
AcDbEntity
  8
0
100
AcDbLine
 10
-0.0000000000000027
 20
119.0
 30
0.0
 11
0.199999999999997
 21
122.3
 31
0.0
  0
LINE
  5
125
330
1E
100
AcDbEntity
  8
0
100
AcDbLine
 10
4.0
 20
119.0
 30
0.0
 11
4.0
 21
116.2
 31
0.0
  0
LINE
  5
126
330
1E
100
AcDbEntity
  8
0
100
AcDbLine
 10
4.0
 20
119.0
 30
0.0
 11
4.0
 21
121.7999999999999
 31
0.0
  0
LINE
  5
129
330
1E
100
AcDbEntity
  8
0
100
AcDbLine
 10
4.0
 20
121.7999999999999
 30
0.0
 11
4.0
 21
119.0
 31
0.0
  0
LINE
  5
12A
330
1E
100
AcDbEntity
  8
0
100
AcDbLine
 10
4.0
 20
121.7999999999999
 30
0.0
 11
4.0
 21
124.5
 31
0.0
  0
LINE
  5
12B
330
1E
100
AcDbEntity
  8
0
100
AcDbLine
 10
0.199999999999997
 20
122.3
 30
0.0
 11
1.5
 21
126.2
 31
0.0
  0
LINE
  5
12C
330
1E
100
AcDbEntity
  8
0
100
AcDbLine
 10
0.199999999999997
 20
122.3
 30
0.0
 11
1.5
 21
126.2
 31
0.0
  0
LINE
  5
133
330
1E
100
AcDbEntity
  8
0
100
AcDbLine
 10
6.0
 20
121.7999999999999
 30
0.0
 11
6.0
 21
119.0
 31
0.0
  0
LINE
  5
134
330
1E
100
AcDbEntity
  8
0
100
AcDbLine
 10
6.0
 20
121.7999999999999
 30
0.0
 11
6.0
 21
124.5
 31
0.0
  0
LINE
  5
135
330
1E
100
AcDbEntity
  8
0
100
AcDbLine
 10
6.0
 20
116.2
 30
0.0
 11
6.0
 21
113.5
 31
0.0
  0
LINE
  5
136
330
1E
100
AcDbEntity
  8
0
100
AcDbLine
 10
6.0
 20
116.2
 30
0.0
 11
6.0
 21
119.0
 31
0.0
  0
LINE
  5
137
330
1E
100
AcDbEntity
  8
0
100
AcDbLine
 10
6.5
 20
119.0
 30
0.0
 11
6.799999999999999
 21
117.0
 31
0.0
  0
LINE
  5
138
330
1E
100
AcDbEntity
  8
0
100
AcDbLine
 10
6.5
 20
119.0
 30
0.0
 11
6.799999999999999
 21
121.0
 31
0.0
  0
LINE
  5
139
330
1E
100
AcDbEntity
  8
0
100
AcDbLine
 10
6.799999999999999
 20
117.0
 30
0.0
 11
7.5
 21
115.2
 31
0.0
  0
LINE
  5
13A
330
1E
100
AcDbEntity
  8
0
100
AcDbLine
 10
7.5
 20
115.2
 30
0.0
 11
8.699999999999999
 21
113.7
 31
0.0
  0
LINE
  5
13B
330
1E
100
AcDbEntity
  8
0
100
AcDbLine
 10
21.2
 20
117.0
 30
0.0
 11
21.49999999999999
 21
119.0
 31
0.0
  0
LINE
  5
13C
330
1E
100
AcDbEntity
  8
0
100
AcDbLine
 10
20.5
 20
115.2
 30
0.0
 11
21.2
 21
117.0
 31
0.0
  0
LINE
  5
13D
330
1E
100
AcDbEntity
  8
0
100
AcDbLine
 10
6.799999999999999
 20
121.0
 30
0.0
 11
7.5
 21
122.7999999999999
 31
0.0
  0
LINE
  5
13E
330
1E
100
AcDbEntity
  8
0
100
AcDbLine
 10
21.2
 20
121.0
 30
0.0
 11
21.49999999999999
 21
119.0
 31
0.0
  0
LINE
  5
13F
330
1E
100
AcDbEntity
  8
0
100
AcDbLine
 10
20.5
 20
122.7999999999999
 30
0.0
 11
21.2
 21
121.0
 31
0.0
  0
LINE
  5
140
330
1E
100
AcDbEntity
  8
0
100
AcDbLine
 10
7.5
 20
122.7999999999999
 30
0.0
 11
8.699999999999999
 21
124.3
 31
0.0
  0
LINE
  5
141
330
1E
100
AcDbEntity
  8
0
100
AcDbLine
 10
19.3
 20
124.3
 30
0.0
 11
20.5
 21
122.7999999999999
 31
0.0
  0
LINE
  5
142
330
1E
100
AcDbEntity
  8
0
100
AcDbLine
 10
8.699999999999999
 20
124.3
 30
0.0
 11
10.2
 21
125.5
 31
0.0
  0
LINE
  5
143
330
1E
100
AcDbEntity
  8
0
100
AcDbLine
 10
25.0
 20
123.5
 30
0.0
 11
25.0
 21
125.4
 31
0.0
  0
LINE
  5
144
330
1E
100
AcDbEntity
  8
0
100
AcDbLine
 10
25.0
 20
123.5
 30
0.0
 11
25.0
 21
121.3
 31
0.0
  0
LINE
  5
145
330
1E
100
AcDbEntity
  8
0
100
AcDbLine
 10
25.0
 20
121.3
 30
0.0
 11
25.0
 21
123.5
 31
0.0
  0
LINE
  5
146
330
1E
100
AcDbEntity
  8
0
100
AcDbLine
 10
25.0
 20
121.3
 30
0.0
 11
25.0
 21
119.0
 31
0.0
  0
LINE
  5
147
330
1E
100
AcDbEntity
  8
0
100
AcDbLine
 10
25.0
 20
119.0
 30
0.0
 11
25.0
 21
121.3
 31
0.0
  0
LINE
  5
148
330
1E
100
AcDbEntity
  8
0
100
AcDbLine
 10
25.0
 20
119.0
 30
0.0
 11
25.0
 21
116.7
 31
0.0
  0
LINE
  5
149
330
1E
100
AcDbEntity
  8
0
100
AcDbLine
 10
6.0
 20
119.0
 30
0.0
 11
6.0
 21
116.2
 31
0.0
  0
LINE
  5
14A
330
1E
100
AcDbEntity
  8
0
100
AcDbLine
 10
6.0
 20
119.0
 30
0.0
 11
6.0
 21
121.7999999999999
 31
0.0
  0
LINE
  5
14B
330
1E
100
AcDbEntity
  8
0
100
AcDbLine
 10
25.0
 20
114.5
 30
0.0
 11
25.0
 21
116.7
 31
0.0
  0
LINE
  5
14C
330
1E
100
AcDbEntity
  8
0
100
AcDbLine
 10
25.0
 20
114.5
 30
0.0
 11
25.0
 21
112.5999999999999
 31
0.0
  0
LINE
  5
155
330
1E
100
AcDbEntity
  8
0
100
AcDbLine
 10
28.0
 20
114.5
 30
0.0
 11
28.0
 21
112.5999999999999
 31
0.0
  0
LINE
  5
156
330
1E
100
AcDbEntity
  8
0
100
AcDbLine
 10
28.0
 20
114.5
 30
0.0
 11
28.0
 21
116.7
 31
0.0
  0
LINE
  5
163
330
1E
100
AcDbEntity
  8
0
100
AcDbLine
 10
28.0
 20
123.5
 30
0.0
 11
28.0
 21
121.3
 31
0.0
  0
LINE
  5
164
330
1E
100
AcDbEntity
  8
0
100
AcDbLine
 10
28.0
 20
123.5
 30
0.0
 11
28.0
 21
125.4
 31
0.0
  0
LINE
  5
165
330
1E
100
AcDbEntity
  8
0
100
AcDbLine
 10
28.0
 20
121.3
 30
0.0
 11
28.0
 21
119.0
 31
0.0
  0
LINE
  5
166
330
1E
100
AcDbEntity
  8
0
100
AcDbLine
 10
28.0
 20
121.3
 30
0.0
 11
28.0
 21
123.5
 31
0.0
  0
LINE
  5
167
330
1E
100
AcDbEntity
  8
0
100
AcDbLine
 10
28.0
 20
116.7
 30
0.0
 11
28.0
 21
114.5
 31
0.0
  0
LINE
  5
168
330
1E
100
AcDbEntity
  8
0
100
AcDbLine
 10
28.0
 20
116.7
 30
0.0
 11
28.0
 21
119.0
 31
0.0
  0
LINE
  5
16B
330
1E
100
AcDbEntity
  8
0
100
AcDbLine
 10
56.0
 20
119.0
 30
0.0
 11
56.0
 21
124.3999999999999
 31
0.0
  0
LINE
  5
16E
330
1E
100
AcDbEntity
  8
0
100
AcDbLine
 10
57.0
 20
114.0
 30
0.0
 11
57.0
 21
109.2999999999999
 31
0.0
  0
LINE
  5
16F
330
1E
100
AcDbEntity
  8
0
100
AcDbLine
 10
57.0
 20
114.0
 30
0.0
 11
57.0
 21
119.0
 31
0.0
  0
LINE
  5
170
330
1E
100
AcDbEntity
  8
0
100
AcDbLine
 10
241.0
 20
119.0
 30
0.0
 11
241.0
 21
124.3999999999999
 31
0.0
  0
LINE
  5
171
330
1E
100
AcDbEntity
  8
0
100
AcDbLine
 10
241.0
 20
119.0
 30
0.0
 11
241.0
 21
113.5999999999999
 31
0.0
  0
LINE
  5
172
330
1E
100
AcDbEntity
  8
0
100
AcDbLine
 10
243.0
 20
114.0
 30
0.0
 11
243.0
 21
119.0
 31
0.0
  0
LINE
  5
173
330
1E
100
AcDbEntity
  8
0
100
AcDbLine
 10
57.0
 20
119.0
 30
0.0
 11
57.0
 21
124.3999999999999
 31
0.0
  0
LINE
  5
174
330
1E
100
AcDbEntity
  8
0
100
AcDbLine
 10
57.0
 20
119.0
 30
0.0
 11
57.0
 21
113.5999999999999
 31
0.0
  0
LINE
  5
175
330
1E
100
AcDbEntity
  8
0
100
AcDbLine
 10
57.0
 20
119.0
 30
0.0
 11
57.0
 21
114.0
 31
0.0
  0
LINE
  5
176
330
1E
100
AcDbEntity
  8
0
100
AcDbLine
 10
57.0
 20
119.0
 30
0.0
 11
57.0
 21
124.0
 31
0.0
  0
LINE
  5
177
330
1E
100
AcDbEntity
  8
0
100
AcDbLine
 10
243.0
 20
124.0
 30
0.0
 11
243.0
 21
128.6999999999999
 31
0.0
  0
LINE
  5
178
330
1E
100
AcDbEntity
  8
0
100
AcDbLine
 10
57.0
 20
124.0
 30
0.0
 11
57.0
 21
119.0
 31
0.0
  0
LINE
  5
179
330
1E
100
AcDbEntity
  8
0
100
AcDbLine
 10
57.0
 20
124.0
 30
0.0
 11
57.0
 21
128.6999999999999
 31
0.0
  0
LINE
  5
17A
330
1E
100
AcDbEntity
  8
0
100
AcDbLine
 10
52.0
 20
124.1999999999999
 30
0.0
 11
52.0
 21
129.0
 31
0.0
  0
LINE
  5
17B
330
1E
100
AcDbEntity
  8
0
100
AcDbLine
 10
52.0
 20
124.1999999999999
 30
0.0
 11
52.0
 21
119.0
 31
0.0
  0
LINE
  5
17C
330
1E
100
AcDbEntity
  8
0
100
AcDbLine
 10
52.0
 20
119.0
 30
0.0
 11
52.0
 21
124.1999999999999
 31
0.0
  0
LINE
  5
17D
330
1E
100
AcDbEntity
  8
0
100
AcDbLine
 10
52.0
 20
119.0
 30
0.0
 11
52.0
 21
113.5999999999999
 31
0.0
  0
LINE
  5
17E
330
1E
100
AcDbEntity
  8
0
100
AcDbLine
 10
52.0
 20
119.0
 30
0.0
 11
52.0
 21
113.7999999999999
 31
0.0
  0
LINE
  5
17F
330
1E
100
AcDbEntity
  8
0
100
AcDbLine
 10
52.0
 20
119.0
 30
0.0
 11
52.0
 21
124.3999999999999
 31
0.0
  0
LINE
  5
180
330
1E
100
AcDbEntity
  8
0
100
AcDbLine
 10
28.0
 20
119.0
 30
0.0
 11
28.0
 21
116.7
 31
0.0
  0
LINE
  5
181
330
1E
100
AcDbEntity
  8
0
100
AcDbLine
 10
28.0
 20
119.0
 30
0.0
 11
28.0
 21
121.3
 31
0.0
  0
LINE
  5
182
330
1E
100
AcDbEntity
  8
0
100
AcDbLine
 10
52.0
 20
113.7999999999999
 30
0.0
 11
52.0
 21
119.0
 31
0.0
  0
LINE
  5
183
330
1E
100
AcDbEntity
  8
0
100
AcDbLine
 10
52.0
 20
113.7999999999999
 30
0.0
 11
52.0
 21
109.0
 31
0.0
  0
LINE
  5
184
330
1E
100
AcDbEntity
  8
0
100
AcDbLine
 10
25.0
 20
116.7
 30
0.0
 11
25.0
 21
119.0
 31
0.0
  0
LINE
  5
185
330
1E
100
AcDbEntity
  8
0
100
AcDbLine
 10
25.0
 20
116.7
 30
0.0
 11
25.0
 21
114.5
 31
0.0
  0
LINE
  5
186
330
1E
100
AcDbEntity
  8
0
100
AcDbLine
 10
243.0
 20
113.6239999999999
 30
0.0
 11
243.0
 21
108.584
 31
0.0
  0
LINE
  5
187
330
1E
100
AcDbEntity
  8
0
100
AcDbLine
 10
243.0
 20
119.0
 30
0.0
 11
243.0
 21
113.6239999999999
 31
0.0
  0
LINE
  5
188
330
1E
100
AcDbEntity
  8
0
100
AcDbLine
 10
243.0
 20
119.0
 30
0.0
 11
243.0
 21
124.0
 31
0.0
  0
LINE
  5
189
330
1E
100
AcDbEntity
  8
0
100
AcDbLine
 10
4.0
 20
124.5
 30
0.0
 11
4.0
 21
121.7999999999999
 31
0.0
  0
LINE
  5
18A
330
1E
100
AcDbEntity
  8
0
100
AcDbLine
 10
4.0
 20
124.5
 30
0.0
 11
4.0
 21
126.8
 31
0.0
  0
LINE
  5
18B
330
1E
100
AcDbEntity
  8
0
100
AcDbLine
 10
1.5
 20
126.2
 30
0.0
 11
4.0
 21
130.0
 31
0.0
  0
LINE
  5
18C
330
1E
100
AcDbEntity
  8
0
100
AcDbLine
 10
1.5
 20
126.2
 30
0.0
 11
4.0
 21
130.0
 31
0.0
  0
LINE
  5
18D
330
1E
100
AcDbEntity
  8
0
100
AcDbLine
 10
4.0
 20
126.8
 30
0.0
 11
4.0
 21
124.5
 31
0.0
  0
LINE
  5
18E
330
1E
100
AcDbEntity
  8
0
100
AcDbLine
 10
4.0
 20
126.8
 30
0.0
 11
4.0
 21
128.4999999999999
 31
0.0
  0
LINE
  5
193
330
1E
100
AcDbEntity
  8
0
100
AcDbLine
 10
6.0
 20
126.8
 30
0.0
 11
6.0
 21
124.5
 31
0.0
  0
LINE
  5
194
330
1E
100
AcDbEntity
  8
0
100
AcDbLine
 10
6.0
 20
126.8
 30
0.0
 11
6.0
 21
128.4999999999999
 31
0.0
  0
LINE
  5
195
330
1E
100
AcDbEntity
  8
0
100
AcDbLine
 10
17.8
 20
125.5
 30
0.0
 11
19.3
 21
124.3
 31
0.0
  0
LINE
  5
196
330
1E
100
AcDbEntity
  8
0
100
AcDbLine
 10
16.0
 20
126.2
 30
0.0
 11
17.8
 21
125.5
 31
0.0
  0
LINE
  5
197
330
1E
100
AcDbEntity
  8
0
100
AcDbLine
 10
10.2
 20
125.5
 30
0.0
 11
12.0
 21
126.2
 31
0.0
  0
LINE
  5
198
330
1E
100
AcDbEntity
  8
0
100
AcDbLine
 10
14.0
 20
126.5
 30
0.0
 11
16.0
 21
126.2
 31
0.0
  0
LINE
  5
199
330
1E
100
AcDbEntity
  8
0
100
AcDbLine
 10
12.0
 20
126.2
 30
0.0
 11
14.0
 21
126.5
 31
0.0
  0
LINE
  5
19A
330
1E
100
AcDbEntity
  8
0
100
AcDbLine
 10
6.0
 20
124.5
 30
0.0
 11
6.0
 21
121.7999999999999
 31
0.0
  0
LINE
  5
19B
330
1E
100
AcDbEntity
  8
0
100
AcDbLine
 10
6.0
 20
124.5
 30
0.0
 11
6.0
 21
126.8
 31
0.0
  0
LINE
  5
19C
330
1E
100
AcDbEntity
  8
0
100
AcDbLine
 10
4.0
 20
128.4999999999999
 30
0.0
 11
4.0
 21
126.8
 31
0.0
  0
LINE
  5
19D
330
1E
100
AcDbEntity
  8
0
100
AcDbLine
 10
4.0
 20
128.4999999999999
 30
0.0
 11
4.0
 21
129.6
 31
0.0
  0
LINE
  5
1A2
330
1E
100
AcDbEntity
  8
0
100
AcDbLine
 10
4.0
 20
130.0
 30
0.0
 11
4.0
 21
129.6
 31
0.0
  0
LINE
  5
1A3
330
1E
100
AcDbEntity
  8
0
100
AcDbLine
 10
4.0
 20
130.0
 30
0.0
 11
4.5
 21
130.4999999999999
 31
0.0
  0
LINE
  5
1A4
330
1E
100
AcDbEntity
  8
0
100
AcDbLine
 10
4.0
 20
129.6
 30
0.0
 11
4.0
 21
128.4999999999999
 31
0.0
  0
LINE
  5
1A5
330
1E
100
AcDbEntity
  8
0
100
AcDbLine
 10
4.0
 20
129.6
 30
0.0
 11
4.0
 21
130.0
 31
0.0
  0
LINE
  5
1AB
330
1E
100
AcDbEntity
  8
0
100
AcDbLine
 10
4.5
 20
130.4999999999999
 30
0.0
 11
5.5
 21
130.4999999999999
 31
0.0
  0
LINE
  5
1AF
330
1E
100
AcDbEntity
  8
0
100
AcDbLine
 10
5.5
 20
130.4999999999999
 30
0.0
 11
6.0
 21
130.0
 31
0.0
  0
LINE
  5
1B2
330
1E
100
AcDbEntity
  8
0
100
AcDbLine
 10
6.0
 20
130.0
 30
0.0
 11
6.0
 21
129.6
 31
0.0
  0
LINE
  5
1B3
330
1E
100
AcDbEntity
  8
0
100
AcDbLine
 10
6.0
 20
130.0
 30
0.0
 11
9.0
 21
131.0
 31
0.0
  0
LINE
  5
1B4
330
1E
100
AcDbEntity
  8
0
100
AcDbLine
 10
6.0
 20
129.6
 30
0.0
 11
6.0
 21
128.4999999999999
 31
0.0
  0
LINE
  5
1B5
330
1E
100
AcDbEntity
  8
0
100
AcDbLine
 10
6.0
 20
129.6
 30
0.0
 11
6.0
 21
130.0
 31
0.0
  0
LINE
  5
1B6
330
1E
100
AcDbEntity
  8
0
100
AcDbLine
 10
6.0
 20
128.4999999999999
 30
0.0
 11
6.0
 21
126.8
 31
0.0
  0
LINE
  5
1B7
330
1E
100
AcDbEntity
  8
0
100
AcDbLine
 10
6.0
 20
128.4999999999999
 30
0.0
 11
6.0
 21
129.6
 31
0.0
  0
LINE
  5
1B8
330
1E
100
AcDbEntity
  8
0
100
AcDbLine
 10
9.0
 20
131.0
 30
0.0
 11
9.166007905138339
 21
131.0276679841899
 31
0.0
  0
LINE
  5
1B9
330
1E
100
AcDbEntity
  8
0
100
AcDbLine
 10
18.8823529411765
 20
131.019607843137
 30
0.0
 11
19.0
 21
131.0
 31
0.0
  0
LINE
  5
1BA
330
1E
100
AcDbEntity
  8
0
100
AcDbLine
 10
18.8823529411765
 20
131.019607843137
 30
0.0
 11
20.0
 21
134.0
 31
0.0
  0
LINE
  5
1BB
330
1E
100
AcDbEntity
  8
0
100
AcDbLine
 10
19.0
 20
131.0
 30
0.0
 11
22.0
 21
130.0
 31
0.0
  0
LINE
  5
1BC
330
1E
100
AcDbEntity
  8
0
100
AcDbLine
 10
25.0
 20
128.0
 30
0.0
 11
25.0
 21
127.7
 31
0.0
  0
LINE
  5
1BD
330
1E
100
AcDbEntity
  8
0
100
AcDbLine
 10
25.0
 20
128.0
 30
0.0
 11
26.0
 21
129.0
 31
0.0
  0
LINE
  5
1BE
330
1E
100
AcDbEntity
  8
0
100
AcDbLine
 10
25.0
 20
127.7
 30
0.0
 11
25.0
 21
128.0
 31
0.0
  0
LINE
  5
1BF
330
1E
100
AcDbEntity
  8
0
100
AcDbLine
 10
25.0
 20
127.7
 30
0.0
 11
25.0
 21
126.8
 31
0.0
  0
LINE
  5
1C0
330
1E
100
AcDbEntity
  8
0
100
AcDbLine
 10
22.0
 20
130.0
 30
0.0
 11
25.0
 21
128.0
 31
0.0
  0
LINE
  5
1C1
330
1E
100
AcDbEntity
  8
0
100
AcDbLine
 10
25.0
 20
126.8
 30
0.0
 11
25.0
 21
127.7
 31
0.0
  0
LINE
  5
1C2
330
1E
100
AcDbEntity
  8
0
100
AcDbLine
 10
25.0
 20
126.8
 30
0.0
 11
25.0
 21
125.4
 31
0.0
  0
LINE
  5
1CB
330
1E
100
AcDbEntity
  8
0
100
AcDbLine
 10
28.0
 20
127.7
 30
0.0
 11
28.0
 21
126.8
 31
0.0
  0
LINE
  5
1CC
330
1E
100
AcDbEntity
  8
0
100
AcDbLine
 10
28.0
 20
127.7
 30
0.0
 11
28.0
 21
128.0
 31
0.0
  0
LINE
  5
1CD
330
1E
100
AcDbEntity
  8
0
100
AcDbLine
 10
28.0
 20
126.8
 30
0.0
 11
28.0
 21
125.4
 31
0.0
  0
LINE
  5
1CE
330
1E
100
AcDbEntity
  8
0
100
AcDbLine
 10
28.0
 20
126.8
 30
0.0
 11
28.0
 21
127.7
 31
0.0
  0
LINE
  5
1CF
330
1E
100
AcDbEntity
  8
0
100
AcDbLine
 10
28.0
 20
125.4
 30
0.0
 11
28.0
 21
123.5
 31
0.0
  0
LINE
  5
1D0
330
1E
100
AcDbEntity
  8
0
100
AcDbLine
 10
28.0
 20
125.4
 30
0.0
 11
28.0
 21
126.8
 31
0.0
  0
LINE
  5
1D2
330
1E
100
AcDbEntity
  8
0
100
AcDbLine
 10
26.0
 20
129.0
 30
0.0
 11
27.0
 21
129.0
 31
0.0
  0
LINE
  5
1D6
330
1E
100
AcDbEntity
  8
0
100
AcDbLine
 10
27.0
 20
129.0
 30
0.0
 11
28.0
 21
128.0
 31
0.0
  0
LINE
  5
1D9
330
1E
100
AcDbEntity
  8
0
100
AcDbLine
 10
28.0
 20
128.0
 30
0.0
 11
30.71699999999999
 21
131.0
 31
0.0
  0
LINE
  5
1DA
330
1E
100
AcDbEntity
  8
0
100
AcDbLine
 10
28.0
 20
128.0
 30
0.0
 11
28.0
 21
127.7
 31
0.0
  0
LINE
  5
1DB
330
1E
100
AcDbEntity
  8
0
100
AcDbLine
 10
52.0
 20
124.3999999999999
 30
0.0
 11
52.0
 21
119.0
 31
0.0
  0
LINE
  5
1DC
330
1E
100
AcDbEntity
  8
0
100
AcDbLine
 10
52.0
 20
124.3999999999999
 30
0.0
 11
52.0
 21
129.4999999999999
 31
0.0
  0
LINE
  5
1DF
330
1E
100
AcDbEntity
  8
0
100
AcDbLine
 10
56.0
 20
124.3999999999999
 30
0.0
 11
56.0
 21
129.4999999999999
 31
0.0
  0
LINE
  5
1E2
330
1E
100
AcDbEntity
  8
0
100
AcDbLine
 10
57.0
 20
128.6999999999999
 30
0.0
 11
57.0
 21
124.0
 31
0.0
  0
LINE
  5
1E3
330
1E
100
AcDbEntity
  8
0
100
AcDbLine
 10
57.0
 20
128.6999999999999
 30
0.0
 11
57.0
 21
132.8
 31
0.0
  0
LINE
  5
1E4
330
1E
100
AcDbEntity
  8
0
100
AcDbLine
 10
241.0
 20
124.3999999999999
 30
0.0
 11
241.0
 21
129.4999999999999
 31
0.0
  0
LINE
  5
1E5
330
1E
100
AcDbEntity
  8
0
100
AcDbLine
 10
241.0
 20
124.3999999999999
 30
0.0
 11
241.0
 21
119.0
 31
0.0
  0
LINE
  5
1E6
330
1E
100
AcDbEntity
  8
0
100
AcDbLine
 10
243.0
 20
128.6999999999999
 30
0.0
 11
243.0
 21
132.8
 31
0.0
  0
LINE
  5
1E7
330
1E
100
AcDbEntity
  8
0
100
AcDbLine
 10
57.0
 20
124.3999999999999
 30
0.0
 11
57.0
 21
119.0
 31
0.0
  0
LINE
  5
1E8
330
1E
100
AcDbEntity
  8
0
100
AcDbLine
 10
57.0
 20
124.3999999999999
 30
0.0
 11
57.0
 21
129.4999999999999
 31
0.0
  0
LINE
  5
1E9
330
1E
100
AcDbEntity
  8
0
100
AcDbLine
 10
52.0
 20
129.4999999999999
 30
0.0
 11
52.0
 21
124.3999999999999
 31
0.0
  0
LINE
  5
1EA
330
1E
100
AcDbEntity
  8
0
100
AcDbLine
 10
52.0
 20
129.4999999999999
 30
0.0
 11
52.0
 21
133.8
 31
0.0
  0
LINE
  5
1EB
330
1E
100
AcDbEntity
  8
0
100
AcDbLine
 10
56.0
 20
129.4999999999999
 30
0.0
 11
56.0
 21
133.8
 31
0.0
  0
LINE
  5
1EC
330
1E
100
AcDbEntity
  8
0
100
AcDbLine
 10
241.0
 20
129.4999999999999
 30
0.0
 11
241.0
 21
133.8
 31
0.0
  0
LINE
  5
1ED
330
1E
100
AcDbEntity
  8
0
100
AcDbLine
 10
241.0
 20
129.4999999999999
 30
0.0
 11
241.0
 21
124.3999999999999
 31
0.0
  0
LINE
  5
1F2
330
1E
100
AcDbEntity
  8
0
100
AcDbLine
 10
243.0
 20
132.8
 30
0.0
 11
243.0
 21
135.8999999999999
 31
0.0
  0
LINE
  5
1F3
330
1E
100
AcDbEntity
  8
0
100
AcDbLine
 10
57.0
 20
132.8
 30
0.0
 11
57.0
 21
128.6999999999999
 31
0.0
  0
LINE
  5
1F4
330
1E
100
AcDbEntity
  8
0
100
AcDbLine
 10
57.0
 20
132.8
 30
0.0
 11
57.0
 21
135.8999999999999
 31
0.0
  0
LINE
  5
1F5
330
1E
100
AcDbEntity
  8
0
100
AcDbLine
 10
57.0
 20
129.4999999999999
 30
0.0
 11
57.0
 21
124.3999999999999
 31
0.0
  0
LINE
  5
1F6
330
1E
100
AcDbEntity
  8
0
100
AcDbLine
 10
57.0
 20
129.4999999999999
 30
0.0
 11
57.0
 21
133.8
 31
0.0
  0
LINE
  5
1F7
330
1E
100
AcDbEntity
  8
0
100
AcDbLine
 10
52.0
 20
133.0999999999999
 30
0.0
 11
52.0
 21
136.3
 31
0.0
  0
LINE
  5
1F8
330
1E
100
AcDbEntity
  8
0
100
AcDbLine
 10
52.0
 20
133.0999999999999
 30
0.0
 11
52.0
 21
129.0
 31
0.0
  0
LINE
  5
1F9
330
1E
100
AcDbEntity
  8
0
100
AcDbLine
 10
52.0
 20
129.0
 30
0.0
 11
52.0
 21
133.0999999999999
 31
0.0
  0
LINE
  5
1FA
330
1E
100
AcDbEntity
  8
0
100
AcDbLine
 10
52.0
 20
129.0
 30
0.0
 11
52.0
 21
124.1999999999999
 31
0.0
  0
LINE
  5
1FB
330
1E
100
AcDbEntity
  8
0
100
AcDbLine
 10
30.71699999999999
 20
131.0
 30
0.0
 11
35.2453
 21
133.4999999999999
 31
0.0
  0
LINE
  5
1FC
330
1E
100
AcDbEntity
  8
0
100
AcDbLine
 10
52.0
 20
133.8
 30
0.0
 11
52.0
 21
129.4999999999999
 31
0.0
  0
LINE
  5
1FD
330
1E
100
AcDbEntity
  8
0
100
AcDbLine
 10
52.0
 20
133.8
 30
0.0
 11
52.0
 21
137.1999999999999
 31
0.0
  0
LINE
  5
1FE
330
1E
100
AcDbEntity
  8
0
100
AcDbLine
 10
56.0
 20
133.8
 30
0.0
 11
56.0
 21
137.1999999999999
 31
0.0
  0
LINE
  5
1FF
330
1E
100
AcDbEntity
  8
0
100
AcDbLine
 10
241.0
 20
133.8
 30
0.0
 11
241.0
 21
137.1999999999999
 31
0.0
  0
LINE
  5
200
330
1E
100
AcDbEntity
  8
0
100
AcDbLine
 10
241.0
 20
133.8
 30
0.0
 11
241.0
 21
129.4999999999999
 31
0.0
  0
LINE
  5
201
330
1E
100
AcDbEntity
  8
0
100
AcDbLine
 10
57.0
 20
133.8
 30
0.0
 11
57.0
 21
129.4999999999999
 31
0.0
  0
LINE
  5
202
330
1E
100
AcDbEntity
  8
0
100
AcDbLine
 10
57.0
 20
133.8
 30
0.0
 11
57.0
 21
137.1999999999999
 31
0.0
  0
LINE
  5
203
330
1E
100
AcDbEntity
  8
0
100
AcDbLine
 10
35.2453
 20
133.4999999999999
 30
0.0
 11
40.67919999999999
 21
136.0
 31
0.0
  0
LINE
  5
204
330
1E
100
AcDbEntity
  8
0
100
AcDbLine
 10
25.0
 20
125.4
 30
0.0
 11
25.0
 21
126.8
 31
0.0
  0
LINE
  5
205
330
1E
100
AcDbEntity
  8
0
100
AcDbLine
 10
25.0
 20
125.4
 30
0.0
 11
25.0
 21
123.5
 31
0.0
  0
LINE
  5
20A
330
1E
100
AcDbEntity
  8
0
100
AcDbLine
 10
243.0
 20
135.8999999999999
 30
0.0
 11
243.0
 21
137.8
 31
0.0
  0
LINE
  5
20B
330
1E
100
AcDbEntity
  8
0
100
AcDbLine
 10
57.0
 20
135.8999999999999
 30
0.0
 11
57.0
 21
132.8
 31
0.0
  0
LINE
  5
20C
330
1E
100
AcDbEntity
  8
0
100
AcDbLine
 10
57.0
 20
135.8999999999999
 30
0.0
 11
57.0
 21
137.8
 31
0.0
  0
LINE
  5
20D
330
1E
100
AcDbEntity
  8
0
100
AcDbLine
 10
52.0
 20
137.1999999999999
 30
0.0
 11
52.0
 21
133.8
 31
0.0
  0
LINE
  5
20E
330
1E
100
AcDbEntity
  8
0
100
AcDbLine
 10
52.0
 20
137.1999999999999
 30
0.0
 11
52.0
 21
139.1999999999999
 31
0.0
  0
LINE
  5
20F
330
1E
100
AcDbEntity
  8
0
100
AcDbLine
 10
56.0
 20
137.1999999999999
 30
0.0
 11
56.0
 21
139.1999999999999
 31
0.0
  0
LINE
  5
210
330
1E
100
AcDbEntity
  8
0
100
AcDbLine
 10
57.0
 20
137.8
 30
0.0
 11
57.0
 21
135.8999999999999
 31
0.0
  0
LINE
  5
211
330
1E
100
AcDbEntity
  8
0
100
AcDbLine
 10
57.0
 20
137.8
 30
0.0
 11
57.0
 21
138.5
 31
0.0
  0
LINE
  5
212
330
1E
100
AcDbEntity
  8
0
100
AcDbLine
 10
241.0
 20
137.1999999999999
 30
0.0
 11
241.0
 21
139.1999999999999
 31
0.0
  0
LINE
  5
213
330
1E
100
AcDbEntity
  8
0
100
AcDbLine
 10
241.0
 20
137.1999999999999
 30
0.0
 11
241.0
 21
133.8
 31
0.0
  0
LINE
  5
214
330
1E
100
AcDbEntity
  8
0
100
AcDbLine
 10
243.0
 20
137.8
 30
0.0
 11
243.0
 21
138.5
 31
0.0
  0
LINE
  5
215
330
1E
100
AcDbEntity
  8
0
100
AcDbLine
 10
57.0
 20
137.1999999999999
 30
0.0
 11
57.0
 21
133.8
 31
0.0
  0
LINE
  5
216
330
1E
100
AcDbEntity
  8
0
100
AcDbLine
 10
57.0
 20
137.1999999999999
 30
0.0
 11
57.0
 21
139.1999999999999
 31
0.0
  0
LINE
  5
217
330
1E
100
AcDbEntity
  8
0
100
AcDbLine
 10
52.0
 20
136.3
 30
0.0
 11
52.0
 21
138.3
 31
0.0
  0
LINE
  5
218
330
1E
100
AcDbEntity
  8
0
100
AcDbLine
 10
52.0
 20
136.3
 30
0.0
 11
52.0
 21
133.0999999999999
 31
0.0
  0
LINE
  5
219
330
1E
100
AcDbEntity
  8
0
100
AcDbLine
 10
40.67919999999999
 20
136.0
 30
0.0
 11
46.566
 21
138.0
 31
0.0
  0
LINE
  5
21A
330
1E
100
AcDbEntity
  8
0
100
AcDbLine
 10
46.566
 20
138.0
 30
0.0
 11
52.0
 21
139.0
 31
0.0
  0
LINE
  5
21B
330
1E
100
AcDbEntity
  8
0
100
AcDbLine
 10
20.0
 20
134.0
 30
0.0
 11
21.0
 21
138.0
 31
0.0
  0
LINE
  5
21C
330
1E
100
AcDbEntity
  8
0
100
AcDbLine
 10
21.0
 20
138.0
 30
0.0
 11
21.2
 21
141.0
 31
0.0
  0
LINE
  5
21D
330
1E
100
AcDbEntity
  8
0
100
AcDbLine
 10
8.0
 20
134.0
 30
0.0
 11
9.117647058823528
 21
131.019607843137
 31
0.0
  0
LINE
  5
21E
330
1E
100
AcDbEntity
  8
0
100
AcDbLine
 10
52.0
 20
140.0
 30
0.0
 11
53.14289999999999
 21
141.0
 31
0.0
  0
LINE
  5
21F
330
1E
100
AcDbEntity
  8
0
100
AcDbLine
 10
52.0
 20
140.0
 30
0.0
 11
52.0
 21
139.1999999999999
 31
0.0
  0
LINE
  5
220
330
1E
100
AcDbEntity
  8
0
100
AcDbLine
 10
52.0
 20
139.1999999999999
 30
0.0
 11
52.0
 21
140.0
 31
0.0
  0
LINE
  5
221
330
1E
100
AcDbEntity
  8
0
100
AcDbLine
 10
52.0
 20
139.1999999999999
 30
0.0
 11
52.0
 21
139.0
 31
0.0
  0
LINE
  5
222
330
1E
100
AcDbEntity
  8
0
100
AcDbLine
 10
52.0
 20
139.1999999999999
 30
0.0
 11
52.0
 21
137.1999999999999
 31
0.0
  0
LINE
  5
223
330
1E
100
AcDbEntity
  8
0
100
AcDbLine
 10
52.0
 20
139.0
 30
0.0
 11
52.0
 21
139.1999999999999
 31
0.0
  0
LINE
  5
224
330
1E
100
AcDbEntity
  8
0
100
AcDbLine
 10
52.0
 20
139.0
 30
0.0
 11
52.0
 21
138.3
 31
0.0
  0
LINE
  5
229
330
1E
100
AcDbEntity
  8
0
100
AcDbLine
 10
56.0
 20
138.5
 30
0.0
 11
57.0
 21
138.5
 31
0.0
  0
LINE
  5
22A
330
1E
100
AcDbEntity
  8
0
100
AcDbLine
 10
56.0
 20
139.1999999999999
 30
0.0
 11
56.0
 21
140.0
 31
0.0
  0
LINE
  5
22B
330
1E
100
AcDbEntity
  8
0
100
AcDbLine
 10
57.0
 20
140.0
 30
0.0
 11
57.0
 21
139.1999999999999
 31
0.0
  0
LINE
  5
22C
330
1E
100
AcDbEntity
  8
0
100
AcDbLine
 10
57.0
 20
138.5
 30
0.0
 11
57.0
 21
139.1999999999999
 31
0.0
  0
LINE
  5
22D
330
1E
100
AcDbEntity
  8
0
100
AcDbLine
 10
57.0
 20
138.5
 30
0.0
 11
57.0
 21
137.8
 31
0.0
  0
LINE
  5
22E
330
1E
100
AcDbEntity
  8
0
100
AcDbLine
 10
57.0
 20
138.5
 30
0.0
 11
57.0
 21
156.0
 31
0.0
  0
LINE
  5
22F
330
1E
100
AcDbEntity
  8
0
100
AcDbLine
 10
207.0
 20
140.0
 30
0.0
 11
207.0
 21
156.0
 31
0.0
  0
LINE
  5
230
330
1E
100
AcDbEntity
  8
0
100
AcDbLine
 10
241.0
 20
140.0
 30
0.0
 11
241.0
 21
139.1999999999999
 31
0.0
  0
LINE
  5
231
330
1E
100
AcDbEntity
  8
0
100
AcDbLine
 10
241.0
 20
140.0
 30
0.0
 11
241.0
 21
156.0
 31
0.0
  0
LINE
  5
232
330
1E
100
AcDbEntity
  8
0
100
AcDbLine
 10
149.0
 20
140.0
 30
0.0
 11
241.0
 21
140.0
 31
0.0
  0
LINE
  5
233
330
1E
100
AcDbEntity
  8
0
100
AcDbLine
 10
241.0
 20
139.1999999999999
 30
0.0
 11
241.0
 21
140.0
 31
0.0
  0
LINE
  5
234
330
1E
100
AcDbEntity
  8
0
100
AcDbLine
 10
241.0
 20
139.1999999999999
 30
0.0
 11
241.0
 21
137.1999999999999
 31
0.0
  0
LINE
  5
235
330
1E
100
AcDbEntity
  8
0
100
AcDbLine
 10
241.0
 20
138.5
 30
0.0
 11
243.0
 21
138.5
 31
0.0
  0
LINE
  5
236
330
1E
100
AcDbEntity
  8
0
100
AcDbLine
 10
57.0
 20
139.1999999999999
 30
0.0
 11
57.0
 21
140.0
 31
0.0
  0
LINE
  5
237
330
1E
100
AcDbEntity
  8
0
100
AcDbLine
 10
57.0
 20
139.1999999999999
 30
0.0
 11
57.0
 21
138.5
 31
0.0
  0
LINE
  5
238
330
1E
100
AcDbEntity
  8
0
100
AcDbLine
 10
57.0
 20
139.1999999999999
 30
0.0
 11
57.0
 21
137.1999999999999
 31
0.0
  0
LINE
  5
239
330
1E
100
AcDbEntity
  8
0
100
AcDbLine
 10
57.0
 20
140.0
 30
0.0
 11
149.0
 21
140.0
 31
0.0
  0
LINE
  5
23A
330
1E
100
AcDbEntity
  8
0
100
AcDbLine
 10
91.0
 20
140.0
 30
0.0
 11
91.0
 21
156.0
 31
0.0
  0
LINE
  5
23B
330
1E
100
AcDbEntity
  8
0
100
AcDbLine
 10
52.0
 20
138.3
 30
0.0
 11
52.0
 21
139.0
 31
0.0
  0
LINE
  5
23C
330
1E
100
AcDbEntity
  8
0
100
AcDbLine
 10
52.0
 20
138.3
 30
0.0
 11
52.0
 21
136.3
 31
0.0
  0
LINE
  5
23D
330
1E
100
AcDbEntity
  8
0
100
AcDbLine
 10
7.0
 20
138.0
 30
0.0
 11
8.0
 21
134.0
 31
0.0
  0
LINE
  5
23E
330
1E
100
AcDbEntity
  8
0
100
AcDbLine
 10
243.0
 20
137.2279999999999
 30
0.0
 11
243.0
 21
133.8679999999999
 31
0.0
  0
LINE
  5
23F
330
1E
100
AcDbEntity
  8
0
100
AcDbLine
 10
243.0
 20
133.8679999999999
 30
0.0
 11
243.0
 21
129.4159999999999
 31
0.0
  0
LINE
  5
240
330
1E
100
AcDbEntity
  8
0
100
AcDbLine
 10
243.0
 20
129.4159999999999
 30
0.0
 11
243.0
 21
124.3759999999999
 31
0.0
  0
LINE
  5
241
330
1E
100
AcDbEntity
  8
0
100
AcDbLine
 10
243.0
 20
124.3759999999999
 30
0.0
 11
243.0
 21
119.0
 31
0.0
  0
LINE
  5
242
330
1E
100
AcDbEntity
  8
0
100
AcDbLine
 10
243.0
 20
139.244
 30
0.0
 11
243.0
 21
140.0
 31
0.0
  0
LINE
  5
243
330
1E
100
AcDbEntity
  8
0
100
AcDbLine
 10
243.0
 20
139.244
 30
0.0
 11
243.0
 21
137.2279999999999
 31
0.0
  0
LINE
  5
244
330
1E
100
AcDbEntity
  8
0
100
AcDbLine
 10
6.799999999999999
 20
141.0
 30
0.0
 11
7.0
 21
138.0
 31
0.0
  0
LINE
  5
245
330
1E
100
AcDbEntity
  8
0
100
AcDbLine
 10
6.5
 20
145.0
 30
0.0
 11
7.0
 21
148.5
 31
0.0
  0
LINE
  5
246
330
1E
100
AcDbEntity
  8
0
100
AcDbLine
 10
6.5
 20
145.0
 30
0.0
 11
6.799999999999999
 21
141.0
 31
0.0
  0
LINE
  5
247
330
1E
100
AcDbEntity
  8
0
100
AcDbLine
 10
7.0
 20
148.5
 30
0.0
 11
8.0
 21
151.0
 31
0.0
  0
LINE
  5
248
330
1E
100
AcDbEntity
  8
0
100
AcDbLine
 10
8.0
 20
151.0
 30
0.0
 11
9.5
 21
153.0
 31
0.0
  0
LINE
  5
249
330
1E
100
AcDbEntity
  8
0
100
AcDbLine
 10
9.5
 20
153.0
 30
0.0
 11
11.5
 21
154.4999999999999
 31
0.0
  0
LINE
  5
24A
330
1E
100
AcDbEntity
  8
0
100
AcDbLine
 10
21.2
 20
141.0
 30
0.0
 11
21.49999999999999
 21
145.0
 31
0.0
  0
LINE
  5
24B
330
1E
100
AcDbEntity
  8
0
100
AcDbLine
 10
21.0
 20
148.5
 30
0.0
 11
21.49999999999999
 21
145.0
 31
0.0
  0
LINE
  5
24C
330
1E
100
AcDbEntity
  8
0
100
AcDbLine
 10
20.0
 20
151.0
 30
0.0
 11
21.0
 21
148.5
 31
0.0
  0
LINE
  5
24D
330
1E
100
AcDbEntity
  8
0
100
AcDbLine
 10
18.5
 20
153.0
 30
0.0
 11
20.0
 21
151.0
 31
0.0
  0
LINE
  5
24E
330
1E
100
AcDbEntity
  8
0
100
AcDbLine
 10
16.5
 20
154.4999999999999
 30
0.0
 11
18.5
 21
153.0
 31
0.0
  0
LINE
  5
24F
330
1E
100
AcDbEntity
  8
0
100
AcDbLine
 10
14.0
 20
155.0
 30
0.0
 11
16.5
 21
154.4999999999999
 31
0.0
  0
LINE
  5
250
330
1E
100
AcDbEntity
  8
0
100
AcDbLine
 10
11.5
 20
154.4999999999999
 30
0.0
 11
14.0
 21
155.0
 31
0.0
  0
LINE
  5
251
330
1E
100
AcDbEntity
  8
0
100
AcDbLine
 10
40.0
 20
200.0
 30
0.0
 11
40.0
 21
176.0
 31
0.0
  0
LINE
  5
252
330
1E
100
AcDbEntity
  8
0
100
AcDbLine
 10
40.0
 20
200.0
 30
0.0
 11
41.2
 21
200.0
 31
0.0
  0
LINE
  5
257
330
1E
100
AcDbEntity
  8
0
100
AcDbLine
 10
53.14289999999999
 20
141.0
 30
0.0
 11
54.8571
 21
141.0
 31
0.0
  0
LINE
  5
259
330
1E
100
AcDbEntity
  8
0
100
AcDbLine
 10
54.8571
 20
141.0
 30
0.0
 11
56.0
 21
140.0
 31
0.0
  0
LINE
  5
25B
330
1E
100
AcDbEntity
  8
0
100
AcDbLine
 10
61.8571
 20
156.0
 30
0.0
 11
61.8571
 21
160.0
 31
0.0
  0
LINE
  5
25C
330
1E
100
AcDbEntity
  8
0
100
AcDbLine
 10
61.99989999999999
 20
156.0
 30
0.0
 11
65.54999999999999
 21
156.0
 31
0.0
  0
LINE
  5
25D
330
1E
100
AcDbEntity
  8
0
100
AcDbLine
 10
65.54999999999999
 20
156.0
 30
0.0
 11
69.59999999999999
 21
156.0
 31
0.0
  0
LINE
  5
25E
330
1E
100
AcDbEntity
  8
0
100
AcDbLine
 10
62.0001
 20
156.0
 30
0.0
 11
65.54999999999999
 21
156.0
 31
0.0
  0
LINE
  5
25F
330
1E
100
AcDbEntity
  8
0
100
AcDbLine
 10
59.29999999999999
 20
156.0
 30
0.0
 11
62.0001
 21
156.0
 31
0.0
  0
LINE
  5
260
330
1E
100
AcDbEntity
  8
0
100
AcDbLine
 10
59.29999999999999
 20
156.0
 30
0.0
 11
61.99989999999999
 21
156.0
 31
0.0
  0
LINE
  5
261
330
1E
100
AcDbEntity
  8
0
100
AcDbLine
 10
57.6
 20
156.0
 30
0.0
 11
59.29999999999999
 21
156.0
 31
0.0
  0
LINE
  5
262
330
1E
100
AcDbEntity
  8
0
100
AcDbLine
 10
58.2143
 20
170.0
 30
0.0
 11
58.2143
 21
167.0
 31
0.0
  0
LINE
  5
263
330
1E
100
AcDbEntity
  8
0
100
AcDbLine
 10
58.2143
 20
170.0
 30
0.0
 11
58.2143
 21
172.0
 31
0.0
  0
LINE
  5
264
330
1E
100
AcDbEntity
  8
0
100
AcDbLine
 10
58.2143
 20
172.0
 30
0.0
 11
58.82139999999999
 21
172.0
 31
0.0
  0
LINE
  5
265
330
1E
100
AcDbEntity
  8
0
100
AcDbLine
 10
58.2143
 20
172.0
 30
0.0
 11
60.64289999999999
 21
174.0
 31
0.0
  0
LINE
  5
266
330
1E
100
AcDbEntity
  8
0
100
AcDbLine
 10
58.2143
 20
172.0
 30
0.0
 11
58.2143
 21
170.0
 31
0.0
  0
LINE
  5
267
330
1E
100
AcDbEntity
  8
0
100
AcDbLine
 10
58.2143
 20
167.0
 30
0.0
 11
58.2143
 21
164.0
 31
0.0
  0
LINE
  5
268
330
1E
100
AcDbEntity
  8
0
100
AcDbLine
 10
58.2143
 20
167.0
 30
0.0
 11
58.2143
 21
170.0
 31
0.0
  0
LINE
  5
269
330
1E
100
AcDbEntity
  8
0
100
AcDbLine
 10
58.2143
 20
164.0
 30
0.0
 11
58.2143
 21
167.0
 31
0.0
  0
LINE
  5
26A
330
1E
100
AcDbEntity
  8
0
100
AcDbLine
 10
58.2143
 20
164.0
 30
0.0
 11
58.2143
 21
162.0
 31
0.0
  0
LINE
  5
26B
330
1E
100
AcDbEntity
  8
0
100
AcDbLine
 10
61.8571
 20
160.0
 30
0.0
 11
62.2857
 21
160.0
 31
0.0
  0
LINE
  5
26C
330
1E
100
AcDbEntity
  8
0
100
AcDbLine
 10
61.8571
 20
160.0
 30
0.0
 11
61.8571
 21
156.0
 31
0.0
  0
LINE
  5
26D
330
1E
100
AcDbEntity
  8
0
100
AcDbLine
 10
62.2857
 20
160.0
 30
0.0
 11
63.5
 21
160.0
 31
0.0
  0
LINE
  5
26E
330
1E
100
AcDbEntity
  8
0
100
AcDbLine
 10
63.5
 20
160.0
 30
0.0
 11
65.42860000000001
 21
160.0
 31
0.0
  0
LINE
  5
26F
330
1E
100
AcDbEntity
  8
0
100
AcDbLine
 10
65.42860000000001
 20
160.0
 30
0.0
 11
67.96429999999999
 21
160.0
 31
0.0
  0
LINE
  5
270
330
1E
100
AcDbEntity
  8
0
100
AcDbLine
 10
60.64289999999999
 20
174.0
 30
0.0
 11
61.1286
 21
174.0
 31
0.0
  0
LINE
  5
271
330
1E
100
AcDbEntity
  8
0
100
AcDbLine
 10
61.1286
 20
174.0
 30
0.0
 11
62.4643
 21
174.0
 31
0.0
  0
LINE
  5
272
330
1E
100
AcDbEntity
  8
0
100
AcDbLine
 10
62.4643
 20
174.0
 30
0.0
 11
64.5286
 21
174.0
 31
0.0
  0
LINE
  5
273
330
1E
100
AcDbEntity
  8
0
100
AcDbLine
 10
64.5286
 20
174.0
 30
0.0
 11
67.3214
 21
174.0
 31
0.0
  0
LINE
  5
276
330
1E
100
AcDbEntity
  8
0
100
AcDbLine
 10
58.2143
 20
162.0
 30
0.0
 11
61.8571
 21
160.0
 31
0.0
  0
LINE
  5
277
330
1E
100
AcDbEntity
  8
0
100
AcDbLine
 10
58.2143
 20
162.0
 30
0.0
 11
58.2143
 21
164.0
 31
0.0
  0
LINE
  5
278
330
1E
100
AcDbEntity
  8
0
100
AcDbLine
 10
58.2143
 20
162.0
 30
0.0
 11
58.82139999999999
 21
162.0
 31
0.0
  0
LINE
  5
279
330
1E
100
AcDbEntity
  8
0
100
AcDbLine
 10
57.0
 20
156.0
 30
0.0
 11
57.6
 21
156.0
 31
0.0
  0
LINE
  5
27A
330
1E
100
AcDbEntity
  8
0
100
AcDbLine
 10
57.0
 20
156.0
 30
0.0
 11
57.0
 21
138.5
 31
0.0
  0
LINE
  5
27B
330
1E
100
AcDbEntity
  8
0
100
AcDbLine
 10
74.0
 20
156.0
 30
0.0
 11
78.4
 21
156.0
 31
0.0
  0
LINE
  5
27C
330
1E
100
AcDbEntity
  8
0
100
AcDbLine
 10
67.96429999999999
 20
160.0
 30
0.0
 11
70.85720000000001
 21
160.0
 31
0.0
  0
LINE
  5
27D
330
1E
100
AcDbEntity
  8
0
100
AcDbLine
 10
67.3214
 20
174.0
 30
0.0
 11
70.59999999999999
 21
174.0
 31
0.0
  0
LINE
  5
27F
330
1E
100
AcDbEntity
  8
0
100
AcDbLine
 10
70.59999999999999
 20
174.0
 30
0.0
 11
74.0
 21
174.0
 31
0.0
  0
LINE
  5
281
330
1E
100
AcDbEntity
  8
0
100
AcDbLine
 10
74.0
 20
160.0
 30
0.0
 11
77.14279999999999
 21
160.0
 31
0.0
  0
LINE
  5
282
330
1E
100
AcDbEntity
  8
0
100
AcDbLine
 10
70.85720000000001
 20
160.0
 30
0.0
 11
74.0
 21
160.0
 31
0.0
  0
LINE
  5
283
330
1E
100
AcDbEntity
  8
0
100
AcDbLine
 10
69.59999999999999
 20
156.0
 30
0.0
 11
74.0
 21
156.0
 31
0.0
  0
LINE
  5
284
330
1E
100
AcDbEntity
  8
0
100
AcDbLine
 10
78.4
 20
156.0
 30
0.0
 11
82.45
 21
156.0
 31
0.0
  0
LINE
  5
285
330
1E
100
AcDbEntity
  8
0
100
AcDbLine
 10
86.1429
 20
156.0
 30
0.0
 11
86.1429
 21
160.0
 31
0.0
  0
LINE
  5
286
330
1E
100
AcDbEntity
  8
0
100
AcDbLine
 10
86.00010000000001
 20
156.0
 30
0.0
 11
88.7
 21
156.0
 31
0.0
  0
LINE
  5
287
330
1E
100
AcDbEntity
  8
0
100
AcDbLine
 10
82.45
 20
156.0
 30
0.0
 11
85.9999
 21
156.0
 31
0.0
  0
LINE
  5
288
330
1E
100
AcDbEntity
  8
0
100
AcDbLine
 10
82.45
 20
156.0
 30
0.0
 11
86.00010000000001
 21
156.0
 31
0.0
  0
LINE
  5
289
330
1E
100
AcDbEntity
  8
0
100
AcDbLine
 10
85.71429999999999
 20
160.0
 30
0.0
 11
86.1429
 21
160.0
 31
0.0
  0
LINE
  5
28A
330
1E
100
AcDbEntity
  8
0
100
AcDbLine
 10
84.50000000000001
 20
160.0
 30
0.0
 11
85.71429999999999
 21
160.0
 31
0.0
  0
LINE
  5
28B
330
1E
100
AcDbEntity
  8
0
100
AcDbLine
 10
82.57139999999999
 20
160.0
 30
0.0
 11
84.50000000000001
 21
160.0
 31
0.0
  0
LINE
  5
28C
330
1E
100
AcDbEntity
  8
0
100
AcDbLine
 10
80.03570000000001
 20
160.0
 30
0.0
 11
82.57139999999999
 21
160.0
 31
0.0
  0
LINE
  5
28E
330
1E
100
AcDbEntity
  8
0
100
AcDbLine
 10
77.14279999999999
 20
160.0
 30
0.0
 11
80.03570000000001
 21
160.0
 31
0.0
  0
LINE
  5
28F
330
1E
100
AcDbEntity
  8
0
100
AcDbLine
 10
77.40000000000001
 20
174.0
 30
0.0
 11
80.67860000000001
 21
174.0
 31
0.0
  0
LINE
  5
290
330
1E
100
AcDbEntity
  8
0
100
AcDbLine
 10
85.5357
 20
174.0
 30
0.0
 11
86.87139999999999
 21
174.0
 31
0.0
  0
LINE
  5
291
330
1E
100
AcDbEntity
  8
0
100
AcDbLine
 10
83.47140000000001
 20
174.0
 30
0.0
 11
85.5357
 21
174.0
 31
0.0
  0
LINE
  5
292
330
1E
100
AcDbEntity
  8
0
100
AcDbLine
 10
80.67860000000001
 20
174.0
 30
0.0
 11
83.47140000000001
 21
174.0
 31
0.0
  0
LINE
  5
296
330
1E
100
AcDbEntity
  8
0
100
AcDbLine
 10
86.87139999999999
 20
174.0
 30
0.0
 11
87.3571
 21
174.0
 31
0.0
  0
LINE
  5
297
330
1E
100
AcDbEntity
  8
0
100
AcDbLine
 10
86.1429
 20
160.0
 30
0.0
 11
89.78570000000001
 21
162.0
 31
0.0
  0
LINE
  5
298
330
1E
100
AcDbEntity
  8
0
100
AcDbLine
 10
86.1429
 20
160.0
 30
0.0
 11
86.1429
 21
156.0
 31
0.0
  0
LINE
  5
299
330
1E
100
AcDbEntity
  8
0
100
AcDbLine
 10
85.9999
 20
156.0
 30
0.0
 11
88.7
 21
156.0
 31
0.0
  0
LINE
  5
29A
330
1E
100
AcDbEntity
  8
0
100
AcDbLine
 10
74.0
 20
174.0
 30
0.0
 11
82.3
 21
174.0
 31
0.0
  0
LINE
  5
29B
330
1E
100
AcDbEntity
  8
0
100
AcDbLine
 10
74.0
 20
174.0
 30
0.0
 11
77.40000000000001
 21
174.0
 31
0.0
  0
LINE
  5
29C
330
1E
100
AcDbEntity
  8
0
100
AcDbLine
 10
82.3
 20
174.0
 30
0.0
 11
89.9
 21
174.0
 31
0.0
  0
LINE
  5
29D
330
1E
100
AcDbEntity
  8
0
100
AcDbLine
 10
91.0
 20
156.0
 30
0.0
 11
91.0
 21
140.0
 31
0.0
  0
LINE
  5
29E
330
1E
100
AcDbEntity
  8
0
100
AcDbLine
 10
88.7
 20
156.0
 30
0.0
 11
90.4
 21
156.0
 31
0.0
  0
LINE
  5
29F
330
1E
100
AcDbEntity
  8
0
100
AcDbLine
 10
89.78570000000001
 20
162.0
 30
0.0
 11
89.78570000000001
 21
164.0
 31
0.0
  0
LINE
  5
2A0
330
1E
100
AcDbEntity
  8
0
100
AcDbLine
 10
89.78570000000001
 20
172.0
 30
0.0
 11
89.78570000000001
 21
164.0
 31
0.0
  0
LINE
  5
2A1
330
1E
100
AcDbEntity
  8
0
100
AcDbLine
 10
89.78570000000001
 20
164.0
 30
0.0
 11
89.78570000000001
 21
172.0
 31
0.0
  0
LINE
  5
2A2
330
1E
100
AcDbEntity
  8
0
100
AcDbLine
 10
58.82139999999999
 20
172.0
 30
0.0
 11
89.78570000000001
 21
172.0
 31
0.0
  0
LINE
  5
2A3
330
1E
100
AcDbEntity
  8
0
100
AcDbLine
 10
58.82139999999999
 20
162.0
 30
0.0
 11
89.78570000000001
 21
162.0
 31
0.0
  0
LINE
  5
2A4
330
1E
100
AcDbEntity
  8
0
100
AcDbLine
 10
89.78570000000001
 20
164.0
 30
0.0
 11
89.78570000000001
 21
162.0
 31
0.0
  0
LINE
  5
2A5
330
1E
100
AcDbEntity
  8
0
100
AcDbLine
 10
90.4
 20
156.0
 30
0.0
 11
91.0
 21
156.0
 31
0.0
  0
LINE
  5
2A6
330
1E
100
AcDbEntity
  8
0
100
AcDbLine
 10
87.3571
 20
174.0
 30
0.0
 11
89.9
 21
174.0
 31
0.0
  0
LINE
  5
2A7
330
1E
100
AcDbEntity
  8
0
100
AcDbLine
 10
87.3571
 20
174.0
 30
0.0
 11
89.78570000000001
 21
172.0
 31
0.0
  0
LINE
  5
2A8
330
1E
100
AcDbEntity
  8
0
100
AcDbLine
 10
89.9
 20
174.0
 30
0.0
 11
96.6
 21
174.0
 31
0.0
  0
LINE
  5
2A9
330
1E
100
AcDbEntity
  8
0
100
AcDbLine
 10
96.6
 20
174.0
 30
0.0
 11
101.7
 21
174.0
 31
0.0
  0
LINE
  5
2AA
330
1E
100
AcDbEntity
  8
0
100
AcDbLine
 10
101.7
 20
174.0
 30
0.0
 11
104.8
 21
174.0
 31
0.0
  0
LINE
  5
2AB
330
1E
100
AcDbEntity
  8
0
100
AcDbLine
 10
211.857
 20
156.0
 30
0.0
 11
211.857
 21
160.0
 31
0.0
  0
LINE
  5
2AC
330
1E
100
AcDbEntity
  8
0
100
AcDbLine
 10
215.5499999999999
 20
156.0
 30
0.0
 11
219.6
 21
156.0
 31
0.0
  0
LINE
  5
2AD
330
1E
100
AcDbEntity
  8
0
100
AcDbLine
 10
212.0
 20
156.0
 30
0.0
 11
215.5499999999999
 21
156.0
 31
0.0
  0
LINE
  5
2AE
330
1E
100
AcDbEntity
  8
0
100
AcDbLine
 10
209.2999999999999
 20
156.0
 30
0.0
 11
212.0
 21
156.0
 31
0.0
  0
LINE
  5
2AF
330
1E
100
AcDbEntity
  8
0
100
AcDbLine
 10
207.6
 20
156.0
 30
0.0
 11
209.2999999999999
 21
156.0
 31
0.0
  0
LINE
  5
2B0
330
1E
100
AcDbEntity
  8
0
100
AcDbLine
 10
208.214
 20
170.0
 30
0.0
 11
208.214
 21
172.0
 31
0.0
  0
LINE
  5
2B1
330
1E
100
AcDbEntity
  8
0
100
AcDbLine
 10
208.214
 20
170.0
 30
0.0
 11
208.214
 21
167.0
 31
0.0
  0
LINE
  5
2B2
330
1E
100
AcDbEntity
  8
0
100
AcDbLine
 10
208.214
 20
172.0
 30
0.0
 11
210.643
 21
174.0
 31
0.0
  0
LINE
  5
2B3
330
1E
100
AcDbEntity
  8
0
100
AcDbLine
 10
208.214
 20
172.0
 30
0.0
 11
208.214
 21
170.0
 31
0.0
  0
LINE
  5
2B4
330
1E
100
AcDbEntity
  8
0
100
AcDbLine
 10
208.214
 20
172.0
 30
0.0
 11
208.821
 21
172.0
 31
0.0
  0
LINE
  5
2B5
330
1E
100
AcDbEntity
  8
0
100
AcDbLine
 10
208.214
 20
167.0
 30
0.0
 11
208.214
 21
164.0
 31
0.0
  0
LINE
  5
2B6
330
1E
100
AcDbEntity
  8
0
100
AcDbLine
 10
208.214
 20
167.0
 30
0.0
 11
208.214
 21
170.0
 31
0.0
  0
LINE
  5
2B7
330
1E
100
AcDbEntity
  8
0
100
AcDbLine
 10
208.214
 20
164.0
 30
0.0
 11
208.214
 21
162.0
 31
0.0
  0
LINE
  5
2B8
330
1E
100
AcDbEntity
  8
0
100
AcDbLine
 10
208.214
 20
164.0
 30
0.0
 11
208.214
 21
167.0
 31
0.0
  0
LINE
  5
2B9
330
1E
100
AcDbEntity
  8
0
100
AcDbLine
 10
211.857
 20
160.0
 30
0.0
 11
212.2859999999999
 21
160.0
 31
0.0
  0
LINE
  5
2BA
330
1E
100
AcDbEntity
  8
0
100
AcDbLine
 10
211.857
 20
160.0
 30
0.0
 11
211.857
 21
156.0
 31
0.0
  0
LINE
  5
2BB
330
1E
100
AcDbEntity
  8
0
100
AcDbLine
 10
212.2859999999999
 20
160.0
 30
0.0
 11
213.5
 21
160.0
 31
0.0
  0
LINE
  5
2BC
330
1E
100
AcDbEntity
  8
0
100
AcDbLine
 10
213.5
 20
160.0
 30
0.0
 11
215.429
 21
160.0
 31
0.0
  0
LINE
  5
2BD
330
1E
100
AcDbEntity
  8
0
100
AcDbLine
 10
215.429
 20
160.0
 30
0.0
 11
217.964
 21
160.0
 31
0.0
  0
LINE
  5
2BE
330
1E
100
AcDbEntity
  8
0
100
AcDbLine
 10
210.643
 20
174.0
 30
0.0
 11
211.129
 21
174.0
 31
0.0
  0
LINE
  5
2BF
330
1E
100
AcDbEntity
  8
0
100
AcDbLine
 10
211.129
 20
174.0
 30
0.0
 11
212.464
 21
174.0
 31
0.0
  0
LINE
  5
2C0
330
1E
100
AcDbEntity
  8
0
100
AcDbLine
 10
212.464
 20
174.0
 30
0.0
 11
214.529
 21
174.0
 31
0.0
  0
LINE
  5
2C1
330
1E
100
AcDbEntity
  8
0
100
AcDbLine
 10
214.529
 20
174.0
 30
0.0
 11
217.321
 21
174.0
 31
0.0
  0
LINE
  5
2C4
330
1E
100
AcDbEntity
  8
0
100
AcDbLine
 10
208.214
 20
162.0
 30
0.0
 11
211.857
 21
160.0
 31
0.0
  0
LINE
  5
2C5
330
1E
100
AcDbEntity
  8
0
100
AcDbLine
 10
208.214
 20
162.0
 30
0.0
 11
208.821
 21
162.0
 31
0.0
  0
LINE
  5
2C6
330
1E
100
AcDbEntity
  8
0
100
AcDbLine
 10
208.214
 20
162.0
 30
0.0
 11
208.214
 21
164.0
 31
0.0
  0
LINE
  5
2C7
330
1E
100
AcDbEntity
  8
0
100
AcDbLine
 10
207.0
 20
156.0
 30
0.0
 11
207.6
 21
156.0
 31
0.0
  0
LINE
  5
2C8
330
1E
100
AcDbEntity
  8
0
100
AcDbLine
 10
207.0
 20
156.0
 30
0.0
 11
207.0
 21
140.0
 31
0.0
  0
LINE
  5
2C9
330
1E
100
AcDbEntity
  8
0
100
AcDbLine
 10
219.6
 20
156.0
 30
0.0
 11
224.0
 21
156.0
 31
0.0
  0
LINE
  5
2CA
330
1E
100
AcDbEntity
  8
0
100
AcDbLine
 10
217.964
 20
160.0
 30
0.0
 11
220.8569999999999
 21
160.0
 31
0.0
  0
LINE
  5
2CC
330
1E
100
AcDbEntity
  8
0
100
AcDbLine
 10
217.321
 20
174.0
 30
0.0
 11
220.5999999999999
 21
174.0
 31
0.0
  0
LINE
  5
2CD
330
1E
100
AcDbEntity
  8
0
100
AcDbLine
 10
220.5999999999999
 20
174.0
 30
0.0
 11
224.0
 21
174.0
 31
0.0
  0
LINE
  5
2CF
330
1E
100
AcDbEntity
  8
0
100
AcDbLine
 10
220.8569999999999
 20
160.0
 30
0.0
 11
224.0
 21
160.0
 31
0.0
  0
LINE
  5
2D0
330
1E
100
AcDbEntity
  8
0
100
AcDbLine
 10
224.0
 20
160.0
 30
0.0
 11
227.143
 21
160.0
 31
0.0
  0
LINE
  5
2D1
330
1E
100
AcDbEntity
  8
0
100
AcDbLine
 10
224.0
 20
156.0
 30
0.0
 11
228.4
 21
156.0
 31
0.0
  0
LINE
  5
2D2
330
1E
100
AcDbEntity
  8
0
100
AcDbLine
 10
215.7
 20
174.0
 30
0.0
 11
224.0
 21
174.0
 31
0.0
  0
LINE
  5
2D3
330
1E
100
AcDbEntity
  8
0
100
AcDbLine
 10
208.0999999999999
 20
174.0
 30
0.0
 11
210.643
 21
174.0
 31
0.0
  0
LINE
  5
2D4
330
1E
100
AcDbEntity
  8
0
100
AcDbLine
 10
208.0999999999999
 20
174.0
 30
0.0
 11
215.7
 21
174.0
 31
0.0
  0
LINE
  5
2D5
330
1E
100
AcDbEntity
  8
0
100
AcDbLine
 10
201.4
 20
174.0
 30
0.0
 11
208.0999999999999
 21
174.0
 31
0.0
  0
LINE
  5
2D6
330
1E
100
AcDbEntity
  8
0
100
AcDbLine
 10
196.3
 20
174.0
 30
0.0
 11
201.4
 21
174.0
 31
0.0
  0
LINE
  5
2D7
330
1E
100
AcDbEntity
  8
0
100
AcDbLine
 10
193.2
 20
174.0
 30
0.0
 11
196.3
 21
174.0
 31
0.0
  0
LINE
  5
2D8
330
1E
100
AcDbEntity
  8
0
100
AcDbLine
 10
192.0
 20
174.0
 30
0.0
 11
193.2
 21
174.0
 31
0.0
  0
LINE
  5
2D9
330
1E
100
AcDbEntity
  8
0
100
AcDbLine
 10
228.4
 20
156.0
 30
0.0
 11
232.45
 21
156.0
 31
0.0
  0
LINE
  5
2DA
330
1E
100
AcDbEntity
  8
0
100
AcDbLine
 10
236.1429999999999
 20
156.0
 30
0.0
 11
236.1429999999999
 21
160.0
 31
0.0
  0
LINE
  5
2DB
330
1E
100
AcDbEntity
  8
0
100
AcDbLine
 10
232.45
 20
156.0
 30
0.0
 11
236.0
 21
156.0
 31
0.0
  0
LINE
  5
2DC
330
1E
100
AcDbEntity
  8
0
100
AcDbLine
 10
235.714
 20
160.0
 30
0.0
 11
236.1429999999999
 21
160.0
 31
0.0
  0
LINE
  5
2DD
330
1E
100
AcDbEntity
  8
0
100
AcDbLine
 10
234.5
 20
160.0
 30
0.0
 11
235.714
 21
160.0
 31
0.0
  0
LINE
  5
2DE
330
1E
100
AcDbEntity
  8
0
100
AcDbLine
 10
232.5709999999999
 20
160.0
 30
0.0
 11
234.5
 21
160.0
 31
0.0
  0
LINE
  5
2DF
330
1E
100
AcDbEntity
  8
0
100
AcDbLine
 10
230.0359999999999
 20
160.0
 30
0.0
 11
232.5709999999999
 21
160.0
 31
0.0
  0
LINE
  5
2E1
330
1E
100
AcDbEntity
  8
0
100
AcDbLine
 10
227.143
 20
160.0
 30
0.0
 11
230.0359999999999
 21
160.0
 31
0.0
  0
LINE
  5
2E2
330
1E
100
AcDbEntity
  8
0
100
AcDbLine
 10
227.4
 20
174.0
 30
0.0
 11
230.6789999999999
 21
174.0
 31
0.0
  0
LINE
  5
2E3
330
1E
100
AcDbEntity
  8
0
100
AcDbLine
 10
235.5359999999999
 20
174.0
 30
0.0
 11
236.8709999999999
 21
174.0
 31
0.0
  0
LINE
  5
2E4
330
1E
100
AcDbEntity
  8
0
100
AcDbLine
 10
233.4709999999999
 20
174.0
 30
0.0
 11
235.5359999999999
 21
174.0
 31
0.0
  0
LINE
  5
2E5
330
1E
100
AcDbEntity
  8
0
100
AcDbLine
 10
230.6789999999999
 20
174.0
 30
0.0
 11
233.4709999999999
 21
174.0
 31
0.0
  0
LINE
  5
2E9
330
1E
100
AcDbEntity
  8
0
100
AcDbLine
 10
236.8709999999999
 20
174.0
 30
0.0
 11
237.3569999999999
 21
174.0
 31
0.0
  0
LINE
  5
2EA
330
1E
100
AcDbEntity
  8
0
100
AcDbLine
 10
236.1429999999999
 20
160.0
 30
0.0
 11
239.7859999999999
 21
162.0
 31
0.0
  0
LINE
  5
2EB
330
1E
100
AcDbEntity
  8
0
100
AcDbLine
 10
236.1429999999999
 20
160.0
 30
0.0
 11
236.1429999999999
 21
156.0
 31
0.0
  0
LINE
  5
2EC
330
1E
100
AcDbEntity
  8
0
100
AcDbLine
 10
236.0
 20
156.0
 30
0.0
 11
238.7
 21
156.0
 31
0.0
  0
LINE
  5
2ED
330
1E
100
AcDbEntity
  8
0
100
AcDbLine
 10
224.0
 20
174.0
 30
0.0
 11
232.2999999999999
 21
174.0
 31
0.0
  0
LINE
  5
2EE
330
1E
100
AcDbEntity
  8
0
100
AcDbLine
 10
224.0
 20
174.0
 30
0.0
 11
227.4
 21
174.0
 31
0.0
  0
LINE
  5
2EF
330
1E
100
AcDbEntity
  8
0
100
AcDbLine
 10
232.2999999999999
 20
174.0
 30
0.0
 11
239.9
 21
174.0
 31
0.0
  0
LINE
  5
2F0
330
1E
100
AcDbEntity
  8
0
100
AcDbLine
 10
241.0
 20
156.0
 30
0.0
 11
241.0
 21
140.0
 31
0.0
  0
LINE
  5
2F1
330
1E
100
AcDbEntity
  8
0
100
AcDbLine
 10
238.7
 20
156.0
 30
0.0
 11
240.3999999999999
 21
156.0
 31
0.0
  0
LINE
  5
2F2
330
1E
100
AcDbEntity
  8
0
100
AcDbLine
 10
208.821
 20
172.0
 30
0.0
 11
239.7859999999999
 21
172.0
 31
0.0
  0
LINE
  5
2F4
330
1E
100
AcDbEntity
  8
0
100
AcDbLine
 10
239.7859999999999
 20
162.0
 30
0.0
 11
239.7859999999999
 21
172.0
 31
0.0
  0
LINE
  5
2F5
330
1E
100
AcDbEntity
  8
0
100
AcDbLine
 10
239.7859999999999
 20
172.0
 30
0.0
 11
239.7859999999999
 21
162.0
 31
0.0
  0
LINE
  5
2F7
330
1E
100
AcDbEntity
  8
0
100
AcDbLine
 10
208.821
 20
162.0
 30
0.0
 11
239.7859999999999
 21
162.0
 31
0.0
  0
LINE
  5
2F8
330
1E
100
AcDbEntity
  8
0
100
AcDbLine
 10
240.3999999999999
 20
156.0
 30
0.0
 11
241.0
 21
156.0
 31
0.0
  0
LINE
  5
2F9
330
1E
100
AcDbEntity
  8
0
100
AcDbLine
 10
237.3569999999999
 20
174.0
 30
0.0
 11
239.9
 21
174.0
 31
0.0
  0
LINE
  5
2FA
330
1E
100
AcDbEntity
  8
0
100
AcDbLine
 10
237.3569999999999
 20
174.0
 30
0.0
 11
239.7859999999999
 21
172.0
 31
0.0
  0
LINE
  5
2FB
330
1E
100
AcDbEntity
  8
0
100
AcDbLine
 10
239.9
 20
174.0
 30
0.0
 11
246.6
 21
174.0
 31
0.0
  0
LINE
  5
2FC
330
1E
100
AcDbEntity
  8
0
100
AcDbLine
 10
106.0
 20
174.0
 30
0.0
 11
108.0
 21
176.0
 31
0.0
  0
LINE
  5
2FD
330
1E
100
AcDbEntity
  8
0
100
AcDbLine
 10
104.8
 20
174.0
 30
0.0
 11
106.0
 21
174.0
 31
0.0
  0
LINE
  5
2FE
330
1E
100
AcDbEntity
  8
0
100
AcDbLine
 10
65.7
 20
174.0
 30
0.0
 11
74.0
 21
174.0
 31
0.0
  0
LINE
  5
2FF
330
1E
100
AcDbEntity
  8
0
100
AcDbLine
 10
58.1
 20
174.0
 30
0.0
 11
60.64289999999999
 21
174.0
 31
0.0
  0
LINE
  5
300
330
1E
100
AcDbEntity
  8
0
100
AcDbLine
 10
58.1
 20
174.0
 30
0.0
 11
65.7
 21
174.0
 31
0.0
  0
LINE
  5
301
330
1E
100
AcDbEntity
  8
0
100
AcDbLine
 10
51.4
 20
174.0
 30
0.0
 11
58.1
 21
174.0
 31
0.0
  0
LINE
  5
302
330
1E
100
AcDbEntity
  8
0
100
AcDbLine
 10
46.29999999999999
 20
174.0
 30
0.0
 11
51.4
 21
174.0
 31
0.0
  0
LINE
  5
303
330
1E
100
AcDbEntity
  8
0
100
AcDbLine
 10
43.2
 20
174.0
 30
0.0
 11
46.29999999999999
 21
174.0
 31
0.0
  0
LINE
  5
304
330
1E
100
AcDbEntity
  8
0
100
AcDbLine
 10
41.2
 20
200.0
 30
0.0
 11
44.59999999999999
 21
200.0
 31
0.0
  0
LINE
  5
305
330
1E
100
AcDbEntity
  8
0
100
AcDbLine
 10
74.0
 20
176.0
 30
0.0
 11
82.79999999999999
 21
176.0
 31
0.0
  0
LINE
  5
306
330
1E
100
AcDbEntity
  8
0
100
AcDbLine
 10
82.79999999999999
 20
176.0
 30
0.0
 11
90.90000000000001
 21
176.0
 31
0.0
  0
LINE
  5
307
330
1E
100
AcDbEntity
  8
0
100
AcDbLine
 10
90.90000000000001
 20
176.0
 30
0.0
 11
98.0
 21
176.0
 31
0.0
  0
LINE
  5
308
330
1E
100
AcDbEntity
  8
0
100
AcDbLine
 10
98.0
 20
176.0
 30
0.0
 11
103.4
 21
176.0
 31
0.0
  0
LINE
  5
309
330
1E
100
AcDbEntity
  8
0
100
AcDbLine
 10
103.4
 20
176.0
 30
0.0
 11
106.8
 21
176.0
 31
0.0
  0
LINE
  5
30A
330
1E
100
AcDbEntity
  8
0
100
AcDbLine
 10
215.2
 20
176.0
 30
0.0
 11
224.0
 21
176.0
 31
0.0
  0
LINE
  5
30B
330
1E
100
AcDbEntity
  8
0
100
AcDbLine
 10
207.1
 20
176.0
 30
0.0
 11
215.2
 21
176.0
 31
0.0
  0
LINE
  5
30C
330
1E
100
AcDbEntity
  8
0
100
AcDbLine
 10
200.0
 20
176.0
 30
0.0
 11
207.1
 21
176.0
 31
0.0
  0
LINE
  5
30D
330
1E
100
AcDbEntity
  8
0
100
AcDbLine
 10
194.5999999999999
 20
176.0
 30
0.0
 11
200.0
 21
176.0
 31
0.0
  0
LINE
  5
30E
330
1E
100
AcDbEntity
  8
0
100
AcDbLine
 10
191.1999999999999
 20
176.0
 30
0.0
 11
194.5999999999999
 21
176.0
 31
0.0
  0
LINE
  5
30F
330
1E
100
AcDbEntity
  8
0
100
AcDbLine
 10
190.0
 20
176.0
 30
0.0
 11
192.0
 21
174.0
 31
0.0
  0
LINE
  5
310
330
1E
100
AcDbEntity
  8
0
100
AcDbLine
 10
190.0
 20
176.0
 30
0.0
 11
190.0
 21
200.0
 31
0.0
  0
LINE
  5
311
330
1E
100
AcDbEntity
  8
0
100
AcDbLine
 10
190.0
 20
176.0
 30
0.0
 11
191.1999999999999
 21
176.0
 31
0.0
  0
LINE
  5
312
330
1E
100
AcDbEntity
  8
0
100
AcDbLine
 10
224.0
 20
176.0
 30
0.0
 11
232.8
 21
176.0
 31
0.0
  0
LINE
  5
313
330
1E
100
AcDbEntity
  8
0
100
AcDbLine
 10
232.8
 20
176.0
 30
0.0
 11
240.9
 21
176.0
 31
0.0
  0
LINE
  5
314
330
1E
100
AcDbEntity
  8
0
100
AcDbLine
 10
240.9
 20
176.0
 30
0.0
 11
248.0
 21
176.0
 31
0.0
  0
LINE
  5
315
330
1E
100
AcDbEntity
  8
0
100
AcDbLine
 10
106.8
 20
176.0
 30
0.0
 11
108.0
 21
176.0
 31
0.0
  0
LINE
  5
316
330
1E
100
AcDbEntity
  8
0
100
AcDbLine
 10
108.0
 20
176.0
 30
0.0
 11
108.0
 21
200.0
 31
0.0
  0
LINE
  5
317
330
1E
100
AcDbEntity
  8
0
100
AcDbLine
 10
65.2
 20
176.0
 30
0.0
 11
74.0
 21
176.0
 31
0.0
  0
LINE
  5
318
330
1E
100
AcDbEntity
  8
0
100
AcDbLine
 10
57.1
 20
176.0
 30
0.0
 11
65.2
 21
176.0
 31
0.0
  0
LINE
  5
319
330
1E
100
AcDbEntity
  8
0
100
AcDbLine
 10
50.0
 20
176.0
 30
0.0
 11
57.1
 21
176.0
 31
0.0
  0
LINE
  5
31A
330
1E
100
AcDbEntity
  8
0
100
AcDbLine
 10
74.0
 20
200.0
 30
0.0
 11
82.79999999999999
 21
200.0
 31
0.0
  0
LINE
  5
31B
330
1E
100
AcDbEntity
  8
0
100
AcDbLine
 10
82.79999999999999
 20
200.0
 30
0.0
 11
90.90000000000001
 21
200.0
 31
0.0
  0
LINE
  5
31C
330
1E
100
AcDbEntity
  8
0
100
AcDbLine
 10
90.90000000000001
 20
200.0
 30
0.0
 11
98.0
 21
200.0
 31
0.0
  0
LINE
  5
31D
330
1E
100
AcDbEntity
  8
0
100
AcDbLine
 10
98.0
 20
200.0
 30
0.0
 11
103.4
 21
200.0
 31
0.0
  0
LINE
  5
31E
330
1E
100
AcDbEntity
  8
0
100
AcDbLine
 10
103.4
 20
200.0
 30
0.0
 11
106.8
 21
200.0
 31
0.0
  0
LINE
  5
31F
330
1E
100
AcDbEntity
  8
0
100
AcDbLine
 10
106.8
 20
200.0
 30
0.0
 11
108.0
 21
200.0
 31
0.0
  0
LINE
  5
320
330
1E
100
AcDbEntity
  8
0
100
AcDbLine
 10
215.2
 20
200.0
 30
0.0
 11
224.0
 21
200.0
 31
0.0
  0
LINE
  5
321
330
1E
100
AcDbEntity
  8
0
100
AcDbLine
 10
207.1
 20
200.0
 30
0.0
 11
215.2
 21
200.0
 31
0.0
  0
LINE
  5
322
330
1E
100
AcDbEntity
  8
0
100
AcDbLine
 10
200.0
 20
200.0
 30
0.0
 11
207.1
 21
200.0
 31
0.0
  0
LINE
  5
323
330
1E
100
AcDbEntity
  8
0
100
AcDbLine
 10
194.5999999999999
 20
200.0
 30
0.0
 11
200.0
 21
200.0
 31
0.0
  0
LINE
  5
324
330
1E
100
AcDbEntity
  8
0
100
AcDbLine
 10
191.1999999999999
 20
200.0
 30
0.0
 11
194.5999999999999
 21
200.0
 31
0.0
  0
LINE
  5
325
330
1E
100
AcDbEntity
  8
0
100
AcDbLine
 10
190.0
 20
200.0
 30
0.0
 11
190.0
 21
176.0
 31
0.0
  0
LINE
  5
326
330
1E
100
AcDbEntity
  8
0
100
AcDbLine
 10
190.0
 20
200.0
 30
0.0
 11
191.1999999999999
 21
200.0
 31
0.0
  0
LINE
  5
327
330
1E
100
AcDbEntity
  8
0
100
AcDbLine
 10
224.0
 20
200.0
 30
0.0
 11
232.8
 21
200.0
 31
0.0
  0
LINE
  5
328
330
1E
100
AcDbEntity
  8
0
100
AcDbLine
 10
232.8
 20
200.0
 30
0.0
 11
240.9
 21
200.0
 31
0.0
  0
LINE
  5
329
330
1E
100
AcDbEntity
  8
0
100
AcDbLine
 10
240.9
 20
200.0
 30
0.0
 11
248.0
 21
200.0
 31
0.0
  0
LINE
  5
32A
330
1E
100
AcDbEntity
  8
0
100
AcDbLine
 10
108.0
 20
200.0
 30
0.0
 11
108.0
 21
176.0
 31
0.0
  0
LINE
  5
32B
330
1E
100
AcDbEntity
  8
0
100
AcDbLine
 10
65.2
 20
200.0
 30
0.0
 11
74.0
 21
200.0
 31
0.0
  0
LINE
  5
32C
330
1E
100
AcDbEntity
  8
0
100
AcDbLine
 10
57.1
 20
200.0
 30
0.0
 11
65.2
 21
200.0
 31
0.0
  0
LINE
  5
32D
330
1E
100
AcDbEntity
  8
0
100
AcDbLine
 10
50.0
 20
200.0
 30
0.0
 11
57.1
 21
200.0
 31
0.0
  0
LINE
  5
32E
330
1E
100
AcDbEntity
  8
0
100
AcDbLine
 10
44.59999999999999
 20
200.0
 30
0.0
 11
50.0
 21
200.0
 31
0.0
  0
LINE
  5
32F
330
1E
100
AcDbEntity
  8
0
100
AcDbLine
 10
44.59999999999999
 20
176.0
 30
0.0
 11
50.0
 21
176.0
 31
0.0
  0
LINE
  5
330
330
1E
100
AcDbEntity
  8
0
100
AcDbLine
 10
41.2
 20
176.0
 30
0.0
 11
44.59999999999999
 21
176.0
 31
0.0
  0
LINE
  5
331
330
1E
100
AcDbEntity
  8
0
100
AcDbLine
 10
42.0
 20
174.0
 30
0.0
 11
43.2
 21
174.0
 31
0.0
  0
LINE
  5
332
330
1E
100
AcDbEntity
  8
0
100
AcDbLine
 10
40.0
 20
176.0
 30
0.0
 11
40.0
 21
200.0
 31
0.0
  0
LINE
  5
333
330
1E
100
AcDbEntity
  8
0
100
AcDbLine
 10
40.0
 20
176.0
 30
0.0
 11
42.0
 21
174.0
 31
0.0
  0
LINE
  5
334
330
1E
100
AcDbEntity
  8
0
100
AcDbLine
 10
40.0
 20
176.0
 30
0.0
 11
41.2
 21
176.0
 31
0.0
  0
LINE
  5
335
330
1E
100
AcDbEntity
  8
0
100
AcDbLine
 10
243.0
 20
140.0
 30
0.0
 11
284.3329999999999
 21
140.0
 31
0.0
  0
LINE
  5
336
330
1E
100
AcDbEntity
  8
0
100
AcDbLine
 10
243.0
 20
140.0
 30
0.0
 11
243.0
 21
139.244
 31
0.0
  0
LINE
  5
337
330
1E
100
AcDbEntity
  8
0
100
AcDbLine
 10
284.3329999999999
 20
98.0
 30
0.0
 11
284.3329999999999
 21
98.756
 31
0.0
  0
LINE
  5
338
330
1E
100
AcDbEntity
  8
0
100
AcDbLine
 10
284.3329999999999
 20
98.0
 30
0.0
 11
285.0
 21
98.504
 31
0.0
  0
LINE
  5
339
330
1E
100
AcDbEntity
  8
0
100
AcDbLine
 10
284.3329999999999
 20
98.756
 30
0.0
 11
284.3329999999999
 21
100.772
 31
0.0
  0
LINE
  5
33A
330
1E
100
AcDbEntity
  8
0
100
AcDbLine
 10
284.3329999999999
 20
98.756
 30
0.0
 11
284.3329999999999
 21
98.0
 31
0.0
  0
LINE
  5
33B
330
1E
100
AcDbEntity
  8
0
100
AcDbLine
 10
284.3329999999999
 20
100.772
 30
0.0
 11
284.3329999999999
 21
104.132
 31
0.0
  0
LINE
  5
33C
330
1E
100
AcDbEntity
  8
0
100
AcDbLine
 10
284.3329999999999
 20
100.772
 30
0.0
 11
284.3329999999999
 21
98.756
 31
0.0
  0
LINE
  5
33D
330
1E
100
AcDbEntity
  8
0
100
AcDbLine
 10
284.3329999999999
 20
104.132
 30
0.0
 11
284.3329999999999
 21
108.584
 31
0.0
  0
LINE
  5
33E
330
1E
100
AcDbEntity
  8
0
100
AcDbLine
 10
284.3329999999999
 20
104.132
 30
0.0
 11
284.3329999999999
 21
100.772
 31
0.0
  0
LINE
  5
33F
330
1E
100
AcDbEntity
  8
0
100
AcDbLine
 10
268.798
 20
115.0959999999999
 30
0.0
 11
269.8059999999999
 21
115.2399999999999
 31
0.0
  0
LINE
  5
340
330
1E
100
AcDbEntity
  8
0
100
AcDbLine
 10
269.8059999999999
 20
115.2399999999999
 30
0.0
 11
270.734
 21
115.6239999999999
 31
0.0
  0
LINE
  5
341
330
1E
100
AcDbEntity
  8
0
100
AcDbLine
 10
269.822
 20
115.144
 30
0.0
 11
270.7819999999999
 21
115.5279999999999
 31
0.0
  0
LINE
  5
342
330
1E
100
AcDbEntity
  8
0
100
AcDbLine
 10
270.7819999999999
 20
115.5279999999999
 30
0.0
 11
271.6299999999999
 21
116.168
 31
0.0
  0
LINE
  5
343
330
1E
100
AcDbEntity
  8
0
100
AcDbLine
 10
267.79
 20
115.2399999999999
 30
0.0
 11
268.798
 21
115.0959999999999
 31
0.0
  0
LINE
  5
344
330
1E
100
AcDbEntity
  8
0
100
AcDbLine
 10
268.798
 20
115.0
 30
0.0
 11
269.822
 21
115.144
 31
0.0
  0
LINE
  5
345
330
1E
100
AcDbEntity
  8
0
100
AcDbLine
 10
267.774
 20
115.144
 30
0.0
 11
268.798
 21
115.0
 31
0.0
  0
LINE
  5
346
330
1E
100
AcDbEntity
  8
0
100
AcDbLine
 10
270.734
 20
115.6239999999999
 30
0.0
 11
271.55
 21
116.2479999999999
 31
0.0
  0
LINE
  5
347
330
1E
100
AcDbEntity
  8
0
100
AcDbLine
 10
271.55
 20
116.2479999999999
 30
0.0
 11
272.174
 21
117.0639999999999
 31
0.0
  0
LINE
  5
348
330
1E
100
AcDbEntity
  8
0
100
AcDbLine
 10
271.6299999999999
 20
116.168
 30
0.0
 11
272.2699999999999
 21
117.016
 31
0.0
  0
LINE
  5
349
330
1E
100
AcDbEntity
  8
0
100
AcDbLine
 10
272.2699999999999
 20
117.016
 30
0.0
 11
272.6539999999999
 21
117.9759999999999
 31
0.0
  0
LINE
  5
34A
330
1E
100
AcDbEntity
  8
0
100
AcDbLine
 10
266.862
 20
115.6239999999999
 30
0.0
 11
267.79
 21
115.2399999999999
 31
0.0
  0
LINE
  5
34B
330
1E
100
AcDbEntity
  8
0
100
AcDbLine
 10
266.046
 20
116.2479999999999
 30
0.0
 11
266.862
 21
115.6239999999999
 31
0.0
  0
LINE
  5
34C
330
1E
100
AcDbEntity
  8
0
100
AcDbLine
 10
266.814
 20
115.5279999999999
 30
0.0
 11
267.774
 21
115.144
 31
0.0
  0
LINE
  5
34D
330
1E
100
AcDbEntity
  8
0
100
AcDbLine
 10
265.966
 20
116.168
 30
0.0
 11
266.814
 21
115.5279999999999
 31
0.0
  0
LINE
  5
34E
330
1E
100
AcDbEntity
  8
0
100
AcDbLine
 10
272.174
 20
117.0639999999999
 30
0.0
 11
272.5579999999999
 21
117.992
 31
0.0
  0
LINE
  5
34F
330
1E
100
AcDbEntity
  8
0
100
AcDbLine
 10
272.5579999999999
 20
117.992
 30
0.0
 11
272.7019999999999
 21
119.0
 31
0.0
  0
LINE
  5
350
330
1E
100
AcDbEntity
  8
0
100
AcDbLine
 10
265.422
 20
117.0639999999999
 30
0.0
 11
266.046
 21
116.2479999999999
 31
0.0
  0
LINE
  5
351
330
1E
100
AcDbEntity
  8
0
100
AcDbLine
 10
265.038
 20
117.992
 30
0.0
 11
265.422
 21
117.0639999999999
 31
0.0
  0
LINE
  5
352
330
1E
100
AcDbEntity
  8
0
100
AcDbLine
 10
265.3259999999999
 20
117.016
 30
0.0
 11
265.966
 21
116.168
 31
0.0
  0
LINE
  5
353
330
1E
100
AcDbEntity
  8
0
100
AcDbLine
 10
264.942
 20
117.9759999999999
 30
0.0
 11
265.3259999999999
 21
117.016
 31
0.0
  0
LINE
  5
354
330
1E
100
AcDbEntity
  8
0
100
AcDbLine
 10
265.038
 20
120.008
 30
0.0
 11
265.422
 21
120.9359999999999
 31
0.0
  0
LINE
  5
355
330
1E
100
AcDbEntity
  8
0
100
AcDbLine
 10
264.894
 20
119.0
 30
0.0
 11
265.038
 21
120.008
 31
0.0
  0
LINE
  5
356
330
1E
100
AcDbEntity
  8
0
100
AcDbLine
 10
264.894
 20
119.0
 30
0.0
 11
265.038
 21
117.992
 31
0.0
  0
LINE
  5
357
330
1E
100
AcDbEntity
  8
0
100
AcDbLine
 10
265.422
 20
120.9359999999999
 30
0.0
 11
266.046
 21
121.752
 31
0.0
  0
LINE
  5
358
330
1E
100
AcDbEntity
  8
0
100
AcDbLine
 10
264.942
 20
120.0239999999999
 30
0.0
 11
265.3259999999999
 21
120.984
 31
0.0
  0
LINE
  5
359
330
1E
100
AcDbEntity
  8
0
100
AcDbLine
 10
264.798
 20
119.0
 30
0.0
 11
264.942
 21
120.0239999999999
 31
0.0
  0
LINE
  5
35A
330
1E
100
AcDbEntity
  8
0
100
AcDbLine
 10
264.798
 20
119.0
 30
0.0
 11
264.942
 21
117.9759999999999
 31
0.0
  0
LINE
  5
35B
330
1E
100
AcDbEntity
  8
0
100
AcDbLine
 10
265.3259999999999
 20
120.984
 30
0.0
 11
265.966
 21
121.832
 31
0.0
  0
LINE
  5
35C
330
1E
100
AcDbEntity
  8
0
100
AcDbLine
 10
272.174
 20
120.9359999999999
 30
0.0
 11
272.5579999999999
 21
120.008
 31
0.0
  0
LINE
  5
35D
330
1E
100
AcDbEntity
  8
0
100
AcDbLine
 10
272.6539999999999
 20
117.9759999999999
 30
0.0
 11
272.798
 21
119.0
 31
0.0
  0
LINE
  5
35E
330
1E
100
AcDbEntity
  8
0
100
AcDbLine
 10
272.5579999999999
 20
120.008
 30
0.0
 11
272.7019999999999
 21
119.0
 31
0.0
  0
LINE
  5
35F
330
1E
100
AcDbEntity
  8
0
100
AcDbLine
 10
266.862
 20
122.376
 30
0.0
 11
267.79
 21
122.76
 31
0.0
  0
LINE
  5
360
330
1E
100
AcDbEntity
  8
0
100
AcDbLine
 10
266.046
 20
121.752
 30
0.0
 11
266.862
 21
122.376
 31
0.0
  0
LINE
  5
361
330
1E
100
AcDbEntity
  8
0
100
AcDbLine
 10
265.966
 20
121.832
 30
0.0
 11
266.814
 21
122.472
 31
0.0
  0
LINE
  5
362
330
1E
100
AcDbEntity
  8
0
100
AcDbLine
 10
266.814
 20
122.472
 30
0.0
 11
267.774
 21
122.856
 31
0.0
  0
LINE
  5
363
330
1E
100
AcDbEntity
  8
0
100
AcDbLine
 10
270.734
 20
122.376
 30
0.0
 11
271.55
 21
121.752
 31
0.0
  0
LINE
  5
364
330
1E
100
AcDbEntity
  8
0
100
AcDbLine
 10
271.55
 20
121.752
 30
0.0
 11
272.174
 21
120.9359999999999
 31
0.0
  0
LINE
  5
365
330
1E
100
AcDbEntity
  8
0
100
AcDbLine
 10
267.79
 20
122.76
 30
0.0
 11
268.798
 21
122.9039999999999
 31
0.0
  0
LINE
  5
366
330
1E
100
AcDbEntity
  8
0
100
AcDbLine
 10
267.774
 20
122.856
 30
0.0
 11
268.798
 21
123.0
 31
0.0
  0
LINE
  5
367
330
1E
100
AcDbEntity
  8
0
100
AcDbLine
 10
268.798
 20
122.9039999999999
 30
0.0
 11
269.8059999999999
 21
122.76
 31
0.0
  0
LINE
  5
368
330
1E
100
AcDbEntity
  8
0
100
AcDbLine
 10
269.8059999999999
 20
122.76
 30
0.0
 11
270.734
 21
122.376
 31
0.0
  0
LINE
  5
369
330
1E
100
AcDbEntity
  8
0
100
AcDbLine
 10
268.798
 20
123.0
 30
0.0
 11
269.822
 21
122.856
 31
0.0
  0
LINE
  5
36A
330
1E
100
AcDbEntity
  8
0
100
AcDbLine
 10
269.822
 20
122.856
 30
0.0
 11
270.7819999999999
 21
122.472
 31
0.0
  0
LINE
  5
36B
330
1E
100
AcDbEntity
  8
0
100
AcDbLine
 10
270.7819999999999
 20
122.472
 30
0.0
 11
271.6299999999999
 21
121.832
 31
0.0
  0
LINE
  5
36C
330
1E
100
AcDbEntity
  8
0
100
AcDbLine
 10
271.6299999999999
 20
121.832
 30
0.0
 11
272.2699999999999
 21
120.984
 31
0.0
  0
LINE
  5
36D
330
1E
100
AcDbEntity
  8
0
100
AcDbLine
 10
272.2699999999999
 20
120.984
 30
0.0
 11
272.6539999999999
 21
120.0239999999999
 31
0.0
  0
LINE
  5
36E
330
1E
100
AcDbEntity
  8
0
100
AcDbLine
 10
272.6539999999999
 20
120.0239999999999
 30
0.0
 11
272.798
 21
119.0
 31
0.0
  0
LINE
  5
36F
330
1E
100
AcDbEntity
  8
0
100
AcDbLine
 10
284.3329999999999
 20
108.584
 30
0.0
 11
284.3329999999999
 21
113.6239999999999
 31
0.0
  0
LINE
  5
370
330
1E
100
AcDbEntity
  8
0
100
AcDbLine
 10
284.3329999999999
 20
108.584
 30
0.0
 11
284.3329999999999
 21
104.132
 31
0.0
  0
LINE
  5
371
330
1E
100
AcDbEntity
  8
0
100
AcDbLine
 10
284.3329999999999
 20
113.6239999999999
 30
0.0
 11
284.3329999999999
 21
119.0
 31
0.0
  0
LINE
  5
372
330
1E
100
AcDbEntity
  8
0
100
AcDbLine
 10
284.3329999999999
 20
113.6239999999999
 30
0.0
 11
284.3329999999999
 21
108.584
 31
0.0
  0
LINE
  5
373
330
1E
100
AcDbEntity
  8
0
100
AcDbLine
 10
284.3329999999999
 20
139.244
 30
0.0
 11
284.3329999999999
 21
140.0
 31
0.0
  0
LINE
  5
374
330
1E
100
AcDbEntity
  8
0
100
AcDbLine
 10
284.3329999999999
 20
139.244
 30
0.0
 11
284.3329999999999
 21
137.2279999999999
 31
0.0
  0
LINE
  5
375
330
1E
100
AcDbEntity
  8
0
100
AcDbLine
 10
284.3329999999999
 20
137.2279999999999
 30
0.0
 11
284.3329999999999
 21
139.244
 31
0.0
  0
LINE
  5
376
330
1E
100
AcDbEntity
  8
0
100
AcDbLine
 10
284.3329999999999
 20
137.2279999999999
 30
0.0
 11
284.3329999999999
 21
133.8679999999999
 31
0.0
  0
LINE
  5
377
330
1E
100
AcDbEntity
  8
0
100
AcDbLine
 10
284.3329999999999
 20
133.8679999999999
 30
0.0
 11
284.3329999999999
 21
137.2279999999999
 31
0.0
  0
LINE
  5
378
330
1E
100
AcDbEntity
  8
0
100
AcDbLine
 10
284.3329999999999
 20
133.8679999999999
 30
0.0
 11
284.3329999999999
 21
129.4159999999999
 31
0.0
  0
LINE
  5
379
330
1E
100
AcDbEntity
  8
0
100
AcDbLine
 10
284.3329999999999
 20
129.4159999999999
 30
0.0
 11
284.3329999999999
 21
133.8679999999999
 31
0.0
  0
LINE
  5
37A
330
1E
100
AcDbEntity
  8
0
100
AcDbLine
 10
284.3329999999999
 20
129.4159999999999
 30
0.0
 11
284.3329999999999
 21
124.3759999999999
 31
0.0
  0
LINE
  5
37B
330
1E
100
AcDbEntity
  8
0
100
AcDbLine
 10
284.3329999999999
 20
124.3759999999999
 30
0.0
 11
284.3329999999999
 21
129.4159999999999
 31
0.0
  0
LINE
  5
37C
330
1E
100
AcDbEntity
  8
0
100
AcDbLine
 10
284.3329999999999
 20
124.3759999999999
 30
0.0
 11
284.3329999999999
 21
119.0
 31
0.0
  0
LINE
  5
37D
330
1E
100
AcDbEntity
  8
0
100
AcDbLine
 10
285.0
 20
98.504
 30
0.0
 11
285.0
 21
99.26000000000001
 31
0.0
  0
LINE
  5
37E
330
1E
100
AcDbEntity
  8
0
100
AcDbLine
 10
285.0
 20
99.26000000000001
 30
0.0
 11
285.0
 21
101.276
 31
0.0
  0
LINE
  5
37F
330
1E
100
AcDbEntity
  8
0
100
AcDbLine
 10
285.0
 20
99.26000000000001
 30
0.0
 11
285.0
 21
98.504
 31
0.0
  0
LINE
  5
380
330
1E
100
AcDbEntity
  8
0
100
AcDbLine
 10
285.0
 20
101.276
 30
0.0
 11
285.0
 21
104.552
 31
0.0
  0
LINE
  5
381
330
1E
100
AcDbEntity
  8
0
100
AcDbLine
 10
285.0
 20
101.276
 30
0.0
 11
285.0
 21
99.26000000000001
 31
0.0
  0
LINE
  5
382
330
1E
100
AcDbEntity
  8
0
100
AcDbLine
 10
285.0
 20
104.552
 30
0.0
 11
285.0
 21
108.8359999999999
 31
0.0
  0
LINE
  5
383
330
1E
100
AcDbEntity
  8
0
100
AcDbLine
 10
285.0
 20
104.552
 30
0.0
 11
285.0
 21
101.276
 31
0.0
  0
LINE
  5
384
330
1E
100
AcDbEntity
  8
0
100
AcDbLine
 10
285.0
 20
108.8359999999999
 30
0.0
 11
285.0
 21
113.708
 31
0.0
  0
LINE
  5
385
330
1E
100
AcDbEntity
  8
0
100
AcDbLine
 10
285.0
 20
108.8359999999999
 30
0.0
 11
285.0
 21
104.552
 31
0.0
  0
LINE
  5
386
330
1E
100
AcDbEntity
  8
0
100
AcDbLine
 10
285.0
 20
113.708
 30
0.0
 11
285.0
 21
119.0
 31
0.0
  0
LINE
  5
387
330
1E
100
AcDbEntity
  8
0
100
AcDbLine
 10
285.0
 20
113.708
 30
0.0
 11
285.0
 21
108.8359999999999
 31
0.0
  0
LINE
  5
388
330
1E
100
AcDbEntity
  8
0
100
AcDbLine
 10
285.0
 20
139.496
 30
0.0
 11
285.0
 21
138.74
 31
0.0
  0
LINE
  5
389
330
1E
100
AcDbEntity
  8
0
100
AcDbLine
 10
285.0
 20
138.74
 30
0.0
 11
285.0
 21
139.496
 31
0.0
  0
LINE
  5
38A
330
1E
100
AcDbEntity
  8
0
100
AcDbLine
 10
285.0
 20
138.74
 30
0.0
 11
285.0
 21
136.724
 31
0.0
  0
LINE
  5
38B
330
1E
100
AcDbEntity
  8
0
100
AcDbLine
 10
285.0
 20
136.724
 30
0.0
 11
285.0
 21
138.74
 31
0.0
  0
LINE
  5
38C
330
1E
100
AcDbEntity
  8
0
100
AcDbLine
 10
285.0
 20
136.724
 30
0.0
 11
285.0
 21
133.4479999999999
 31
0.0
  0
LINE
  5
38D
330
1E
100
AcDbEntity
  8
0
100
AcDbLine
 10
285.0
 20
133.4479999999999
 30
0.0
 11
285.0
 21
136.724
 31
0.0
  0
LINE
  5
38E
330
1E
100
AcDbEntity
  8
0
100
AcDbLine
 10
285.0
 20
133.4479999999999
 30
0.0
 11
285.0
 21
129.1639999999999
 31
0.0
  0
LINE
  5
38F
330
1E
100
AcDbEntity
  8
0
100
AcDbLine
 10
285.0
 20
129.1639999999999
 30
0.0
 11
285.0
 21
133.4479999999999
 31
0.0
  0
LINE
  5
390
330
1E
100
AcDbEntity
  8
0
100
AcDbLine
 10
285.0
 20
129.1639999999999
 30
0.0
 11
285.0
 21
124.292
 31
0.0
  0
LINE
  5
391
330
1E
100
AcDbEntity
  8
0
100
AcDbLine
 10
285.0
 20
124.292
 30
0.0
 11
285.0
 21
129.1639999999999
 31
0.0
  0
LINE
  5
392
330
1E
100
AcDbEntity
  8
0
100
AcDbLine
 10
285.0
 20
124.292
 30
0.0
 11
285.0
 21
119.0
 31
0.0
  0
LINE
  5
393
330
1E
100
AcDbEntity
  8
0
100
AcDbLine
 10
285.0
 20
119.0
 30
0.0
 11
285.0
 21
124.292
 31
0.0
  0
LINE
  5
394
330
1E
100
AcDbEntity
  8
0
100
AcDbLine
 10
285.0
 20
119.0
 30
0.0
 11
285.0
 21
113.708
 31
0.0
  0
LINE
  5
395
330
1E
100
AcDbEntity
  8
0
100
AcDbLine
 10
284.3329999999999
 20
119.0
 30
0.0
 11
284.3329999999999
 21
124.3759999999999
 31
0.0
  0
LINE
  5
396
330
1E
100
AcDbEntity
  8
0
100
AcDbLine
 10
284.3329999999999
 20
119.0
 30
0.0
 11
284.3329999999999
 21
113.6239999999999
 31
0.0
  0
LINE
  5
397
330
1E
100
AcDbEntity
  8
0
100
AcDbLine
 10
246.6
 20
174.0
 30
0.0
 11
251.6999999999999
 21
174.0
 31
0.0
  0
LINE
  5
398
330
1E
100
AcDbEntity
  8
0
100
AcDbLine
 10
251.6999999999999
 20
174.0
 30
0.0
 11
254.8
 21
174.0
 31
0.0
  0
LINE
  5
399
330
1E
100
AcDbEntity
  8
0
100
AcDbLine
 10
254.8
 20
174.0
 30
0.0
 11
256.0
 21
174.0
 31
0.0
  0
LINE
  5
39A
330
1E
100
AcDbEntity
  8
0
100
AcDbLine
 10
248.0
 20
200.0
 30
0.0
 11
253.4
 21
200.0
 31
0.0
  0
LINE
  5
39B
330
1E
100
AcDbEntity
  8
0
100
AcDbLine
 10
248.0
 20
176.0
 30
0.0
 11
253.4
 21
176.0
 31
0.0
  0
LINE
  5
39C
330
1E
100
AcDbEntity
  8
0
100
AcDbLine
 10
253.4
 20
200.0
 30
0.0
 11
256.8
 21
200.0
 31
0.0
  0
LINE
  5
39D
330
1E
100
AcDbEntity
  8
0
100
AcDbLine
 10
253.4
 20
176.0
 30
0.0
 11
256.8
 21
176.0
 31
0.0
  0
LINE
  5
39E
330
1E
100
AcDbEntity
  8
0
100
AcDbLine
 10
256.8
 20
200.0
 30
0.0
 11
258.0
 21
200.0
 31
0.0
  0
LINE
  5
39F
330
1E
100
AcDbEntity
  8
0
100
AcDbLine
 10
258.0
 20
200.0
 30
0.0
 11
258.0
 21
176.0
 31
0.0
  0
LINE
  5
3A0
330
1E
100
AcDbEntity
  8
0
100
AcDbLine
 10
256.8
 20
176.0
 30
0.0
 11
258.0
 21
176.0
 31
0.0
  0
LINE
  5
3A1
330
1E
100
AcDbEntity
  8
0
100
AcDbLine
 10
256.0
 20
174.0
 30
0.0
 11
258.0
 21
176.0
 31
0.0
  0
LINE
  5
3A2
330
1E
100
AcDbEntity
  8
0
100
AcDbLine
 10
258.0
 20
176.0
 30
0.0
 11
258.0
 21
200.0
 31
0.0
  0
LINE
  5
3A3
330
1E
100
AcDbEntity
  8
0
100
AcDbLine
 10
284.3329999999999
 20
140.0
 30
0.0
 11
285.0
 21
139.496
 31
0.0
  0
LINE
  5
3A4
330
1E
100
AcDbEntity
  8
0
100
AcDbLine
 10
284.3329999999999
 20
140.0
 30
0.0
 11
284.3329999999999
 21
139.244
 31
0.0
  0
LINE
  5
3A5
330
1E
100
AcDbEntity
  8
0
100
AcDbLine
 10
243.0
 20
138.5
 30
0.0
 11
243.0
 21
139.244
 31
0.0
  0
LINE
  5
3AA
330
1E
100
AcDbEntity
  8
0
100
AcDbLine
 10
158.0
 20
2.399999999999999
 30
0.0
 11
160.6791158236382
 21
4.439395667874748
 31
0.0
  0
LINE
  5
3AB
330
1E
100
AcDbEntity
  8
0
100
AcDbLine
 10
160.6791158236382
 20
4.439395667874748
 30
0.0
 11
163.5767086015865
 21
7.832759926649373
 31
0.0
  0
LINE
  5
3AC
330
1E
100
AcDbEntity
  8
0
100
AcDbLine
 10
163.5767086015865
 20
7.832759926649373
 30
0.0
 11
165.342429490137
 21
10.90941038188844
 31
0.0
  0
LINE
  5
3AD
330
1E
100
AcDbEntity
  8
0
100
AcDbLine
 10
165.342429490137
 20
10.90941038188844
 30
0.0
 11
166.3
 21
13.4
 31
0.0
  0
ENDSEC
  0
SECTION
  2
OBJECTS
  0
DICTIONARY
  5
C
330
0
100
AcDbDictionary
281
     1
  3
ACAD_GROUP
350
D
  3
ACAD_LAYOUT
350
19
  3
ACAD_MLINESTYLE
350
16
  3
ACAD_PLOTSETTINGS
350
18
  3
ACAD_PLOTSTYLENAME
350
E
  3
AcDbVariableDictionary
350
3AE
  0
DICTIONARY
  5
D
102
{ACAD_REACTORS
330
C
102
}
330
C
100
AcDbDictionary
281
     1
  0
DICTIONARY
  5
19
102
{ACAD_REACTORS
330
C
102
}
330
C
100
AcDbDictionary
281
     1
  3
Layout1
350
1D
  3
Model
350
21
  0
DICTIONARY
  5
16
102
{ACAD_REACTORS
330
C
102
}
330
C
100
AcDbDictionary
281
     1
  3
Standard
350
17
  0
DICTIONARY
  5
18
102
{ACAD_REACTORS
330
C
102
}
330
C
100
AcDbDictionary
281
     1
  0
ACDBDICTIONARYWDFLT
  5
E
102
{ACAD_REACTORS
330
C
102
}
330
C
100
AcDbDictionary
281
     1
  3
Normal
350
F
100
AcDbDictionaryWithDefault
340
F
  0
DICTIONARY
  5
3AE
102
{ACAD_REACTORS
330
C
102
}
330
C
100
AcDbDictionary
281
     1
  3
DIMASSOC
350
3AF
  0
LAYOUT
  5
1D
102
{ACAD_REACTORS
330
19
102
}
330
19
100
AcDbPlotSettings
  1

  2
hp deskjet 980c series
  4

  6

 40
0.0
 41
0.0
 42
0.0
 43
0.0
 44
0.0
 45
0.0
 46
0.0
 47
0.0
 48
0.0
 49
0.0
140
0.0
141
0.0
142
1.0
143
1.0
 70
   688
 72
     0
 73
     0
 74
     5
  7

 75
    16
147
1.0
148
0.0
149
0.0
100
AcDbLayout
  1
Layout1
 70
     1
 71
     1
 10
0.0
 20
0.0
 11
12.0
 21
9.0
 12
0.0
 22
0.0
 32
0.0
 14
1.000000000000000E+20
 24
1.000000000000000E+20
 34
1.000000000000000E+20
 15
-1.000000000000000E+20
 25
-1.000000000000000E+20
 35
-1.000000000000000E+20
146
0.0
 13
0.0
 23
0.0
 33
0.0
 16
1.0
 26
0.0
 36
0.0
 17
0.0
 27
1.0
 37
0.0
 76
     0
330
1A
  0
LAYOUT
  5
21
102
{ACAD_REACTORS
330
19
102
}
330
19
100
AcDbPlotSettings
  1

  2
hp deskjet 980c series
  4

  6

 40
0.0
 41
0.0
 42
0.0
 43
0.0
 44
0.0
 45
0.0
 46
0.0
 47
0.0
 48
0.0
 49
0.0
140
0.0
141
0.0
142
1.0
143
1.0
 70
  1712
 72
     0
 73
     0
 74
     0
  7

 75
     0
147
1.0
148
0.0
149
0.0
100
AcDbLayout
  1
Model
 70
     1
 71
     0
 10
0.0
 20
0.0
 11
12.0
 21
9.0
 12
0.0
 22
0.0
 32
0.0
 14
0.0
 24
0.0
 34
0.0
 15
0.0
 25
0.0
 35
0.0
146
0.0
 13
0.0
 23
0.0
 33
0.0
 16
1.0
 26
0.0
 36
0.0
 17
0.0
 27
1.0
 37
0.0
 76
     0
330
1E
  0
MLINESTYLE
  5
17
102
{ACAD_REACTORS
330
16
102
}
330
16
100
AcDbMlineStyle
  2
STANDARD
 70
     0
  3

 62
   256
 51
90.0
 52
90.0
 71
     2
 49
0.5
 62
   256
  6
BYLAYER
 49
-0.5
 62
   256
  6
BYLAYER
  0
ACDBPLACEHOLDER
  5
F
102
{ACAD_REACTORS
330
E
102
}
330
E
  0
DICTIONARYVAR
  5
3AF
102
{ACAD_REACTORS
330
3AE
102
}
330
3AE
100
DictionaryVariables
280
     0
  1
1
  0
ENDSEC
  0
EOF
