  0
SECTION
  2
HEADER
  9
$ACADVER
  1
AC1015
  9
$ACADMAINTVER
 70
     6
  9
$DWGCODEPAGE
  3
ANSI_1252
  9
$INSBASE
 10
0.0
 20
0.0
 30
0.0
  9
$EXTMIN
 10
-17.96541920111
 20
0.0
 30
0.0
  9
$EXTMAX
 10
233.30485
 20
284.0
 30
0.0
  9
$LIMMIN
 10
0.0
 20
0.0
  9
$LIMMAX
 10
12.0
 20
9.0
  9
$ORTHOMODE
 70
     0
  9
$REGENMODE
 70
     1
  9
$FILLMODE
 70
     1
  9
$QTEXTMODE
 70
     0
  9
$MIRRTEXT
 70
     1
  9
$LTSCALE
 40
1.0
  9
$ATTMODE
 70
     1
  9
$TEXTSIZE
 40
0.2
  9
$TRACEWID
 40
0.05
  9
$TEXTSTYLE
  7
STANDARD
  9
$CLAYER
  8
0
  9
$CELTYPE
  6
CONTINUOUS
  9
$CECOLOR
 62
   256
  9
$CELTSCALE
 40
1.0
  9
$DISPSILH
 70
     0
  9
$DIMSCALE
 40
1.0
  9
$DIMASZ
 40
0.18
  9
$DIMEXO
 40
0.0625
  9
$DIMDLI
 40
0.38
  9
$DIMRND
 40
0.0
  9
$DIMDLE
 40
0.0
  9
$DIMEXE
 40
0.18
  9
$DIMTP
 40
0.0
  9
$DIMTM
 40
0.0
  9
$DIMTXT
 40
0.18
  9
$DIMCEN
 40
0.09
  9
$DIMTSZ
 40
0.0
  9
$DIMTOL
 70
     0
  9
$DIMLIM
 70
     0
  9
$DIMTIH
 70
     1
  9
$DIMTOH
 70
     1
  9
$DIMSE1
 70
     0
  9
$DIMSE2
 70
     0
  9
$DIMTAD
 70
     0
  9
$DIMZIN
 70
     0
  9
$DIMBLK
  1

  9
$DIMASO
 70
     1
  9
$DIMSHO
 70
     1
  9
$DIMPOST
  1

  9
$DIMAPOST
  1

  9
$DIMALT
 70
     0
  9
$DIMALTD
 70
     2
  9
$DIMALTF
 40
25.4
  9
$DIMLFAC
 40
1.0
  9
$DIMTOFL
 70
     0
  9
$DIMTVP
 40
0.0
  9
$DIMTIX
 70
     0
  9
$DIMSOXD
 70
     0
  9
$DIMSAH
 70
     0
  9
$DIMBLK1
  1

  9
$DIMBLK2
  1

  9
$DIMSTYLE
  2
STANDARD
  9
$DIMCLRD
 70
     0
  9
$DIMCLRE
 70
     0
  9
$DIMCLRT
 70
     0
  9
$DIMTFAC
 40
1.0
  9
$DIMGAP
 40
0.09
  9
$DIMJUST
 70
     0
  9
$DIMSD1
 70
     0
  9
$DIMSD2
 70
     0
  9
$DIMTOLJ
 70
     1
  9
$DIMTZIN
 70
     0
  9
$DIMALTZ
 70
     0
  9
$DIMALTTZ
 70
     0
  9
$DIMUPT
 70
     0
  9
$DIMDEC
 70
     4
  9
$DIMTDEC
 70
     4
  9
$DIMALTU
 70
     2
  9
$DIMALTTD
 70
     2
  9
$DIMTXSTY
  7
STANDARD
  9
$DIMAUNIT
 70
     0
  9
$DIMADEC
 70
     0
  9
$DIMALTRND
 40
0.0
  9
$DIMAZIN
 70
     0
  9
$DIMDSEP
 70
    46
  9
$DIMATFIT
 70
     3
  9
$DIMFRAC
 70
     0
  9
$DIMLDRBLK
  1

  9
$DIMLUNIT
 70
     2
  9
$DIMLWD
 70
    -2
  9
$DIMLWE
 70
    -2
  9
$DIMTMOVE
 70
     2
  9
$LUNITS
 70
     2
  9
$LUPREC
 70
     4
  9
$SKETCHINC
 40
0.1
  9
$FILLETRAD
 40
0.0
  9
$AUNITS
 70
     0
  9
$AUPREC
 70
     0
  9
$MENU
  1
.
  9
$ELEVATION
 40
0.0
  9
$PELEVATION
 40
0.0
  9
$THICKNESS
 40
0.0
  9
$LIMCHECK
 70
     0
  9
$CHAMFERA
 40
0.0
  9
$CHAMFERB
 40
0.0
  9
$CHAMFERC
 40
0.0
  9
$CHAMFERD
 40
0.0
  9
$SKPOLY
 70
     0
  9
$TDCREATE
 40
2454638.718208542
  9
$TDUCREATE
 40
2454638.634875208
  9
$TDUPDATE
 40
2456209.818593923
  9
$TDUUPDATE
 40
2456209.73526059
  9
$TDINDWG
 40
0.0562865278
  9
$TDUSRTIMER
 40
0.0562865278
  9
$USRTIMER
 70
     1
  9
$ANGBASE
 50
0.0
  9
$ANGDIR
 70
     0
  9
$PDMODE
 70
     0
  9
$PDSIZE
 40
0.0
  9
$PLINEWID
 40
0.0
  9
$SPLFRAME
 70
     0
  9
$SPLINETYPE
 70
     6
  9
$SPLINESEGS
 70
     8
  9
$HANDSEED
  5
E23
  9
$SURFTAB1
 70
     6
  9
$SURFTAB2
 70
     6
  9
$SURFTYPE
 70
     6
  9
$SURFU
 70
     6
  9
$SURFV
 70
     6
  9
$UCSBASE
  2

  9
$UCSNAME
  2

  9
$UCSORG
 10
0.0
 20
0.0
 30
0.0
  9
$UCSXDIR
 10
1.0
 20
0.0
 30
0.0
  9
$UCSYDIR
 10
0.0
 20
1.0
 30
0.0
  9
$UCSORTHOREF
  2

  9
$UCSORTHOVIEW
 70
     0
  9
$UCSORGTOP
 10
0.0
 20
0.0
 30
0.0
  9
$UCSORGBOTTOM
 10
0.0
 20
0.0
 30
0.0
  9
$UCSORGLEFT
 10
0.0
 20
0.0
 30
0.0
  9
$UCSORGRIGHT
 10
0.0
 20
0.0
 30
0.0
  9
$UCSORGFRONT
 10
0.0
 20
0.0
 30
0.0
  9
$UCSORGBACK
 10
0.0
 20
0.0
 30
0.0
  9
$PUCSBASE
  2

  9
$PUCSNAME
  2

  9
$PUCSORG
 10
0.0
 20
0.0
 30
0.0
  9
$PUCSXDIR
 10
1.0
 20
0.0
 30
0.0
  9
$PUCSYDIR
 10
0.0
 20
1.0
 30
0.0
  9
$PUCSORTHOREF
  2

  9
$PUCSORTHOVIEW
 70
     0
  9
$PUCSORGTOP
 10
0.0
 20
0.0
 30
0.0
  9
$PUCSORGBOTTOM
 10
0.0
 20
0.0
 30
0.0
  9
$PUCSORGLEFT
 10
0.0
 20
0.0
 30
0.0
  9
$PUCSORGRIGHT
 10
0.0
 20
0.0
 30
0.0
  9
$PUCSORGFRONT
 10
0.0
 20
0.0
 30
0.0
  9
$PUCSORGBACK
 10
0.0
 20
0.0
 30
0.0
  9
$USERI1
 70
     0
  9
$USERI2
 70
     0
  9
$USERI3
 70
     0
  9
$USERI4
 70
     0
  9
$USERI5
 70
     0
  9
$USERR1
 40
0.0
  9
$USERR2
 40
0.0
  9
$USERR3
 40
0.0
  9
$USERR4
 40
0.0
  9
$USERR5
 40
0.0
  9
$WORLDVIEW
 70
     1
  9
$SHADEDGE
 70
     3
  9
$SHADEDIF
 70
    70
  9
$TILEMODE
 70
     1
  9
$MAXACTVP
 70
    64
  9
$PINSBASE
 10
0.0
 20
0.0
 30
0.0
  9
$PLIMCHECK
 70
     0
  9
$PEXTMIN
 10
1.000000000000E+20
 20
1.000000000000E+20
 30
1.000000000000E+20
  9
$PEXTMAX
 10
-1.000000000000E+20
 20
-1.000000000000E+20
 30
-1.000000000000E+20
  9
$PLIMMIN
 10
0.0
 20
0.0
  9
$PLIMMAX
 10
12.0
 20
9.0
  9
$UNITMODE
 70
     0
  9
$VISRETAIN
 70
     1
  9
$PLINEGEN
 70
     0
  9
$PSLTSCALE
 70
     1
  9
$TREEDEPTH
 70
  3020
  9
$CMLSTYLE
  2
STANDARD
  9
$CMLJUST
 70
     0
  9
$CMLSCALE
 40
1.0
  9
$PROXYGRAPHICS
 70
     1
  9
$MEASUREMENT
 70
     0
  9
$CELWEIGHT
370
    -1
  9
$ENDCAPS
280
     0
  9
$JOINSTYLE
280
     0
  9
$LWDISPLAY
290
     0
  9
$INSUNITS
 70
     0
  9
$HYPERLINKBASE
  1

  9
$STYLESHEET
  1

  9
$XEDIT
290
     1
  9
$CEPSNTYPE
380
     0
  9
$PSTYLEMODE
290
     1
  9
$FINGERPRINTGUID
  2
{3C12CEF8-5207-4378-B504-268BD9525F2C}
  9
$VERSIONGUID
  2
{D0541C02-C512-487E-A58D-07DD5D90417F}
  9
$EXTNAMES
290
     1
  9
$PSVPSCALE
 40
0.0
  9
$OLESTARTUP
290
     0
  0
ENDSEC
  0
SECTION
  2
CLASSES
  0
CLASS
  1
ACDBDICTIONARYWDFLT
  2
AcDbDictionaryWithDefault
  3
ObjectDBX Classes
 90
        0
280
     0
281
     0
  0
CLASS
  1
ACDBPLACEHOLDER
  2
AcDbPlaceHolder
  3
ObjectDBX Classes
 90
        0
280
     0
281
     0
  0
CLASS
  1
LAYOUT
  2
AcDbLayout
  3
ObjectDBX Classes
 90
        0
280
     0
281
     0
  0
CLASS
  1
DICTIONARYVAR
  2
AcDbDictionaryVar
  3
ObjectDBX Classes
 90
        0
280
     0
281
     0
  0
CLASS
  1
DUMMY
  2
AcDbLongTransaction
  3
DUMMY
 90
        0
280
     0
281
     0
  0
CLASS
  1
LWPOLYLINE
  2
AcDbPolyline
  3
AutoCAD 2000
 90
        0
280
     0
281
     1
  0
CLASS
  1
HATCH
  2
AcDbHatch
  3
AutoCAD 2000
 90
        0
280
     0
281
     1
  0
CLASS
  1
XRECORD
  2
AcDbXrecord
  3
AutoCAD 2000
 90
        0
280
     0
281
     0
  0
CLASS
  1
SCALE
  2
AcDbScale
  3
ObjectDBX Classes
 90
     1153
280
     0
281
     0
  0
ENDSEC
  0
SECTION
  2
TABLES
  0
TABLE
  2
VPORT
  5
8
330
0
100
AcDbSymbolTable
 70
     1
  0
VPORT
  5
435
330
8
100
AcDbSymbolTableRecord
100
AcDbViewportTableRecord
  2
*ACTIVE
 70
     0
 10
0.0
 20
0.0
 11
1.0
 21
1.0
 12
107.669715399445
 22
142.0
 13
0.0
 23
0.0
 14
1.0
 24
1.0
 15
0.0
 25
0.0
 16
0.0
 26
0.0
 36
1.0
 17
0.0
 27
0.0
 37
0.0
 40
289.68
 41
2.271724137931
 42
50.0
 43
0.0
 44
0.0
 50
0.0
 51
0.0
 71
    16
 72
   100
 73
     1
 74
     3
 75
     0
 76
     0
 77
     0
 78
     0
281
     0
 65
     1
110
0.0
120
0.0
130
0.0
111
1.0
121
0.0
131
0.0
112
0.0
122
1.0
132
0.0
 79
     0
146
0.0
  0
ENDTAB
  0
TABLE
  2
LTYPE
  5
5
330
0
100
AcDbSymbolTable
 70
     1
  0
LTYPE
  5
13
330
5
100
AcDbSymbolTableRecord
100
AcDbLinetypeTableRecord
  2
BYBLOCK
 70
     0
  3

 72
    65
 73
     0
 40
0.0
  0
LTYPE
  5
14
330
5
100
AcDbSymbolTableRecord
100
AcDbLinetypeTableRecord
  2
BYLAYER
 70
     0
  3

 72
    65
 73
     0
 40
0.0
  0
LTYPE
  5
15
330
5
100
AcDbSymbolTableRecord
100
AcDbLinetypeTableRecord
  2
CONTINUOUS
 70
     0
  3
Solid line
 72
    65
 73
     0
 40
0.0
  0
ENDTAB
  0
TABLE
  2
LAYER
  5
2
330
0
100
AcDbSymbolTable
 70
     1
  0
LAYER
  5
10
330
2
100
AcDbSymbolTableRecord
100
AcDbLayerTableRecord
  2
0
 70
     0
 62
     7
  6
CONTINUOUS
370
    -3
390
F
  0
ENDTAB
  0
TABLE
  2
STYLE
  5
3
330
0
100
AcDbSymbolTable
 70
     1
  0
STYLE
  5
11
330
3
100
AcDbSymbolTableRecord
100
AcDbTextStyleTableRecord
  2
STANDARD
 70
     0
 40
0.0
 41
1.0
 50
0.0
 71
     0
 42
0.2
  3
txt
  4

  0
ENDTAB
  0
TABLE
  2
VIEW
  5
6
330
0
100
AcDbSymbolTable
 70
     0
  0
ENDTAB
  0
TABLE
  2
UCS
  5
7
330
0
100
AcDbSymbolTable
 70
     0
  0
ENDTAB
  0
TABLE
  2
APPID
  5
9
330
0
100
AcDbSymbolTable
 70
     1
  0
APPID
  5
12
330
9
100
AcDbSymbolTableRecord
100
AcDbRegAppTableRecord
  2
ACAD
 70
     0
  0
ENDTAB
  0
TABLE
  2
DIMSTYLE
  5
A
330
0
100
AcDbSymbolTable
 70
     1
100
AcDbDimStyleTable
  0
DIMSTYLE
105
41B
330
A
100
AcDbSymbolTableRecord
100
AcDbDimStyleTableRecord
  2
STANDARD
 70
     0
340
11
  0
ENDTAB
  0
TABLE
  2
BLOCK_RECORD
  5
1
330
0
100
AcDbSymbolTable
 70
     3
  0
BLOCK_RECORD
  5
1E
330
1
100
AcDbSymbolTableRecord
100
AcDbBlockTableRecord
  2
*MODEL_SPACE
340
45A
  0
BLOCK_RECORD
  5
1A
330
1
100
AcDbSymbolTableRecord
100
AcDbBlockTableRecord
  2
*PAPER_SPACE
340
45B
  0
ENDTAB
  0
ENDSEC
  0
SECTION
  2
BLOCKS
  0
BLOCK
  5
1F
330
1E
100
AcDbEntity
  8
0
100
AcDbBlockBegin
  2
*MODEL_SPACE
 70
     0
 10
0.0
 20
0.0
 30
0.0
  3
*MODEL_SPACE
  1
*MODEL_SPACE
  0
ENDBLK
  5
20
330
1E
100
AcDbEntity
  8
0
100
AcDbBlockEnd
  0
BLOCK
  5
1B
330
1A
100
AcDbEntity
 67
     1
  8
0
100
AcDbBlockBegin
  2
*PAPER_SPACE
 70
     0
 10
0.0
 20
0.0
 30
0.0
  3
*PAPER_SPACE
  1
*PAPER_SPACE
  0
ENDBLK
  5
1C
330
1A
100
AcDbEntity
 67
     1
  8
0
100
AcDbBlockEnd
  0
ENDSEC
  0
SECTION
  2
ENTITIES
  0
LINE
  5
1CA
330
1E
100
AcDbEntity
  8
0
100
AcDbLine
 10
158.30485
 20
9.0
 30
0.0
 11
158.30485
 21
0.0
 31
0.0
  0
LINE
  5
1CF
330
1E
100
AcDbEntity
  8
0
100
AcDbLine
 10
159.12885
 20
0.0
 30
0.0
 11
160.15785
 21
0.0
 31
0.0
  0
LINE
  5
1D2
330
1E
100
AcDbEntity
  8
0
100
AcDbLine
 10
158.81985
 20
9.7
 30
0.0
 11
159.43685
 21
9.7
 31
0.0
  0
LINE
  5
1D3
330
1E
100
AcDbEntity
  8
0
100
AcDbLine
 10
160.05485
 20
10.0
 30
0.0
 11
160.87885
 21
10.0
 31
0.0
  0
LINE
  5
1D4
330
1E
100
AcDbEntity
  8
0
100
AcDbLine
 10
159.53985
 20
10.0
 30
0.0
 11
160.05485
 21
10.0
 31
0.0
  0
LINE
  5
1D5
330
1E
100
AcDbEntity
  8
0
100
AcDbLine
 10
159.43685
 20
9.7
 30
0.0
 11
160.36385
 21
9.7
 31
0.0
  0
LINE
  5
1D6
330
1E
100
AcDbEntity
  8
0
100
AcDbLine
 10
159.33385
 20
10.0
 30
0.0
 11
159.53985
 21
10.0
 31
0.0
  0
LINE
  5
1D9
330
1E
100
AcDbEntity
  8
0
100
AcDbLine
 10
158.61385
 20
9.7
 30
0.0
 11
158.81985
 21
9.7
 31
0.0
  0
LINE
  5
1DA
330
1E
100
AcDbEntity
  8
0
100
AcDbLine
 10
158.51085
 20
0.0
 30
0.0
 11
159.12885
 21
0.0
 31
0.0
  0
LINE
  5
1DB
330
1E
100
AcDbEntity
  8
0
100
AcDbLine
 10
158.30485
 20
0.0
 30
0.0
 11
158.51085
 21
0.0
 31
0.0
  0
LINE
  5
1DC
330
1E
100
AcDbEntity
  8
0
100
AcDbLine
 10
158.30485
 20
0.0
 30
0.0
 11
158.30485
 21
9.0
 31
0.0
  0
LINE
  5
1DF
330
1E
100
AcDbEntity
  8
0
100
AcDbLine
 10
160.15785
 20
0.0
 30
0.0
 11
161.39285
 21
0.0
 31
0.0
  0
LINE
  5
1E0
330
1E
100
AcDbEntity
  8
0
100
AcDbLine
 10
160.87885
 20
10.0
 30
0.0
 11
161.90785
 21
10.0
 31
0.0
  0
LINE
  5
1E1
330
1E
100
AcDbEntity
  8
0
100
AcDbLine
 10
160.36385
 20
9.7
 30
0.0
 11
161.59885
 21
9.7
 31
0.0
  0
LINE
  5
1E2
330
1E
100
AcDbEntity
  8
0
100
AcDbLine
 10
161.90785
 20
10.0
 30
0.0
 11
163.14285
 21
10.0
 31
0.0
  0
LINE
  5
1E3
330
1E
100
AcDbEntity
  8
0
100
AcDbLine
 10
161.59885
 20
9.7
 30
0.0
 11
162.93685
 21
9.7
 31
0.0
  0
LINE
  5
1E6
330
1E
100
AcDbEntity
  8
0
100
AcDbLine
 10
161.39285
 20
0.0
 30
0.0
 11
162.93685
 21
0.0
 31
0.0
  0
LINE
  5
1E9
330
1E
100
AcDbEntity
  8
0
100
AcDbLine
 10
162.93685
 20
0.0
 30
0.0
 11
164.48085
 21
0.0
 31
0.0
  0
LINE
  5
1EA
330
1E
100
AcDbEntity
  8
0
100
AcDbLine
 10
163.14285
 20
10.0
 30
0.0
 11
164.48085
 21
10.0
 31
0.0
  0
LINE
  5
1EB
330
1E
100
AcDbEntity
  8
0
100
AcDbLine
 10
162.93685
 20
9.7
 30
0.0
 11
164.48085
 21
9.7
 31
0.0
  0
LINE
  5
1ED
330
1E
100
AcDbEntity
  8
0
100
AcDbLine
 10
164.48085
 20
10.0
 30
0.0
 11
195.80485
 21
10.0
 31
0.0
  0
LINE
  5
1EE
330
1E
100
AcDbEntity
  8
0
100
AcDbLine
 10
164.48085
 20
9.7
 30
0.0
 11
195.80485
 21
9.7
 31
0.0
  0
LINE
  5
1F0
330
1E
100
AcDbEntity
  8
0
100
AcDbLine
 10
164.48085
 20
0.0
 30
0.0
 11
166.80485
 21
0.0
 31
0.0
  0
LINE
  5
1F1
330
1E
100
AcDbEntity
  8
0
100
AcDbLine
 10
164.48085
 20
0.0
 30
0.0
 11
195.80485
 21
0.0
 31
0.0
  0
LINE
  5
24B
330
1E
100
AcDbEntity
  8
0
100
AcDbLine
 10
195.80485
 20
10.0
 30
0.0
 11
227.12885
 21
10.0
 31
0.0
  0
LINE
  5
24C
330
1E
100
AcDbEntity
  8
0
100
AcDbLine
 10
195.80485
 20
9.7
 30
0.0
 11
227.12885
 21
9.7
 31
0.0
  0
LINE
  5
273
330
1E
100
AcDbEntity
  8
0
100
AcDbLine
 10
195.80485
 20
0.0
 30
0.0
 11
227.12885
 21
0.0
 31
0.0
  0
LINE
  5
279
330
1E
100
AcDbEntity
  8
0
100
AcDbLine
 10
209.911592893425
 20
18.269061509043
 30
0.0
 11
209.80485
 21
50.4
 31
0.0
  0
LINE
  5
27D
330
1E
100
AcDbEntity
  8
0
100
AcDbLine
 10
209.80485
 20
33.5
 30
0.0
 11
211.30485
 21
33.5
 31
0.0
  0
LINE
  5
27E
330
1E
100
AcDbEntity
  8
0
100
AcDbLine
 10
211.30485
 20
33.5
 30
0.0
 11
214.90485
 21
33.5
 31
0.0
  0
LINE
  5
284
330
1E
100
AcDbEntity
  8
0
100
AcDbLine
 10
214.90485
 20
33.5
 30
0.0
 11
217.00485
 21
33.5
 31
0.0
  0
LINE
  5
285
330
1E
100
AcDbEntity
  8
0
100
AcDbLine
 10
209.80485
 20
34.0
 30
0.0
 11
211.00485
 21
34.0
 31
0.0
  0
LINE
  5
286
330
1E
100
AcDbEntity
  8
0
100
AcDbLine
 10
211.00485
 20
34.0
 30
0.0
 11
214.40485
 21
34.0
 31
0.0
  0
LINE
  5
287
330
1E
100
AcDbEntity
  8
0
100
AcDbLine
 10
214.40485
 20
34.0
 30
0.0
 11
216.50485
 21
34.0
 31
0.0
  0
LINE
  5
288
330
1E
100
AcDbEntity
  8
0
100
AcDbLine
 10
216.50485
 20
34.0
 30
0.0
 11
217.30485
 21
34.0
 31
0.0
  0
LINE
  5
289
330
1E
100
AcDbEntity
  8
0
100
AcDbLine
 10
217.00485
 20
33.5
 30
0.0
 11
217.80485
 21
33.5
 31
0.0
  0
LINE
  5
28A
330
1E
100
AcDbEntity
  8
0
100
AcDbLine
 10
217.960304684299
 20
11.027661128108
 30
0.0
 11
217.80485
 21
33.5
 31
0.0
  0
LINE
  5
28C
330
1E
100
AcDbEntity
  8
0
100
AcDbLine
 10
209.80485
 20
37.5
 30
0.0
 11
210.30485
 21
35.5
 31
0.0
  0
LINE
  5
28D
330
1E
100
AcDbEntity
  8
0
100
AcDbLine
 10
210.30485
 20
35.5
 30
0.0
 11
211.30485
 21
34.5
 31
0.0
  0
LINE
  5
28E
330
1E
100
AcDbEntity
  8
0
100
AcDbLine
 10
211.30485
 20
34.5
 30
0.0
 11
212.80485
 21
34.0
 31
0.0
  0
LINE
  5
28F
330
1E
100
AcDbEntity
  8
0
100
AcDbLine
 10
217.30485
 20
34.0
 30
0.0
 11
217.80485
 21
33.5
 31
0.0
  0
LINE
  5
2A2
330
1E
100
AcDbEntity
  8
0
100
AcDbLine
 10
230.21685
 20
0.0
 30
0.0
 11
231.45185
 21
0.0
 31
0.0
  0
LINE
  5
2A3
330
1E
100
AcDbEntity
  8
0
100
AcDbLine
 10
228.67285
 20
0.0
 30
0.0
 11
230.21685
 21
0.0
 31
0.0
  0
LINE
  5
2A4
330
1E
100
AcDbEntity
  8
0
100
AcDbLine
 10
227.12885
 20
0.0
 30
0.0
 11
228.67285
 21
0.0
 31
0.0
  0
LINE
  5
2A5
330
1E
100
AcDbEntity
  8
0
100
AcDbLine
 10
224.80485
 20
0.0
 30
0.0
 11
227.12885
 21
0.0
 31
0.0
  0
LINE
  5
2A6
330
1E
100
AcDbEntity
  8
0
100
AcDbLine
 10
231.45185
 20
0.0
 30
0.0
 11
232.48085
 21
0.0
 31
0.0
  0
LINE
  5
2A7
330
1E
100
AcDbEntity
  8
0
100
AcDbLine
 10
232.48085
 20
0.0
 30
0.0
 11
233.09885
 21
0.0
 31
0.0
  0
LINE
  5
2A9
330
1E
100
AcDbEntity
  8
0
100
AcDbLine
 10
230.01085
 20
9.7
 30
0.0
 11
231.24585
 21
9.7
 31
0.0
  0
LINE
  5
2AA
330
1E
100
AcDbEntity
  8
0
100
AcDbLine
 10
228.67285
 20
9.7
 30
0.0
 11
230.01085
 21
9.7
 31
0.0
  0
LINE
  5
2AB
330
1E
100
AcDbEntity
  8
0
100
AcDbLine
 10
227.12885
 20
9.7
 30
0.0
 11
228.67285
 21
9.7
 31
0.0
  0
LINE
  5
2AC
330
1E
100
AcDbEntity
  8
0
100
AcDbLine
 10
231.24585
 20
9.7
 30
0.0
 11
232.17285
 21
9.7
 31
0.0
  0
LINE
  5
2AD
330
1E
100
AcDbEntity
  8
0
100
AcDbLine
 10
232.17285
 20
9.7
 30
0.0
 11
232.78985
 21
9.7
 31
0.0
  0
LINE
  5
2AE
330
1E
100
AcDbEntity
  8
0
100
AcDbLine
 10
229.70185
 20
10.0
 30
0.0
 11
230.73085
 21
10.0
 31
0.0
  0
LINE
  5
2AF
330
1E
100
AcDbEntity
  8
0
100
AcDbLine
 10
228.46685
 20
10.0
 30
0.0
 11
229.70185
 21
10.0
 31
0.0
  0
LINE
  5
2B0
330
1E
100
AcDbEntity
  8
0
100
AcDbLine
 10
227.12885
 20
10.0
 30
0.0
 11
228.46685
 21
10.0
 31
0.0
  0
LINE
  5
2B1
330
1E
100
AcDbEntity
  8
0
100
AcDbLine
 10
230.73085
 20
10.0
 30
0.0
 11
231.55485
 21
10.0
 31
0.0
  0
LINE
  5
2B2
330
1E
100
AcDbEntity
  8
0
100
AcDbLine
 10
231.55485
 20
10.0
 30
0.0
 11
232.06985
 21
10.0
 31
0.0
  0
LINE
  5
2B3
330
1E
100
AcDbEntity
  8
0
100
AcDbLine
 10
232.06985
 20
10.0
 30
0.0
 11
232.27585
 21
10.0
 31
0.0
  0
LINE
  5
2B4
330
1E
100
AcDbEntity
  8
0
100
AcDbLine
 10
232.27585
 20
10.0
 30
0.0
 11
232.99585
 21
9.7
 31
0.0
  0
LINE
  5
2B5
330
1E
100
AcDbEntity
  8
0
100
AcDbLine
 10
232.78985
 20
9.7
 30
0.0
 11
232.99585
 21
9.7
 31
0.0
  0
LINE
  5
2B6
330
1E
100
AcDbEntity
  8
0
100
AcDbLine
 10
233.30485
 20
9.0
 30
0.0
 11
233.30485
 21
0.0
 31
0.0
  0
LINE
  5
2B7
330
1E
100
AcDbEntity
  8
0
100
AcDbLine
 10
233.09885
 20
0.0
 30
0.0
 11
233.30485
 21
0.0
 31
0.0
  0
LINE
  5
2BA
330
1E
100
AcDbEntity
  8
0
100
AcDbLine
 10
233.30485
 20
0.0
 30
0.0
 11
233.30485
 21
9.0
 31
0.0
  0
LINE
  5
2BD
330
1E
100
AcDbEntity
  8
0
100
AcDbLine
 10
217.80485
 20
33.5
 30
0.0
 11
217.960304684299
 21
11.027661128108
 31
0.0
  0
LINE
  5
2C8
330
1E
100
AcDbEntity
  8
0
100
AcDbLine
 10
181.80485
 20
53.2
 30
0.0
 11
181.80485
 21
55.7
 31
0.0
  0
LINE
  5
2CD
330
1E
100
AcDbEntity
  8
0
100
AcDbLine
 10
181.80485
 20
57.9196
 30
0.0
 11
181.80485
 21
57.2099
 31
0.0
  0
LINE
  5
2CE
330
1E
100
AcDbEntity
  8
0
100
AcDbLine
 10
181.80485
 20
57.9196
 30
0.0
 11
181.80485
 21
58.1224
 31
0.0
  0
LINE
  5
2CF
330
1E
100
AcDbEntity
  8
0
100
AcDbLine
 10
181.80485
 20
57.2099
 30
0.0
 11
181.80485
 21
55.7
 31
0.0
  0
LINE
  5
2D0
330
1E
100
AcDbEntity
  8
0
100
AcDbLine
 10
181.80485
 20
57.2099
 30
0.0
 11
181.80485
 21
57.9196
 31
0.0
  0
LINE
  5
2D1
330
1E
100
AcDbEntity
  8
0
100
AcDbLine
 10
181.80485
 20
58.1941
 30
0.0
 11
181.80485
 21
58.0
 31
0.0
  0
LINE
  5
2D2
330
1E
100
AcDbEntity
  8
0
100
AcDbLine
 10
181.80485
 20
58.1941
 30
0.0
 11
181.80485
 21
58.1224
 31
0.0
  0
LINE
  5
2D3
330
1E
100
AcDbEntity
  8
0
100
AcDbLine
 10
181.80485
 20
58.1941
 30
0.0
 11
181.80485
 21
59.5485
 31
0.0
  0
LINE
  5
2D4
330
1E
100
AcDbEntity
  8
0
100
AcDbLine
 10
181.80485
 20
58.1941
 30
0.0
 11
182.20485
 21
58.1941
 31
0.0
  0
LINE
  5
2D5
330
1E
100
AcDbEntity
  8
0
100
AcDbLine
 10
181.80485
 20
59.5485
 30
0.0
 11
182.07185
 21
59.8194
 31
0.0
  0
LINE
  5
2D6
330
1E
100
AcDbEntity
  8
0
100
AcDbLine
 10
181.80485
 20
59.5485
 30
0.0
 11
181.80485
 21
58.1941
 31
0.0
  0
LINE
  5
2D7
330
1E
100
AcDbEntity
  8
0
100
AcDbLine
 10
181.80485
 20
59.5485
 30
0.0
 11
182.20485
 21
59.5485
 31
0.0
  0
LINE
  5
2D8
330
1E
100
AcDbEntity
  8
0
100
AcDbLine
 10
181.80485
 20
58.1224
 30
0.0
 11
181.80485
 21
58.1941
 31
0.0
  0
LINE
  5
2D9
330
1E
100
AcDbEntity
  8
0
100
AcDbLine
 10
181.80485
 20
58.1224
 30
0.0
 11
181.80485
 21
57.9196
 31
0.0
  0
LINE
  5
2DA
330
1E
100
AcDbEntity
  8
0
100
AcDbLine
 10
181.80485
 20
58.1224
 30
0.0
 11
181.80485
 21
58.0
 31
0.0
  0
LINE
  5
2DB
330
1E
100
AcDbEntity
  8
0
100
AcDbLine
 10
181.80485
 20
58.0
 30
0.0
 11
181.80485
 21
59.5
 31
0.0
  0
LINE
  5
2DD
330
1E
100
AcDbEntity
  8
0
100
AcDbLine
 10
181.80485
 20
58.0
 30
0.0
 11
181.80485
 21
58.1224
 31
0.0
  0
LINE
  5
2DE
330
1E
100
AcDbEntity
  8
0
100
AcDbLine
 10
181.80485
 20
58.0
 30
0.0
 11
181.80485
 21
58.1941
 31
0.0
  0
LINE
  5
2DF
330
1E
100
AcDbEntity
  8
0
100
AcDbLine
 10
181.80485
 20
59.5
 30
0.0
 11
181.80485
 21
58.0
 31
0.0
  0
LINE
  5
2E0
330
1E
100
AcDbEntity
  8
0
100
AcDbLine
 10
181.80485
 20
55.7
 30
0.0
 11
181.80485
 21
57.2099
 31
0.0
  0
LINE
  5
2E1
330
1E
100
AcDbEntity
  8
0
100
AcDbLine
 10
181.80485
 20
55.7
 30
0.0
 11
181.80485
 21
53.2
 31
0.0
  0
LINE
  5
31D
330
1E
100
AcDbEntity
  8
0
100
AcDbLine
 10
209.80485
 20
50.4
 30
0.0
 11
209.911592893425
 21
18.269061509043
 31
0.0
  0
LINE
  5
31E
330
1E
100
AcDbEntity
  8
0
100
AcDbLine
 10
209.80485
 20
50.4
 30
0.0
 11
209.80485
 21
53.2
 31
0.0
  0
LINE
  5
31F
330
1E
100
AcDbEntity
  8
0
100
AcDbLine
 10
209.80485
 20
55.7
 30
0.0
 11
209.80485
 21
53.2
 31
0.0
  0
LINE
  5
320
330
1E
100
AcDbEntity
  8
0
100
AcDbLine
 10
209.80485
 20
53.2
 30
0.0
 11
209.80485
 21
57.2099
 31
0.0
  0
LINE
  5
321
330
1E
100
AcDbEntity
  8
0
100
AcDbLine
 10
209.80485
 20
53.2
 30
0.0
 11
209.80485
 21
50.4
 31
0.0
  0
LINE
  5
322
330
1E
100
AcDbEntity
  8
0
100
AcDbLine
 10
209.80485
 20
57.2099
 30
0.0
 11
209.80485
 21
57.9196
 31
0.0
  0
LINE
  5
323
330
1E
100
AcDbEntity
  8
0
100
AcDbLine
 10
209.80485
 20
57.9196
 30
0.0
 11
209.80485
 21
58.1224
 31
0.0
  0
LINE
  5
324
330
1E
100
AcDbEntity
  8
0
100
AcDbLine
 10
209.80485
 20
57.9196
 30
0.0
 11
209.80485
 21
57.2099
 31
0.0
  0
LINE
  5
326
330
1E
100
AcDbEntity
  8
0
100
AcDbLine
 10
182.20485
 20
58.1941
 30
0.0
 11
183.67185
 21
58.1941
 31
0.0
  0
LINE
  5
327
330
1E
100
AcDbEntity
  8
0
100
AcDbLine
 10
183.67185
 20
58.1941
 30
0.0
 11
185.80485
 21
58.1941
 31
0.0
  0
LINE
  5
328
330
1E
100
AcDbEntity
  8
0
100
AcDbLine
 10
182.20485
 20
59.5485
 30
0.0
 11
183.67185
 21
59.5485
 31
0.0
  0
LINE
  5
329
330
1E
100
AcDbEntity
  8
0
100
AcDbLine
 10
183.67185
 20
59.5485
 30
0.0
 11
185.80485
 21
59.5485
 31
0.0
  0
LINE
  5
32A
330
1E
100
AcDbEntity
  8
0
100
AcDbLine
 10
185.80485
 20
59.5485
 30
0.0
 11
188.87185
 21
59.5485
 31
0.0
  0
LINE
  5
32B
330
1E
100
AcDbEntity
  8
0
100
AcDbLine
 10
188.87185
 20
59.5485
 30
0.0
 11
192.20485
 21
59.5485
 31
0.0
  0
LINE
  5
32C
330
1E
100
AcDbEntity
  8
0
100
AcDbLine
 10
192.20485
 20
59.5485
 30
0.0
 11
195.80485
 21
59.5485
 31
0.0
  0
LINE
  5
32D
330
1E
100
AcDbEntity
  8
0
100
AcDbLine
 10
185.80485
 20
58.1941
 30
0.0
 11
202.73785
 21
58.1941
 31
0.0
  0
LINE
  5
32E
330
1E
100
AcDbEntity
  8
0
100
AcDbLine
 10
202.73785
 20
59.5485
 30
0.0
 11
205.80485
 21
59.5485
 31
0.0
  0
LINE
  5
32F
330
1E
100
AcDbEntity
  8
0
100
AcDbLine
 10
199.40485
 20
59.5485
 30
0.0
 11
202.73785
 21
59.5485
 31
0.0
  0
LINE
  5
330
330
1E
100
AcDbEntity
  8
0
100
AcDbLine
 10
195.80485
 20
59.5485
 30
0.0
 11
199.40485
 21
59.5485
 31
0.0
  0
LINE
  5
331
330
1E
100
AcDbEntity
  8
0
100
AcDbLine
 10
207.93785
 20
58.1941
 30
0.0
 11
209.40485
 21
58.1941
 31
0.0
  0
LINE
  5
332
330
1E
100
AcDbEntity
  8
0
100
AcDbLine
 10
207.93785
 20
59.5485
 30
0.0
 11
209.40485
 21
59.5485
 31
0.0
  0
LINE
  5
333
330
1E
100
AcDbEntity
  8
0
100
AcDbLine
 10
205.80485
 20
59.5485
 30
0.0
 11
207.93785
 21
59.5485
 31
0.0
  0
LINE
  5
334
330
1E
100
AcDbEntity
  8
0
100
AcDbLine
 10
205.80485
 20
58.1941
 30
0.0
 11
207.93785
 21
58.1941
 31
0.0
  0
LINE
  5
335
330
1E
100
AcDbEntity
  8
0
100
AcDbLine
 10
202.73785
 20
58.1941
 30
0.0
 11
205.80485
 21
58.1941
 31
0.0
  0
LINE
  5
336
330
1E
100
AcDbEntity
  8
0
100
AcDbLine
 10
183.00485
 20
60.0
 30
0.0
 11
184.20485
 21
60.0
 31
0.0
  0
LINE
  5
337
330
1E
100
AcDbEntity
  8
0
100
AcDbLine
 10
184.20485
 20
60.0
 30
0.0
 11
186.33785
 21
60.0
 31
0.0
  0
LINE
  5
338
330
1E
100
AcDbEntity
  8
0
100
AcDbLine
 10
186.33785
 20
60.0
 30
0.0
 11
189.13785
 21
60.0
 31
0.0
  0
LINE
  5
339
330
1E
100
AcDbEntity
  8
0
100
AcDbLine
 10
189.13785
 20
60.0
 30
0.0
 11
192.33785
 21
60.0
 31
0.0
  0
LINE
  5
33A
330
1E
100
AcDbEntity
  8
0
100
AcDbLine
 10
192.33785
 20
60.0
 30
0.0
 11
195.80485
 21
60.0
 31
0.0
  0
LINE
  5
33B
330
1E
100
AcDbEntity
  8
0
100
AcDbLine
 10
208.60485
 20
60.0
 30
0.0
 11
209.13785
 21
60.0
 31
0.0
  0
LINE
  5
33C
330
1E
100
AcDbEntity
  8
0
100
AcDbLine
 10
207.40485
 20
60.0
 30
0.0
 11
208.60485
 21
60.0
 31
0.0
  0
LINE
  5
33D
330
1E
100
AcDbEntity
  8
0
100
AcDbLine
 10
205.27185
 20
60.0
 30
0.0
 11
207.40485
 21
60.0
 31
0.0
  0
LINE
  5
33E
330
1E
100
AcDbEntity
  8
0
100
AcDbLine
 10
202.47185
 20
60.0
 30
0.0
 11
205.27185
 21
60.0
 31
0.0
  0
LINE
  5
33F
330
1E
100
AcDbEntity
  8
0
100
AcDbLine
 10
199.27185
 20
60.0
 30
0.0
 11
202.47185
 21
60.0
 31
0.0
  0
LINE
  5
340
330
1E
100
AcDbEntity
  8
0
100
AcDbLine
 10
195.80485
 20
60.0
 30
0.0
 11
199.27185
 21
60.0
 31
0.0
  0
LINE
  5
341
330
1E
100
AcDbEntity
  8
0
100
AcDbLine
 10
182.47185
 20
60.0
 30
0.0
 11
183.00485
 21
60.0
 31
0.0
  0
LINE
  5
342
330
1E
100
AcDbEntity
  8
0
100
AcDbLine
 10
182.07185
 20
59.8194
 30
0.0
 11
182.47185
 21
60.0
 31
0.0
  0
LINE
  5
343
330
1E
100
AcDbEntity
  8
0
100
AcDbLine
 10
209.40485
 20
59.5485
 30
0.0
 11
209.80485
 21
59.5485
 31
0.0
  0
LINE
  5
344
330
1E
100
AcDbEntity
  8
0
100
AcDbLine
 10
209.40485
 20
58.1941
 30
0.0
 11
209.80485
 21
58.1941
 31
0.0
  0
LINE
  5
345
330
1E
100
AcDbEntity
  8
0
100
AcDbLine
 10
209.80485
 20
58.1941
 30
0.0
 11
209.80485
 21
58.0
 31
0.0
  0
LINE
  5
346
330
1E
100
AcDbEntity
  8
0
100
AcDbLine
 10
209.80485
 20
58.1941
 30
0.0
 11
209.80485
 21
59.5485
 31
0.0
  0
LINE
  5
347
330
1E
100
AcDbEntity
  8
0
100
AcDbLine
 10
209.80485
 20
67.0
 30
0.0
 11
211.80485
 21
67.0
 31
0.0
  0
LINE
  5
348
330
1E
100
AcDbEntity
  8
0
100
AcDbLine
 10
209.53785
 20
59.8194
 30
0.0
 11
209.80485
 21
59.5485
 31
0.0
  0
LINE
  5
349
330
1E
100
AcDbEntity
  8
0
100
AcDbLine
 10
209.13785
 20
60.0
 30
0.0
 11
209.53785
 21
59.8194
 31
0.0
  0
LINE
  5
34A
330
1E
100
AcDbEntity
  8
0
100
AcDbLine
 10
209.80485
 20
58.1224
 30
0.0
 11
209.80485
 21
58.1941
 31
0.0
  0
LINE
  5
34B
330
1E
100
AcDbEntity
  8
0
100
AcDbLine
 10
209.80485
 20
58.1224
 30
0.0
 11
209.80485
 21
57.9196
 31
0.0
  0
LINE
  5
34C
330
1E
100
AcDbEntity
  8
0
100
AcDbLine
 10
212.03585
 20
66.0
 30
0.0
 11
223.57385
 21
66.0
 31
0.0
  0
LINE
  5
34D
330
1E
100
AcDbEntity
  8
0
100
AcDbLine
 10
211.80485
 20
66.624
 30
0.0
 11
211.80485
 21
67.248
 31
0.0
  0
LINE
  5
34E
330
1E
100
AcDbEntity
  8
0
100
AcDbLine
 10
211.80485
 20
66.624
 30
0.0
 11
211.80485
 21
66.24
 31
0.0
  0
LINE
  5
34F
330
1E
100
AcDbEntity
  8
0
100
AcDbLine
 10
211.80485
 20
66.624
 30
0.0
 11
211.80485
 21
67.0
 31
0.0
  0
LINE
  5
350
330
1E
100
AcDbEntity
  8
0
100
AcDbLine
 10
211.80485
 20
66.24
 30
0.0
 11
211.80485
 21
66.624
 31
0.0
  0
LINE
  5
351
330
1E
100
AcDbEntity
  8
0
100
AcDbLine
 10
211.80485
 20
66.24
 30
0.0
 11
211.80485
 21
66.096
 31
0.0
  0
LINE
  5
352
330
1E
100
AcDbEntity
  8
0
100
AcDbLine
 10
211.80485
 20
66.096
 30
0.0
 11
211.80485
 21
66.24
 31
0.0
  0
LINE
  5
353
330
1E
100
AcDbEntity
  8
0
100
AcDbLine
 10
211.80485
 20
66.096
 30
0.0
 11
212.03585
 21
66.0
 31
0.0
  0
LINE
  5
354
330
1E
100
AcDbEntity
  8
0
100
AcDbLine
 10
223.80485
 20
66.096
 30
0.0
 11
223.80485
 21
66.24
 31
0.0
  0
LINE
  5
355
330
1E
100
AcDbEntity
  8
0
100
AcDbLine
 10
211.80485
 20
67.0
 30
0.0
 11
211.80485
 21
66.624
 31
0.0
  0
LINE
  5
356
330
1E
100
AcDbEntity
  8
0
100
AcDbLine
 10
211.80485
 20
67.0
 30
0.0
 11
211.80485
 21
67.108
 31
0.0
  0
LINE
  5
357
330
1E
100
AcDbEntity
  8
0
100
AcDbLine
 10
223.80485
 20
66.624
 30
0.0
 11
223.80485
 21
66.24
 31
0.0
  0
LINE
  5
358
330
1E
100
AcDbEntity
  8
0
100
AcDbLine
 10
223.80485
 20
66.624
 30
0.0
 11
223.80485
 21
67.248
 31
0.0
  0
LINE
  5
359
330
1E
100
AcDbEntity
  8
0
100
AcDbLine
 10
223.80485
 20
66.24
 30
0.0
 11
223.80485
 21
66.096
 31
0.0
  0
LINE
  5
35A
330
1E
100
AcDbEntity
  8
0
100
AcDbLine
 10
223.80485
 20
66.24
 30
0.0
 11
223.80485
 21
66.624
 31
0.0
  0
LINE
  5
35B
330
1E
100
AcDbEntity
  8
0
100
AcDbLine
 10
223.57385
 20
66.0
 30
0.0
 11
223.80485
 21
66.096
 31
0.0
  0
LINE
  5
35C
330
1E
100
AcDbEntity
  8
0
100
AcDbLine
 10
209.80485
 20
59.5485
 30
0.0
 11
209.80485
 21
72.892
 31
0.0
  0
LINE
  5
35D
330
1E
100
AcDbEntity
  8
0
100
AcDbLine
 10
209.80485
 20
59.5485
 30
0.0
 11
209.80485
 21
58.1941
 31
0.0
  0
LINE
  5
35E
330
1E
100
AcDbEntity
  8
0
100
AcDbLine
 10
209.80485
 20
73.0
 30
0.0
 11
211.80485
 21
73.0
 31
0.0
  0
LINE
  5
35F
330
1E
100
AcDbEntity
  8
0
100
AcDbLine
 10
211.80485
 20
67.108
 30
0.0
 11
211.80485
 21
67.396
 31
0.0
  0
LINE
  5
360
330
1E
100
AcDbEntity
  8
0
100
AcDbLine
 10
211.80485
 20
67.248
 30
0.0
 11
211.80485
 21
68.064
 31
0.0
  0
LINE
  5
361
330
1E
100
AcDbEntity
  8
0
100
AcDbLine
 10
211.80485
 20
67.248
 30
0.0
 11
211.80485
 21
66.624
 31
0.0
  0
LINE
  5
362
330
1E
100
AcDbEntity
  8
0
100
AcDbLine
 10
211.80485
 20
68.512
 30
0.0
 11
211.80485
 21
69.232
 31
0.0
  0
LINE
  5
363
330
1E
100
AcDbEntity
  8
0
100
AcDbLine
 10
211.80485
 20
67.876
 30
0.0
 11
211.80485
 21
68.512
 31
0.0
  0
LINE
  5
364
330
1E
100
AcDbEntity
  8
0
100
AcDbLine
 10
211.80485
 20
67.396
 30
0.0
 11
211.80485
 21
67.876
 31
0.0
  0
LINE
  5
365
330
1E
100
AcDbEntity
  8
0
100
AcDbLine
 10
211.80485
 20
68.992
 30
0.0
 11
211.80485
 21
70.0
 31
0.0
  0
LINE
  5
366
330
1E
100
AcDbEntity
  8
0
100
AcDbLine
 10
211.80485
 20
68.992
 30
0.0
 11
211.80485
 21
68.064
 31
0.0
  0
LINE
  5
367
330
1E
100
AcDbEntity
  8
0
100
AcDbLine
 10
211.80485
 20
68.064
 30
0.0
 11
211.80485
 21
68.992
 31
0.0
  0
LINE
  5
368
330
1E
100
AcDbEntity
  8
0
100
AcDbLine
 10
211.80485
 20
68.064
 30
0.0
 11
211.80485
 21
67.248
 31
0.0
  0
LINE
  5
369
330
1E
100
AcDbEntity
  8
0
100
AcDbLine
 10
211.80485
 20
69.232
 30
0.0
 11
211.80485
 21
70.0
 31
0.0
  0
LINE
  5
36A
330
1E
100
AcDbEntity
  8
0
100
AcDbLine
 10
211.80485
 20
70.768
 30
0.0
 11
211.80485
 21
71.488
 31
0.0
  0
LINE
  5
36B
330
1E
100
AcDbEntity
  8
0
100
AcDbLine
 10
211.80485
 20
71.488
 30
0.0
 11
211.80485
 21
72.124
 31
0.0
  0
LINE
  5
36C
330
1E
100
AcDbEntity
  8
0
100
AcDbLine
 10
211.80485
 20
71.008
 30
0.0
 11
211.80485
 21
71.936
 31
0.0
  0
LINE
  5
36D
330
1E
100
AcDbEntity
  8
0
100
AcDbLine
 10
211.80485
 20
71.008
 30
0.0
 11
211.80485
 21
70.0
 31
0.0
  0
LINE
  5
36E
330
1E
100
AcDbEntity
  8
0
100
AcDbLine
 10
211.80485
 20
72.124
 30
0.0
 11
211.80485
 21
72.604
 31
0.0
  0
LINE
  5
36F
330
1E
100
AcDbEntity
  8
0
100
AcDbLine
 10
211.80485
 20
72.604
 30
0.0
 11
211.80485
 21
72.892
 31
0.0
  0
LINE
  5
370
330
1E
100
AcDbEntity
  8
0
100
AcDbLine
 10
211.80485
 20
72.892
 30
0.0
 11
211.80485
 21
73.0
 31
0.0
  0
LINE
  5
371
330
1E
100
AcDbEntity
  8
0
100
AcDbLine
 10
211.80485
 20
73.0
 30
0.0
 11
211.80485
 21
73.376
 31
0.0
  0
LINE
  5
372
330
1E
100
AcDbEntity
  8
0
100
AcDbLine
 10
211.80485
 20
71.936
 30
0.0
 11
211.80485
 21
72.752
 31
0.0
  0
LINE
  5
373
330
1E
100
AcDbEntity
  8
0
100
AcDbLine
 10
211.80485
 20
71.936
 30
0.0
 11
211.80485
 21
71.008
 31
0.0
  0
LINE
  5
374
330
1E
100
AcDbEntity
  8
0
100
AcDbLine
 10
211.80485
 20
72.752
 30
0.0
 11
211.80485
 21
73.376
 31
0.0
  0
LINE
  5
375
330
1E
100
AcDbEntity
  8
0
100
AcDbLine
 10
211.80485
 20
72.752
 30
0.0
 11
211.80485
 21
71.936
 31
0.0
  0
LINE
  5
376
330
1E
100
AcDbEntity
  8
0
100
AcDbLine
 10
211.80485
 20
73.376
 30
0.0
 11
211.80485
 21
73.76
 31
0.0
  0
LINE
  5
377
330
1E
100
AcDbEntity
  8
0
100
AcDbLine
 10
211.80485
 20
73.376
 30
0.0
 11
211.80485
 21
72.752
 31
0.0
  0
LINE
  5
378
330
1E
100
AcDbEntity
  8
0
100
AcDbLine
 10
211.80485
 20
73.376
 30
0.0
 11
211.80485
 21
73.0
 31
0.0
  0
LINE
  5
379
330
1E
100
AcDbEntity
  8
0
100
AcDbLine
 10
211.80485
 20
73.76
 30
0.0
 11
211.80485
 21
73.904
 31
0.0
  0
LINE
  5
37A
330
1E
100
AcDbEntity
  8
0
100
AcDbLine
 10
211.80485
 20
73.76
 30
0.0
 11
211.80485
 21
73.376
 31
0.0
  0
LINE
  5
37B
330
1E
100
AcDbEntity
  8
0
100
AcDbLine
 10
211.80485
 20
73.904
 30
0.0
 11
212.03585
 21
74.0
 31
0.0
  0
LINE
  5
37C
330
1E
100
AcDbEntity
  8
0
100
AcDbLine
 10
211.80485
 20
73.904
 30
0.0
 11
211.80485
 21
73.76
 31
0.0
  0
LINE
  5
37D
330
1E
100
AcDbEntity
  8
0
100
AcDbLine
 10
223.80485
 20
71.008
 30
0.0
 11
223.80485
 21
70.0
 31
0.0
  0
LINE
  5
37E
330
1E
100
AcDbEntity
  8
0
100
AcDbLine
 10
223.80485
 20
71.008
 30
0.0
 11
223.80485
 21
71.936
 31
0.0
  0
LINE
  5
37F
330
1E
100
AcDbEntity
  8
0
100
AcDbLine
 10
223.80485
 20
71.936
 30
0.0
 11
223.80485
 21
71.008
 31
0.0
  0
LINE
  5
380
330
1E
100
AcDbEntity
  8
0
100
AcDbLine
 10
223.80485
 20
71.936
 30
0.0
 11
223.80485
 21
72.752
 31
0.0
  0
LINE
  5
381
330
1E
100
AcDbEntity
  8
0
100
AcDbLine
 10
223.80485
 20
72.752
 30
0.0
 11
223.80485
 21
71.936
 31
0.0
  0
LINE
  5
382
330
1E
100
AcDbEntity
  8
0
100
AcDbLine
 10
223.80485
 20
72.752
 30
0.0
 11
223.80485
 21
73.376
 31
0.0
  0
LINE
  5
383
330
1E
100
AcDbEntity
  8
0
100
AcDbLine
 10
223.80485
 20
73.376
 30
0.0
 11
223.80485
 21
72.752
 31
0.0
  0
LINE
  5
384
330
1E
100
AcDbEntity
  8
0
100
AcDbLine
 10
223.80485
 20
73.376
 30
0.0
 11
223.80485
 21
73.76
 31
0.0
  0
LINE
  5
385
330
1E
100
AcDbEntity
  8
0
100
AcDbLine
 10
223.80485
 20
73.76
 30
0.0
 11
223.80485
 21
73.376
 31
0.0
  0
LINE
  5
386
330
1E
100
AcDbEntity
  8
0
100
AcDbLine
 10
223.80485
 20
73.76
 30
0.0
 11
223.80485
 21
73.904
 31
0.0
  0
LINE
  5
387
330
1E
100
AcDbEntity
  8
0
100
AcDbLine
 10
223.57385
 20
74.0
 30
0.0
 11
223.80485
 21
73.904
 31
0.0
  0
LINE
  5
388
330
1E
100
AcDbEntity
  8
0
100
AcDbLine
 10
223.80485
 20
73.904
 30
0.0
 11
223.80485
 21
73.76
 31
0.0
  0
LINE
  5
389
330
1E
100
AcDbEntity
  8
0
100
AcDbLine
 10
212.03585
 20
74.0
 30
0.0
 11
223.57385
 21
74.0
 31
0.0
  0
LINE
  5
38A
330
1E
100
AcDbEntity
  8
0
100
AcDbLine
 10
211.80485
 20
70.0
 30
0.0
 11
211.80485
 21
68.992
 31
0.0
  0
LINE
  5
38B
330
1E
100
AcDbEntity
  8
0
100
AcDbLine
 10
211.80485
 20
70.0
 30
0.0
 11
211.80485
 21
71.008
 31
0.0
  0
LINE
  5
38C
330
1E
100
AcDbEntity
  8
0
100
AcDbLine
 10
211.80485
 20
70.0
 30
0.0
 11
211.80485
 21
70.768
 31
0.0
  0
LINE
  5
38D
330
1E
100
AcDbEntity
  8
0
100
AcDbLine
 10
223.80485
 20
70.0
 30
0.0
 11
223.80485
 21
68.992
 31
0.0
  0
LINE
  5
38E
330
1E
100
AcDbEntity
  8
0
100
AcDbLine
 10
223.80485
 20
70.0
 30
0.0
 11
223.80485
 21
71.008
 31
0.0
  0
LINE
  5
38F
330
1E
100
AcDbEntity
  8
0
100
AcDbLine
 10
223.80485
 20
68.992
 30
0.0
 11
223.80485
 21
68.064
 31
0.0
  0
LINE
  5
390
330
1E
100
AcDbEntity
  8
0
100
AcDbLine
 10
223.80485
 20
68.992
 30
0.0
 11
223.80485
 21
70.0
 31
0.0
  0
LINE
  5
391
330
1E
100
AcDbEntity
  8
0
100
AcDbLine
 10
223.80485
 20
68.064
 30
0.0
 11
223.80485
 21
67.248
 31
0.0
  0
LINE
  5
392
330
1E
100
AcDbEntity
  8
0
100
AcDbLine
 10
223.80485
 20
68.064
 30
0.0
 11
223.80485
 21
68.992
 31
0.0
  0
LINE
  5
393
330
1E
100
AcDbEntity
  8
0
100
AcDbLine
 10
223.80485
 20
67.248
 30
0.0
 11
223.80485
 21
66.624
 31
0.0
  0
LINE
  5
394
330
1E
100
AcDbEntity
  8
0
100
AcDbLine
 10
223.80485
 20
67.248
 30
0.0
 11
223.80485
 21
68.064
 31
0.0
  0
LINE
  5
395
330
1E
100
AcDbEntity
  8
0
100
AcDbLine
 10
209.80485
 20
72.892
 30
0.0
 11
209.80485
 21
217.0
 31
0.0
  0
LINE
  5
396
330
1E
100
AcDbEntity
  8
0
100
AcDbLine
 10
209.80485
 20
72.892
 30
0.0
 11
209.80485
 21
59.5485
 31
0.0
  0
LINE
  5
3D1
330
1E
100
AcDbEntity
  8
0
100
AcDbLine
 10
50.734936119368
 20
177.072360135309
 30
0.0
 11
80.90485
 21
242.64
 31
0.0
  0
LINE
  5
3E4
330
1E
100
AcDbEntity
  8
0
100
AcDbLine
 10
75.534522429694
 20
164.258866920897
 30
0.0
 11
106.77385
 21
231.925
 31
0.0
  0
LINE
  5
3EC
330
1E
100
AcDbEntity
  8
0
100
AcDbLine
 10
106.77385
 20
231.925
 30
0.0
 11
109.02985
 21
236.5
 31
0.0
  0
LINE
  5
3ED
330
1E
100
AcDbEntity
  8
0
100
AcDbLine
 10
80.90485
 20
242.64
 30
0.0
 11
84.78085
 21
250.5
 31
0.0
  0
LINE
  5
3EE
330
1E
100
AcDbEntity
  8
0
100
AcDbLine
 10
111.86385
 20
240.742
 30
0.0
 11
115.22785
 21
244.577
 31
0.0
  0
LINE
  5
3EF
330
1E
100
AcDbEntity
  8
0
100
AcDbLine
 10
109.02985
 20
236.5
 30
0.0
 11
111.86385
 21
240.742
 31
0.0
  0
LINE
  5
3F0
330
1E
100
AcDbEntity
  8
0
100
AcDbLine
 10
115.22785
 20
244.577
 30
0.0
 11
119.06285
 21
247.941
 31
0.0
  0
LINE
  5
3F1
330
1E
100
AcDbEntity
  8
0
100
AcDbLine
 10
181.80485
 20
217.0
 30
0.0
 11
181.80485
 21
51.631513903563
 31
0.0
  0
LINE
  5
3F2
330
1E
100
AcDbEntity
  8
0
100
AcDbLine
 10
181.47085
 20
222.091
 30
0.0
 11
181.80485
 21
217.0
 31
0.0
  0
LINE
  5
3F3
330
1E
100
AcDbEntity
  8
0
100
AcDbLine
 10
178.83585
 20
231.925
 30
0.0
 11
180.47585
 21
227.094
 31
0.0
  0
LINE
  5
3F4
330
1E
100
AcDbEntity
  8
0
100
AcDbLine
 10
176.57985
 20
236.5
 30
0.0
 11
178.83585
 21
231.925
 31
0.0
  0
LINE
  5
3F5
330
1E
100
AcDbEntity
  8
0
100
AcDbLine
 10
204.70485
 20
242.64
 30
0.0
 11
207.52185
 21
234.341
 31
0.0
  0
LINE
  5
3F6
330
1E
100
AcDbEntity
  8
0
100
AcDbLine
 10
207.52185
 20
234.341
 30
0.0
 11
209.23185
 21
225.745
 31
0.0
  0
LINE
  5
3F7
330
1E
100
AcDbEntity
  8
0
100
AcDbLine
 10
180.47585
 20
227.094
 30
0.0
 11
181.47085
 21
222.091
 31
0.0
  0
LINE
  5
3F8
330
1E
100
AcDbEntity
  8
0
100
AcDbLine
 10
209.23185
 20
225.745
 30
0.0
 11
209.80485
 21
217.0
 31
0.0
  0
LINE
  5
3F9
330
1E
100
AcDbEntity
  8
0
100
AcDbLine
 10
173.74585
 20
240.742
 30
0.0
 11
176.57985
 21
236.5
 31
0.0
  0
LINE
  5
3FA
330
1E
100
AcDbEntity
  8
0
100
AcDbLine
 10
89.64985
 20
257.787
 30
0.0
 11
95.42885
 21
264.376
 31
0.0
  0
LINE
  5
3FB
330
1E
100
AcDbEntity
  8
0
100
AcDbLine
 10
84.78085
 20
250.5
 30
0.0
 11
89.64985
 21
257.787
 31
0.0
  0
LINE
  5
3FC
330
1E
100
AcDbEntity
  8
0
100
AcDbLine
 10
95.42885
 20
264.376
 30
0.0
 11
102.01785
 21
270.155
 31
0.0
  0
LINE
  5
3FD
330
1E
100
AcDbEntity
  8
0
100
AcDbLine
 10
102.01785
 20
270.155
 30
0.0
 11
109.30485
 21
275.024
 31
0.0
  0
LINE
  5
3FE
330
1E
100
AcDbEntity
  8
0
100
AcDbLine
 10
119.06285
 20
247.941
 30
0.0
 11
123.30485
 21
250.775
 31
0.0
  0
LINE
  5
3FF
330
1E
100
AcDbEntity
  8
0
100
AcDbLine
 10
123.30485
 20
250.775
 30
0.0
 11
127.87985
 21
253.031
 31
0.0
  0
LINE
  5
400
330
1E
100
AcDbEntity
  8
0
100
AcDbLine
 10
137.71385
 20
255.666
 30
0.0
 11
142.80485
 21
256.0
 31
0.0
  0
LINE
  5
401
330
1E
100
AcDbEntity
  8
0
100
AcDbLine
 10
132.71085
 20
254.671
 30
0.0
 11
137.71385
 21
255.666
 31
0.0
  0
LINE
  5
402
330
1E
100
AcDbEntity
  8
0
100
AcDbLine
 10
127.87985
 20
253.031
 30
0.0
 11
132.71085
 21
254.671
 31
0.0
  0
LINE
  5
403
330
1E
100
AcDbEntity
  8
0
100
AcDbLine
 10
109.30485
 20
275.024
 30
0.0
 11
117.16485
 21
278.9
 31
0.0
  0
LINE
  5
404
330
1E
100
AcDbEntity
  8
0
100
AcDbLine
 10
134.05985
 20
283.427
 30
0.0
 11
142.80485
 21
284.0
 31
0.0
  0
LINE
  5
405
330
1E
100
AcDbEntity
  8
0
100
AcDbLine
 10
125.46385
 20
281.717
 30
0.0
 11
134.05985
 21
283.427
 31
0.0
  0
LINE
  5
406
330
1E
100
AcDbEntity
  8
0
100
AcDbLine
 10
117.16485
 20
278.9
 30
0.0
 11
125.46385
 21
281.717
 31
0.0
  0
LINE
  5
407
330
1E
100
AcDbEntity
  8
0
100
AcDbLine
 10
152.89885
 20
254.671
 30
0.0
 11
157.72985
 21
253.031
 31
0.0
  0
LINE
  5
408
330
1E
100
AcDbEntity
  8
0
100
AcDbLine
 10
157.72985
 20
253.031
 30
0.0
 11
162.30485
 21
250.775
 31
0.0
  0
LINE
  5
409
330
1E
100
AcDbEntity
  8
0
100
AcDbLine
 10
166.54685
 20
247.941
 30
0.0
 11
170.38185
 21
244.577
 31
0.0
  0
LINE
  5
40A
330
1E
100
AcDbEntity
  8
0
100
AcDbLine
 10
162.30485
 20
250.775
 30
0.0
 11
166.54685
 21
247.941
 31
0.0
  0
LINE
  5
40B
330
1E
100
AcDbEntity
  8
0
100
AcDbLine
 10
183.59185
 20
270.155
 30
0.0
 11
190.18085
 21
264.376
 31
0.0
  0
LINE
  5
40C
330
1E
100
AcDbEntity
  8
0
100
AcDbLine
 10
160.14585
 20
281.717
 30
0.0
 11
168.44485
 21
278.9
 31
0.0
  0
LINE
  5
40D
330
1E
100
AcDbEntity
  8
0
100
AcDbLine
 10
168.44485
 20
278.9
 30
0.0
 11
176.30485
 21
275.024
 31
0.0
  0
LINE
  5
40E
330
1E
100
AcDbEntity
  8
0
100
AcDbLine
 10
176.30485
 20
275.024
 30
0.0
 11
183.59185
 21
270.155
 31
0.0
  0
LINE
  5
40F
330
1E
100
AcDbEntity
  8
0
100
AcDbLine
 10
151.54985
 20
283.427
 30
0.0
 11
160.14585
 21
281.717
 31
0.0
  0
LINE
  5
410
330
1E
100
AcDbEntity
  8
0
100
AcDbLine
 10
147.89585
 20
255.666
 30
0.0
 11
152.89885
 21
254.671
 31
0.0
  0
LINE
  5
411
330
1E
100
AcDbEntity
  8
0
100
AcDbLine
 10
142.80485
 20
256.0
 30
0.0
 11
147.89585
 21
255.666
 31
0.0
  0
LINE
  5
412
330
1E
100
AcDbEntity
  8
0
100
AcDbLine
 10
142.80485
 20
284.0
 30
0.0
 11
151.54985
 21
283.427
 31
0.0
  0
LINE
  5
413
330
1E
100
AcDbEntity
  8
0
100
AcDbLine
 10
200.82885
 20
250.5
 30
0.0
 11
204.70485
 21
242.64
 31
0.0
  0
LINE
  5
414
330
1E
100
AcDbEntity
  8
0
100
AcDbLine
 10
195.95985
 20
257.787
 30
0.0
 11
200.82885
 21
250.5
 31
0.0
  0
LINE
  5
415
330
1E
100
AcDbEntity
  8
0
100
AcDbLine
 10
190.18085
 20
264.376
 30
0.0
 11
195.95985
 21
257.787
 31
0.0
  0
LINE
  5
416
330
1E
100
AcDbEntity
  8
0
100
AcDbLine
 10
170.38185
 20
244.577
 30
0.0
 11
173.74585
 21
240.742
 31
0.0
  0
LINE
  5
417
330
1E
100
AcDbEntity
  8
0
100
AcDbLine
 10
209.80485
 20
217.0
 30
0.0
 11
209.80485
 21
72.892
 31
0.0
  0
LINE
  5
41F
330
1E
100
AcDbEntity
  8
0
100
AcDbLine
 10
181.882909432208
 20
58.159720304288
 30
0.0
 11
182.282167632797
 21
52.345746378696
 31
0.0
  0
LINE
  5
420
330
1E
100
AcDbEntity
  8
0
100
AcDbLine
 10
182.282167632797
 20
52.345746378696
 30
0.0
 11
183.765130296405
 21
49.096760583687
 31
0.0
  0
LINE
  5
421
330
1E
100
AcDbEntity
  8
0
100
AcDbLine
 10
183.765130296405
 20
49.096760583687
 30
0.0
 11
186.160683738264
 21
47.158769966494
 31
0.0
  0
LINE
  5
422
330
1E
100
AcDbEntity
  8
0
100
AcDbLine
 10
186.160683738264
 20
47.158769966494
 30
0.0
 11
188.955495380712
 21
46.189773620891
 31
0.0
  0
LINE
  5
423
330
1E
100
AcDbEntity
  8
0
100
AcDbLine
 10
188.955495380712
 20
46.189773620891
 30
0.0
 11
192.491788354964
 21
45.961775090753
 31
0.0
  0
LINE
  5
424
330
1E
100
AcDbEntity
  8
0
100
AcDbLine
 10
192.491788354964
 20
45.961775090753
 30
0.0
 11
199.27919047995
 21
46.018773167777
 31
0.0
  0
LINE
  5
425
330
1E
100
AcDbEntity
  8
0
100
AcDbLine
 10
199.27919047995
 20
46.018773167777
 30
0.0
 11
202.929557831273
 21
46.417772151028
 31
0.0
  0
LINE
  5
426
330
1E
100
AcDbEntity
  8
0
100
AcDbLine
 10
202.929557831273
 20
46.417772151028
 30
0.0
 11
206.693999559668
 21
47.557766875732
 31
0.0
  0
LINE
  5
427
330
1E
100
AcDbEntity
  8
0
100
AcDbLine
 10
206.693999559668
 20
47.557766875732
 30
0.0
 11
208.405110977418
 21
49.324759113824
 31
0.0
  0
LINE
  5
428
330
1E
100
AcDbEntity
  8
0
100
AcDbLine
 10
208.405110977418
 20
49.324759113824
 30
0.0
 11
209.317701755669
 21
52.402746529735
 31
0.0
  0
LINE
  5
429
330
1E
100
AcDbEntity
  8
0
100
AcDbLine
 10
209.317701755669
 20
52.402746529735
 30
0.0
 11
209.659924886883
 21
58.045720002212
 31
0.0
  0
LINE
  5
42A
330
1E
100
AcDbEntity
  8
0
100
AcDbLine
 10
158.30485
 20
9.0
 30
0.0
 11
158.61385
 21
9.7
 31
0.0
  0
LINE
  5
42B
330
1E
100
AcDbEntity
  8
0
100
AcDbLine
 10
158.61385
 20
9.7
 30
0.0
 11
159.33385
 21
10.0
 31
0.0
  0
LINE
  5
42C
330
1E
100
AcDbEntity
  8
0
100
AcDbLine
 10
232.99585
 20
9.7
 30
0.0
 11
233.30485
 21
9.0
 31
0.0
  0
LINE
  5
BF4
330
1E
100
AcDbEntity
  8
0
100
AcDbLine
 10
-17.26391920111
 20
181.863391553462
 30
0.0
 11
-16.13901920111
 21
181.339391553462
 31
0.0
  0
LINE
  5
BF5
330
1E
100
AcDbEntity
  8
0
100
AcDbLine
 10
-17.72661920111
 20
182.080391553462
 30
0.0
 11
-17.26391920111
 21
181.863391553462
 31
0.0
  0
LINE
  5
BF6
330
1E
100
AcDbEntity
  8
0
100
AcDbLine
 10
-14.76991920111
 20
179.597391553462
 30
0.0
 11
-14.381083635204
 21
180.431465004701
 31
0.0
  0
LINE
  5
BF7
330
1E
100
AcDbEntity
  8
0
100
AcDbLine
 10
-14.76991920111
 20
179.597391553462
 30
0.0
 11
-14.10851920111
 21
179.288391553462
 31
0.0
  0
LINE
  5
BF8
330
1E
100
AcDbEntity
  8
0
100
AcDbLine
 10
-15.742007843871
 20
181.154162358483
 30
0.0
 11
-14.394245284088
 21
180.403232551523
 31
0.0
  0
LINE
  5
BF9
330
1E
100
AcDbEntity
  8
0
100
AcDbLine
 10
-15.742007843871
 20
181.154162358483
 30
0.0
 11
-14.394245284088
 21
180.403232551523
 31
0.0
  0
LINE
  5
BFA
330
1E
100
AcDbEntity
  8
0
100
AcDbLine
 10
-12.71567920111
 20
178.639391553462
 30
0.0
 11
-12.655562594487
 21
178.611352679185
 31
0.0
  0
LINE
  5
BFB
330
1E
100
AcDbEntity
  8
0
100
AcDbLine
 10
-12.71567920111
 20
178.639391553462
 30
0.0
 11
-12.655562594487
 21
178.611352679185
 31
0.0
  0
LINE
  5
BFC
330
1E
100
AcDbEntity
  8
0
100
AcDbLine
 10
-12.962601288216
 20
178.754451425304
 30
0.0
 11
-12.88515920111
 21
178.718391553462
 31
0.0
  0
LINE
  5
BFD
330
1E
100
AcDbEntity
  8
0
100
AcDbLine
 10
-12.962590959518
 20
178.754473579876
 30
0.0
 11
-12.88515920111
 21
178.718391553462
 31
0.0
  0
LINE
  5
BFE
330
1E
100
AcDbEntity
  8
0
100
AcDbLine
 10
-12.34099920111
 20
178.464391553462
 30
0.0
 11
-11.936882294811
 21
179.33119303364
 31
0.0
  0
LINE
  5
BFF
330
1E
100
AcDbEntity
  8
0
100
AcDbLine
 10
-12.34099920111
 20
178.464391553462
 30
0.0
 11
-11.19507920111
 21
177.930391553462
 31
0.0
  0
LINE
  5
C00
330
1E
100
AcDbEntity
  8
0
100
AcDbLine
 10
-13.715989962634
 20
179.105467700958
 30
0.0
 11
-13.54661920111
 21
179.026391553462
 31
0.0
  0
LINE
  5
C01
330
1E
100
AcDbEntity
  8
0
100
AcDbLine
 10
-13.715989962635
 20
179.105467700958
 30
0.0
 11
-13.54661920111
 21
179.026391553462
 31
0.0
  0
LINE
  5
C02
330
1E
100
AcDbEntity
  8
0
100
AcDbLine
 10
-14.10851920111
 20
179.288391553462
 30
0.0
 11
-13.741816563621
 21
180.074979362135
 31
0.0
  0
LINE
  5
C03
330
1E
100
AcDbEntity
  8
0
100
AcDbLine
 10
-14.10851920111
 20
179.288391553462
 30
0.0
 11
-12.96262920111
 21
178.754391553462
 31
0.0
  0
LINE
  5
C04
330
1E
100
AcDbEntity
  8
0
100
AcDbLine
 10
-13.54661920111
 20
179.026391553462
 30
0.0
 11
-13.156072385427
 21
178.844538653467
 31
0.0
  0
LINE
  5
C05
330
1E
100
AcDbEntity
  8
0
100
AcDbLine
 10
-13.54661920111
 20
179.026391553462
 30
0.0
 11
-13.156072385427
 21
178.844538653467
 31
0.0
  0
LINE
  5
C06
330
1E
100
AcDbEntity
  8
0
100
AcDbLine
 10
-13.00239920111
 20
178.773391553462
 30
0.0
 11
-12.631733384376
 21
179.568013743517
 31
0.0
  0
LINE
  5
C07
330
1E
100
AcDbEntity
  8
0
100
AcDbLine
 10
-13.00239920111
 20
178.773391553462
 30
0.0
 11
-12.34099920111
 21
178.464391553462
 31
0.0
  0
LINE
  5
C08
330
1E
100
AcDbEntity
  8
0
100
AcDbLine
 10
-14.22071920111
 20
180.444391553462
 30
0.0
 11
-11.77292920111
 21
179.303391553462
 31
0.0
  0
LINE
  5
C09
330
1E
100
AcDbEntity
  8
0
100
AcDbLine
 10
-16.13901920111
 20
181.339391553462
 30
0.0
 11
-14.22071920111
 21
180.444391553462
 31
0.0
  0
LINE
  5
C0A
330
1E
100
AcDbEntity
  8
0
100
AcDbLine
 10
-16.13901920111
 20
181.339391553462
 30
0.0
 11
-15.742007843871
 21
181.154162358483
 31
0.0
  0
LINE
  5
C0B
330
1E
100
AcDbEntity
  8
0
100
AcDbLine
 10
-16.13901920111
 20
181.339391553462
 30
0.0
 11
-15.742007843871
 21
181.154162358483
 31
0.0
  0
LINE
  5
C0C
330
1E
100
AcDbEntity
  8
0
100
AcDbLine
 10
-11.736107947224
 20
178.182511553484
 30
0.0
 11
-11.57075920111
 21
178.105391553462
 31
0.0
  0
LINE
  5
C0D
330
1E
100
AcDbEntity
  8
0
100
AcDbLine
 10
-11.736107947224
 20
178.182511553484
 30
0.0
 11
-11.57075920111
 21
178.105391553462
 31
0.0
  0
LINE
  5
C0E
330
1E
100
AcDbEntity
  8
0
100
AcDbLine
 10
-11.57075920111
 20
178.105391553462
 30
0.0
 11
-11.505564761219
 21
178.075078171287
 31
0.0
  0
LINE
  5
C0F
330
1E
100
AcDbEntity
  8
0
100
AcDbLine
 10
-11.57075920111
 20
178.105391553462
 30
0.0
 11
-11.505564761219
 21
178.075078171287
 31
0.0
  0
LINE
  5
C10
330
1E
100
AcDbEntity
  8
0
100
AcDbLine
 10
-11.1949563961
 20
177.930654964426
 30
0.0
 11
-10.90834920111
 21
177.797391553462
 31
0.0
  0
LINE
  5
C11
330
1E
100
AcDbEntity
  8
0
100
AcDbLine
 10
-11.194843080415
 20
177.930898021234
 30
0.0
 11
-10.90834920111
 21
177.797391553462
 31
0.0
  0
LINE
  5
C12
330
1E
100
AcDbEntity
  8
0
100
AcDbLine
 10
-11.19507920111
 20
177.930391553462
 30
0.0
 11
-10.832939208536
 21
178.707164785368
 31
0.0
  0
LINE
  5
C13
330
1E
100
AcDbEntity
  8
0
100
AcDbLine
 10
-10.939587688126
 20
178.478408818428
 30
0.0
 11
-9.429802530376
 21
177.637205248236
 31
0.0
  0
LINE
  5
C14
330
1E
100
AcDbEntity
  8
0
100
AcDbLine
 10
-10.90834920111
 20
177.797391553462
 30
0.0
 11
-10.66265222502
 21
178.324109314897
 31
0.0
  0
LINE
  5
C15
330
1E
100
AcDbEntity
  8
0
100
AcDbLine
 10
-10.939587688126
 20
178.478408818428
 30
0.0
 11
-9.429802530376
 21
177.637205248236
 31
0.0
  0
LINE
  5
C16
330
1E
100
AcDbEntity
  8
0
100
AcDbLine
 10
-11.77292920111
 20
179.303391553462
 30
0.0
 11
-8.46489920111
 21
177.761391553462
 31
0.0
  0
LINE
  5
C17
330
1E
100
AcDbEntity
  8
0
100
AcDbLine
 10
-11.87983920111
 20
180.456391553462
 30
0.0
 11
-8.57179920111
 21
178.914391553462
 31
0.0
  0
LINE
  5
C18
330
1E
100
AcDbEntity
  8
0
100
AcDbLine
 10
-14.45951920111
 20
181.659391553462
 30
0.0
 11
-11.87983920111
 21
180.456391553462
 31
0.0
  0
LINE
  5
C19
330
1E
100
AcDbEntity
  8
0
100
AcDbLine
 10
-16.31181920111
 20
182.523391553462
 30
0.0
 11
-14.45951920111
 21
181.659391553462
 31
0.0
  0
LINE
  5
C1A
330
1E
100
AcDbEntity
  8
0
100
AcDbLine
 10
-17.50271920111
 20
183.078391553462
 30
0.0
 11
-16.31181920111
 21
182.523391553462
 31
0.0
  0
LINE
  5
C1B
330
1E
100
AcDbEntity
  8
0
100
AcDbLine
 10
-17.96541920111
 20
183.295391553462
 30
0.0
 11
-17.50271920111
 21
183.078391553462
 31
0.0
  0
LINE
  5
C1C
330
1E
100
AcDbEntity
  8
0
100
AcDbLine
 10
-17.96541920111
 20
183.295391553462
 30
0.0
 11
-9.09034920111
 21
202.327391553462
 31
0.0
  0
LINE
  5
C1D
330
1E
100
AcDbEntity
  8
0
100
AcDbLine
 10
-17.96541920111
 20
183.295391553462
 30
0.0
 11
-17.72661920111
 21
182.080391553462
 31
0.0
  0
LINE
  5
C1E
330
1E
100
AcDbEntity
  8
0
100
AcDbLine
 10
-10.158135728442
 20
178.550674215695
 30
0.0
 11
-9.209884895701
 21
178.108658035646
 31
0.0
  0
LINE
  5
C1F
330
1E
100
AcDbEntity
  8
0
100
AcDbLine
 10
-9.63262920111
 20
177.202391553462
 30
0.0
 11
-9.242578031534
 21
178.038571477829
 31
0.0
  0
LINE
  5
C20
330
1E
100
AcDbEntity
  8
0
100
AcDbLine
 10
-9.63262920111
 20
177.202391553462
 30
0.0
 11
-8.97122920111
 21
176.893391553462
 31
0.0
  0
LINE
  5
C21
330
1E
100
AcDbEntity
  8
0
100
AcDbLine
 10
-9.63262920111
 20
177.202391553462
 30
0.0
 11
-8.48770920111
 21
176.667391553462
 31
0.0
  0
LINE
  5
C22
330
1E
100
AcDbEntity
  8
0
100
AcDbLine
 10
-10.05247920111
 20
178.501391553462
 30
0.0
 11
-6.87732920111
 21
177.020391553462
 31
0.0
  0
LINE
  5
C23
330
1E
100
AcDbEntity
  8
0
100
AcDbLine
 10
-10.158135728442
 20
178.550674215695
 30
0.0
 11
-10.05247920111
 21
178.501391553462
 31
0.0
  0
LINE
  5
C24
330
1E
100
AcDbEntity
  8
0
100
AcDbLine
 10
-10.158135728442
 20
178.550674215695
 30
0.0
 11
-9.209884895701
 21
178.108658035646
 31
0.0
  0
LINE
  5
C25
330
1E
100
AcDbEntity
  8
0
100
AcDbLine
 10
-10.158135728442
 20
178.550674215695
 30
0.0
 11
-10.05247920111
 21
178.501391553462
 31
0.0
  0
LINE
  5
C26
330
1E
100
AcDbEntity
  8
0
100
AcDbLine
 10
140.61488079889
 20
52.512791553462
 30
0.0
 11
141.05088079889
 21
52.967191553462
 31
0.0
  0
LINE
  5
C27
330
1E
100
AcDbEntity
  8
0
100
AcDbLine
 10
141.05088079889
 20
52.967191553462
 30
0.0
 11
141.99588079889
 21
53.758891553462
 31
0.0
  0
LINE
  5
C28
330
1E
100
AcDbEntity
  8
0
100
AcDbLine
 10
140.56788079889
 20
51.663691553462
 30
0.0
 11
140.96588079889
 21
50.456191553462
 31
0.0
  0
LINE
  5
C29
330
1E
100
AcDbEntity
  8
0
100
AcDbLine
 10
140.56788079889
 20
51.663691553462
 30
0.0
 11
140.61488079889
 21
52.512791553462
 31
0.0
  0
LINE
  5
C2A
330
1E
100
AcDbEntity
  8
0
100
AcDbLine
 10
140.96588079889
 20
50.456191553462
 30
0.0
 11
153.02988079889
 21
36.162791553462
 31
0.0
  0
LINE
  5
C2B
330
1E
100
AcDbEntity
  8
0
100
AcDbLine
 10
141.52088079889
 20
54.233291553462
 30
0.0
 11
141.89688079889
 21
54.587791553462
 31
0.0
  0
LINE
  5
C2C
330
1E
100
AcDbEntity
  8
0
100
AcDbLine
 10
141.52088079889
 20
54.233291553462
 30
0.0
 11
142.464209333985
 21
54.148329513215
 31
0.0
  0
LINE
  5
C2D
330
1E
100
AcDbEntity
  8
0
100
AcDbLine
 10
141.89688079889
 20
54.587791553462
 30
0.0
 11
142.77688079889
 21
55.341891553462
 31
0.0
  0
LINE
  5
C2E
330
1E
100
AcDbEntity
  8
0
100
AcDbLine
 10
142.77688079889
 20
55.341891553462
 30
0.0
 11
144.20088079889
 21
56.583591553462
 31
0.0
  0
LINE
  5
C2F
330
1E
100
AcDbEntity
  8
0
100
AcDbLine
 10
144.20088079889
 20
56.583591553462
 30
0.0
 11
146.09088079889
 21
58.136591553462
 31
0.0
  0
LINE
  5
C30
330
1E
100
AcDbEntity
  8
0
100
AcDbLine
 10
146.09088079889
 20
58.136591553462
 30
0.0
 11
148.35688079889
 21
60.044091553462
 31
0.0
  0
LINE
  5
C31
330
1E
100
AcDbEntity
  8
0
100
AcDbLine
 10
148.35688079889
 20
60.044091553462
 30
0.0
 11
150.66088079889
 21
62.039891553462
 31
0.0
  0
LINE
  5
C32
330
1E
100
AcDbEntity
  8
0
100
AcDbLine
 10
150.66088079889
 20
62.039891553462
 30
0.0
 11
153.05488079889
 21
63.992391553462
 31
0.0
  0
LINE
  5
C33
330
1E
100
AcDbEntity
  8
0
100
AcDbLine
 10
153.53388079889
 20
35.542091553462
 30
0.0
 11
170.74888079889
 21
15.055891553462
 31
0.0
  0
LINE
  5
C34
330
1E
100
AcDbEntity
  8
0
100
AcDbLine
 10
153.05488079889
 20
63.992391553462
 30
0.0
 11
155.28088079889
 21
65.811691553462
 31
0.0
  0
LINE
  5
C35
330
1E
100
AcDbEntity
  8
0
100
AcDbLine
 10
155.28088079889
 20
65.811691553462
 30
0.0
 11
157.21088079889
 21
67.452891553462
 31
0.0
  0
LINE
  5
C36
330
1E
100
AcDbEntity
  8
0
100
AcDbLine
 10
157.288469452634
 20
66.507155002722
 30
0.0
 11
157.59488079889
 21
66.760091553462
 31
0.0
  0
LINE
  5
C37
330
1E
100
AcDbEntity
  8
0
100
AcDbLine
 10
157.21088079889
 20
67.452891553462
 30
0.0
 11
158.63488079889
 21
68.694591553462
 31
0.0
  0
LINE
  5
C38
330
1E
100
AcDbEntity
  8
0
100
AcDbLine
 10
158.63488079889
 20
68.694591553462
 30
0.0
 11
159.51488079889
 21
69.448591553462
 31
0.0
  0
LINE
  5
C39
330
1E
100
AcDbEntity
  8
0
100
AcDbLine
 10
159.800193900207
 20
68.662484580569
 30
0.0
 11
159.85188079889
 21
69.714891553462
 31
0.0
  0
LINE
  5
C3A
330
1E
100
AcDbEntity
  8
0
100
AcDbLine
 10
159.51488079889
 20
69.448591553462
 30
0.0
 11
159.85188079889
 21
69.714891553462
 31
0.0
  0
LINE
  5
C3B
330
1E
100
AcDbEntity
  8
0
100
AcDbLine
 10
-8.97122920111
 20
176.893391553462
 30
0.0
 11
-8.596799967128
 21
177.696524629522
 31
0.0
  0
LINE
  5
C3C
330
1E
100
AcDbEntity
  8
0
100
AcDbLine
 10
-8.97122920111
 20
176.893391553462
 30
0.0
 11
-8.596799967128
 21
177.696524629522
 31
0.0
  0
LINE
  5
C3D
330
1E
100
AcDbEntity
  8
0
100
AcDbLine
 10
-8.97122920111
 20
176.893391553462
 30
0.0
 11
-7.82530920111
 21
176.359391553462
 31
0.0
  0
LINE
  5
C3E
330
1E
100
AcDbEntity
  8
0
100
AcDbLine
 10
-8.48770920111
 20
176.667391553462
 30
0.0
 11
-7.82530920111
 21
176.359391553462
 31
0.0
  0
LINE
  5
C3F
330
1E
100
AcDbEntity
  8
0
100
AcDbLine
 10
-8.46489920111
 20
177.761391553462
 30
0.0
 11
-4.62833920111
 21
175.971391553462
 31
0.0
  0
LINE
  5
C40
330
1E
100
AcDbEntity
  8
0
100
AcDbLine
 10
-8.57179920111
 20
178.914391553462
 30
0.0
 11
-4.66834920111
 21
177.094391553462
 31
0.0
  0
LINE
  5
C41
330
1E
100
AcDbEntity
  8
0
100
AcDbLine
 10
-9.09034920111
 20
202.327391553462
 30
0.0
 11
-8.00631920111
 21
202.924391553462
 31
0.0
  0
LINE
  5
C42
330
1E
100
AcDbEntity
  8
0
100
AcDbLine
 10
-7.82530920111
 20
176.359391553462
 30
0.0
 11
-7.487796669765
 21
177.08334004067
 31
0.0
  0
LINE
  5
C43
330
1E
100
AcDbEntity
  8
0
100
AcDbLine
 10
-7.82530920111
 20
176.359391553462
 30
0.0
 11
-7.683257147104
 21
176.66408652047
 31
0.0
  0
LINE
  5
C44
330
1E
100
AcDbEntity
  8
0
100
AcDbLine
 10
-7.01417920111
 20
175.429391553462
 30
0.0
 11
-6.687085394584
 21
176.130992366523
 31
0.0
  0
LINE
  5
C45
330
1E
100
AcDbEntity
  8
0
100
AcDbLine
 10
-7.01417920111
 20
175.429391553462
 30
0.0
 11
-6.35277920111
 21
175.121391553462
 31
0.0
  0
LINE
  5
C46
330
1E
100
AcDbEntity
  8
0
100
AcDbLine
 10
-7.01417920111
 20
175.429391553462
 30
0.0
 11
-6.137067363081
 21
175.020652890297
 31
0.0
  0
LINE
  5
C47
330
1E
100
AcDbEntity
  8
0
100
AcDbLine
 10
-7.683257147104
 20
176.66408652047
 30
0.0
 11
-5.847684807621
 21
175.64136484554
 31
0.0
  0
LINE
  5
C48
330
1E
100
AcDbEntity
  8
0
100
AcDbLine
 10
-7.683257147104
 20
176.66408652047
 30
0.0
 11
-5.847684807621
 21
175.64136484554
 31
0.0
  0
LINE
  5
C49
330
1E
100
AcDbEntity
  8
0
100
AcDbLine
 10
-7.402723177737
 20
177.265818675197
 30
0.0
 11
-6.380391730875
 21
176.788835833828
 31
0.0
  0
LINE
  5
C4A
330
1E
100
AcDbEntity
  8
0
100
AcDbLine
 10
-6.87732920111
 20
177.020391553462
 30
0.0
 11
-3.17264920111
 21
175.292391553462
 31
0.0
  0
LINE
  5
C4B
330
1E
100
AcDbEntity
  8
0
100
AcDbLine
 10
-6.35277920111
 20
175.121391553462
 30
0.0
 11
-6.047371849825
 21
175.776114614993
 31
0.0
  0
LINE
  5
C4C
330
1E
100
AcDbEntity
  8
0
100
AcDbLine
 10
-6.35277920111
 20
175.121391553462
 30
0.0
 11
-6.047371849825
 21
175.776114614993
 31
0.0
  0
LINE
  5
C4D
330
1E
100
AcDbEntity
  8
0
100
AcDbLine
 10
-6.35277920111
 20
175.121391553462
 30
0.0
 11
-6.137056465602
 21
175.020676264876
 31
0.0
  0
LINE
  5
C4E
330
1E
100
AcDbEntity
  8
0
100
AcDbLine
 10
-5.47577920111
 20
174.711391553462
 30
0.0
 11
-5.264311033842
 21
175.164980814804
 31
0.0
  0
LINE
  5
C4F
330
1E
100
AcDbEntity
  8
0
100
AcDbLine
 10
-5.47577920111
 20
174.711391553462
 30
0.0
 11
-4.33085920111
 21
174.177391553462
 31
0.0
  0
LINE
  5
C50
330
1E
100
AcDbEntity
  8
0
100
AcDbLine
 10
-6.13718920111
 20
175.020391553462
 30
0.0
 11
-5.807952457539
 21
175.726588865579
 31
0.0
  0
LINE
  5
C51
330
1E
100
AcDbEntity
  8
0
100
AcDbLine
 10
-6.13718920111
 20
175.020391553462
 30
0.0
 11
-5.47577920111
 21
174.711391553462
 31
0.0
  0
LINE
  5
C52
330
1E
100
AcDbEntity
  8
0
100
AcDbLine
 10
-5.28019920111
 20
175.172391553462
 30
0.0
 11
-4.85778785964
 21
176.078443990741
 31
0.0
  0
LINE
  5
C53
330
1E
100
AcDbEntity
  8
0
100
AcDbLine
 10
-5.28019920111
 20
175.172391553462
 30
0.0
 11
-3.95738920111
 21
174.555391553462
 31
0.0
  0
LINE
  5
C54
330
1E
100
AcDbEntity
  8
0
100
AcDbLine
 10
-5.28019920111
 20
175.172391553462
 30
0.0
 11
-4.925592781617
 21
175.933005625844
 31
0.0
  0
LINE
  5
C55
330
1E
100
AcDbEntity
  8
0
100
AcDbLine
 10
-5.28019920111
 20
175.172391553462
 30
0.0
 11
-4.85778785964
 21
176.078443990741
 31
0.0
  0
LINE
  5
C56
330
1E
100
AcDbEntity
  8
0
100
AcDbLine
 10
-4.330394214075
 20
174.178388928756
 30
0.0
 11
-4.02116920111
 21
174.034391553462
 31
0.0
  0
LINE
  5
C57
330
1E
100
AcDbEntity
  8
0
100
AcDbLine
 10
-4.02116920111
 20
174.034391553462
 30
0.0
 11
-3.802986541893
 21
174.502124952853
 31
0.0
  0
LINE
  5
C58
330
1E
100
AcDbEntity
  8
0
100
AcDbLine
 10
-4.02116920111
 20
174.034391553462
 30
0.0
 11
-3.802986541893
 21
174.502124952853
 31
0.0
  0
LINE
  5
C59
330
1E
100
AcDbEntity
  8
0
100
AcDbLine
 10
-4.330355214479
 20
174.178472581055
 30
0.0
 11
-4.02116920111
 21
174.034391553462
 31
0.0
  0
LINE
  5
C5A
330
1E
100
AcDbEntity
  8
0
100
AcDbLine
 10
-4.33085920111
 20
174.177391553462
 30
0.0
 11
-4.119401194899
 21
174.630959019816
 31
0.0
  0
LINE
  5
C5B
330
1E
100
AcDbEntity
  8
0
100
AcDbLine
 10
-3.95738920111
 20
174.555391553462
 30
0.0
 11
-3.534868912666
 21
175.461666954763
 31
0.0
  0
LINE
  5
C5C
330
1E
100
AcDbEntity
  8
0
100
AcDbLine
 10
-3.95738920111
 20
174.555391553462
 30
0.0
 11
-3.647185230783
 21
175.220756591264
 31
0.0
  0
LINE
  5
C5D
330
1E
100
AcDbEntity
  8
0
100
AcDbLine
 10
-3.59526920111
 20
174.386391553462
 30
0.0
 11
-2.777132278333
 21
173.954985488097
 31
0.0
  0
LINE
  5
C5E
330
1E
100
AcDbEntity
  8
0
100
AcDbLine
 10
-3.59526920111
 20
174.386391553462
 30
0.0
 11
-2.777132278333
 21
173.954985488097
 31
0.0
  0
LINE
  5
C5F
330
1E
100
AcDbEntity
  8
0
100
AcDbLine
 10
-3.945264692014
 20
174.581397746885
 30
0.0
 11
-3.59526920111
 21
174.386391553462
 31
0.0
  0
LINE
  5
C60
330
1E
100
AcDbEntity
  8
0
100
AcDbLine
 10
-3.387447119501
 20
175.39294582429
 30
0.0
 11
-2.335623707004
 21
174.902635047213
 31
0.0
  0
LINE
  5
C61
330
1E
100
AcDbEntity
  8
0
100
AcDbLine
 10
-3.387447119501
 20
175.39294582429
 30
0.0
 11
-2.335623707004
 21
174.902635047213
 31
0.0
  0
LINE
  5
C62
330
1E
100
AcDbEntity
  8
0
100
AcDbLine
 10
-3.17264920111
 20
175.292391553462
 30
0.0
 11
0.99458079889
 21
173.349391553462
 31
0.0
  0
LINE
  5
C63
330
1E
100
AcDbEntity
  8
0
100
AcDbLine
 10
-4.62833920111
 20
175.971391553462
 30
0.0
 11
-0.19631920111
 21
173.905391553462
 31
0.0
  0
LINE
  5
C64
330
1E
100
AcDbEntity
  8
0
100
AcDbLine
 10
-4.66834920111
 20
177.094391553462
 30
0.0
 11
-0.17041920111
 21
174.996391553462
 31
0.0
  0
LINE
  5
C65
330
1E
100
AcDbEntity
  8
0
100
AcDbLine
 10
-2.30801920111
 20
173.235391553462
 30
0.0
 11
-1.998513312176
 21
173.898932337594
 31
0.0
  0
LINE
  5
C66
330
1E
100
AcDbEntity
  8
0
100
AcDbLine
 10
-2.30801920111
 20
173.235391553462
 30
0.0
 11
-1.16201920111
 21
172.700391553462
 31
0.0
  0
LINE
  5
C67
330
1E
100
AcDbEntity
  8
0
100
AcDbLine
 10
-2.96935920111
 20
173.542391553462
 30
0.0
 11
-2.634044283571
 21
174.262108121624
 31
0.0
  0
LINE
  5
C68
330
1E
100
AcDbEntity
  8
0
100
AcDbLine
 10
-2.96935920111
 20
173.542391553462
 30
0.0
 11
-2.30801920111
 21
173.235391553462
 31
0.0
  0
LINE
  5
C69
330
1E
100
AcDbEntity
  8
0
100
AcDbLine
 10
-2.96935920111
 20
173.542391553462
 30
0.0
 11
-1.82341920111
 21
173.008391553462
 31
0.0
  0
LINE
  5
C6A
330
1E
100
AcDbEntity
  8
0
100
AcDbLine
 10
-2.96935920111
 20
173.542391553462
 30
0.0
 11
-2.777132278333
 21
173.954985488097
 31
0.0
  0
LINE
  5
C6B
330
1E
100
AcDbEntity
  8
0
100
AcDbLine
 10
-1.82341920111
 20
173.008391553462
 30
0.0
 11
-1.16201920111
 21
172.700391553462
 31
0.0
  0
LINE
  5
C6C
330
1E
100
AcDbEntity
  8
0
100
AcDbLine
 10
-1.16201920111
 20
172.700391553462
 30
0.0
 11
-0.896664438328
 21
173.269278006564
 31
0.0
  0
LINE
  5
C6D
330
1E
100
AcDbEntity
  8
0
100
AcDbLine
 10
-1.01117170952
 20
173.023789157298
 30
0.0
 11
1.665764857686
 21
171.61223243673
 31
0.0
  0
LINE
  5
C6E
330
1E
100
AcDbEntity
  8
0
100
AcDbLine
 10
-1.01117170952
 20
173.023789157298
 30
0.0
 11
1.665764857686
 21
171.61223243673
 31
0.0
  0
LINE
  5
C6F
330
1E
100
AcDbEntity
  8
0
100
AcDbLine
 10
-0.527862648378
 20
174.059941569494
 30
0.0
 11
-0.19631920111
 21
173.905391553462
 31
0.0
  0
LINE
  5
C70
330
1E
100
AcDbEntity
  8
0
100
AcDbLine
 10
-0.527862648378
 20
174.059941569494
 30
0.0
 11
-0.19631920111
 21
173.905391553462
 31
0.0
  0
LINE
  5
C71
330
1E
100
AcDbEntity
  8
0
100
AcDbLine
 10
-0.19631920111
 20
173.905391553462
 30
0.0
 11
4.69928079889
 21
171.622391553462
 31
0.0
  0
LINE
  5
C72
330
1E
100
AcDbEntity
  8
0
100
AcDbLine
 10
-0.17041920111
 20
174.996391553462
 30
0.0
 11
4.79108079889
 21
172.683391553462
 31
0.0
  0
LINE
  5
C73
330
1E
100
AcDbEntity
  8
0
100
AcDbLine
 10
14.77168079889
 20
163.473391553462
 30
0.0
 11
15.23538079889
 21
163.257391553462
 31
0.0
  0
LINE
  5
C74
330
1E
100
AcDbEntity
  8
0
100
AcDbLine
 10
14.38668079889
 20
163.652391553462
 30
0.0
 11
14.77168079889
 21
163.473391553462
 31
0.0
  0
LINE
  5
C75
330
1E
100
AcDbEntity
  8
0
100
AcDbLine
 10
14.15538079889
 20
163.761391553462
 30
0.0
 11
14.38668079889
 21
163.652391553462
 31
0.0
  0
LINE
  5
C76
330
1E
100
AcDbEntity
  8
0
100
AcDbLine
 10
14.07478079889
 20
163.798391553462
 30
0.0
 11
14.15538079889
 21
163.761391553462
 31
0.0
  0
LINE
  5
C77
330
1E
100
AcDbEntity
  8
0
100
AcDbLine
 10
17.55548079889
 20
162.175391553462
 30
0.0
 11
18.01908079889
 21
161.959391553462
 31
0.0
  0
LINE
  5
C78
330
1E
100
AcDbEntity
  8
0
100
AcDbLine
 10
17.01128079889
 20
162.429391553462
 30
0.0
 11
17.55548079889
 21
162.175391553462
 31
0.0
  0
LINE
  5
C79
330
1E
100
AcDbEntity
  8
0
100
AcDbLine
 10
18.01908079889
 20
161.959391553462
 30
0.0
 11
18.40318079889
 21
161.779391553462
 31
0.0
  0
LINE
  5
C7A
330
1E
100
AcDbEntity
  8
0
100
AcDbLine
 10
18.40318079889
 20
161.779391553462
 30
0.0
 11
18.63548079889
 21
161.671391553462
 31
0.0
  0
LINE
  5
C7B
330
1E
100
AcDbEntity
  8
0
100
AcDbLine
 10
18.71508079889
 20
161.634391553462
 30
0.0
 11
19.683028768746
 21
162.428223260706
 31
0.0
  0
LINE
  5
C7C
330
1E
100
AcDbEntity
  8
0
100
AcDbLine
 10
18.63548079889
 20
161.671391553462
 30
0.0
 11
18.71508079889
 21
161.634391553462
 31
0.0
  0
LINE
  5
C7D
330
1E
100
AcDbEntity
  8
0
100
AcDbLine
 10
17.92338079889
 20
162.697391553462
 30
0.0
 11
18.13464912985
 21
163.150573621649
 31
0.0
  0
LINE
  5
C7E
330
1E
100
AcDbEntity
  8
0
100
AcDbLine
 10
20.35588079889
 20
161.421391553462
 30
0.0
 11
20.55158079889
 21
161.330391553462
 31
0.0
  0
LINE
  5
C7F
330
1E
100
AcDbEntity
  8
0
100
AcDbLine
 10
20.35588079889
 20
161.421391553462
 30
0.0
 11
20.621324842777
 21
161.990783474388
 31
0.0
  0
LINE
  5
C80
330
1E
100
AcDbEntity
  8
0
100
AcDbLine
 10
20.55158079889
 20
161.330391553462
 30
0.0
 11
21.07378079889
 21
161.087391553462
 31
0.0
  0
LINE
  5
C81
330
1E
100
AcDbEntity
  8
0
100
AcDbLine
 10
21.07378079889
 20
161.087391553462
 30
0.0
 11
21.94338079889
 21
160.681391553462
 31
0.0
  0
LINE
  5
C82
330
1E
100
AcDbEntity
  8
0
100
AcDbLine
 10
19.683028768746
 20
162.428223260706
 30
0.0
 11
20.32608079889
 21
162.128391553462
 31
0.0
  0
LINE
  5
C83
330
1E
100
AcDbEntity
  8
0
100
AcDbLine
 10
15.77948079889
 20
163.003391553462
 30
0.0
 11
16.39588079889
 21
162.716391553462
 31
0.0
  0
LINE
  5
C84
330
1E
100
AcDbEntity
  8
0
100
AcDbLine
 10
15.23538079889
 20
163.257391553462
 30
0.0
 11
15.77948079889
 21
163.003391553462
 31
0.0
  0
LINE
  5
C85
330
1E
100
AcDbEntity
  8
0
100
AcDbLine
 10
16.39588079889
 20
162.716391553462
 30
0.0
 11
17.01128079889
 21
162.429391553462
 31
0.0
  0
LINE
  5
C86
330
1E
100
AcDbEntity
  8
0
100
AcDbLine
 10
17.32678079889
 20
163.527391553462
 30
0.0
 11
17.538087293668
 21
163.980655485115
 31
0.0
  0
LINE
  5
C87
330
1E
100
AcDbEntity
  8
0
100
AcDbLine
 10
17.32678079889
 20
163.527391553462
 30
0.0
 11
18.64958079889
 21
162.910391553462
 31
0.0
  0
LINE
  5
C88
330
1E
100
AcDbEntity
  8
0
100
AcDbLine
 10
16.60058079889
 20
163.314391553462
 30
0.0
 11
16.972076181616
 21
164.111269368042
 31
0.0
  0
LINE
  5
C89
330
1E
100
AcDbEntity
  8
0
100
AcDbLine
 10
16.60058079889
 20
163.314391553462
 30
0.0
 11
17.92338079889
 21
162.697391553462
 31
0.0
  0
LINE
  5
C8A
330
1E
100
AcDbEntity
  8
0
100
AcDbLine
 10
16.60058079889
 20
163.314391553462
 30
0.0
 11
16.929905143558
 21
164.020810196249
 31
0.0
  0
LINE
  5
C8B
330
1E
100
AcDbEntity
  8
0
100
AcDbLine
 10
18.19948079889
 20
163.672391553462
 30
0.0
 11
18.468708790023
 21
164.249581709559
 31
0.0
  0
LINE
  5
C8C
330
1E
100
AcDbEntity
  8
0
100
AcDbLine
 10
16.87568079889
 20
164.289391553462
 30
0.0
 11
17.086853341288
 21
164.742118300771
 31
0.0
  0
LINE
  5
C8D
330
1E
100
AcDbEntity
  8
0
100
AcDbLine
 10
16.87568079889
 20
164.289391553462
 30
0.0
 11
18.19948079889
 21
163.672391553462
 31
0.0
  0
LINE
  5
C8E
330
1E
100
AcDbEntity
  8
0
100
AcDbLine
 10
18.64958079889
 20
162.910391553462
 30
0.0
 11
19.044892839364
 21
163.758357395133
 31
0.0
  0
LINE
  5
C8F
330
1E
100
AcDbEntity
  8
0
100
AcDbLine
 10
18.26328079889
 20
164.193391553462
 30
0.0
 11
18.686062094082
 21
165.100280441516
 31
0.0
  0
LINE
  5
C90
330
1E
100
AcDbEntity
  8
0
100
AcDbLine
 10
19.06928079889
 20
162.714391553462
 30
0.0
 11
20.32608079889
 21
162.128391553462
 31
0.0
  0
LINE
  5
C91
330
1E
100
AcDbEntity
  8
0
100
AcDbLine
 10
14.90208079889
 20
164.657391553462
 30
0.0
 11
15.43058079889
 21
164.410391553462
 31
0.0
  0
LINE
  5
C92
330
1E
100
AcDbEntity
  8
0
100
AcDbLine
 10
16.94048079889
 20
164.810391553462
 30
0.0
 11
17.31338788534
 21
165.610297549361
 31
0.0
  0
LINE
  5
C93
330
1E
100
AcDbEntity
  8
0
100
AcDbLine
 10
16.94048079889
 20
164.810391553462
 30
0.0
 11
18.26328079889
 21
164.193391553462
 31
0.0
  0
LINE
  5
C94
330
1E
100
AcDbEntity
  8
0
100
AcDbLine
 10
14.63728079889
 20
164.781391553462
 30
0.0
 11
14.90208079889
 21
164.657391553462
 31
0.0
  0
LINE
  5
C95
330
1E
100
AcDbEntity
  8
0
100
AcDbLine
 10
19.494699733437
 20
164.723217663653
 30
0.0
 11
21.17138079889
 21
163.941391553462
 31
0.0
  0
LINE
  5
C96
330
1E
100
AcDbEntity
  8
0
100
AcDbLine
 10
21.94338079889
 20
160.681391553462
 30
0.0
 11
23.09668079889
 21
160.143391553462
 31
0.0
  0
LINE
  5
C97
330
1E
100
AcDbEntity
  8
0
100
AcDbLine
 10
24.40168079889
 20
159.535391553462
 30
0.0
 11
25.79348079889
 21
158.886391553462
 31
0.0
  0
LINE
  5
C98
330
1E
100
AcDbEntity
  8
0
100
AcDbLine
 10
23.09668079889
 20
160.143391553462
 30
0.0
 11
24.40168079889
 21
159.535391553462
 31
0.0
  0
LINE
  5
C99
330
1E
100
AcDbEntity
  8
0
100
AcDbLine
 10
25.79348079889
 20
158.886391553462
 30
0.0
 11
27.18538079889
 21
158.236391553462
 31
0.0
  0
LINE
  5
C9A
330
1E
100
AcDbEntity
  8
0
100
AcDbLine
 10
27.18538079889
 20
158.236391553462
 30
0.0
 11
27.849946226118
 21
157.926770266294
 31
0.0
  0
LINE
  5
C9B
330
1E
100
AcDbEntity
  8
0
100
AcDbLine
 10
26.74328079889
 20
159.136391553462
 30
0.0
 11
26.954505593117
 21
159.589426632054
 31
0.0
  0
LINE
  5
C9C
330
1E
100
AcDbEntity
  8
0
100
AcDbLine
 10
26.53198079889
 20
158.683391553462
 30
0.0
 11
26.743185068073
 21
159.13643620565
 31
0.0
  0
LINE
  5
C9D
330
1E
100
AcDbEntity
  8
0
100
AcDbLine
 10
25.42048079889
 20
159.753391553462
 30
0.0
 11
25.843036562673
 21
160.659796664369
 31
0.0
  0
LINE
  5
C9E
330
1E
100
AcDbEntity
  8
0
100
AcDbLine
 10
25.20928079889
 20
159.299391553462
 30
0.0
 11
26.53198079889
 21
158.683391553462
 31
0.0
  0
LINE
  5
C9F
330
1E
100
AcDbEntity
  8
0
100
AcDbLine
 10
25.20928079889
 20
159.299391553462
 30
0.0
 11
25.420733766931
 21
159.753273560356
 31
0.0
  0
LINE
  5
CA0
330
1E
100
AcDbEntity
  8
0
100
AcDbLine
 10
25.63178079889
 20
160.206391553462
 30
0.0
 11
26.95458079889
 21
159.589391553462
 31
0.0
  0
LINE
  5
CA1
330
1E
100
AcDbEntity
  8
0
100
AcDbLine
 10
25.63178079889
 20
160.206391553462
 30
0.0
 11
25.84336799134
 21
160.660257596899
 31
0.0
  0
LINE
  5
CA2
330
1E
100
AcDbEntity
  8
0
100
AcDbLine
 10
26.95458079889
 20
159.589391553462
 30
0.0
 11
27.215683233053
 21
160.149404227232
 31
0.0
  0
LINE
  5
CA3
330
1E
100
AcDbEntity
  8
0
100
AcDbLine
 10
27.16588079889
 20
160.043391553462
 30
0.0
 11
27.588363409403
 21
160.949032734404
 31
0.0
  0
LINE
  5
CA4
330
1E
100
AcDbEntity
  8
0
100
AcDbLine
 10
25.84308079889
 20
160.660391553462
 30
0.0
 11
27.16588079889
 21
160.043391553462
 31
0.0
  0
LINE
  5
CA5
330
1E
100
AcDbEntity
  8
0
100
AcDbLine
 10
25.84308079889
 20
160.660391553462
 30
0.0
 11
26.265501275832
 21
161.565899543783
 31
0.0
  0
LINE
  5
CA6
330
1E
100
AcDbEntity
  8
0
100
AcDbLine
 10
26.92708079889
 20
161.257391553462
 30
0.0
 11
32.68298079889
 21
158.573391553462
 31
0.0
  0
LINE
  5
CA7
330
1E
100
AcDbEntity
  8
0
100
AcDbLine
 10
26.92708079889
 20
161.257391553462
 30
0.0
 11
32.55008079889
 21
158.634391553462
 31
0.0
  0
LINE
  5
CA8
330
1E
100
AcDbEntity
  8
0
100
AcDbLine
 10
28.17028079889
 20
157.225391553462
 30
0.0
 11
28.29907885874
 21
157.165715460071
 31
0.0
  0
LINE
  5
CA9
330
1E
100
AcDbEntity
  8
0
100
AcDbLine
 10
28.112352602743
 20
157.252571938751
 30
0.0
 11
28.17028079889
 21
157.225391553462
 31
0.0
  0
LINE
  5
CAA
330
1E
100
AcDbEntity
  8
0
100
AcDbLine
 10
27.96098079889
 20
157.322391553462
 30
0.0
 11
28.17128079889
 21
157.225391553462
 31
0.0
  0
LINE
  5
CAB
330
1E
100
AcDbEntity
  8
0
100
AcDbLine
 10
27.92328079889
 20
157.340391553462
 30
0.0
 11
28.16298079889
 21
157.229391553462
 31
0.0
  0
LINE
  5
CAC
330
1E
100
AcDbEntity
  8
0
100
AcDbLine
 10
27.85318079889
 20
157.373391553462
 30
0.0
 11
27.92328079889
 21
157.340391553462
 31
0.0
  0
LINE
  5
CAD
330
1E
100
AcDbEntity
  8
0
100
AcDbLine
 10
27.84588033599
 20
158.622372809428
 30
0.0
 11
27.85318079889
 21
157.373391553462
 31
0.0
  0
LINE
  5
CAE
330
1E
100
AcDbEntity
  8
0
100
AcDbLine
 10
28.16298079889
 20
157.229391553462
 30
0.0
 11
28.51778079889
 21
157.063391553462
 31
0.0
  0
LINE
  5
CAF
330
1E
100
AcDbEntity
  8
0
100
AcDbLine
 10
28.16298079889
 20
157.229391553462
 30
0.0
 11
28.53968079889
 21
157.053391553462
 31
0.0
  0
LINE
  5
CB0
330
1E
100
AcDbEntity
  8
0
100
AcDbLine
 10
29.148176757618
 20
156.76960617083
 30
0.0
 11
29.58518079889
 21
156.565391553462
 31
0.0
  0
LINE
  5
CB1
330
1E
100
AcDbEntity
  8
0
100
AcDbLine
 10
28.53968079889
 20
157.053391553462
 30
0.0
 11
29.01278079889
 21
156.832391553462
 31
0.0
  0
LINE
  5
CB2
330
1E
100
AcDbEntity
  8
0
100
AcDbLine
 10
29.01278079889
 20
156.832391553462
 30
0.0
 11
29.57778079889
 21
156.570391553462
 31
0.0
  0
LINE
  5
CB3
330
1E
100
AcDbEntity
  8
0
100
AcDbLine
 10
29.58518079889
 20
156.565391553462
 30
0.0
 11
30.034795717228
 21
156.356286148511
 31
0.0
  0
LINE
  5
CB4
330
1E
100
AcDbEntity
  8
0
100
AcDbLine
 10
29.57778079889
 20
156.570391553462
 30
0.0
 11
30.17118079889
 21
156.292391553462
 31
0.0
  0
LINE
  5
CB5
330
1E
100
AcDbEntity
  8
0
100
AcDbLine
 10
30.17118079889
 20
156.292391553462
 30
0.0
 11
30.75828079889
 21
156.018391553462
 31
0.0
  0
LINE
  5
CB6
330
1E
100
AcDbEntity
  8
0
100
AcDbLine
 10
28.51778079889
 20
157.063391553462
 30
0.0
 11
28.676487526546
 21
156.989484796303
 31
0.0
  0
LINE
  5
CB7
330
1E
100
AcDbEntity
  8
0
100
AcDbLine
 10
27.34978079889
 20
162.164391553462
 30
0.0
 11
33.17148079889
 21
159.449391553462
 31
0.0
  0
LINE
  5
CB8
330
1E
100
AcDbEntity
  8
0
100
AcDbLine
 10
21.30418079889
 20
163.879391553462
 30
0.0
 11
26.927080798886
 21
161.257391553464
 31
0.0
  0
LINE
  5
CB9
330
1E
100
AcDbEntity
  8
0
100
AcDbLine
 10
21.30418079889
 20
163.879391553462
 30
0.0
 11
26.92708079889
 21
161.257391553462
 31
0.0
  0
LINE
  5
CBA
330
1E
100
AcDbEntity
  8
0
100
AcDbLine
 10
21.17138079889
 20
163.941391553462
 30
0.0
 11
26.92708079889
 21
161.257391553462
 31
0.0
  0
LINE
  5
CBB
330
1E
100
AcDbEntity
  8
0
100
AcDbLine
 10
21.17138079889
 20
163.941391553462
 30
0.0
 11
26.265460330752
 21
161.565918637306
 31
0.0
  0
LINE
  5
CBC
330
1E
100
AcDbEntity
  8
0
100
AcDbLine
 10
4.83978079889
 20
169.350391553462
 30
0.0
 11
5.50118079889
 21
169.042391553462
 31
0.0
  0
LINE
  5
CBD
330
1E
100
AcDbEntity
  8
0
100
AcDbLine
 10
5.50118079889
 20
169.042391553462
 30
0.0
 11
5.786367795412
 21
169.653795762759
 31
0.0
  0
LINE
  5
CBE
330
1E
100
AcDbEntity
  8
0
100
AcDbLine
 10
9.19758079889
 20
166.766391553462
 30
0.0
 11
9.408712727187
 21
167.219281030511
 31
0.0
  0
LINE
  5
CBF
330
1E
100
AcDbEntity
  8
0
100
AcDbLine
 10
9.19758079889
 20
166.766391553462
 30
0.0
 11
10.34358079889
 21
166.231391553462
 31
0.0
  0
LINE
  5
CC0
330
1E
100
AcDbEntity
  8
0
100
AcDbLine
 10
8.53618079889
 20
167.075391553462
 30
0.0
 11
8.883127062849
 21
167.819199682063
 31
0.0
  0
LINE
  5
CC1
330
1E
100
AcDbEntity
  8
0
100
AcDbLine
 10
8.53618079889
 20
167.075391553462
 30
0.0
 11
9.19758079889
 21
166.766391553462
 31
0.0
  0
LINE
  5
CC2
330
1E
100
AcDbEntity
  8
0
100
AcDbLine
 10
8.53618079889
 20
167.075391553462
 30
0.0
 11
9.68218079889
 21
166.539391553462
 31
0.0
  0
LINE
  5
CC3
330
1E
100
AcDbEntity
  8
0
100
AcDbLine
 10
9.15978079889
 20
167.335391553462
 30
0.0
 11
9.370899604433
 21
167.788199307454
 31
0.0
  0
LINE
  5
CC4
330
1E
100
AcDbEntity
  8
0
100
AcDbLine
 10
9.15978079889
 20
167.335391553462
 30
0.0
 11
10.48258079889
 21
166.718391553462
 31
0.0
  0
LINE
  5
CC5
330
1E
100
AcDbEntity
  8
0
100
AcDbLine
 10
9.44338079889
 20
167.754391553462
 30
0.0
 11
9.725860762779
 21
168.360326449972
 31
0.0
  0
LINE
  5
CC6
330
1E
100
AcDbEntity
  8
0
100
AcDbLine
 10
8.12058079889
 20
168.371391553462
 30
0.0
 11
8.332227045125
 21
168.825384270481
 31
0.0
  0
LINE
  5
CC7
330
1E
100
AcDbEntity
  8
0
100
AcDbLine
 10
8.12058079889
 20
168.371391553462
 30
0.0
 11
9.44338079889
 21
167.754391553462
 31
0.0
  0
LINE
  5
CC8
330
1E
100
AcDbEntity
  8
0
100
AcDbLine
 10
9.68218079889
 20
166.539391553462
 30
0.0
 11
10.34358079889
 21
166.231391553462
 31
0.0
  0
LINE
  5
CC9
330
1E
100
AcDbEntity
  8
0
100
AcDbLine
 10
9.50708079889
 20
168.277391553462
 30
0.0
 11
9.929781245122
 21
169.183606897253
 31
0.0
  0
LINE
  5
CCA
330
1E
100
AcDbEntity
  8
0
100
AcDbLine
 10
8.18428079889
 20
168.894391553462
 30
0.0
 11
8.606895558923
 21
169.800423197073
 31
0.0
  0
LINE
  5
CCB
330
1E
100
AcDbEntity
  8
0
100
AcDbLine
 10
8.18428079889
 20
168.894391553462
 30
0.0
 11
9.50708079889
 21
168.277391553462
 31
0.0
  0
LINE
  5
CCC
330
1E
100
AcDbEntity
  8
0
100
AcDbLine
 10
8.18428079889
 20
168.894391553462
 30
0.0
 11
8.479971210754
 21
169.52831373318
 31
0.0
  0
LINE
  5
CCD
330
1E
100
AcDbEntity
  8
0
100
AcDbLine
 10
5.706114823444
 20
169.481743721579
 30
0.0
 11
9.270033784663
 21
167.602478511154
 31
0.0
  0
LINE
  5
CCE
330
1E
100
AcDbEntity
  8
0
100
AcDbLine
 10
3.22808079889
 20
170.102391553462
 30
0.0
 11
3.484931175426
 21
170.652980554152
 31
0.0
  0
LINE
  5
CCF
330
1E
100
AcDbEntity
  8
0
100
AcDbLine
 10
3.173808392725
 20
170.127665065858
 30
0.0
 11
3.22808079889
 21
170.102391553462
 31
0.0
  0
LINE
  5
CD0
330
1E
100
AcDbEntity
  8
0
100
AcDbLine
 10
3.17381526379
 20
170.127679794795
 30
0.0
 11
3.22808079889
 21
170.102391553462
 31
0.0
  0
LINE
  5
CD1
330
1E
100
AcDbEntity
  8
0
100
AcDbLine
 10
3.17368079889
 20
170.127391553462
 30
0.0
 11
3.384906799292
 21
170.580179336176
 31
0.0
  0
LINE
  5
CD2
330
1E
100
AcDbEntity
  8
0
100
AcDbLine
 10
4.35528079889
 20
169.576391553462
 30
0.0
 11
4.669302865455
 21
170.249614441082
 31
0.0
  0
LINE
  5
CD3
330
1E
100
AcDbEntity
  8
0
100
AcDbLine
 10
4.35528079889
 20
169.576391553462
 30
0.0
 11
5.50118079889
 21
169.042391553462
 31
0.0
  0
LINE
  5
CD4
330
1E
100
AcDbEntity
  8
0
100
AcDbLine
 10
3.69378079889
 20
169.884391553462
 30
0.0
 11
4.019389801168
 21
170.582757957259
 31
0.0
  0
LINE
  5
CD5
330
1E
100
AcDbEntity
  8
0
100
AcDbLine
 10
3.69378079889
 20
169.884391553462
 30
0.0
 11
4.35528079889
 21
169.576391553462
 31
0.0
  0
LINE
  5
CD6
330
1E
100
AcDbEntity
  8
0
100
AcDbLine
 10
3.69378079889
 20
169.884391553462
 30
0.0
 11
4.83978079889
 21
169.350391553462
 31
0.0
  0
LINE
  5
CD7
330
1E
100
AcDbEntity
  8
0
100
AcDbLine
 10
3.69378079889
 20
169.884391553462
 30
0.0
 11
3.940201613506
 21
170.412915079901
 31
0.0
  0
LINE
  5
CD8
330
1E
100
AcDbEntity
  8
0
100
AcDbLine
 10
5.706114823444
 20
169.481743721579
 30
0.0
 11
9.270033784663
 21
167.602478511154
 31
0.0
  0
LINE
  5
CD9
330
1E
100
AcDbEntity
  8
0
100
AcDbLine
 10
10.34358079889
 20
166.231391553462
 30
0.0
 11
10.649122342698
 21
166.88687234736
 31
0.0
  0
LINE
  5
CDA
330
1E
100
AcDbEntity
  8
0
100
AcDbLine
 10
11.50298079889
 20
165.691391553462
 30
0.0
 11
12.16438079889
 21
165.382391553462
 31
0.0
  0
LINE
  5
CDB
330
1E
100
AcDbEntity
  8
0
100
AcDbLine
 10
12.16438079889
 20
165.382391553462
 30
0.0
 11
12.489044526824
 21
166.078730532221
 31
0.0
  0
LINE
  5
CDC
330
1E
100
AcDbEntity
  8
0
100
AcDbLine
 10
10.48258079889
 20
166.718391553462
 30
0.0
 11
10.803761270555
 21
167.406879681531
 31
0.0
  0
LINE
  5
CDD
330
1E
100
AcDbEntity
  8
0
100
AcDbLine
 10
10.48258079889
 20
166.718391553462
 30
0.0
 11
10.737886961005
 21
167.265670348863
 31
0.0
  0
LINE
  5
CDE
330
1E
100
AcDbEntity
  8
0
100
AcDbLine
 10
11.01948079889
 20
165.917391553462
 30
0.0
 11
11.372553005167
 21
166.674243366751
 31
0.0
  0
LINE
  5
CDF
330
1E
100
AcDbEntity
  8
0
100
AcDbLine
 10
11.01948079889
 20
165.917391553462
 30
0.0
 11
12.16438079889
 21
165.382391553462
 31
0.0
  0
LINE
  5
CE0
330
1E
100
AcDbEntity
  8
0
100
AcDbLine
 10
10.35808079889
 20
166.225391553462
 30
0.0
 11
10.713241699045
 21
166.987140887405
 31
0.0
  0
LINE
  5
CE1
330
1E
100
AcDbEntity
  8
0
100
AcDbLine
 10
10.35808079889
 20
166.225391553462
 30
0.0
 11
11.01948079889
 21
165.917391553462
 31
0.0
  0
LINE
  5
CE2
330
1E
100
AcDbEntity
  8
0
100
AcDbLine
 10
10.35808079889
 20
166.225391553462
 30
0.0
 11
11.50298079889
 21
165.691391553462
 31
0.0
  0
LINE
  5
CE3
330
1E
100
AcDbEntity
  8
0
100
AcDbLine
 10
10.574199867
 20
166.914787804989
 30
0.0
 11
10.658726501593
 21
166.870216655793
 31
0.0
  0
LINE
  5
CE4
330
1E
100
AcDbEntity
  8
0
100
AcDbLine
 10
10.574199867
 20
166.914787804989
 30
0.0
 11
10.658726501593
 21
166.870216655793
 31
0.0
  0
LINE
  5
CE5
330
1E
100
AcDbEntity
  8
0
100
AcDbLine
 10
14.060423174442
 20
165.085933778259
 30
0.0
 11
14.07478079889
 21
163.798391553462
 31
0.0
  0
LINE
  5
CE6
330
1E
100
AcDbEntity
  8
0
100
AcDbLine
 10
12.424059739932
 20
165.939351118243
 30
0.0
 11
14.060529087072
 21
165.076435898938
 31
0.0
  0
LINE
  5
CE7
330
1E
100
AcDbEntity
  8
0
100
AcDbLine
 10
12.424059739932
 20
165.939351118243
 30
0.0
 11
14.060529087072
 21
165.076435898938
 31
0.0
  0
LINE
  5
CE8
330
1E
100
AcDbEntity
  8
0
100
AcDbLine
 10
10.65278079889
 20
168.846391553462
 30
0.0
 11
16.60748079889
 21
166.069391553462
 31
0.0
  0
LINE
  5
CE9
330
1E
100
AcDbEntity
  8
0
100
AcDbLine
 10
9.85948079889
 20
169.216391553462
 30
0.0
 11
15.68128079889
 21
166.501391553462
 31
0.0
  0
LINE
  5
CEA
330
1E
100
AcDbEntity
  8
0
100
AcDbLine
 10
1.42078079889
 20
170.944391553462
 30
0.0
 11
1.807580798884
 21
170.764266969249
 31
0.0
  0
LINE
  5
CEB
330
1E
100
AcDbEntity
  8
0
100
AcDbLine
 10
1.42078079889
 20
170.944391553462
 30
0.0
 11
1.807580798884
 21
170.764266969249
 31
0.0
  0
LINE
  5
CEC
330
1E
100
AcDbEntity
  8
0
100
AcDbLine
 10
1.42078079889
 20
170.944391553462
 30
0.0
 11
1.915737940146
 21
170.713736947099
 31
0.0
  0
LINE
  5
CED
330
1E
100
AcDbEntity
  8
0
100
AcDbLine
 10
2.261880798866
 20
170.552298787961
 30
0.0
 11
2.51228079889
 21
170.435391553462
 31
0.0
  0
LINE
  5
CEE
330
1E
100
AcDbEntity
  8
0
100
AcDbLine
 10
2.261880798867
 20
170.552298787961
 30
0.0
 11
2.51228079889
 21
170.435391553462
 31
0.0
  0
LINE
  5
CEF
330
1E
100
AcDbEntity
  8
0
100
AcDbLine
 10
2.51228079889
 20
170.435391553462
 30
0.0
 11
3.17368079889
 21
170.127391553462
 31
0.0
  0
LINE
  5
CF0
330
1E
100
AcDbEntity
  8
0
100
AcDbLine
 10
2.02778079889
 20
170.661391553462
 30
0.0
 11
2.239082393664
 21
171.114591353919
 31
0.0
  0
LINE
  5
CF1
330
1E
100
AcDbEntity
  8
0
100
AcDbLine
 10
2.02778079889
 20
170.661391553462
 30
0.0
 11
3.17368079889
 21
170.127391553462
 31
0.0
  0
LINE
  5
CF2
330
1E
100
AcDbEntity
  8
0
100
AcDbLine
 10
1.36638079889
 20
170.970391553462
 30
0.0
 11
1.686137398262
 21
171.655908541231
 31
0.0
  0
LINE
  5
CF3
330
1E
100
AcDbEntity
  8
0
100
AcDbLine
 10
1.36638079889
 20
170.970391553462
 30
0.0
 11
2.02778079889
 21
170.661391553462
 31
0.0
  0
LINE
  5
CF4
330
1E
100
AcDbEntity
  8
0
100
AcDbLine
 10
3.41018079889
 20
170.568391553462
 30
0.0
 11
3.699903862184
 21
171.189863292402
 31
0.0
  0
LINE
  5
CF5
330
1E
100
AcDbEntity
  8
0
100
AcDbLine
 10
2.08728079889
 20
171.185391553462
 30
0.0
 11
2.440018681709
 21
171.941943998216
 31
0.0
  0
LINE
  5
CF6
330
1E
100
AcDbEntity
  8
0
100
AcDbLine
 10
2.08728079889
 20
171.185391553462
 30
0.0
 11
3.41018079889
 21
170.568391553462
 31
0.0
  0
LINE
  5
CF7
330
1E
100
AcDbEntity
  8
0
100
AcDbLine
 10
2.08728079889
 20
171.185391553462
 30
0.0
 11
2.398345578379
 21
171.852563498586
 31
0.0
  0
LINE
  5
CF8
330
1E
100
AcDbEntity
  8
0
100
AcDbLine
 10
3.456583685618
 20
170.667928270971
 30
0.0
 11
3.940201613506
 21
170.412915079901
 31
0.0
  0
LINE
  5
CF9
330
1E
100
AcDbEntity
  8
0
100
AcDbLine
 10
0.82618079889
 20
172.325391553462
 30
0.0
 11
1.234513375621
 21
173.200700472232
 31
0.0
  0
LINE
  5
CFA
330
1E
100
AcDbEntity
  8
0
100
AcDbLine
 10
0.82618079889
 20
172.325391553462
 30
0.0
 11
2.15008079889
 21
171.708391553462
 31
0.0
  0
LINE
  5
CFB
330
1E
100
AcDbEntity
  8
0
100
AcDbLine
 10
2.15008079889
 20
171.708391553462
 30
0.0
 11
2.511276850186
 21
172.482749391783
 31
0.0
  0
LINE
  5
CFC
330
1E
100
AcDbEntity
  8
0
100
AcDbLine
 10
4.073151763464
 20
171.913900589079
 30
0.0
 11
4.538794860601
 21
171.69677827283
 31
0.0
  0
LINE
  5
CFD
330
1E
100
AcDbEntity
  8
0
100
AcDbLine
 10
0.99458079889
 20
173.349391553462
 30
0.0
 11
5.69128079889
 21
171.159391553462
 31
0.0
  0
LINE
  5
CFE
330
1E
100
AcDbEntity
  8
0
100
AcDbLine
 10
0.99458079889
 20
173.349391553462
 30
0.0
 11
1.24861894418
 21
173.230937417966
 31
0.0
  0
LINE
  5
CFF
330
1E
100
AcDbEntity
  8
0
100
AcDbLine
 10
0.99458079889
 20
173.349391553462
 30
0.0
 11
1.24861894418
 21
173.230937417966
 31
0.0
  0
LINE
  5
D00
330
1E
100
AcDbEntity
  8
0
100
AcDbLine
 10
4.69928079889
 20
171.622391553462
 30
0.0
 11
9.85948079889
 21
169.216391553462
 31
0.0
  0
LINE
  5
D01
330
1E
100
AcDbEntity
  8
0
100
AcDbLine
 10
6.323246179885
 20
170.865199834793
 30
0.0
 11
8.606895558923
 21
169.800423197073
 31
0.0
  0
LINE
  5
D02
330
1E
100
AcDbEntity
  8
0
100
AcDbLine
 10
6.323246179885
 20
170.865199834793
 30
0.0
 11
8.606895558923
 21
169.800423197073
 31
0.0
  0
LINE
  5
D03
330
1E
100
AcDbEntity
  8
0
100
AcDbLine
 10
4.86709218102
 20
171.544147651015
 30
0.0
 11
5.20048079889
 21
171.388391553462
 31
0.0
  0
LINE
  5
D04
330
1E
100
AcDbEntity
  8
0
100
AcDbLine
 10
4.86709218102
 20
171.544147651015
 30
0.0
 11
5.20048079889
 21
171.388391553462
 31
0.0
  0
LINE
  5
D05
330
1E
100
AcDbEntity
  8
0
100
AcDbLine
 10
5.20048079889
 20
171.388391553462
 30
0.0
 11
6.34638079889
 21
170.854391553462
 31
0.0
  0
LINE
  5
D06
330
1E
100
AcDbEntity
  8
0
100
AcDbLine
 10
5.69128079889
 20
171.159391553462
 30
0.0
 11
10.65278079889
 21
168.846391553462
 31
0.0
  0
LINE
  5
D07
330
1E
100
AcDbEntity
  8
0
100
AcDbLine
 10
4.79108079889
 20
172.683391553462
 30
0.0
 11
10.01738079889
 21
170.246391553462
 31
0.0
  0
LINE
  5
D08
330
1E
100
AcDbEntity
  8
0
100
AcDbLine
 10
10.01738079889
 20
170.246391553462
 30
0.0
 11
15.64038079889
 21
167.623391553462
 31
0.0
  0
LINE
  5
D09
330
1E
100
AcDbEntity
  8
0
100
AcDbLine
 10
18.720652674106
 20
166.187288100931
 30
0.0
 11
21.52808079889
 21
164.878391553462
 31
0.0
  0
LINE
  5
D0A
330
1E
100
AcDbEntity
  8
0
100
AcDbLine
 10
18.720652674107
 20
166.18728810093
 30
0.0
 11
21.52808079889
 21
164.878391553462
 31
0.0
  0
LINE
  5
D0B
330
1E
100
AcDbEntity
  8
0
100
AcDbLine
 10
16.60748079889
 20
166.069391553462
 30
0.0
 11
21.30418079889
 21
163.879391553462
 31
0.0
  0
LINE
  5
D0C
330
1E
100
AcDbEntity
  8
0
100
AcDbLine
 10
15.68128079889
 20
166.501391553462
 30
0.0
 11
21.17138079889
 21
163.941391553462
 31
0.0
  0
LINE
  5
D0D
330
1E
100
AcDbEntity
  8
0
100
AcDbLine
 10
15.68128079889
 20
166.501391553462
 30
0.0
 11
17.363190689243
 21
165.71712727425
 31
0.0
  0
LINE
  5
D0E
330
1E
100
AcDbEntity
  8
0
100
AcDbLine
 10
15.64038079889
 20
167.623391553462
 30
0.0
 11
21.52808079889
 21
164.878391553462
 31
0.0
  0
LINE
  5
D0F
330
1E
100
AcDbEntity
  8
0
100
AcDbLine
 10
15.64038079889
 20
167.623391553462
 30
0.0
 11
17.785606096967
 21
166.623231313772
 31
0.0
  0
LINE
  5
D10
330
1E
100
AcDbEntity
  8
0
100
AcDbLine
 10
21.52808079889
 20
164.878391553462
 30
0.0
 11
27.34978079889
 21
162.164391553462
 31
0.0
  0
LINE
  5
D11
330
1E
100
AcDbEntity
  8
0
100
AcDbLine
 10
31.286471362167
 20
155.77248592069
 30
0.0
 11
31.34018079889
 21
155.747391553462
 31
0.0
  0
LINE
  5
D12
330
1E
100
AcDbEntity
  8
0
100
AcDbLine
 10
31.92260250022
 20
155.47562482378
 30
0.0
 11
32.18888079889
 21
155.351391553462
 31
0.0
  0
LINE
  5
D13
330
1E
100
AcDbEntity
  8
0
100
AcDbLine
 10
31.952844216613
 20
155.461642186373
 30
0.0
 11
32.18888079889
 21
155.351391553462
 31
0.0
  0
LINE
  5
D14
330
1E
100
AcDbEntity
  8
0
100
AcDbLine
 10
32.049172708608
 20
155.417103498222
 30
0.0
 11
32.18058079889
 21
155.355391553462
 31
0.0
  0
LINE
  5
D15
330
1E
100
AcDbEntity
  8
0
100
AcDbLine
 10
32.49868079889
 20
155.207391553462
 30
0.0
 11
33.459198723841
 21
156.004001135838
 31
0.0
  0
LINE
  5
D16
330
1E
100
AcDbEntity
  8
0
100
AcDbLine
 10
32.18888079889
 20
155.351391553462
 30
0.0
 11
32.42748079889
 21
155.240391553462
 31
0.0
  0
LINE
  5
D17
330
1E
100
AcDbEntity
  8
0
100
AcDbLine
 10
32.18058079889
 20
155.355391553462
 30
0.0
 11
32.42008079889
 21
155.244391553462
 31
0.0
  0
LINE
  5
D18
330
1E
100
AcDbEntity
  8
0
100
AcDbLine
 10
32.42008079889
 20
155.244391553462
 30
0.0
 11
32.49138079889
 21
155.210391553462
 31
0.0
  0
LINE
  5
D19
330
1E
100
AcDbEntity
  8
0
100
AcDbLine
 10
32.39078079889
 20
155.258391553462
 30
0.0
 11
32.49138079889
 21
155.210391553462
 31
0.0
  0
LINE
  5
D1A
330
1E
100
AcDbEntity
  8
0
100
AcDbLine
 10
32.49138079889
 20
155.210391553462
 30
0.0
 11
33.452209093227
 21
156.007258541994
 31
0.0
  0
LINE
  5
D1B
330
1E
100
AcDbEntity
  8
0
100
AcDbLine
 10
32.18048079889
 20
155.356391553462
 30
0.0
 11
32.39078079889
 21
155.258391553462
 31
0.0
  0
LINE
  5
D1C
330
1E
100
AcDbEntity
  8
0
100
AcDbLine
 10
31.34018079889
 20
155.747391553462
 30
0.0
 11
31.413324775542
 21
155.713260665595
 31
0.0
  0
LINE
  5
D1D
330
1E
100
AcDbEntity
  8
0
100
AcDbLine
 10
31.82578079889
 20
155.520391553462
 30
0.0
 11
32.18048079889
 21
155.356391553462
 31
0.0
  0
LINE
  5
D1E
330
1E
100
AcDbEntity
  8
0
100
AcDbLine
 10
31.33178079889
 20
155.751391553462
 30
0.0
 11
31.82578079889
 21
155.520391553462
 31
0.0
  0
LINE
  5
D1F
330
1E
100
AcDbEntity
  8
0
100
AcDbLine
 10
30.75828079889
 20
156.018391553462
 30
0.0
 11
31.33178079889
 21
155.751391553462
 31
0.0
  0
LINE
  5
D20
330
1E
100
AcDbEntity
  8
0
100
AcDbLine
 10
35.14068079889
 20
154.668391553462
 30
0.0
 11
35.512337042611
 21
155.465614423631
 31
0.0
  0
LINE
  5
D21
330
1E
100
AcDbEntity
  8
0
100
AcDbLine
 10
34.83698079889
 20
155.362391553462
 30
0.0
 11
35.048121186044
 21
155.815245595708
 31
0.0
  0
LINE
  5
D22
330
1E
100
AcDbEntity
  8
0
100
AcDbLine
 10
35.71078079889
 20
155.506391553462
 30
0.0
 11
35.922150867965
 21
155.959738217644
 31
0.0
  0
LINE
  5
D23
330
1E
100
AcDbEntity
  8
0
100
AcDbLine
 10
34.38698079889
 20
156.123391553462
 30
0.0
 11
35.71078079889
 21
155.506391553462
 31
0.0
  0
LINE
  5
D24
330
1E
100
AcDbEntity
  8
0
100
AcDbLine
 10
34.38698079889
 20
156.123391553462
 30
0.0
 11
34.656518053876
 21
156.70149523652
 31
0.0
  0
LINE
  5
D25
330
1E
100
AcDbEntity
  8
0
100
AcDbLine
 10
36.06868079889
 20
155.891391553462
 30
0.0
 11
36.44123391652
 21
156.690097480042
 31
0.0
  0
LINE
  5
D26
330
1E
100
AcDbEntity
  8
0
100
AcDbLine
 10
33.51328079889
 20
155.978391553462
 30
0.0
 11
34.029054236432
 21
155.738370070101
 31
0.0
  0
LINE
  5
D27
330
1E
100
AcDbEntity
  8
0
100
AcDbLine
 10
33.51328079889
 20
155.978391553462
 30
0.0
 11
34.83698079889
 21
155.362391553462
 31
0.0
  0
LINE
  5
D28
330
1E
100
AcDbEntity
  8
0
100
AcDbLine
 10
33.51328079889
 20
155.978391553462
 30
0.0
 11
33.908878300975
 21
156.827437777766
 31
0.0
  0
LINE
  5
D29
330
1E
100
AcDbEntity
  8
0
100
AcDbLine
 10
33.51328079889
 20
155.978391553462
 30
0.0
 11
33.734107487252
 21
156.452338090009
 31
0.0
  0
LINE
  5
D2A
330
1E
100
AcDbEntity
  8
0
100
AcDbLine
 10
33.81788079889
 20
155.285391553462
 30
0.0
 11
35.14068079889
 21
154.668391553462
 31
0.0
  0
LINE
  5
D2B
330
1E
100
AcDbEntity
  8
0
100
AcDbLine
 10
33.81788079889
 20
155.285391553462
 30
0.0
 11
34.029054236432
 21
155.738370070101
 31
0.0
  0
LINE
  5
D2C
330
1E
100
AcDbEntity
  8
0
100
AcDbLine
 10
33.459198723841
 20
156.004001135838
 30
0.0
 11
33.513436024569
 21
155.978724704648
 31
0.0
  0
LINE
  5
D2D
330
1E
100
AcDbEntity
  8
0
100
AcDbLine
 10
36.13688079889
 20
154.755391553462
 30
0.0
 11
37.65848079889
 21
154.046391553462
 31
0.0
  0
LINE
  5
D2E
330
1E
100
AcDbEntity
  8
0
100
AcDbLine
 10
37.65848079889
 20
154.046391553462
 30
0.0
 11
39.835860124137
 21
153.157902185602
 31
0.0
  0
LINE
  5
D2F
330
1E
100
AcDbEntity
  8
0
100
AcDbLine
 10
33.09358079889
 20
156.174391553462
 30
0.0
 11
33.513436024569
 21
155.978724704648
 31
0.0
  0
LINE
  5
D30
330
1E
100
AcDbEntity
  8
0
100
AcDbLine
 10
34.74588079889
 20
156.508391553462
 30
0.0
 11
36.06868079889
 21
155.891391553462
 31
0.0
  0
LINE
  5
D31
330
1E
100
AcDbEntity
  8
0
100
AcDbLine
 10
34.74588079889
 20
156.508391553462
 30
0.0
 11
35.168490980279
 21
157.41441338105
 31
0.0
  0
LINE
  5
D32
330
1E
100
AcDbEntity
  8
0
100
AcDbLine
 10
37.24688079889
 20
156.444391553462
 30
0.0
 11
43.20088079889
 21
153.669391553462
 31
0.0
  0
LINE
  5
D33
330
1E
100
AcDbEntity
  8
0
100
AcDbLine
 10
38.17308079889
 20
156.013391553462
 30
0.0
 11
43.99468079889
 21
153.299391553462
 31
0.0
  0
LINE
  5
D34
330
1E
100
AcDbEntity
  8
0
100
AcDbLine
 10
38.17308079889
 20
156.013391553462
 30
0.0
 11
43.777066118785
 21
153.400842398901
 31
0.0
  0
LINE
  5
D35
330
1E
100
AcDbEntity
  8
0
100
AcDbLine
 10
32.55008079889
 20
158.634391553462
 30
0.0
 11
37.24688079889
 21
156.444391553462
 31
0.0
  0
LINE
  5
D36
330
1E
100
AcDbEntity
  8
0
100
AcDbLine
 10
32.68298079889
 20
158.573391553462
 30
0.0
 11
38.17308079889
 21
156.013391553462
 31
0.0
  0
LINE
  5
D37
330
1E
100
AcDbEntity
  8
0
100
AcDbLine
 10
41.39768079889
 20
151.751391553462
 30
0.0
 11
42.54368079889
 21
151.216391553462
 31
0.0
  0
LINE
  5
D38
330
1E
100
AcDbEntity
  8
0
100
AcDbLine
 10
41.68118079889
 20
152.171391553462
 30
0.0
 11
43.00388079889
 21
151.554391553462
 31
0.0
  0
LINE
  5
D39
330
1E
100
AcDbEntity
  8
0
100
AcDbLine
 10
41.68118079889
 20
152.171391553462
 30
0.0
 11
42.001815992291
 21
152.858710813419
 31
0.0
  0
LINE
  5
D3A
330
1E
100
AcDbEntity
  8
0
100
AcDbLine
 10
41.68118079889
 20
152.171391553462
 30
0.0
 11
41.935922574188
 21
152.71746051932
 31
0.0
  0
LINE
  5
D3B
330
1E
100
AcDbEntity
  8
0
100
AcDbLine
 10
40.23718079889
 20
152.291391553462
 30
0.0
 11
41.38318079889
 21
151.757391553462
 31
0.0
  0
LINE
  5
D3C
330
1E
100
AcDbEntity
  8
0
100
AcDbLine
 10
40.72168079889
 20
152.066391553462
 30
0.0
 11
41.38318079889
 21
151.757391553462
 31
0.0
  0
LINE
  5
D3D
330
1E
100
AcDbEntity
  8
0
100
AcDbLine
 10
39.57578079889
 20
152.600391553462
 30
0.0
 11
40.72168079889
 21
152.066391553462
 31
0.0
  0
LINE
  5
D3E
330
1E
100
AcDbEntity
  8
0
100
AcDbLine
 10
39.57578079889
 20
152.600391553462
 30
0.0
 11
39.900451814871
 21
153.296362073938
 31
0.0
  0
LINE
  5
D3F
330
1E
100
AcDbEntity
  8
0
100
AcDbLine
 10
39.57578079889
 20
152.600391553462
 30
0.0
 11
40.23718079889
 21
152.291391553462
 31
0.0
  0
LINE
  5
D40
330
1E
100
AcDbEntity
  8
0
100
AcDbLine
 10
39.57578079889
 20
152.600391553462
 30
0.0
 11
39.835860124137
 21
153.157902185602
 31
0.0
  0
LINE
  5
D41
330
1E
100
AcDbEntity
  8
0
100
AcDbLine
 10
39.05918079889
 20
156.703391553462
 30
0.0
 11
44.68188079889
 21
154.081391553462
 31
0.0
  0
LINE
  5
D42
330
1E
100
AcDbEntity
  8
0
100
AcDbLine
 10
33.17148079889
 20
159.449391553462
 30
0.0
 11
39.05918079889
 21
156.703391553462
 31
0.0
  0
LINE
  5
D43
330
1E
100
AcDbEntity
  8
0
100
AcDbLine
 10
48.46958079889
 20
149.004391553462
 30
0.0
 11
48.794994795273
 21
149.70280730055
 31
0.0
  0
LINE
  5
D44
330
1E
100
AcDbEntity
  8
0
100
AcDbLine
 10
47.32368079889
 20
149.539391553462
 30
0.0
 11
48.46958079889
 21
149.004391553462
 31
0.0
  0
LINE
  5
D45
330
1E
100
AcDbEntity
  8
0
100
AcDbLine
 10
43.20468079889
 20
150.908391553462
 30
0.0
 11
43.551908149694
 21
151.653213118782
 31
0.0
  0
LINE
  5
D46
330
1E
100
AcDbEntity
  8
0
100
AcDbLine
 10
42.54368079889
 20
151.216391553462
 30
0.0
 11
43.20468079889
 21
150.908391553462
 31
0.0
  0
LINE
  5
D47
330
1E
100
AcDbEntity
  8
0
100
AcDbLine
 10
42.54368079889
 20
151.216391553462
 30
0.0
 11
42.755225694892
 21
151.670381724451
 31
0.0
  0
LINE
  5
D48
330
1E
100
AcDbEntity
  8
0
100
AcDbLine
 10
46.66218079889
 20
149.848391553462
 30
0.0
 11
47.80798079889
 21
149.313391553462
 31
0.0
  0
LINE
  5
D49
330
1E
100
AcDbEntity
  8
0
100
AcDbLine
 10
46.66218079889
 20
149.848391553462
 30
0.0
 11
46.947141619463
 21
150.45957571021
 31
0.0
  0
LINE
  5
D4A
330
1E
100
AcDbEntity
  8
0
100
AcDbLine
 10
46.66218079889
 20
149.848391553462
 30
0.0
 11
47.32368079889
 21
149.539391553462
 31
0.0
  0
LINE
  5
D4B
330
1E
100
AcDbEntity
  8
0
100
AcDbLine
 10
46.66218079889
 20
149.848391553462
 30
0.0
 11
46.867441158658
 21
150.288634109075
 31
0.0
  0
LINE
  5
D4C
330
1E
100
AcDbEntity
  8
0
100
AcDbLine
 10
47.80798079889
 20
149.313391553462
 30
0.0
 11
48.46958079889
 21
149.004391553462
 31
0.0
  0
LINE
  5
D4D
330
1E
100
AcDbEntity
  8
0
100
AcDbLine
 10
47.80798079889
 20
149.313391553462
 30
0.0
 11
48.121855970433
 21
149.986670879074
 31
0.0
  0
LINE
  5
D4E
330
1E
100
AcDbEntity
  8
0
100
AcDbLine
 10
48.93518079889
 20
148.788391553462
 30
0.0
 11
48.990221824175
 21
148.76269389352
 31
0.0
  0
LINE
  5
D4F
330
1E
100
AcDbEntity
  8
0
100
AcDbLine
 10
48.93518079889
 20
148.788391553462
 30
0.0
 11
49.192315209613
 21
149.339958858999
 31
0.0
  0
LINE
  5
D50
330
1E
100
AcDbEntity
  8
0
100
AcDbLine
 10
48.99008079889
 20
148.762391553462
 30
0.0
 11
50.13578079889
 21
148.228391553462
 31
0.0
  0
LINE
  5
D51
330
1E
100
AcDbEntity
  8
0
100
AcDbLine
 10
48.99008079889
 20
148.762391553462
 30
0.0
 11
49.201476346641
 21
149.21559639554
 31
0.0
  0
LINE
  5
D52
330
1E
100
AcDbEntity
  8
0
100
AcDbLine
 10
48.99008079889
 20
148.762391553462
 30
0.0
 11
49.65158079889
 21
148.453391553462
 31
0.0
  0
LINE
  5
D53
330
1E
100
AcDbEntity
  8
0
100
AcDbLine
 10
48.71641330714
 20
149.53415275787
 30
0.0
 11
49.222876070973
 21
149.327488362896
 31
0.0
  0
LINE
  5
D54
330
1E
100
AcDbEntity
  8
0
100
AcDbLine
 10
48.71641330714
 20
149.53415275787
 30
0.0
 11
49.222876070973
 21
149.327488362896
 31
0.0
  0
LINE
  5
D55
330
1E
100
AcDbEntity
  8
0
100
AcDbLine
 10
43.00388079889
 20
151.554391553462
 30
0.0
 11
43.215290736711
 21
152.007627245999
 31
0.0
  0
LINE
  5
D56
330
1E
100
AcDbEntity
  8
0
100
AcDbLine
 10
44.46608079889
 20
151.424391553462
 30
0.0
 11
44.677210529032
 21
151.877026516805
 31
0.0
  0
LINE
  5
D57
330
1E
100
AcDbEntity
  8
0
100
AcDbLine
 10
43.14288079889
 20
152.041391553462
 30
0.0
 11
44.46608079889
 21
151.424391553462
 31
0.0
  0
LINE
  5
D58
330
1E
100
AcDbEntity
  8
0
100
AcDbLine
 10
43.14288079889
 20
152.041391553462
 30
0.0
 11
43.424856452395
 21
152.645839541338
 31
0.0
  0
LINE
  5
D59
330
1E
100
AcDbEntity
  8
0
100
AcDbLine
 10
44.82438079889
 20
151.808391553462
 30
0.0
 11
45.247109469623
 21
152.715167559188
 31
0.0
  0
LINE
  5
D5A
330
1E
100
AcDbEntity
  8
0
100
AcDbLine
 10
44.82438079889
 20
151.808391553462
 30
0.0
 11
45.119987796874
 21
152.442484652544
 31
0.0
  0
LINE
  5
D5B
330
1E
100
AcDbEntity
  8
0
100
AcDbLine
 10
43.50138079889
 20
152.425391553462
 30
0.0
 11
44.82438079889
 21
151.808391553462
 31
0.0
  0
LINE
  5
D5C
330
1E
100
AcDbEntity
  8
0
100
AcDbLine
 10
43.50138079889
 20
152.425391553462
 30
0.0
 11
43.924156950834
 21
153.33226940897
 31
0.0
  0
LINE
  5
D5D
330
1E
100
AcDbEntity
  8
0
100
AcDbLine
 10
43.277903515877
 20
151.753360991601
 30
0.0
 11
46.867441158658
 21
150.288634109075
 31
0.0
  0
LINE
  5
D5E
330
1E
100
AcDbEntity
  8
0
100
AcDbLine
 10
45.247109469623
 20
152.715167559188
 30
0.0
 11
47.507241110682
 21
151.660877470035
 31
0.0
  0
LINE
  5
D5F
330
1E
100
AcDbEntity
  8
0
100
AcDbLine
 10
48.16248079889
 20
151.354391553462
 30
0.0
 11
52.85938079889
 21
149.164391553462
 31
0.0
  0
LINE
  5
D60
330
1E
100
AcDbEntity
  8
0
100
AcDbLine
 10
49.17618079889
 20
149.227391553462
 30
0.0
 11
50.49938079889
 21
148.610391553462
 31
0.0
  0
LINE
  5
D61
330
1E
100
AcDbEntity
  8
0
100
AcDbLine
 10
49.17618079889
 20
149.227391553462
 30
0.0
 11
49.465987215361
 21
149.848625703049
 31
0.0
  0
LINE
  5
D62
330
1E
100
AcDbEntity
  8
0
100
AcDbLine
 10
49.17618079889
 20
149.227391553462
 30
0.0
 11
49.442846564901
 21
149.799020996278
 31
0.0
  0
LINE
  5
D63
330
1E
100
AcDbEntity
  8
0
100
AcDbLine
 10
49.65158079889
 20
148.453391553462
 30
0.0
 11
50.79738079889
 21
147.919391553462
 31
0.0
  0
LINE
  5
D64
330
1E
100
AcDbEntity
  8
0
100
AcDbLine
 10
49.31429194186
 20
150.817342350135
 30
0.0
 11
49.779856115293
 21
150.600266078591
 31
0.0
  0
LINE
  5
D65
330
1E
100
AcDbEntity
  8
0
100
AcDbLine
 10
49.314526789634
 20
150.817846389253
 30
0.0
 11
49.78007481244
 21
150.600735195874
 31
0.0
  0
LINE
  5
D66
330
1E
100
AcDbEntity
  8
0
100
AcDbLine
 10
49.15468079889
 20
150.892391553462
 30
0.0
 11
54.05008079889
 21
148.609391553462
 31
0.0
  0
LINE
  5
D67
330
1E
100
AcDbEntity
  8
0
100
AcDbLine
 10
43.20088079889
 20
153.669391553462
 30
0.0
 11
48.16248079889
 21
151.354391553462
 31
0.0
  0
LINE
  5
D68
330
1E
100
AcDbEntity
  8
0
100
AcDbLine
 10
43.99468079889
 20
153.299391553462
 30
0.0
 11
49.15468079889
 21
150.892391553462
 31
0.0
  0
LINE
  5
D69
330
1E
100
AcDbEntity
  8
0
100
AcDbLine
 10
50.79738079889
 20
147.919391553462
 30
0.0
 11
51.117862149103
 21
148.606841491863
 31
0.0
  0
LINE
  5
D6A
330
1E
100
AcDbEntity
  8
0
100
AcDbLine
 10
50.49938079889
 20
148.610391553462
 30
0.0
 11
50.852268771768
 21
149.366937941127
 31
0.0
  0
LINE
  5
D6B
330
1E
100
AcDbEntity
  8
0
100
AcDbLine
 10
50.85918079889
 20
148.993391553462
 30
0.0
 11
52.18228079889
 21
148.376391553462
 31
0.0
  0
LINE
  5
D6C
330
1E
100
AcDbEntity
  8
0
100
AcDbLine
 10
50.85918079889
 20
148.993391553462
 30
0.0
 11
51.220785001261
 21
149.769052247853
 31
0.0
  0
LINE
  5
D6D
330
1E
100
AcDbEntity
  8
0
100
AcDbLine
 10
50.85918079889
 20
148.993391553462
 30
0.0
 11
51.194287529656
 21
149.712213729136
 31
0.0
  0
LINE
  5
D6E
330
1E
100
AcDbEntity
  8
0
100
AcDbLine
 10
50.13578079889
 20
148.228391553462
 30
0.0
 11
50.79738079889
 21
147.919391553462
 31
0.0
  0
LINE
  5
D6F
330
1E
100
AcDbEntity
  8
0
100
AcDbLine
 10
50.13578079889
 20
148.228391553462
 30
0.0
 11
50.347087139786
 21
148.681405147527
 31
0.0
  0
LINE
  5
D70
330
1E
100
AcDbEntity
  8
0
100
AcDbLine
 10
52.18228079889
 20
148.376391553462
 30
0.0
 11
52.590827569948
 21
149.252746612534
 31
0.0
  0
LINE
  5
D71
330
1E
100
AcDbEntity
  8
0
100
AcDbLine
 10
51.097255636798
 20
148.562639401458
 30
0.0
 11
53.899366402611
 21
147.41922557635
 31
0.0
  0
LINE
  5
D72
330
1E
100
AcDbEntity
  8
0
100
AcDbLine
 10
51.097255636798
 20
148.562639401458
 30
0.0
 11
53.899366402611
 21
147.41922557635
 31
0.0
  0
LINE
  5
D73
330
1E
100
AcDbEntity
  8
0
100
AcDbLine
 10
51.133318565663
 20
149.969472520563
 30
0.0
 11
51.281959357084
 21
149.900274570506
 31
0.0
  0
LINE
  5
D74
330
1E
100
AcDbEntity
  8
0
100
AcDbLine
 10
52.604943770216
 20
149.283026630384
 30
0.0
 11
52.85938079889
 21
149.164391553462
 31
0.0
  0
LINE
  5
D75
330
1E
100
AcDbEntity
  8
0
100
AcDbLine
 10
52.605063818165
 20
149.283284139767
 30
0.0
 11
54.05008079889
 21
148.609391553462
 31
0.0
  0
LINE
  5
D76
330
1E
100
AcDbEntity
  8
0
100
AcDbLine
 10
52.85938079889
 20
149.164391553462
 30
0.0
 11
54.806071900739
 21
148.256835632716
 31
0.0
  0
LINE
  5
D77
330
1E
100
AcDbEntity
  8
0
100
AcDbLine
 10
49.90818079889
 20
151.644391553462
 30
0.0
 11
54.86978079889
 21
149.330391553462
 31
0.0
  0
LINE
  5
D78
330
1E
100
AcDbEntity
  8
0
100
AcDbLine
 10
44.68188079889
 20
154.081391553462
 30
0.0
 11
49.90818079889
 21
151.644391553462
 31
0.0
  0
LINE
  5
D79
330
1E
100
AcDbEntity
  8
0
100
AcDbLine
 10
53.74838079889
 20
147.095391553462
 30
0.0
 11
54.89418079889
 21
146.561391553462
 31
0.0
  0
LINE
  5
D7A
330
1E
100
AcDbEntity
  8
0
100
AcDbLine
 10
53.74838079889
 20
147.095391553462
 30
0.0
 11
54.013277726458
 21
147.663542659201
 31
0.0
  0
LINE
  5
D7B
330
1E
100
AcDbEntity
  8
0
100
AcDbLine
 10
53.74838079889
 20
147.095391553462
 30
0.0
 11
54.760867745095
 21
146.623522091712
 31
0.0
  0
LINE
  5
D7C
330
1E
100
AcDbEntity
  8
0
100
AcDbLine
 10
53.74838079889
 20
147.095391553462
 30
0.0
 11
53.899366402611
 21
147.41922557635
 31
0.0
  0
LINE
  5
D7D
330
1E
100
AcDbEntity
  8
0
100
AcDbLine
 10
53.74838079889
 20
147.095391553462
 30
0.0
 11
54.760867745095
 21
146.623522091712
 31
0.0
  0
LINE
  5
D7E
330
1E
100
AcDbEntity
  8
0
100
AcDbLine
 10
61.794703404216
 20
143.8950045803
 30
0.0
 11
62.64198079889
 21
143.499391553462
 31
0.0
  0
LINE
  5
D7F
330
1E
100
AcDbEntity
  8
0
100
AcDbLine
 10
61.794703404216
 20
143.8950045803
 30
0.0
 11
62.64198079889
 21
143.499391553462
 31
0.0
  0
LINE
  5
D80
330
1E
100
AcDbEntity
  8
0
100
AcDbLine
 10
57.75338079889
 20
145.227391553462
 30
0.0
 11
58.00128557754
 21
145.111964989858
 31
0.0
  0
LINE
  5
D81
330
1E
100
AcDbEntity
  8
0
100
AcDbLine
 10
57.75338079889
 20
145.227391553462
 30
0.0
 11
58.00128557754
 21
145.111964989858
 31
0.0
  0
LINE
  5
D82
330
1E
100
AcDbEntity
  8
0
100
AcDbLine
 10
57.57818079889
 20
145.309391553462
 30
0.0
 11
57.727880798896
 21
145.239623880218
 31
0.0
  0
LINE
  5
D83
330
1E
100
AcDbEntity
  8
0
100
AcDbLine
 10
57.57818079889
 20
145.309391553462
 30
0.0
 11
57.727880798896
 21
145.239623880218
 31
0.0
  0
LINE
  5
D84
330
1E
100
AcDbEntity
  8
0
100
AcDbLine
 10
59.60018079889
 20
144.366391553462
 30
0.0
 11
59.919418512623
 21
145.051092813368
 31
0.0
  0
LINE
  5
D85
330
1E
100
AcDbEntity
  8
0
100
AcDbLine
 10
58.93858079889
 20
144.675391553462
 30
0.0
 11
59.60018079889
 21
144.366391553462
 31
0.0
  0
LINE
  5
D86
330
1E
100
AcDbEntity
  8
0
100
AcDbLine
 10
58.45438079889
 20
144.900391553462
 30
0.0
 11
59.60018079889
 21
144.366391553462
 31
0.0
  0
LINE
  5
D87
330
1E
100
AcDbEntity
  8
0
100
AcDbLine
 10
58.105080798881
 20
145.063556632831
 30
0.0
 11
58.45438079889
 21
144.900391553462
 31
0.0
  0
LINE
  5
D88
330
1E
100
AcDbEntity
  8
0
100
AcDbLine
 10
58.723989627632
 20
144.775410481149
 30
0.0
 11
58.93858079889
 21
144.675391553462
 31
0.0
  0
LINE
  5
D89
330
1E
100
AcDbEntity
  8
0
100
AcDbLine
 10
58.06248079889
 20
145.083391553462
 30
0.0
 11
58.72398079889
 21
144.775391553462
 31
0.0
  0
LINE
  5
D8A
330
1E
100
AcDbEntity
  8
0
100
AcDbLine
 10
60.83458079889
 20
144.342391553462
 30
0.0
 11
61.98058079889
 21
143.808391553462
 31
0.0
  0
LINE
  5
D8B
330
1E
100
AcDbEntity
  8
0
100
AcDbLine
 10
60.83458079889
 20
144.342391553462
 30
0.0
 11
61.172196052192
 21
145.06650897241
 31
0.0
  0
LINE
  5
D8C
330
1E
100
AcDbEntity
  8
0
100
AcDbLine
 10
60.83458079889
 20
144.342391553462
 30
0.0
 11
60.976954392727
 21
144.647754531844
 31
0.0
  0
LINE
  5
D8D
330
1E
100
AcDbEntity
  8
0
100
AcDbLine
 10
61.98058079889
 20
143.808391553462
 30
0.0
 11
62.64198079889
 21
143.499391553462
 31
0.0
  0
LINE
  5
D8E
330
1E
100
AcDbEntity
  8
0
100
AcDbLine
 10
59.013706562636
 20
145.396526295425
 30
0.0
 11
60.976954392727
 21
144.647754531844
 31
0.0
  0
LINE
  5
D8F
330
1E
100
AcDbEntity
  8
0
100
AcDbLine
 10
62.359064305407
 20
143.63149167915
 30
0.0
 11
65.66298079889
 21
138.772391553462
 31
0.0
  0
LINE
  5
D90
330
1E
100
AcDbEntity
  8
0
100
AcDbLine
 10
62.64198079889
 20
143.499391553462
 30
0.0
 11
63.032132393317
 21
144.33618895166
 31
0.0
  0
LINE
  5
D91
330
1E
100
AcDbEntity
  8
0
100
AcDbLine
 10
62.31928079889
 20
144.753391553462
 30
0.0
 11
65.62708079889
 21
143.211391553462
 31
0.0
  0
LINE
  5
D92
330
1E
100
AcDbEntity
  8
0
100
AcDbLine
 10
55.55578079889
 20
146.252391553462
 30
0.0
 11
55.890735018115
 21
146.97088658358
 31
0.0
  0
LINE
  5
D93
330
1E
100
AcDbEntity
  8
0
100
AcDbLine
 10
58.28908079889
 20
145.529391553462
 30
0.0
 11
58.711754880545
 21
146.435443175323
 31
0.0
  0
LINE
  5
D94
330
1E
100
AcDbEntity
  8
0
100
AcDbLine
 10
57.26908079889
 20
145.453391553462
 30
0.0
 11
57.402393852718
 21
145.391261015197
 31
0.0
  0
LINE
  5
D95
330
1E
100
AcDbEntity
  8
0
100
AcDbLine
 10
56.96598079889
 20
146.146391553462
 30
0.0
 11
58.28908079889
 21
145.529391553462
 31
0.0
  0
LINE
  5
D96
330
1E
100
AcDbEntity
  8
0
100
AcDbLine
 10
56.96598079889
 20
146.146391553462
 30
0.0
 11
57.388616375864
 21
147.052467825915
 31
0.0
  0
LINE
  5
D97
330
1E
100
AcDbEntity
  8
0
100
AcDbLine
 10
56.96598079889
 20
146.146391553462
 30
0.0
 11
57.276423777598
 21
146.81194133744
 31
0.0
  0
LINE
  5
D98
330
1E
100
AcDbEntity
  8
0
100
AcDbLine
 10
56.60748079889
 20
145.762391553462
 30
0.0
 11
57.75338079889
 21
145.227391553462
 31
0.0
  0
LINE
  5
D99
330
1E
100
AcDbEntity
  8
0
100
AcDbLine
 10
56.60748079889
 20
145.762391553462
 30
0.0
 11
56.825912222219
 21
146.230938844631
 31
0.0
  0
LINE
  5
D9A
330
1E
100
AcDbEntity
  8
0
100
AcDbLine
 10
56.60748079889
 20
145.762391553462
 30
0.0
 11
57.26908079889
 21
145.453391553462
 31
0.0
  0
LINE
  5
D9B
330
1E
100
AcDbEntity
  8
0
100
AcDbLine
 10
56.91668079889
 20
145.618391553462
 30
0.0
 11
58.06248079889
 21
145.083391553462
 31
0.0
  0
LINE
  5
D9C
330
1E
100
AcDbEntity
  8
0
100
AcDbLine
 10
56.91668079889
 20
145.618391553462
 30
0.0
 11
57.57818079889
 21
145.309391553462
 31
0.0
  0
LINE
  5
D9D
330
1E
100
AcDbEntity
  8
0
100
AcDbLine
 10
56.60448079889
 20
146.315391553462
 30
0.0
 11
56.97830659811
 21
146.172816480328
 31
0.0
  0
LINE
  5
D9E
330
1E
100
AcDbEntity
  8
0
100
AcDbLine
 10
54.760867745095
 20
146.623522091712
 30
0.0
 11
55.55578079889
 21
146.252391553462
 31
0.0
  0
LINE
  5
D9F
330
1E
100
AcDbEntity
  8
0
100
AcDbLine
 10
54.760867745095
 20
146.623522091712
 30
0.0
 11
55.55578079889
 21
146.252391553462
 31
0.0
  0
LINE
  5
DA0
330
1E
100
AcDbEntity
  8
0
100
AcDbLine
 10
54.89418079889
 20
146.561391553462
 30
0.0
 11
55.55578079889
 21
146.252391553462
 31
0.0
  0
LINE
  5
DA1
330
1E
100
AcDbEntity
  8
0
100
AcDbLine
 10
55.748066652489
 20
146.664855174587
 30
0.0
 11
56.60448079889
 21
146.315391553462
 31
0.0
  0
LINE
  5
DA2
330
1E
100
AcDbEntity
  8
0
100
AcDbLine
 10
58.48238079889
 20
146.542391553462
 30
0.0
 11
62.31928079889
 21
144.753391553462
 31
0.0
  0
LINE
  5
DA3
330
1E
100
AcDbEntity
  8
0
100
AcDbLine
 10
59.36818079889
 20
147.232391553462
 30
0.0
 11
63.27118079889
 21
145.413391553462
 31
0.0
  0
LINE
  5
DA4
330
1E
100
AcDbEntity
  8
0
100
AcDbLine
 10
63.27118079889
 20
145.413391553462
 30
0.0
 11
66.57888079889
 21
143.870391553462
 31
0.0
  0
LINE
  5
DA5
330
1E
100
AcDbEntity
  8
0
100
AcDbLine
 10
54.05008079889
 20
148.609391553462
 30
0.0
 11
58.48238079889
 21
146.542391553462
 31
0.0
  0
LINE
  5
DA6
330
1E
100
AcDbEntity
  8
0
100
AcDbLine
 10
54.05008079889
 20
148.609391553462
 30
0.0
 11
54.382085338178
 21
148.454561469147
 31
0.0
  0
LINE
  5
DA7
330
1E
100
AcDbEntity
  8
0
100
AcDbLine
 10
54.86978079889
 20
149.330391553462
 30
0.0
 11
59.36818079889
 21
147.232391553462
 31
0.0
  0
LINE
  5
DA8
330
1E
100
AcDbEntity
  8
0
100
AcDbLine
 10
69.87428079889
 20
136.781391553462
 30
0.0
 11
70.11568079889
 21
137.772391553462
 31
0.0
  0
LINE
  5
DA9
330
1E
100
AcDbEntity
  8
0
100
AcDbLine
 10
69.31268079889
 20
136.050391553462
 30
0.0
 11
69.87428079889
 21
136.781391553462
 31
0.0
  0
LINE
  5
DAA
330
1E
100
AcDbEntity
  8
0
100
AcDbLine
 10
68.64818079889
 20
135.808391553462
 30
0.0
 11
69.31268079889
 21
136.050391553462
 31
0.0
  0
LINE
  5
DAB
330
1E
100
AcDbEntity
  8
0
100
AcDbLine
 10
67.69958079889
 20
136.140391553462
 30
0.0
 11
68.64818079889
 21
135.808391553462
 31
0.0
  0
LINE
  5
DAC
330
1E
100
AcDbEntity
  8
0
100
AcDbLine
 10
67.01078079889
 20
136.792391553462
 30
0.0
 11
67.69958079889
 21
136.140391553462
 31
0.0
  0
LINE
  5
DAD
330
1E
100
AcDbEntity
  8
0
100
AcDbLine
 10
65.66298079889
 20
138.772391553462
 30
0.0
 11
67.01078079889
 21
136.792391553462
 31
0.0
  0
LINE
  5
DAE
330
1E
100
AcDbEntity
  8
0
100
AcDbLine
 10
69.851303989347
 20
141.241508039978
 30
0.0
 11
70.11568079889
 21
137.772391553462
 31
0.0
  0
LINE
  5
DAF
330
1E
100
AcDbEntity
  8
0
100
AcDbLine
 10
67.77868079889
 20
141.104391553462
 30
0.0
 11
68.167507111295
 21
141.938445155439
 31
0.0
  0
LINE
  5
DB0
330
1E
100
AcDbEntity
  8
0
100
AcDbLine
 10
69.99318079889
 20
141.175391553462
 30
0.0
 11
71.11778079889
 21
140.651391553462
 31
0.0
  0
LINE
  5
DB1
330
1E
100
AcDbEntity
  8
0
100
AcDbLine
 10
71.11778079889
 20
140.651391553462
 30
0.0
 11
71.58088079889
 21
140.435391553462
 31
0.0
  0
LINE
  5
DB2
330
1E
100
AcDbEntity
  8
0
100
AcDbLine
 10
71.58088079889
 20
140.435391553462
 30
0.0
 11
72.66508079889
 21
141.032391553462
 31
0.0
  0
LINE
  5
DB3
330
1E
100
AcDbEntity
  8
0
100
AcDbLine
 10
66.01123722671
 20
141.92872709965
 30
0.0
 11
66.63278079889
 21
141.638391553462
 31
0.0
  0
LINE
  5
DB4
330
1E
100
AcDbEntity
  8
0
100
AcDbLine
 10
66.63278079889
 20
141.638391553462
 30
0.0
 11
67.77868079889
 21
141.104391553462
 31
0.0
  0
LINE
  5
DB5
330
1E
100
AcDbEntity
  8
0
100
AcDbLine
 10
67.11718079889
 20
141.413391553462
 30
0.0
 11
67.77868079889
 21
141.104391553462
 31
0.0
  0
LINE
  5
DB6
330
1E
100
AcDbEntity
  8
0
100
AcDbLine
 10
65.199880798871
 20
142.307159226712
 30
0.0
 11
66.01108079889
 21
141.928391553462
 31
0.0
  0
LINE
  5
DB7
330
1E
100
AcDbEntity
  8
0
100
AcDbLine
 10
65.199880798871
 20
142.307159226712
 30
0.0
 11
66.01108079889
 21
141.928391553462
 31
0.0
  0
LINE
  5
DB8
330
1E
100
AcDbEntity
  8
0
100
AcDbLine
 10
65.34958079889
 20
142.237391553462
 30
0.0
 11
66.01108079889
 21
141.928391553462
 31
0.0
  0
LINE
  5
DB9
330
1E
100
AcDbEntity
  8
0
100
AcDbLine
 10
68.07478079889
 20
142.069391553462
 30
0.0
 11
69.99318079889
 21
141.175391553462
 31
0.0
  0
LINE
  5
DBA
330
1E
100
AcDbEntity
  8
0
100
AcDbLine
 10
64.20378079889
 20
142.771391553462
 30
0.0
 11
65.34958079889
 21
142.237391553462
 31
0.0
  0
LINE
  5
DBB
330
1E
100
AcDbEntity
  8
0
100
AcDbLine
 10
64.20378079889
 20
142.771391553462
 30
0.0
 11
64.565547911023
 21
143.547401698158
 31
0.0
  0
LINE
  5
DBC
330
1E
100
AcDbEntity
  8
0
100
AcDbLine
 10
66.28858079889
 20
142.902391553462
 30
0.0
 11
68.07478079889
 21
142.069391553462
 31
0.0
  0
LINE
  5
DBD
330
1E
100
AcDbEntity
  8
0
100
AcDbLine
 10
64.45151462233
 20
143.759406259386
 30
0.0
 11
66.28858079889
 21
142.902391553462
 31
0.0
  0
LINE
  5
DBE
330
1E
100
AcDbEntity
  8
0
100
AcDbLine
 10
64.451514622331
 20
143.759406259386
 30
0.0
 11
66.28858079889
 21
142.902391553462
 31
0.0
  0
LINE
  5
DBF
330
1E
100
AcDbEntity
  8
0
100
AcDbLine
 10
68.62367374082
 20
142.916947402632
 30
0.0
 11
69.15888079889
 21
142.667391553462
 31
0.0
  0
LINE
  5
DC0
330
1E
100
AcDbEntity
  8
0
100
AcDbLine
 10
66.57888079889
 20
143.870391553462
 30
0.0
 11
69.15888079889
 21
142.667391553462
 31
0.0
  0
LINE
  5
DC1
330
1E
100
AcDbEntity
  8
0
100
AcDbLine
 10
69.15888079889
 20
142.667391553462
 30
0.0
 11
71.01118079889
 21
141.804391553462
 31
0.0
  0
LINE
  5
DC2
330
1E
100
AcDbEntity
  8
0
100
AcDbLine
 10
71.01118079889
 20
141.804391553462
 30
0.0
 11
72.20198079889
 21
141.248391553462
 31
0.0
  0
LINE
  5
DC3
330
1E
100
AcDbEntity
  8
0
100
AcDbLine
 10
72.20198079889
 20
141.248391553462
 30
0.0
 11
72.66508079889
 21
141.032391553462
 31
0.0
  0
LINE
  5
DC4
330
1E
100
AcDbEntity
  8
0
100
AcDbLine
 10
72.871840363771
 20
141.475800544828
 30
0.0
 11
86.27538079889
 21
125.337391553462
 31
0.0
  0
LINE
  5
DC5
330
1E
100
AcDbEntity
  8
0
100
AcDbLine
 10
80.902340847658
 20
158.780295799259
 30
0.0
 11
94.123689414397
 21
142.900621418322
 31
0.0
  0
LINE
  5
DC6
330
1E
100
AcDbEntity
  8
0
100
AcDbLine
 10
80.927023217592
 20
158.750650714606
 30
0.0
 11
81.54008079889
 21
160.065391553462
 31
0.0
  0
LINE
  5
DC7
330
1E
100
AcDbEntity
  8
0
100
AcDbLine
 10
72.66508079889
 20
141.032391553462
 30
0.0
 11
72.875125402137
 21
141.482845517812
 31
0.0
  0
LINE
  5
DC8
330
1E
100
AcDbEntity
  8
0
100
AcDbLine
 10
84.73728079889
 20
121.895391553462
 30
0.0
 11
84.93448079889
 21
122.336391553462
 31
0.0
  0
LINE
  5
DC9
330
1E
100
AcDbEntity
  8
0
100
AcDbLine
 10
84.73728079889
 20
121.895391553462
 30
0.0
 11
141.52088079889
 21
54.233291553462
 31
0.0
  0
LINE
  5
DCA
330
1E
100
AcDbEntity
  8
0
100
AcDbLine
 10
84.93448079889
 20
122.336391553462
 30
0.0
 11
85.48658079889
 21
123.572391553462
 31
0.0
  0
LINE
  5
DCB
330
1E
100
AcDbEntity
  8
0
100
AcDbLine
 10
85.48658079889
 20
123.572391553462
 30
0.0
 11
86.725689703004
 21
126.344807078586
 31
0.0
  0
LINE
  5
DCC
330
1E
100
AcDbEntity
  8
0
100
AcDbLine
 10
94.123689414397
 20
142.900621418322
 30
0.0
 11
94.91288079889
 21
144.665391553462
 31
0.0
  0
LINE
  5
DCD
330
1E
100
AcDbEntity
  8
0
100
AcDbLine
 10
94.123689414397
 20
142.900621418322
 30
0.0
 11
94.91288079889
 21
144.665391553462
 31
0.0
  0
LINE
  5
DCE
330
1E
100
AcDbEntity
  8
0
100
AcDbLine
 10
94.91288079889
 20
144.665391553462
 30
0.0
 11
95.42488079889
 21
145.813391553462
 31
0.0
  0
LINE
  5
DCF
330
1E
100
AcDbEntity
  8
0
100
AcDbLine
 10
95.42488079889
 20
145.813391553462
 30
0.0
 11
95.62188079889
 21
146.254391553462
 31
0.0
  0
LINE
  5
DD0
330
1E
100
AcDbEntity
  8
0
100
AcDbLine
 10
81.30108079889
 20
161.279391553462
 30
0.0
 11
81.54008079889
 21
160.065391553462
 31
0.0
  0
LINE
  5
DD1
330
1E
100
AcDbEntity
  8
0
100
AcDbLine
 10
68.20268079889
 20
167.387391553462
 30
0.0
 11
72.03948079889
 21
165.599391553462
 31
0.0
  0
LINE
  5
DD2
330
1E
100
AcDbEntity
  8
0
100
AcDbLine
 10
72.03948079889
 20
165.599391553462
 30
0.0
 11
75.34728079889
 21
164.056391553462
 31
0.0
  0
LINE
  5
DD3
330
1E
100
AcDbEntity
  8
0
100
AcDbLine
 10
75.34728079889
 20
164.056391553462
 30
0.0
 11
77.79498079889
 21
162.914391553462
 31
0.0
  0
LINE
  5
DD4
330
1E
100
AcDbEntity
  8
0
100
AcDbLine
 10
77.79498079889
 20
162.914391553462
 30
0.0
 11
79.71348079889
 21
162.020391553462
 31
0.0
  0
LINE
  5
DD5
330
1E
100
AcDbEntity
  8
0
100
AcDbLine
 10
79.71348079889
 20
162.020391553462
 30
0.0
 11
80.83798079889
 21
161.496391553462
 31
0.0
  0
LINE
  5
DD6
330
1E
100
AcDbEntity
  8
0
100
AcDbLine
 10
80.83798079889
 20
161.496391553462
 30
0.0
 11
81.30108079889
 21
161.279391553462
 31
0.0
  0
LINE
  5
DD7
330
1E
100
AcDbEntity
  8
0
100
AcDbLine
 10
63.77028079889
 20
169.455391553462
 30
0.0
 11
68.20268079889
 21
167.387391553462
 31
0.0
  0
LINE
  5
DD8
330
1E
100
AcDbEntity
  8
0
100
AcDbLine
 10
58.87498079889
 20
171.737391553462
 30
0.0
 11
63.77028079889
 21
169.455391553462
 31
0.0
  0
LINE
  5
DD9
330
1E
100
AcDbEntity
  8
0
100
AcDbLine
 10
53.71498079889
 20
174.143391553462
 30
0.0
 11
58.87498079889
 21
171.737391553462
 31
0.0
  0
LINE
  5
DDA
330
1E
100
AcDbEntity
  8
0
100
AcDbLine
 10
47.89338079889
 20
176.858391553462
 30
0.0
 11
53.71498079889
 21
174.143391553462
 31
0.0
  0
LINE
  5
DDB
330
1E
100
AcDbEntity
  8
0
100
AcDbLine
 10
42.40268079889
 20
179.418391553462
 30
0.0
 11
47.89338079889
 21
176.858391553462
 31
0.0
  0
LINE
  5
DDC
330
1E
100
AcDbEntity
  8
0
100
AcDbLine
 10
37.49268079889
 20
183.914391553462
 30
0.0
 11
81.30108079889
 21
161.279391553462
 31
0.0
  0
LINE
  5
DDD
330
1E
100
AcDbEntity
  8
0
100
AcDbLine
 10
36.64738079889
 20
182.102391553462
 30
0.0
 11
42.40268079889
 21
179.418391553462
 31
0.0
  0
LINE
  5
DDE
330
1E
100
AcDbEntity
  8
0
100
AcDbLine
 10
5.09188079889
 20
196.817391553462
 30
0.0
 11
9.52378079889
 21
194.750391553462
 31
0.0
  0
LINE
  5
DDF
330
1E
100
AcDbEntity
  8
0
100
AcDbLine
 10
9.52378079889
 20
194.750391553462
 30
0.0
 11
14.41938079889
 21
192.467391553462
 31
0.0
  0
LINE
  5
DE0
330
1E
100
AcDbEntity
  8
0
100
AcDbLine
 10
14.41938079889
 20
192.467391553462
 30
0.0
 11
19.57978079889
 21
190.061391553462
 31
0.0
  0
LINE
  5
DE1
330
1E
100
AcDbEntity
  8
0
100
AcDbLine
 10
19.57978079889
 20
190.061391553462
 30
0.0
 11
25.40148079889
 21
187.347391553462
 31
0.0
  0
LINE
  5
DE2
330
1E
100
AcDbEntity
  8
0
100
AcDbLine
 10
25.40148079889
 20
187.347391553462
 30
0.0
 11
30.89158079889
 21
184.785391553462
 31
0.0
  0
LINE
  5
DE3
330
1E
100
AcDbEntity
  8
0
100
AcDbLine
 10
30.89158079889
 20
184.785391553462
 30
0.0
 11
36.64738079889
 21
182.102391553462
 31
0.0
  0
LINE
  5
DE4
330
1E
100
AcDbEntity
  8
0
100
AcDbLine
 10
1.25528079889
 20
198.606391553462
 30
0.0
 11
5.09188079889
 21
196.817391553462
 31
0.0
  0
LINE
  5
DE5
330
1E
100
AcDbEntity
  8
0
100
AcDbLine
 10
-2.05271920111
 20
200.149391553462
 30
0.0
 11
1.25528079889
 21
198.606391553462
 31
0.0
  0
LINE
  5
DE6
330
1E
100
AcDbEntity
  8
0
100
AcDbLine
 10
-4.50050920111
 20
201.290391553462
 30
0.0
 11
-2.05271920111
 21
200.149391553462
 31
0.0
  0
LINE
  5
DE7
330
1E
100
AcDbEntity
  8
0
100
AcDbLine
 10
-6.41873920111
 20
202.184391553462
 30
0.0
 11
-4.50050920111
 21
201.290391553462
 31
0.0
  0
LINE
  5
DE8
330
1E
100
AcDbEntity
  8
0
100
AcDbLine
 10
-7.54377920111
 20
202.709391553462
 30
0.0
 11
-6.41873920111
 21
202.184391553462
 31
0.0
  0
LINE
  5
DE9
330
1E
100
AcDbEntity
  8
0
100
AcDbLine
 10
-8.00631920111
 20
202.924391553462
 30
0.0
 11
-7.54377920111
 21
202.709391553462
 31
0.0
  0
LINE
  5
DEA
330
1E
100
AcDbEntity
  8
0
100
AcDbLine
 10
-8.00631920111
 20
202.924391553462
 30
0.0
 11
37.49268079889
 21
183.914391553462
 31
0.0
  0
LINE
  5
DEB
330
1E
100
AcDbEntity
  8
0
100
AcDbLine
 10
-8.00631920111
 20
202.924391553462
 30
0.0
 11
37.49268079889
 21
183.914391553462
 31
0.0
  0
LINE
  5
DEC
330
1E
100
AcDbEntity
  8
0
100
AcDbLine
 10
95.62188079889
 20
146.254391553462
 30
0.0
 11
159.85188079889
 21
69.714891553462
 31
0.0
  0
LINE
  5
DF8
330
1E
100
AcDbEntity
  8
0
100
AcDbLine
 10
169.6319123764
 20
10.056391553462
 30
0.0
 11
170.376537584759
 21
10.234888331109
 31
0.0
  0
LINE
  5
DFA
330
1E
100
AcDbEntity
  8
0
100
AcDbLine
 10
170.376537584759
 20
10.234888331109
 30
0.0
 11
171.02688079889
 21
10.928691553462
 31
0.0
  0
LINE
  5
DFC
330
1E
100
AcDbEntity
  8
0
100
AcDbLine
 10
171.02688079889
 20
10.928691553462
 30
0.0
 11
171.496505224617
 21
11.825889543508
 31
0.0
  0
LINE
  5
DFD
330
1E
100
AcDbEntity
  8
0
100
AcDbLine
 10
219.41788079889
 20
10.436751553462
 30
0.0
 11
221.632660420001
 21
10.056391553462
 31
0.0
  0
LINE
  5
DFE
330
1E
100
AcDbEntity
  8
0
100
AcDbLine
 10
171.496505224617
 20
11.825889543508
 30
0.0
 11
171.63488079889
 21
13.107491553462
 31
0.0
  0
LINE
  5
DFF
330
1E
100
AcDbEntity
  8
0
100
AcDbLine
 10
171.23988079889
 20
14.369891553462
 30
0.0
 11
171.63488079889
 21
13.107491553462
 31
0.0
  0
LINE
  5
E00
330
1E
100
AcDbEntity
  8
0
100
AcDbLine
 10
217.08555138148
 20
11.335680271019
 30
0.0
 11
219.41788079889
 21
10.436751553462
 31
0.0
  0
LINE
  5
E01
330
1E
100
AcDbEntity
  8
0
100
AcDbLine
 10
214.42888079889
 20
13.041591553462
 30
0.0
 11
215.05088079889
 21
12.574291553462
 31
0.0
  0
LINE
  5
E02
330
1E
100
AcDbEntity
  8
0
100
AcDbLine
 10
215.05088079889
 20
12.574291553462
 30
0.0
 11
217.08555138148
 21
11.335680271019
 31
0.0
  0
LINE
  5
E03
330
1E
100
AcDbEntity
  8
0
100
AcDbLine
 10
171.496505224617
 20
11.825889543508
 30
0.0
 11
171.63488079889
 21
13.107491553462
 31
0.0
  0
LINE
  5
E04
330
1E
100
AcDbEntity
  8
0
100
AcDbLine
 10
170.74888079889
 20
15.055891553462
 30
0.0
 11
171.23988079889
 21
14.369891553462
 31
0.0
  0
LINE
  5
E05
330
1E
100
AcDbEntity
  8
0
100
AcDbLine
 10
212.49088079889
 20
15.056391553462
 30
0.0
 11
212.910108084106
 21
14.51341097351
 31
0.0
  0
LINE
  5
E06
330
1E
100
AcDbEntity
  8
0
100
AcDbLine
 10
178.04688079889
 20
56.110691553462
 30
0.0
 11
212.49088079889
 21
15.056391553462
 31
0.0
  0
LINE
  5
E07
330
1E
100
AcDbEntity
  8
0
100
AcDbLine
 10
164.61988079889
 20
71.710091553462
 30
0.0
 11
165.48488079889
 21
71.026791553462
 31
0.0
  0
LINE
  5
E08
330
1E
100
AcDbEntity
  8
0
100
AcDbLine
 10
163.35388079889
 20
71.691391553462
 30
0.0
 11
164.61988079889
 21
71.710091553462
 31
0.0
  0
LINE
  5
E09
330
1E
100
AcDbEntity
  8
0
100
AcDbLine
 10
163.07488079889
 20
71.434591553462
 30
0.0
 11
163.35388079889
 21
71.691391553462
 31
0.0
  0
LINE
  5
E0A
330
1E
100
AcDbEntity
  8
0
100
AcDbLine
 10
165.485762545049
 20
71.026095024965
 30
0.0
 11
177.53788079889
 21
56.728091553462
 31
0.0
  0
LINE
  5
E10
330
1E
100
AcDbEntity
  8
0
100
AcDbLine
 10
212.910108084106
 20
14.51341097351
 30
0.0
 11
214.42888079889
 21
13.041591553462
 31
0.0
  0
LINE
  5
E14
330
1E
100
AcDbEntity
  8
0
100
AcDbLine
 10
141.99588079889
 20
53.758891553462
 30
0.0
 11
157.288469452634
 21
66.507155002722
 31
0.0
  0
LINE
  5
E15
330
1E
100
AcDbEntity
  8
0
100
AcDbLine
 10
157.59488079889
 20
66.760091553462
 30
0.0
 11
159.800193900207
 21
68.662484580569
 31
0.0
  0
LINE
  5
E16
330
1E
100
AcDbEntity
  8
0
100
AcDbLine
 10
159.800193900207
 20
68.662484580569
 30
0.0
 11
163.07488079889
 21
71.434591553462
 31
0.0
  0
LINE
  5
E17
330
1E
100
AcDbEntity
  8
0
100
AcDbLine
 10
153.02988079889
 20
36.162791553462
 30
0.0
 11
177.53788079889
 21
56.728091553462
 31
0.0
  0
LINE
  5
E18
330
1E
100
AcDbEntity
  8
0
100
AcDbLine
 10
177.53788079889
 20
56.728091553462
 30
0.0
 11
178.04688079889
 21
56.110691553462
 31
0.0
  0
LINE
  5
E19
330
1E
100
AcDbEntity
  8
0
100
AcDbLine
 10
178.04688079889
 20
56.110691553462
 30
0.0
 11
153.53388079889
 21
35.542091553462
 31
0.0
  0
LINE
  5
E1A
330
1E
100
AcDbEntity
  8
0
100
AcDbLine
 10
153.53388079889
 20
35.542091553462
 30
0.0
 11
153.02988079889
 21
36.162791553462
 31
0.0
  0
LINE
  5
E1B
330
1E
100
AcDbEntity
  8
0
100
AcDbLine
 10
94.123689414397
 20
142.900621418322
 30
0.0
 11
86.725689703004
 21
126.344807078586
 31
0.0
  0
LINE
  5
E1C
330
1E
100
AcDbEntity
  8
0
100
AcDbLine
 10
80.927023217592
 20
158.750650714606
 30
0.0
 11
72.875125402137
 21
141.482845517812
 31
0.0
  0
ENDSEC
  0
SECTION
  2
OBJECTS
  0
DICTIONARY
  5
C
330
0
100
AcDbDictionary
281
     1
  3
ACAD_GROUP
350
D
  3
ACAD_LAYOUT
350
19
  3
ACAD_MLEADERSTYLE
350
E1F
  3
ACAD_MLINESTYLE
350
16
  3
ACAD_PLOTSETTINGS
350
18
  3
ACAD_PLOTSTYLENAME
350
E
  3
ACAD_SCALELIST
350
45C
  3
ACDBVARIABLEDICTIONARY
350
42D
  3
DWGPROPS
350
E22
  0
DICTIONARY
  5
D
102
{ACAD_REACTORS
330
C
102
}
330
C
100
AcDbDictionary
281
     1
  0
DICTIONARY
  5
19
102
{ACAD_REACTORS
330
C
102
}
330
C
100
AcDbDictionary
281
     1
  3
Layout1
350
45B
  3
Model
350
45A
  0
DICTIONARY
  5
E1F
102
{ACAD_REACTORS
330
C
102
}
330
C
100
AcDbDictionary
281
     1
  0
DICTIONARY
  5
16
102
{ACAD_REACTORS
330
C
102
}
330
C
100
AcDbDictionary
281
     1
  3
STANDARD
350
17
  0
DICTIONARY
  5
18
102
{ACAD_REACTORS
330
C
102
}
330
C
100
AcDbDictionary
281
     1
  0
ACDBDICTIONARYWDFLT
  5
E
102
{ACAD_REACTORS
330
C
102
}
330
C
100
AcDbDictionary
281
     1
  3
Normal
350
F
100
AcDbDictionaryWithDefault
340
F
  0
DICTIONARY
  5
45C
102
{ACAD_REACTORS
330
C
102
}
330
C
100
AcDbDictionary
281
     1
  3
A0
350
45D
  3
A1
350
45E
  3
A2
350
45F
  3
A3
350
460
  3
A4
350
461
  3
A5
350
462
  3
A6
350
463
  3
A7
350
464
  3
A8
350
465
  3
A9
350
466
  3
B0
350
467
  3
B1
350
468
  3
B2
350
469
  3
B3
350
46A
  3
B4
350
46B
  3
B5
350
46C
  3
B6
350
46D
  3
B7
350
46E
  3
B8
350
46F
  3
B9
350
470
  3
C0
350
471
  3
C1
350
472
  3
C2
350
473
  3
C3
350
474
  3
C4
350
475
  3
C5
350
476
  3
C6
350
477
  3
C7
350
478
  3
C8
350
479
  3
C9
350
47A
  3
D0
350
47B
  3
D1
350
47C
  3
D2
350
47D
  0
DICTIONARY
  5
42D
102
{ACAD_REACTORS
330
C
102
}
330
C
100
AcDbDictionary
281
     1
  3
CANNOSCALE
350
E20
  3
DIMASSOC
350
42E
  0
XRECORD
  5
E22
102
{ACAD_REACTORS
330
C
102
}
330
C
100
AcDbXrecord
280
     1
  1
DWGPROPS COOKIE
  2

  3

  4

  6

  7

  8
MARTIN
  9

300
=
301
=
302
=
303
=
304
=
305
=
306
=
307
=
308
=
309
=
 40
0.0
 41
2454638.634875208
 42
2456209.73526059
  1

 90
        0
  0
LAYOUT
  5
45B
102
{ACAD_REACTORS
330
19
102
}
330
19
100
AcDbPlotSettings
  1

  2
none_device
  4

  6

 40
0.0
 41
0.0
 42
0.0
 43
0.0
 44
0.0
 45
0.0
 46
0.0
 47
0.0
 48
0.0
 49
0.0
140
0.0
141
0.0
142
1.0
143
1.0
 70
   688
 72
     0
 73
     0
 74
     5
  7

 75
    16
147
1.0
148
0.0
149
0.0
100
AcDbLayout
  1
Layout1
 70
     1
 71
     1
 10
0.0
 20
0.0
 11
0.0
 21
0.0
 12
0.0
 22
0.0
 32
0.0
 14
0.0
 24
0.0
 34
0.0
 15
0.0
 25
0.0
 35
0.0
146
0.0
 13
0.0
 23
0.0
 33
0.0
 16
1.0
 26
0.0
 36
0.0
 17
0.0
 27
1.0
 37
0.0
 76
     0
330
1A
  0
LAYOUT
  5
45A
102
{ACAD_REACTORS
330
19
102
}
330
19
100
AcDbPlotSettings
  1

  2
none_device
  4

  6

 40
0.0
 41
0.0
 42
0.0
 43
0.0
 44
0.0
 45
0.0
 46
0.0
 47
0.0
 48
0.0
 49
0.0
140
0.0
141
0.0
142
1.0
143
1.0
 70
   688
 72
     0
 73
     0
 74
     5
  7

 75
    16
147
1.0
148
0.0
149
0.0
100
AcDbLayout
  1
Model
 70
     1
 71
     0
 10
0.0
 20
0.0
 11
0.0
 21
0.0
 12
0.0
 22
0.0
 32
0.0
 14
-17.96541920111
 24
0.0
 34
0.0
 15
233.30485
 25
284.0
 35
0.0
146
0.0
 13
0.0
 23
0.0
 33
0.0
 16
1.0
 26
0.0
 36
0.0
 17
0.0
 27
1.0
 37
0.0
 76
     0
330
1E
331
435
  0
MLINESTYLE
  5
17
102
{ACAD_REACTORS
330
16
102
}
330
16
100
AcDbMlineStyle
  2
STANDARD
 70
     0
  3

 62
   256
 51
90.0
 52
90.0
 71
     2
 49
0.5
 62
   256
  6
BYLAYER
 49
-0.5
 62
   256
  6
BYLAYER
  0
ACDBPLACEHOLDER
  5
F
102
{ACAD_REACTORS
330
E
102
}
330
E
  0
SCALE
  5
45D
102
{ACAD_REACTORS
330
45C
102
}
330
45C
100
AcDbScale
 70
     0
300
1:1
140
1.0
141
1.0
290
     1
  0
SCALE
  5
45E
102
{ACAD_REACTORS
330
45C
102
}
330
45C
100
AcDbScale
 70
     0
300
1:2
140
1.0
141
2.0
290
     0
  0
SCALE
  5
45F
102
{ACAD_REACTORS
330
45C
102
}
330
45C
100
AcDbScale
 70
     0
300
1:4
140
1.0
141
4.0
290
     0
  0
SCALE
  5
460
102
{ACAD_REACTORS
330
45C
102
}
330
45C
100
AcDbScale
 70
     0
300
1:5
140
1.0
141
5.0
290
     0
  0
SCALE
  5
461
102
{ACAD_REACTORS
330
45C
102
}
330
45C
100
AcDbScale
 70
     0
300
1:8
140
1.0
141
8.0
290
     0
  0
SCALE
  5
462
102
{ACAD_REACTORS
330
45C
102
}
330
45C
100
AcDbScale
 70
     0
300
1:10
140
1.0
141
10.0
290
     0
  0
SCALE
  5
463
102
{ACAD_REACTORS
330
45C
102
}
330
45C
100
AcDbScale
 70
     0
300
1:16
140
1.0
141
16.0
290
     0
  0
SCALE
  5
464
102
{ACAD_REACTORS
330
45C
102
}
330
45C
100
AcDbScale
 70
     0
300
1:20
140
1.0
141
20.0
290
     0
  0
SCALE
  5
465
102
{ACAD_REACTORS
330
45C
102
}
330
45C
100
AcDbScale
 70
     0
300
1:30
140
1.0
141
30.0
290
     0
  0
SCALE
  5
466
102
{ACAD_REACTORS
330
45C
102
}
330
45C
100
AcDbScale
 70
     0
300
1:40
140
1.0
141
40.0
290
     0
  0
SCALE
  5
467
102
{ACAD_REACTORS
330
45C
102
}
330
45C
100
AcDbScale
 70
     0
300
1:50
140
1.0
141
50.0
290
     0
  0
SCALE
  5
468
102
{ACAD_REACTORS
330
45C
102
}
330
45C
100
AcDbScale
 70
     0
300
1:100
140
1.0
141
100.0
290
     0
  0
SCALE
  5
469
102
{ACAD_REACTORS
330
45C
102
}
330
45C
100
AcDbScale
 70
     0
300
2:1
140
2.0
141
1.0
290
     0
  0
SCALE
  5
46A
102
{ACAD_REACTORS
330
45C
102
}
330
45C
100
AcDbScale
 70
     0
300
4:1
140
4.0
141
1.0
290
     0
  0
SCALE
  5
46B
102
{ACAD_REACTORS
330
45C
102
}
330
45C
100
AcDbScale
 70
     0
300
8:1
140
8.0
141
1.0
290
     0
  0
SCALE
  5
46C
102
{ACAD_REACTORS
330
45C
102
}
330
45C
100
AcDbScale
 70
     0
300
10:1
140
10.0
141
1.0
290
     0
  0
SCALE
  5
46D
102
{ACAD_REACTORS
330
45C
102
}
330
45C
100
AcDbScale
 70
     0
300
100:1
140
100.0
141
1.0
290
     0
  0
SCALE
  5
46E
102
{ACAD_REACTORS
330
45C
102
}
330
45C
100
AcDbScale
 70
     0
300
1/128" = 1'-0"
140
0.0078125
141
12.0
290
     0
  0
SCALE
  5
46F
102
{ACAD_REACTORS
330
45C
102
}
330
45C
100
AcDbScale
 70
     0
300
1/64" = 1'-0"
140
0.015625
141
12.0
290
     0
  0
SCALE
  5
470
102
{ACAD_REACTORS
330
45C
102
}
330
45C
100
AcDbScale
 70
     0
300
1/32" = 1'-0"
140
0.03125
141
12.0
290
     0
  0
SCALE
  5
471
102
{ACAD_REACTORS
330
45C
102
}
330
45C
100
AcDbScale
 70
     0
300
1/16" = 1'-0"
140
0.0625
141
12.0
290
     0
  0
SCALE
  5
472
102
{ACAD_REACTORS
330
45C
102
}
330
45C
100
AcDbScale
 70
     0
300
3/32" = 1'-0"
140
0.09375
141
12.0
290
     0
  0
SCALE
  5
473
102
{ACAD_REACTORS
330
45C
102
}
330
45C
100
AcDbScale
 70
     0
300
1/8" = 1'-0"
140
0.125
141
12.0
290
     0
  0
SCALE
  5
474
102
{ACAD_REACTORS
330
45C
102
}
330
45C
100
AcDbScale
 70
     0
300
3/16" = 1'-0"
140
0.1875
141
12.0
290
     0
  0
SCALE
  5
475
102
{ACAD_REACTORS
330
45C
102
}
330
45C
100
AcDbScale
 70
     0
300
1/4" = 1'-0"
140
0.25
141
12.0
290
     0
  0
SCALE
  5
476
102
{ACAD_REACTORS
330
45C
102
}
330
45C
100
AcDbScale
 70
     0
300
3/8" = 1'-0"
140
0.375
141
12.0
290
     0
  0
SCALE
  5
477
102
{ACAD_REACTORS
330
45C
102
}
330
45C
100
AcDbScale
 70
     0
300
1/2" = 1'-0"
140
0.5
141
12.0
290
     0
  0
SCALE
  5
478
102
{ACAD_REACTORS
330
45C
102
}
330
45C
100
AcDbScale
 70
     0
300
3/4" = 1'-0"
140
0.75
141
12.0
290
     0
  0
SCALE
  5
479
102
{ACAD_REACTORS
330
45C
102
}
330
45C
100
AcDbScale
 70
     0
300
1" = 1'-0"
140
1.0
141
12.0
290
     0
  0
SCALE
  5
47A
102
{ACAD_REACTORS
330
45C
102
}
330
45C
100
AcDbScale
 70
     0
300
1-1/2" = 1'-0"
140
1.5
141
12.0
290
     0
  0
SCALE
  5
47B
102
{ACAD_REACTORS
330
45C
102
}
330
45C
100
AcDbScale
 70
     0
300
3" = 1'-0"
140
3.0
141
12.0
290
     0
  0
SCALE
  5
47C
102
{ACAD_REACTORS
330
45C
102
}
330
45C
100
AcDbScale
 70
     0
300
6" = 1'-0"
140
6.0
141
12.0
290
     0
  0
SCALE
  5
47D
102
{ACAD_REACTORS
330
45C
102
}
330
45C
100
AcDbScale
 70
     0
300
1'-0" = 1'-0"
140
12.0
141
12.0
290
     0
  0
DICTIONARYVAR
  5
E20
102
{ACAD_REACTORS
330
42D
102
}
330
42D
100
DictionaryVariables
280
     0
  1
1:1
  0
DICTIONARYVAR
  5
42E
102
{ACAD_REACTORS
330
42D
102
}
330
42D
100
DictionaryVariables
280
     0
  1
1
  0
ENDSEC
  0
SECTION
  2
THUMBNAILIMAGE
 90
    16364
310
28000000B40000005500000001000800000000000000000000000000000000000000000000000000FFFFFF000000FF0000FFFF0000FF0000FFFF0000FF000000FF00FF000000000080808000C0C0C0000000FF007F7FFF000000A5005252A50000007F003F3F7F0000004C0026264C000000260013132600003FFF007F9FFF
310
000029A5005267A500001F7F003F4F7F0000134C00262F4C000009260013172600007FFF007FBFFF000052A500527CA500003F7F003F5F7F0000264C0026394C0000132600131C260000BFFF007FDFFF00007CA5005291A500005F7F003F6F7F0000394C0026424C00001C26001321260000FFFF007FFFFF0000A5A50052A5
310
A500007F7F003F7F7F00004C4C00264C4C00002626001326260000FFBF007FFFDF0000A57C0052A59100007F5F003F7F6F00004C3900264C420000261C001326210000FF7F007FFFBF0000A5520052A57C00007F3F003F7F5F00004C2600264C39000026130013261C0000FF3F007FFF9F0000A5290052A56700007F1F003F
310
7F4F00004C1300264C2F00002609001326170000FF00007FFF7F0000A5000052A55200007F00003F7F3F00004C0000264C260000260000132613003FFF00009FFF7F0029A5000067A552001F7F00004F7F3F00134C00002F4C260009260000172613007FFF0000BFFF7F0052A500007CA552003F7F00005F7F3F00264C0000
310
394C2600132600001C261300BFFF0000DFFF7F007CA5000091A552005F7F00006F7F3F00394C0000424C26001C26000021261300FFFF0000FFFF7F00A5A50000A5A552007F7F00007F7F3F004C4C00004C4C26002626000026261300FFBF0000FFDF7F00A57C0000A59152007F5F00007F6F3F004C3900004C422600261C00
310
0026211300FF7F0000FFBF7F00A5520000A57C52007F3F00007F5F3F004C2600004C39260026130000261C1300FF3F0000FF9F7F00A5290000A56752007F1F00007F4F3F004C1300004C2F26002609000026171300FF000000FF7F7F00A5000000A55252007F0000007F3F3F004C0000004C2626002600000026131300FF00
310
3F00FF7F9F00A5002900A55267007F001F007F3F4F004C0013004C262F002600090026131700FF007F00FF7FBF00A5005200A5527C007F003F007F3F5F004C0026004C2639002600130026131C00FF00BF00FF7FDF00A5007C00A55291007F005F007F3F6F004C0039004C26420026001C0026132100FF00FF00FF7FFF00A5
310
00A500A552A5007F007F007F3F7F004C004C004C264C002600260026132600BF00FF00DF7FFF007C00A5009152A5005F007F006F3F7F0039004C0042264C001C002600211326007F00FF00BF7FFF005200A5007C52A5003F007F005F3F7F0026004C0039264C00130026001C1326003F00FF009F7FFF002900A5006752A500
310
1F007F004F3F7F0013004C002F264C000900260017132600000000002D2D2D005B5B5B0089898900B7B7B700B3B3B30000000000000000000000000000000000000000000000000000000000000000000000000000000000000000000000000000000000000000000000000000000000000000000000000000000000000000
310
00000000000000000000000000000000000000000000000000000000000000000000000000000000000000000000000000000000000000000000000000000000000000000000000000000000000000000000000000000000000000000000000000000000000000000000000000000000000000000000000000000000000000
310
00000000000000000000000000000000000000000000000000000000000000000000000000000000000000000000000000000000000000000000000000000000000000000000000000000000000000000000000000000000000000000000000000000000000000000000000000000000000000000000000000000000000000
310
00000000000000000000000000000000000000000000000000000000000000000000000000000000000000000000000000000000000000000000000000000000000000000000000000000000000000000000000000000000000000000000000000000000000000000000000000000000000000000000000000000000000000
310
00000000000000000000000000000000000000000000000000000000000000000000000000000000000000000000000000000000000000000000000000000000000000000000000000000000000000000000000000000000000000000000000000000000000000000000000000000000000000000000000000000000000000
310
00000000000000000000000000000000000000000000000000000000000000000000000000000000000000000000000000000000000000000007070707070707070707070707070707070707070700000000000000000000000000000000000000000000000000000000000000000000000000000000000000000000000000
310
00000000000000000000000000000000000000000000000000000000000000000000000000000000000000000000000000000000000000000000000000000000000000000000000000000000000000000000000000000000000000000000000000000000000000000000000000000700000000000000000000000000000000
310
00000007000000000000000000000000000000000000000000000000000000000000000000000000000000000000000000000000000000000000000000000000000000000000000000000000000000000000000000000000000000000000000000000000000000000000000000000000000000000000000000000000000000
310
00000000000000000000000000000000000000000000000000000000000000000000000007070707070707070707070707070707070707070700000000000000000000000000000000000000000000000000000000000000000000000000000000000000000000000000000000000000000000000000000000000000000000
310
00000000000000000000000000000000000000000000000000000000000000000000000000000000000000000000000000000000000000000000000000000000000000000000000000000000000000000000000000000000000000000700000000000000000000000707070000000000000000000000000000000000000000
310
00000000000000000000000000000000000000000000000000000000000000000000000000000000000000000000000000000000000000000000000000000000000000000000000000000000000000000000000000000000000000000000000000000000000000000000000000000000000000000000000000000000000000
310
00000000000000000000000000000000000007000000000000000000000007070000000000000000000000000000000000000000000000000000000000000000000000000000000000000000000000000000000000000000000000000000000000000000000000000000000000000000000000000000000000000000000000
310
00000000000000000000000000000000000000000000000000000000000000000000000000000000000000000000000000000000000000000000000000000000000000000000070000000000000000000000070007000000000000000000000000000000000000000000000000000000000000000000000000000000000000
310
00000000000000000000000000000000000000000000000000000000000000000000000000000000000000000000000000000000000000000000000000000000000000000000000000000000000000000000000000000000000000000000000000000000000000000000000000000000000000000000000000000700000000
310
00000000000000070700070000000000000000000000000000000000000000000000000000000000000000000000000000000000000000000000000000000000000000000000000000000000000000000000000000000000000000000000000000000000000000000000000000000000000000000000000000000000000000
310
00000000000000000000000000000000000000000000000000000000000000000000000000000000000000000000000007000000000000000000000700070007000000000000000000000000000000000000000000000000000000000000000000000000000000000000000000000000000000000000000000000000000000
310
00000000000000000000000000000000000000000000000000000000000000000000000000000000000000000000000000000000000000000000000000000000000000000000000000000000000000000000000000000000000000000000000000000000070000000000000000000007000007000700000000000000000000
310
00000000000000000000000000000000000000000000000000000000000000000000000000000000000000000000000000000000000000000000000000000000000000000000000000000000000000000000000000000000000000000000000000000000000000000000000000000000000000000000000000000000000000
310
00000000000000000000000000000000000000000000000000070000000000000000000007000000070707000000000000000000000000000000000000000000000000000000000000000000000000000000000000000000000000000000000000000000000000000000000000000000000000000000000000000000000000
310
00000000000000000000000000000000000000000000000000000000000000000000000000000000000000000000000000000000000000000000000000000000000000000000000000000000000700070000000000000000000700000007000000000000000000000000000000000000000000000000000000000000000000
310
00000000000000000000000000000000000000000000000000000000000000000000000000000000000000000000000000000000000000000000000000000000000000000000000000000000000000000000000000000000000000000000000000000000000000000000000000000000000000000000000000000000000000
310
00000700070707000000000000000700000000070000000000000000000000000000000000000000000000000000000000000000000000000000000000000000000000000000000000000000000000000000000000000000000000000000000000000000000000000000000000000000000000000000000000000000000000
310
00000000000000000000000000000000000000000000000000000000000000000000000000000000000000000000000000000000000007000000000707000000000007070707070007000000000000000000000000000000000000000000000000000000000000000000000000000000000000000000000000000000000000
310
00000000000000000000000000000000000000000000000000000000000000000000000000000000000000000000000000000000000000000000000000000000000000000000000000000000000000000000000000000000000000000000000000000000000000000000070000000000000707000000070000000000070700
310
00000000000000000000000000000000000000000000000000000000000000000000000000000000000000000000000000000000000000000000000000000000000000000000000000000000000000000000000000000000000000000000000000000000000000000000000000000000000000000000000000000000000000
310
00000000000000000000000000000000000000000000000000000000000000000700000000000000070700070000000000000007000000000000000000000000000000000000000000000000000000000000000000000000000000000000000000000000000000000000000000000000000000000000000000000000000000
310
00000000000000000000000000000000000000000000000000000000000000000000000000000000000000000000000000000000000000000000000000000000000000000000000000000000000000000000000007070700000000000000000707000000000000000700000000000000000000000000000000000000000000
310
00000000000000000000000000000000000000000000000000000000000000000000000000000000000000000000000000000000000000000000000000000000000000000000000000000000000000000000000000000000000000000000000000000000000000000000000000000000000000000000000000000000000000
310
00000000000000000007000000070700000000000700070707070707070707000000000000000000000000000000000000000000000000000000000000000000000000000000000000000000000000000000000000000000000000000000000000000000000000000000000000000000000000000000000000000000000000
310
00000000000000000000000000000000000000000000000000000000000000000000000000000000000000000000000000000000000000000000000000000700000000070700000007000007000000000000000700000000000000000000000000000000000000000000000000000000000000000000000000000000000000
310
00000000000000000000000000000000000000000000000000000000000000000000000000000000000000000000000000000000000000000000000000000000000000000000000000000000000000000000000000000000000000000000000000000000000000000000000000000000000007000000000000070700000700
310
00070000000000000007070707070000000000000000000000000000000000000000000000000000000000000000000000000000000000000000000000000000000000000000000000000000000000000000000000000000000000000000000000000000000000000000000000000000000000000000000000000000000000
310
00000000000000000000000000000000000000000000000000000000000000000000000000000007000000000000000007070700000007000000000000000700000007000000000000000000000000000000000000000000000000000000000000000000000000000000000000000000000000000000000000000000000000
310
00000000000000000000000000000000000000000000000000000000000000000000000000000000000000000000000000000000000000000000000000000000000000000000000000000000000000000000000000000000000000070000000000000000070000000000000700000000000000070707070700000000000000
310
00000000000000000000000000000000000000000000000000000000000000000000000000000000000000000000000000000000000000000000000000000000000000000000000000000000000000000000000000000000000000000000000000000000000000000000000000000000000000000000000000000000000000
310
00000000000000000000000000000000070000000000000000070000000000000007000000000000000700000000000000000000000000000000000000000000000000000000000000000000000000000000000000000000000000000000000000000000000000000000000000000000000000000000000000000000000000
310
00000000000000000000000000000000000000000000000000000000000000000000000000000000000000000000000000000000000000000000000000000000000000000007000000000000000007000000000000000700000000000000070000000000000000000000000000000000000000000000000000000000000000
310
00000000000000000000000000000000000000000000000000000000000000000000000000000000000000000000000000000000000000000000000000000000000000000000000000000000000000000000000000000000000000000000000000000000000000000000000000000000000000000000000000070000000000
310
00000007000000000000000007000000000000000700000000000000000000000000000000000000000000000000000000000000000000000000000000000000000000000000000000000000000000000000000000000000000000000000000000000000000000000000000000000000000000000000000000000000000000
310
00000000000000000000000000000000000000000000000000000000000000000000000000000000000000000000070000000000000000070000000000000000000700000000000000070000000000000000000000000000000000000000000000000000000000000000000000000000000000000000000000000000000000
310
00000000000000000000000000000000000000000000000000000000000000000000000000000000000000000000000000000000000000000000000000000000000000000000000000000000000000000000000000000000000000000000000000000700000000000000000700000000000000000000070000000000000007
310
00000000000000000000000000000000000000000000000000000000000000000000000000000000000000000000000000000000000000000000000000000000000000000000000000000000000000000000000000000000000000000000000000000000000000000000000000000000000000000000000000000000000000
310
00000000000000000000000000000000000000000000000007000000000000000700000000000000000000000700000000000000070000000000000000000000000000000000000000000000000000000000000000000000000000000000000000000000000000000000000000000000000000000000000000000000000000
310
00000000000000000000000000000000000000000000000000000000000000000000000000000000000000000000000000000000000000000000000000000000000000000000000000000000070000000000000000070000000000000000000000070000000000000007000000000000000000000000000000000000000000
310
00000000000000000000000000000000000000000000000000000000000000000000000000000000000000000000000000000000000000000000000000000000000000000000000000000000000000000000000000000000000000000000000000000000000000000000000000000000000000000000000000000000000000
310
00070000000000000000070000000000000000000000000700000000000000070000000000000000000000000000000000000000000000000000000000000000000000000000000000000000000000000000000000000000000000000000000000000000000000000000000000000000000000000000000000000000000000
310
00000000000000000000000000000000000000000000000000000000000000000000000000000000000000000000000000000000000700000000000000000700000000000000000000000000070000000000000007000000000000000000000000000000000000000000000000000000000000000000000000000000000000
310
00000000000000000000000000000000000000000000000000000000000000000000000000000000000000000000000000000000000000000000000000000000000000000000000000000000000000000000000000000000000000000000000000000000000000000007000000000000000007000000000000000000000000
310
00000700000000000000070000000000000000000000000000000000000000000000000000000000000000000000000000000000000000000000000000000000000000000000000000000000000000000000000000000000000000000000000000000000000000000000000000000000000000000000000000000000000000
310
00000000000000000000000000000000000000000000000000000000000000070000000000000007000000000000000000000000000000070000000000000007000000000000000000000000000000000000000000000000000000000000000000000000000000000000000000000000000000000000000000000000000000
310
00000000000000000000000000000000000000000000000000000000000000000000000000000000000000000000000000000000000000000000000000000000000000000000000000000000000000000000000700000000000000070000000000000000000000000000000007000000000000000700000000000000000000
310
00000000000000000000000000000000000000000000000000000000000000000000000000000000000000000000000000000000000000000000000000000000000000000000000000000000000000000000000000000000000000000000000000000000000000000000000000000000000000000000000000000000000000
310
00000000000000000700000000000000000700000000000000000000000000000000070000000000000007000000000000000000000000000000000000000000000000000000000000000000000000000000000000000000000000000000000000000000000000000000000000000000000000000000000000000000000000
310
00000000000000000000000000000000000000000000000000000000000000000000000000000000000000000000000000000000000000000000000000000000000000000007000000000000000000000000000000000007000000000000000700000000000000000000000000000000000000000000000000000000000000
310
00000000000000000000000000000000000000000000000000000000000000000000000000000000000000000000000000000000000000000000000000000000000000000000000000000000000000000000000000000000000000000000000000000000000000000000000000000000000707000000000000070000000000
310
00000000000000000000000000070000000000000007000000000000000000000000000000000000000000000000000000000000000000000000000000000000000000000000000000000000000000000000000000000000000000000000000000000000000000000000000000000000000000000000000000000000000000
310
00000000000000000000000000000000000000000000000000000000000000000000000000000700000700000000070000000000000000000000000000000000000007000000000000000700000000000000000000000000000000000000000000000000000000000000000000000000000000000000000000000000000000
310
00000000000000000000000000000000000000000000000000000000000000000000000000000000000000000000000000000000000000000000000000000000000000000000000000000000000000000000000000000000070707000000070000000700000000000000000000000000000000000000000700000000000000
310
07000000000000000000000000000000000000000000000000000000000000000000000000000000000000000000000000000000000000000000000000000000000000000000000000000000000000000000000000000000000000000000000000000000000000000000000000000000000000000000000000000000000000
310
00000000000000000000000000000707000000000007000007000000000000000000000000000000000000000007000000000000000700000000000000000000000000000000000000000000000000000000000000000000000000000000000000000000000000000000000000000000000000000000000000000000000000
310
00000000000000000000000000000000000000000000000000000000000000000000000000000000000000000000000000000000000000000000000000000000070707070007000000000707070000000000000000000000000000000000000000000700000000000000070000000000000000000000000000000000000000
310
00000000000000000000000000000000000000000000000000000000000000000000000000000000000000000000000000000000000000000000000000000000000000000000000000000000000000000000000000000000000000000000000000000000000000000000000000000000000000070707070000000700000007
310
00070000000000000000000000000000000000000000000007000000000000000700000000000000000000000000000000000000000000000000000000000000000000000000000000000000000000000000000000000000000000000000000000000000000000000000000000000000000000000000000000000000000000
310
00000000000000000000000000000000000000000000000000000000000000000000000000000707070707070000000000070007000000000000000000000000000000000000000000000000000700000000000000070000000000000000000000000000000000000000000000000000000000000000000000000000000000
310
00000000000000000000000000000000000000000000000000000000000000000000000000000000000000000000000000000000000000000000000000000000000000000000000000000000000000000000000000000000000707070707000000000000000007000700000000000000000000000000000000000000000000
310
00000007000000000000000700000000000000000000000000000000000000000000000000000000000000000000000000000000000000000000000000000000000000000000000000000000000000000000000000000000000000000000000000000000000000000000000000000000000000000000000000000000000000
310
00000000000000000000000000070707070707000000000000000000000700000000000000000000000000000000000000000000000000000700000000000000070000000000000000000000000000000000000000000000000000000000000000000000000000000000000000000000000000000000000000000000000000
310
00000000000000000000000000000000000000000000000000000000000000000000000000000000000000000000000000000000000000000000000000000007070707070700000000000000000000000007070000000000000000000000000000000000000000000000000000070000000000000007000000000000000000
310
00000000000000000000000000000000000000000000000000000000000000000000000000000000000000000000000000000000000000000000000000000000000000000000000000000000000000000000000000000000000000000000000000000000000000000000000000000000000000070707070700000000000000
310
00000000070707070000000000000000000000000000000000000000000000000000000700000000000000070000000000000000000000000000000000000000000000000000000000000000000000000000000000000000000000000000000000000000000000000000000000000000000000000000000000000000000000
310
00000000000000000000000000000000000000000000000000000000000000000000000000000007070707070000000000000000000000000707070700000000000000000000000000000000000000000000000000000000070000000000000007000000000000000000000000000000000000000000000000000000000000
310
00000000000000000000000000000000000000000000000000000000000000000000000000000000000000000000000000000000000000000000000000000000000000000000000000000000000000000000000000000000000007070707000000000000000000000000070707070000000700000000000000000000000000
310
00000000000000000000000000000700000000000000070000000000000000000000000000000000000000000000000000000000000000000000000000000000000000000000000000000000000000000000000000000000000000000000000000000000000000000000000000000000000000000000000000000000000000
310
00000000000000000000000000000707070707000000000000000000000000070707000000000007000000000000000000000000000000000000000000000000000000070000000000000007000000000000000000000000000000000000000000000000000000000000000000000000000000000000000000000000000000
310
00000000000000000000000000000000000000000000000000000000000000000000000000000000000000000000000000000000000000000000000000000000000007070700000000000000000000000007070707000000000000000007000000000000000000000000000000000000000000000000000007000000000000
310
00070000000000000000000000000000000000000000000000000000000000000000000000000000000000000000000000000000000000000000000000000000000000000000000000000000000000000000000000000000000000000000000000000000000000000000000000000000000000000000000700000000000000
310
00000000000707070700000700000000000000070000000000000000000000000000000000000000000000000000070000000000000007000000000000000000000000000000000000000000000000000000000000000000000000000000000000000000000000000000000000000000000000000000000000000000000000
310
00000000000000000000000000000000000000000000000000000000000000000000000000000000000000000007000000000000000000000707070000000000070000000000000000070000000000000000000000000000000000000000000000000007000000000000000700000000000000000000000000000000000000
310
00000000000000000000000000000000000000000000000000000000000000000000000000000000000000000000000000000000000000000000000000000000000000000000000000000000000000000000000000000000000000000000000000000007000000000000070707070000000000000000070000000000000007
310
00000000000000000000000000000000000000000000000000070000000000000007000000000000000000000000000000000000000000000000000000000000000000000000000000000000000000000000000000000000000000000000000000000000000000000000000000000000000000000000000000000000000000
310
00000000000000000000000000000000000000000000000000070000000007070700000000000000000000000700000000000000000700000000000000000000000000000000000000000000000007000000000000000700000000000000000000000000000000000000000000000000000000000000000000000000000000
310
00000000000000000000000000000000000000000000000000000000000000000000000000000000000000000000000000000000000000000000000000000000000000000000000000000000000000070007070000000000000000000000000000000700000000000000070000000000000000000000000000000000000000
310
00000000070000000000000007000000000000000000000000000000000000000000000000000000000000000000000000000000000000000000000000000000000000000000000000000000000000000000000000000000000000000000000000000000000000000000000000000000000000000000000000000000000000
310
00000000000707000000000000000000000000000000000007000000000000000007000000000000000000000000000000000000000000000007000000000000000700000000000000000000000000000000000000000000000000000000000000000000000000000000000000000000000000000000000000000000000000
310
00000000000000000000000000000000000000000000000000000000000000000000000000000000000000000000000000000000000000000000000000000000000000000000000000000000000007000000000000000700000000000000000000000000000000000000000000000700000000000000070000000000000000
310
00000000000000000000000000000000000000000000000000000000000000000000000000000000000000000000000000000000000000000000000000000000000000000000000000000000000000000000000000000000000000000000000000000000000000000000000000000000000000000000000000000000000000
310
00000000070000000000000000070000000000000000000000000000000000000000000007000000000000000700000000000000000000000000000000000000000000000000000000000000000000000000000000000000000000000000000000000000000000000000000000000000000000000000000000000000000000
310
00000000000000000000000000000000000000000000000000000000000000000000000000000000000000000000000000000000000000000000070000000000000007000000000000000000000000000000000000000000000700000000000000070000000000000000000000000000000000000000000000000000000000
310
00000000000000000000000000000000000000000000000000000000000000000000000000000000000000000000000000000000000000000000000000000000000000000000000000000000000000000000000000000000000000000000000000000000000000000000000000000007000000000000000007000000000000
310
00000000000000000000000000000007000000000000000700000000000000000000000000000000000000000000000000000000000000000000000000000000000000000000000000000000000000000000000000000000000000000000000000000000000000000000000000000000000000000000000000000000000000
310
00000000000000000000000000000000000000000000000000000000000000000000000000000700000000000000070000000000000000000000000000000000000000000700000000000000070000000000000000000000000000000000000000000000000000000000000000000000000000000000000000000000000000
310
00000000000000000000000000000000000000000000000000000000000000000000000000000000000000000000000000000000000000000000000000000000000000000000000000000000000000000000000000000000000000070000000000000000070000000000000000000000000000000000000000070000000000
310
00000700000000000000000000000000000000000000000000000000000000000000000000000000000000000000000000000000000000000000000000000000000000000000000000000000000000000000000000000000000000000000000000000000000000000000000000000000000000000000000000000000000000
310
00000000000000000000000000000000000007000000000000000700000000000000000000000000000000000000000700000000000000070000000000000000000000000000000000000000000000000000000000000000000000000000000000000000000000000000000000000000000000000000000000000000000000
310
00000000000000000000000000000000000000000000000000000000000000000000000000000000000000000000000000000000000000000000000000000000000000000000000700000000000000000700000000000000000000000000000000000007000000000000000700000000000000000000000000000000000000
310
00000000000000000000000000000000000000000000000000000000000000000000000000000000000000000000000000000000000000000000000000000000000000000000000000000000000000000000000000000000000000000000000000000000000000000000000000000000000000000000000000000000000700
310
00000000000007000000000000000000000000000000000000070000000000000007000000000000000000000000000000000000000000000000000000000000000000000000000000000000000000000000000000000000000000000000000000000000000000000000000000000000000000000000000000000000000000
310
00000000000000000000000000000000000000000000000000000000000000000000000000000000000000000000000000000007000000000000000700000000000000000000000000000000000700000000000000000700000000000000000000000000000000000000000000000000000000000000000000000000000000
310
00000000000000000000000000000000000000000000000000000000000000000000000000000000000000000000000000000000000000000000000000000000000000000000000000000000000000000000000000000000000000000000000000000000000000000007000000000000000700000000000000000000000000
310
00000007000000000000000007000000000000000000000000000000000000000000000000000000000000000000000000000000000000000000000000000000000000000000000000000000000000000000000000000000000000000000000000000000000000000000000000000000000000000000000000000000000000
310
00000000000000000000000000000000000000000000000000000000000000070000000000000000070700000000000000000000000007070000000000000000070000000000000000000000000000000000000000000000000000000000000000000000000000000000000000000000000000000000000000000000000000
310
00000000000000000000000000000000000000000000000000000000000000000000000000000000000000000000000000000000000000000000000000000000000000000000000000000000000000000000000000070000000000000000000700000000000000000000070000000000000000000700000000000000000000
310
00000000000000000000000000000000000000000000000000000000000000000000000000000000000000000000000000000000000000000000000000000000000000000000000000000000000000000000000000000000000000000000000000000000000000000000000000000000000000000000000000000000000000
310
00000000000000000000000700000000000000000000070707000000000707070000000000000000000700000000000000000000000000000000000000000000000000000000000000000000000000000000000000000000000000000000000000000000000000000000000000000000000000000000000000000000000000
310
00000000000000000000000000000000000000000000000000000000000000000000000000000000000000000000000000000000000000000000000000000000000700000000000000000000000007070707000000000000000000000000070000000000000000000000000000000000000000000000000000000000000000
310
00000000000000000000000000000000000000000000000000000000000000000000000000000000000000000000000000000000000000000000000000000000000000000000000000000000000000000000000000000000000000000000000000000000000000000000000000000000000000000000000700000000000000
310
00000000000000000000000000000000000000070000000000000000000000000000000000000000000000000000000000000000000000000000000000000000000000000000000000000000000000000000000000000000000000000000000000000000000000000000000000000000000000000000000000000000000000
310
00000000000000000000000000000000000000000000000000000000000000000000000000000000000000000000070000000000000000000000000000000000000000000000000007000000000000000000000000000000000000000000000000000000000000000000000000000000000000000000000000000000000000
310
00000000000000000000000000000000000000000000000000000000000000000000000000000000000000000000000000000000000000000000000000000000000000000000000000000000000000000000000000000000000000000000000000000007000000000000000000000000000000000000000000000000070000
310
00000000000000000000000000000000000000000000000000000000000000000000000000000000000000000000000000000000000000000000000000000000000000000000000000000000000000000000000000000000000000000000000000000000000000000000000000000000000000000000000000000000000000
310
00000000000000000000000000000000000000000000000000000700000000000000000000000000000000000000000000070000000000000000000000000000000000000000000000000000000000000000000000000000000000000000000000000000000000000000000000000000000000000000000000000000000000
310
00000000000000000000000000000000000000000000000000000000000000000000000000000000000000000000000000000000000000000000000000000000000000000000000000000000000000000707070000000000000000000000000000000000070700000000000000000000000000000000000000000000000000
310
00000000000000000000000000000000000000000000000000000000000000000000000000000000000000000000000000000000000000000000000000000000000000000000000000000000000000000000000000000000000000000000000000000000000000000000000000000000000000000000000000000000000000
310
00000000000000000007070000000000000000000000000707070000000000000000000000000000000000000000000000000000000000000000000000000000000000000000000000000000000000000000000000000000000000000000000000000000000000000000000000000000000000000000000000000000000000
310
00000000000000000000000000000000000000000000000000000000000000000000000000000000000000000000000000000000000000000000000000000000070707070707070707070707000000000000000000000000000000000000000000000000000000000000000000000000000000000000000000000000000000
310
00000000000000000000000000000000000000000000000000000000000000000000000000000000000000000000000000000000000000000000000000000000000000000000000000000000000000000000000000000000000000000000000000000000000000000000000000000000000000000000000000000000000000
310
00000000000000000000000000000000000000000000000000000000000000000000000000000000000000000000000000000000000000000000000000000000000000000000000000000000000000000000000000000000000000000000000000000000000000000000000000000000000000000000000000000000000000
310
00000000000000000000000000000000000000000000000000000000000000000000000000000000000000000000000000000000000000000000000000000000000000000000000000000000000000000000000000000000000000000000000000000000000000000000000000000000000000000000000000000000000000
310
00000000000000000000000000000000000000000000000000000000000000000000000000000000000000000000000000000000000000000000000000000000000000000000000000000000000000000000000000000000000000000000000000000000000000000000000000000000000000000000000000000000000000
310
00000000000000000000000000000000000000000000000000000000000000000000000000000000000000000000000000000000000000000000000000000000000000000000000000000000000000000000000000000000000000000000000000000000000000000000000000000000000000000000000000000000000000
310
000000000000000000000000000000000000000000000000000000000000000000000000000000000000000000000000000000000000000000000000000000000000000000000000000000000000000000000000000000000000000000000000000000000000000000000000
  0
ENDSEC
  0
EOF
