  0
SECTION
  2
HEADER
  9
$ACADVER
  1
AC1015
  9
$ACADMAINTVER
 70
     6
  9
$DWGCODEPAGE
  3
ANSI_1252
  9
$INSBASE
 10
0.0
 20
0.0
 30
0.0
  9
$EXTMIN
 10
121.0
 20
-20.49770017891
 30
0.0
  9
$EXTMAX
 10
564.661755513525
 20
233.30485
 30
0.0
  9
$LIMMIN
 10
0.0
 20
0.0
  9
$LIMMAX
 10
12.0
 20
9.0
  9
$ORTHOMODE
 70
     0
  9
$REGENMODE
 70
     1
  9
$FILLMODE
 70
     1
  9
$QTEXTMODE
 70
     0
  9
$MIRRTEXT
 70
     1
  9
$LTSCALE
 40
1.0
  9
$ATTMODE
 70
     1
  9
$TEXTSIZE
 40
0.2
  9
$TRACEWID
 40
0.05
  9
$TEXTSTYLE
  7
Standard
  9
$CLAYER
  8
0
  9
$CELTYPE
  6
Continuous
  9
$CECOLOR
 62
   256
  9
$CELTSCALE
 40
1.0
  9
$DISPSILH
 70
     0
  9
$DIMSCALE
 40
1.0
  9
$DIMASZ
 40
0.18
  9
$DIMEXO
 40
0.0625
  9
$DIMDLI
 40
0.38
  9
$DIMRND
 40
0.0
  9
$DIMDLE
 40
0.0
  9
$DIMEXE
 40
0.18
  9
$DIMTP
 40
0.0
  9
$DIMTM
 40
0.0
  9
$DIMTXT
 40
0.18
  9
$DIMCEN
 40
0.09
  9
$DIMTSZ
 40
0.0
  9
$DIMTOL
 70
     0
  9
$DIMLIM
 70
     0
  9
$DIMTIH
 70
     1
  9
$DIMTOH
 70
     1
  9
$DIMSE1
 70
     0
  9
$DIMSE2
 70
     0
  9
$DIMTAD
 70
     0
  9
$DIMZIN
 70
     0
  9
$DIMBLK
  1

  9
$DIMASO
 70
     1
  9
$DIMSHO
 70
     1
  9
$DIMPOST
  1

  9
$DIMAPOST
  1

  9
$DIMALT
 70
     0
  9
$DIMALTD
 70
     2
  9
$DIMALTF
 40
25.4
  9
$DIMLFAC
 40
1.0
  9
$DIMTOFL
 70
     0
  9
$DIMTVP
 40
0.0
  9
$DIMTIX
 70
     0
  9
$DIMSOXD
 70
     0
  9
$DIMSAH
 70
     0
  9
$DIMBLK1
  1

  9
$DIMBLK2
  1

  9
$DIMSTYLE
  2
Standard
  9
$DIMCLRD
 70
     0
  9
$DIMCLRE
 70
     0
  9
$DIMCLRT
 70
     0
  9
$DIMTFAC
 40
1.0
  9
$DIMGAP
 40
0.09
  9
$DIMJUST
 70
     0
  9
$DIMSD1
 70
     0
  9
$DIMSD2
 70
     0
  9
$DIMTOLJ
 70
     1
  9
$DIMTZIN
 70
     0
  9
$DIMALTZ
 70
     0
  9
$DIMALTTZ
 70
     0
  9
$DIMUPT
 70
     0
  9
$DIMDEC
 70
     4
  9
$DIMTDEC
 70
     4
  9
$DIMALTU
 70
     2
  9
$DIMALTTD
 70
     2
  9
$DIMTXSTY
  7
Standard
  9
$DIMAUNIT
 70
     0
  9
$DIMADEC
 70
     0
  9
$DIMALTRND
 40
0.0
  9
$DIMAZIN
 70
     0
  9
$DIMDSEP
 70
    46
  9
$DIMATFIT
 70
     3
  9
$DIMFRAC
 70
     0
  9
$DIMLDRBLK
  1

  9
$DIMLUNIT
 70
     2
  9
$DIMLWD
 70
    -2
  9
$DIMLWE
 70
    -2
  9
$DIMTMOVE
 70
     0
  9
$LUNITS
 70
     2
  9
$LUPREC
 70
     4
  9
$SKETCHINC
 40
0.1
  9
$FILLETRAD
 40
0.0
  9
$AUNITS
 70
     0
  9
$AUPREC
 70
     0
  9
$MENU
  1
.
  9
$ELEVATION
 40
0.0
  9
$PELEVATION
 40
0.0
  9
$THICKNESS
 40
0.0
  9
$LIMCHECK
 70
     0
  9
$CHAMFERA
 40
0.0
  9
$CHAMFERB
 40
0.0
  9
$CHAMFERC
 40
0.0
  9
$CHAMFERD
 40
0.0
  9
$SKPOLY
 70
     0
  9
$TDCREATE
 40
2454638.718210718
  9
$TDUCREATE
 40
2454638.634877384
  9
$TDUPDATE
 40
2456209.820448125
  9
$TDUUPDATE
 40
2456209.737114792
  9
$TDINDWG
 40
0.0026009028
  9
$TDUSRTIMER
 40
0.0026009028
  9
$USRTIMER
 70
     1
  9
$ANGBASE
 50
0.0
  9
$ANGDIR
 70
     0
  9
$PDMODE
 70
     0
  9
$PDSIZE
 40
0.0
  9
$PLINEWID
 40
0.0
  9
$SPLFRAME
 70
     0
  9
$SPLINETYPE
 70
     6
  9
$SPLINESEGS
 70
     8
  9
$HANDSEED
  5
77E
  9
$SURFTAB1
 70
     6
  9
$SURFTAB2
 70
     6
  9
$SURFTYPE
 70
     6
  9
$SURFU
 70
     6
  9
$SURFV
 70
     6
  9
$UCSBASE
  2

  9
$UCSNAME
  2

  9
$UCSORG
 10
0.0
 20
0.0
 30
0.0
  9
$UCSXDIR
 10
1.0
 20
0.0
 30
0.0
  9
$UCSYDIR
 10
0.0
 20
1.0
 30
0.0
  9
$UCSORTHOREF
  2

  9
$UCSORTHOVIEW
 70
     1
  9
$UCSORGTOP
 10
0.0
 20
0.0
 30
0.0
  9
$UCSORGBOTTOM
 10
0.0
 20
0.0
 30
0.0
  9
$UCSORGLEFT
 10
0.0
 20
0.0
 30
0.0
  9
$UCSORGRIGHT
 10
0.0
 20
0.0
 30
0.0
  9
$UCSORGFRONT
 10
0.0
 20
0.0
 30
0.0
  9
$UCSORGBACK
 10
0.0
 20
0.0
 30
0.0
  9
$PUCSBASE
  2

  9
$PUCSNAME
  2

  9
$PUCSORG
 10
0.0
 20
0.0
 30
0.0
  9
$PUCSXDIR
 10
1.0
 20
0.0
 30
0.0
  9
$PUCSYDIR
 10
0.0
 20
1.0
 30
0.0
  9
$PUCSORTHOREF
  2

  9
$PUCSORTHOVIEW
 70
     0
  9
$PUCSORGTOP
 10
0.0
 20
0.0
 30
0.0
  9
$PUCSORGBOTTOM
 10
0.0
 20
0.0
 30
0.0
  9
$PUCSORGLEFT
 10
0.0
 20
0.0
 30
0.0
  9
$PUCSORGRIGHT
 10
0.0
 20
0.0
 30
0.0
  9
$PUCSORGFRONT
 10
0.0
 20
0.0
 30
0.0
  9
$PUCSORGBACK
 10
0.0
 20
0.0
 30
0.0
  9
$USERI1
 70
     0
  9
$USERI2
 70
     0
  9
$USERI3
 70
     0
  9
$USERI4
 70
     0
  9
$USERI5
 70
     0
  9
$USERR1
 40
0.0
  9
$USERR2
 40
0.0
  9
$USERR3
 40
0.0
  9
$USERR4
 40
0.0
  9
$USERR5
 40
0.0
  9
$WORLDVIEW
 70
     1
  9
$SHADEDGE
 70
     3
  9
$SHADEDIF
 70
    70
  9
$TILEMODE
 70
     1
  9
$MAXACTVP
 70
    64
  9
$PINSBASE
 10
0.0
 20
0.0
 30
0.0
  9
$PLIMCHECK
 70
     0
  9
$PEXTMIN
 10
1.000000000000E+20
 20
1.000000000000E+20
 30
1.000000000000E+20
  9
$PEXTMAX
 10
-1.000000000000E+20
 20
-1.000000000000E+20
 30
-1.000000000000E+20
  9
$PLIMMIN
 10
0.0
 20
0.0
  9
$PLIMMAX
 10
12.0
 20
9.0
  9
$UNITMODE
 70
     0
  9
$VISRETAIN
 70
     1
  9
$PLINEGEN
 70
     0
  9
$PSLTSCALE
 70
     1
  9
$TREEDEPTH
 70
  3020
  9
$CMLSTYLE
  2
Standard
  9
$CMLJUST
 70
     0
  9
$CMLSCALE
 40
1.0
  9
$PROXYGRAPHICS
 70
     1
  9
$MEASUREMENT
 70
     0
  9
$CELWEIGHT
370
    -1
  9
$ENDCAPS
280
     0
  9
$JOINSTYLE
280
     0
  9
$LWDISPLAY
290
     0
  9
$INSUNITS
 70
     0
  9
$HYPERLINKBASE
  1

  9
$STYLESHEET
  1

  9
$XEDIT
290
     1
  9
$CEPSNTYPE
380
     0
  9
$PSTYLEMODE
290
     1
  9
$FINGERPRINTGUID
  2
{6EEB3D01-D8B0-4661-9815-608F9C5A08AD}
  9
$VERSIONGUID
  2
{094C1276-A70C-47A8-AA00-349BCC1B089A}
  9
$EXTNAMES
290
     1
  9
$PSVPSCALE
 40
0.0
  9
$OLESTARTUP
290
     0
  0
ENDSEC
  0
SECTION
  2
CLASSES
  0
CLASS
  1
ACDBDICTIONARYWDFLT
  2
AcDbDictionaryWithDefault
  3
ObjectDBX Classes
 90
        0
280
     0
281
     0
  0
CLASS
  1
ACDBPLACEHOLDER
  2
AcDbPlaceHolder
  3
ObjectDBX Classes
 90
        0
280
     0
281
     0
  0
CLASS
  1
LAYOUT
  2
AcDbLayout
  3
ObjectDBX Classes
 90
        0
280
     0
281
     0
  0
CLASS
  1
DICTIONARYVAR
  2
AcDbDictionaryVar
  3
ObjectDBX Classes
 90
        0
280
     0
281
     0
  0
CLASS
  1
SCALE
  2
AcDbScale
  3
ObjectDBX Classes
 90
     1153
280
     0
281
     0
  0
ENDSEC
  0
SECTION
  2
TABLES
  0
TABLE
  2
VPORT
  5
8
330
0
100
AcDbSymbolTable
 70
     1
  0
VPORT
  5
3F8
330
8
100
AcDbSymbolTableRecord
100
AcDbViewportTableRecord
  2
*Active
 70
     0
 10
0.0
 20
0.0
 11
1.0
 21
1.0
 12
282.330877756762
 22
106.403574910545
 13
0.0
 23
0.0
 14
1.0
 24
1.0
 15
0.0
 25
0.0
 16
0.0
 26
0.0
 36
1.0
 17
0.0
 27
0.0
 37
0.0
 40
258.878601182488
 41
2.271724137931
 42
50.0
 43
0.0
 44
0.0
 50
0.0
 51
0.0
 71
    16
 72
   100
 73
     1
 74
     3
 75
     0
 76
     0
 77
     0
 78
     0
281
     0
 65
     1
110
0.0
120
0.0
130
0.0
111
1.0
121
0.0
131
0.0
112
0.0
122
1.0
132
0.0
 79
     1
146
0.0
  0
ENDTAB
  0
TABLE
  2
LTYPE
  5
5
330
0
100
AcDbSymbolTable
 70
     1
  0
LTYPE
  5
13
330
5
100
AcDbSymbolTableRecord
100
AcDbLinetypeTableRecord
  2
ByBlock
 70
     0
  3

 72
    65
 73
     0
 40
0.0
  0
LTYPE
  5
14
330
5
100
AcDbSymbolTableRecord
100
AcDbLinetypeTableRecord
  2
ByLayer
 70
     0
  3

 72
    65
 73
     0
 40
0.0
  0
LTYPE
  5
15
330
5
100
AcDbSymbolTableRecord
100
AcDbLinetypeTableRecord
  2
Continuous
 70
     0
  3
Solid line
 72
    65
 73
     0
 40
0.0
  0
ENDTAB
  0
TABLE
  2
LAYER
  5
2
330
0
100
AcDbSymbolTable
 70
     1
  0
LAYER
  5
10
330
2
100
AcDbSymbolTableRecord
100
AcDbLayerTableRecord
  2
0
 70
     0
 62
     7
  6
Continuous
370
    -3
390
F
  0
ENDTAB
  0
TABLE
  2
STYLE
  5
3
330
0
100
AcDbSymbolTable
 70
     1
  0
STYLE
  5
11
330
3
100
AcDbSymbolTableRecord
100
AcDbTextStyleTableRecord
  2
Standard
 70
     0
 40
0.0
 41
1.0
 50
0.0
 71
     0
 42
0.2
  3
txt
  4

  0
ENDTAB
  0
TABLE
  2
VIEW
  5
6
330
0
100
AcDbSymbolTable
 70
     0
  0
ENDTAB
  0
TABLE
  2
UCS
  5
7
330
0
100
AcDbSymbolTable
 70
     0
  0
ENDTAB
  0
TABLE
  2
APPID
  5
9
330
0
100
AcDbSymbolTable
 70
     1
  0
APPID
  5
12
330
9
100
AcDbSymbolTableRecord
100
AcDbRegAppTableRecord
  2
ACAD
 70
     0
  0
ENDTAB
  0
TABLE
  2
DIMSTYLE
  5
A
330
0
100
AcDbSymbolTable
 70
     1
100
AcDbDimStyleTable
  0
DIMSTYLE
105
3E9
330
A
100
AcDbSymbolTableRecord
100
AcDbDimStyleTableRecord
  2
Standard
 70
     0
340
11
  0
ENDTAB
  0
TABLE
  2
BLOCK_RECORD
  5
1
330
0
100
AcDbSymbolTable
 70
     1
  0
BLOCK_RECORD
  5
1E
330
1
100
AcDbSymbolTableRecord
100
AcDbBlockTableRecord
  2
*Model_Space
340
21
  0
BLOCK_RECORD
  5
1A
330
1
100
AcDbSymbolTableRecord
100
AcDbBlockTableRecord
  2
*Paper_Space
340
1D
  0
ENDTAB
  0
ENDSEC
  0
SECTION
  2
BLOCKS
  0
BLOCK
  5
1F
330
1E
100
AcDbEntity
  8
0
100
AcDbBlockBegin
  2
*Model_Space
 70
     0
 10
0.0
 20
0.0
 30
0.0
  3
*Model_Space
  1
*Model_Space
  0
ENDBLK
  5
20
330
1E
100
AcDbEntity
  8
0
100
AcDbBlockEnd
  0
BLOCK
  5
1B
330
1A
100
AcDbEntity
 67
     1
  8
0
100
AcDbBlockBegin
  2
*Paper_Space
 70
     0
 10
0.0
 20
0.0
 30
0.0
  3
*Paper_Space
  1
*Paper_Space
  0
ENDBLK
  5
1C
330
1A
100
AcDbEntity
 67
     1
  8
0
100
AcDbBlockEnd
  0
ENDSEC
  0
SECTION
  2
ENTITIES
  0
LINE
  5
27
330
1E
100
AcDbEntity
  8
0
100
AcDbLine
 10
298.6
 20
48.60895
 30
0.0
 11
301.933
 21
49.81215
 31
0.0
  0
LINE
  5
28
330
1E
100
AcDbEntity
  8
0
100
AcDbLine
 10
295.0
 20
48.12765
 30
0.0
 11
298.6
 21
48.60895
 31
0.0
  0
LINE
  5
29
330
1E
100
AcDbEntity
  8
0
100
AcDbLine
 10
285.133
 20
51.85755
 30
0.0
 11
288.067
 21
49.81215
 31
0.0
  0
LINE
  5
2A
330
1E
100
AcDbEntity
  8
0
100
AcDbLine
 10
304.867
 20
51.85755
 30
0.0
 11
307.133
 21
54.50455
 31
0.0
  0
LINE
  5
2B
330
1E
100
AcDbEntity
  8
0
100
AcDbLine
 10
301.933
 20
49.81215
 30
0.0
 11
304.867
 21
51.85755
 31
0.0
  0
LINE
  5
2C
330
1E
100
AcDbEntity
  8
0
100
AcDbLine
 10
288.067
 20
49.81215
 30
0.0
 11
291.4
 21
48.60895
 31
0.0
  0
LINE
  5
2D
330
1E
100
AcDbEntity
  8
0
100
AcDbLine
 10
291.4
 20
48.60895
 30
0.0
 11
295.0
 21
48.12765
 31
0.0
  0
LINE
  5
32
330
1E
100
AcDbEntity
  8
0
100
AcDbLine
 10
281.533
 20
57.51255
 30
0.0
 11
282.867
 21
54.50455
 31
0.0
  0
LINE
  5
33
330
1E
100
AcDbEntity
  8
0
100
AcDbLine
 10
309.0
 20
60.76125
 30
0.0
 11
309.0
 21
93.83885
 31
0.0
  0
LINE
  5
34
330
1E
100
AcDbEntity
  8
0
100
AcDbLine
 10
308.467
 20
57.51255
 30
0.0
 11
309.0
 21
60.76125
 31
0.0
  0
LINE
  5
35
330
1E
100
AcDbEntity
  8
0
100
AcDbLine
 10
307.133
 20
54.50455
 30
0.0
 11
308.467
 21
57.51255
 31
0.0
  0
LINE
  5
36
330
1E
100
AcDbEntity
  8
0
100
AcDbLine
 10
282.867
 20
54.50455
 30
0.0
 11
285.133
 21
51.85755
 31
0.0
  0
LINE
  5
3E
330
1E
100
AcDbEntity
  8
0
100
AcDbLine
 10
281.0
 20
60.76125
 30
0.0
 11
281.0
 21
93.83885
 31
0.0
  0
LINE
  5
3F
330
1E
100
AcDbEntity
  8
0
100
AcDbLine
 10
281.0
 20
60.76125
 30
0.0
 11
281.533
 21
57.51255
 31
0.0
  0
LINE
  5
6A
330
1E
100
AcDbEntity
  8
0
100
AcDbLine
 10
281.0
 20
96.90585
 30
0.0
 11
281.0
 21
100.75685
 31
0.0
  0
LINE
  5
6B
330
1E
100
AcDbEntity
  8
0
100
AcDbLine
 10
281.0
 20
96.90585
 30
0.0
 11
281.0
 21
93.83885
 31
0.0
  0
LINE
  5
6C
330
1E
100
AcDbEntity
  8
0
100
AcDbLine
 10
309.0
 20
93.83885
 30
0.0
 11
309.0
 21
96.90585
 31
0.0
  0
LINE
  5
6D
330
1E
100
AcDbEntity
  8
0
100
AcDbLine
 10
309.0
 20
93.83885
 30
0.0
 11
309.0
 21
60.76125
 31
0.0
  0
LINE
  5
6E
330
1E
100
AcDbEntity
  8
0
100
AcDbLine
 10
309.0
 20
96.90585
 30
0.0
 11
309.0
 21
100.75685
 31
0.0
  0
LINE
  5
6F
330
1E
100
AcDbEntity
  8
0
100
AcDbLine
 10
309.0
 20
96.90585
 30
0.0
 11
309.0
 21
93.83885
 31
0.0
  0
LINE
  5
70
330
1E
100
AcDbEntity
  8
0
100
AcDbLine
 10
281.0
 20
93.83885
 30
0.0
 11
281.0
 21
60.76125
 31
0.0
  0
LINE
  5
71
330
1E
100
AcDbEntity
  8
0
100
AcDbLine
 10
281.0
 20
93.83885
 30
0.0
 11
281.0
 21
96.90585
 31
0.0
  0
LINE
  5
7F
330
1E
100
AcDbEntity
  8
0
100
AcDbLine
 10
309.0
 20
100.75685
 30
0.0
 11
309.0
 21
96.90585
 31
0.0
  0
LINE
  5
80
330
1E
100
AcDbEntity
  8
0
100
AcDbLine
 10
309.0
 20
100.75685
 30
0.0
 11
309.0
 21
105.32785
 31
0.0
  0
LINE
  5
81
330
1E
100
AcDbEntity
  8
0
100
AcDbLine
 10
309.0
 20
105.32785
 30
0.0
 11
309.0
 21
110.54085
 31
0.0
  0
LINE
  5
82
330
1E
100
AcDbEntity
  8
0
100
AcDbLine
 10
309.0
 20
105.32785
 30
0.0
 11
309.0
 21
100.75685
 31
0.0
  0
LINE
  5
83
330
1E
100
AcDbEntity
  8
0
100
AcDbLine
 10
281.0
 20
100.75685
 30
0.0
 11
281.0
 21
96.90585
 31
0.0
  0
LINE
  5
84
330
1E
100
AcDbEntity
  8
0
100
AcDbLine
 10
281.0
 20
100.75685
 30
0.0
 11
281.0
 21
105.32785
 31
0.0
  0
LINE
  5
85
330
1E
100
AcDbEntity
  8
0
100
AcDbLine
 10
281.0
 20
105.32785
 30
0.0
 11
281.0
 21
110.54085
 31
0.0
  0
LINE
  5
86
330
1E
100
AcDbEntity
  8
0
100
AcDbLine
 10
281.0
 20
105.32785
 30
0.0
 11
281.0
 21
100.75685
 31
0.0
  0
LINE
  5
88
330
1E
100
AcDbEntity
  8
0
100
AcDbLine
 10
309.0
 20
110.54085
 30
0.0
 11
309.0
 21
116.30485
 31
0.0
  0
LINE
  5
89
330
1E
100
AcDbEntity
  8
0
100
AcDbLine
 10
309.0
 20
110.54085
 30
0.0
 11
309.0
 21
105.32785
 31
0.0
  0
LINE
  5
8A
330
1E
100
AcDbEntity
  8
0
100
AcDbLine
 10
281.0
 20
110.54085
 30
0.0
 11
281.0
 21
105.32785
 31
0.0
  0
LINE
  5
8B
330
1E
100
AcDbEntity
  8
0
100
AcDbLine
 10
281.0
 20
110.54085
 30
0.0
 11
281.0
 21
116.30485
 31
0.0
  0
LINE
  5
9C
330
1E
100
AcDbEntity
  8
0
100
AcDbLine
 10
281.0
 20
116.30485
 30
0.0
 11
281.0
 21
110.54085
 31
0.0
  0
LINE
  5
9D
330
1E
100
AcDbEntity
  8
0
100
AcDbLine
 10
281.0
 20
116.30485
 30
0.0
 11
281.0
 21
122.52285
 31
0.0
  0
LINE
  5
A4
330
1E
100
AcDbEntity
  8
0
100
AcDbLine
 10
281.0
 20
135.88685
 30
0.0
 11
281.0
 21
129.08785
 31
0.0
  0
LINE
  5
A5
330
1E
100
AcDbEntity
  8
0
100
AcDbLine
 10
281.0
 20
135.88685
 30
0.0
 11
281.0
 21
142.80485
 31
0.0
  0
LINE
  5
A6
330
1E
100
AcDbEntity
  8
0
100
AcDbLine
 10
281.0
 20
122.52285
 30
0.0
 11
281.0
 21
116.30485
 31
0.0
  0
LINE
  5
A7
330
1E
100
AcDbEntity
  8
0
100
AcDbLine
 10
281.0
 20
122.52285
 30
0.0
 11
281.0
 21
129.08785
 31
0.0
  0
LINE
  5
A8
330
1E
100
AcDbEntity
  8
0
100
AcDbLine
 10
281.0
 20
129.08785
 30
0.0
 11
281.0
 21
122.52285
 31
0.0
  0
LINE
  5
A9
330
1E
100
AcDbEntity
  8
0
100
AcDbLine
 10
281.0
 20
129.08785
 30
0.0
 11
281.0
 21
135.88685
 31
0.0
  0
LINE
  5
AB
330
1E
100
AcDbEntity
  8
0
100
AcDbLine
 10
148.29412
 20
159.43685
 30
0.0
 11
149.63235
 21
158.81985
 31
0.0
  0
LINE
  5
AC
330
1E
100
AcDbEntity
  8
0
100
AcDbLine
 10
149.63235
 20
158.81985
 30
0.0
 11
151.17647
 21
158.61385
 31
0.0
  0
LINE
  5
AD
330
1E
100
AcDbEntity
  8
0
100
AcDbLine
 10
151.17647
 20
158.61385
 30
0.0
 11
281.0
 21
158.61385
 31
0.0
  0
LINE
  5
AE
330
1E
100
AcDbEntity
  8
0
100
AcDbLine
 10
146.13235
 20
161.59885
 30
0.0
 11
147.05882
 21
160.36385
 31
0.0
  0
LINE
  5
AF
330
1E
100
AcDbEntity
  8
0
100
AcDbLine
 10
145.514706
 20
162.93685
 30
0.0
 11
146.13235
 21
161.59885
 31
0.0
  0
LINE
  5
B0
330
1E
100
AcDbEntity
  8
0
100
AcDbLine
 10
145.308824
 20
164.48085
 30
0.0
 11
145.514706
 21
162.93685
 31
0.0
  0
LINE
  5
B1
330
1E
100
AcDbEntity
  8
0
100
AcDbLine
 10
145.205882
 20
162.93685
 30
0.0
 11
145.823529
 21
161.39285
 31
0.0
  0
LINE
  5
B2
330
1E
100
AcDbEntity
  8
0
100
AcDbLine
 10
145.0
 20
164.48085
 30
0.0
 11
145.0
 21
181.80485
 31
0.0
  0
LINE
  5
B3
330
1E
100
AcDbEntity
  8
0
100
AcDbLine
 10
147.05882
 20
160.36385
 30
0.0
 11
148.29412
 21
159.43685
 31
0.0
  0
LINE
  5
B4
330
1E
100
AcDbEntity
  8
0
100
AcDbLine
 10
146.85294
 20
160.15785
 30
0.0
 11
148.08823
 21
159.12885
 31
0.0
  0
LINE
  5
FB
330
1E
100
AcDbEntity
  8
0
100
AcDbLine
 10
151.17647
 20
158.30485
 30
0.0
 11
281.0
 21
158.30485
 31
0.0
  0
LINE
  5
FC
330
1E
100
AcDbEntity
  8
0
100
AcDbLine
 10
185.0
 20
165.80485
 30
0.0
 11
192.7
 21
166.90485
 31
0.0
  0
LINE
  5
104
330
1E
100
AcDbEntity
  8
0
100
AcDbLine
 10
185.0
 20
165.30485
 30
0.0
 11
192.8
 21
166.40485
 31
0.0
  0
LINE
  5
105
330
1E
100
AcDbEntity
  8
0
100
AcDbLine
 10
177.3
 20
166.90485
 30
0.0
 11
185.0
 21
165.80485
 31
0.0
  0
LINE
  5
106
330
1E
100
AcDbEntity
  8
0
100
AcDbLine
 10
177.4
 20
167.40485
 30
0.0
 11
185.0
 21
166.30485
 31
0.0
  0
LINE
  5
107
330
1E
100
AcDbEntity
  8
0
100
AcDbLine
 10
177.2
 20
166.40485
 30
0.0
 11
185.0
 21
165.30485
 31
0.0
  0
LINE
  5
108
330
1E
100
AcDbEntity
  8
0
100
AcDbLine
 10
192.8
 20
166.40485
 30
0.0
 11
200.2
 21
169.40485
 31
0.0
  0
LINE
  5
109
330
1E
100
AcDbEntity
  8
0
100
AcDbLine
 10
192.7
 20
166.90485
 30
0.0
 11
199.9
 21
169.80485
 31
0.0
  0
LINE
  5
10A
330
1E
100
AcDbEntity
  8
0
100
AcDbLine
 10
192.6
 20
167.40485
 30
0.0
 11
199.7
 21
170.30485
 31
0.0
  0
LINE
  5
10B
330
1E
100
AcDbEntity
  8
0
100
AcDbLine
 10
185.0
 20
166.30485
 30
0.0
 11
192.6
 21
167.40485
 31
0.0
  0
LINE
  5
10C
330
1E
100
AcDbEntity
  8
0
100
AcDbLine
 10
281.0
 20
163.08685
 30
0.0
 11
281.0
 21
169.30485
 31
0.0
  0
LINE
  5
10D
330
1E
100
AcDbEntity
  8
0
100
AcDbLine
 10
281.0
 20
163.08685
 30
0.0
 11
281.0
 21
156.52185
 31
0.0
  0
LINE
  5
10E
330
1E
100
AcDbEntity
  8
0
100
AcDbLine
 10
169.8
 20
169.40485
 30
0.0
 11
177.2
 21
166.40485
 31
0.0
  0
LINE
  5
10F
330
1E
100
AcDbEntity
  8
0
100
AcDbLine
 10
200.2
 20
169.40485
 30
0.0
 11
206.5
 21
174.30485
 31
0.0
  0
LINE
  5
110
330
1E
100
AcDbEntity
  8
0
100
AcDbLine
 10
281.0
 20
169.30485
 30
0.0
 11
281.0
 21
175.06885
 31
0.0
  0
LINE
  5
111
330
1E
100
AcDbEntity
  8
0
100
AcDbLine
 10
281.0
 20
169.30485
 30
0.0
 11
281.0
 21
163.08685
 31
0.0
  0
LINE
  5
112
330
1E
100
AcDbEntity
  8
0
100
AcDbLine
 10
281.0
 20
156.52185
 30
0.0
 11
281.0
 21
149.72285
 31
0.0
  0
LINE
  5
113
330
1E
100
AcDbEntity
  8
0
100
AcDbLine
 10
281.0
 20
156.52185
 30
0.0
 11
281.0
 21
163.08685
 31
0.0
  0
LINE
  5
114
330
1E
100
AcDbEntity
  8
0
100
AcDbLine
 10
281.0
 20
142.80485
 30
0.0
 11
281.0
 21
149.72285
 31
0.0
  0
LINE
  5
115
330
1E
100
AcDbEntity
  8
0
100
AcDbLine
 10
281.0
 20
142.80485
 30
0.0
 11
281.0
 21
135.88685
 31
0.0
  0
LINE
  5
117
330
1E
100
AcDbEntity
  8
0
100
AcDbLine
 10
309.0
 20
116.30485
 30
0.0
 11
309.0
 21
122.52285
 31
0.0
  0
LINE
  5
118
330
1E
100
AcDbEntity
  8
0
100
AcDbLine
 10
309.0
 20
116.30485
 30
0.0
 11
309.0
 21
110.54085
 31
0.0
  0
LINE
  5
119
330
1E
100
AcDbEntity
  8
0
100
AcDbLine
 10
309.0
 20
122.52285
 30
0.0
 11
309.0
 21
129.08785
 31
0.0
  0
LINE
  5
11A
330
1E
100
AcDbEntity
  8
0
100
AcDbLine
 10
309.0
 20
122.52285
 30
0.0
 11
309.0
 21
116.30485
 31
0.0
  0
LINE
  5
11B
330
1E
100
AcDbEntity
  8
0
100
AcDbLine
 10
309.0
 20
135.88685
 30
0.0
 11
309.0
 21
129.08785
 31
0.0
  0
LINE
  5
11C
330
1E
100
AcDbEntity
  8
0
100
AcDbLine
 10
309.0
 20
135.88685
 30
0.0
 11
309.0
 21
142.80485
 31
0.0
  0
LINE
  5
11D
330
1E
100
AcDbEntity
  8
0
100
AcDbLine
 10
309.0
 20
129.08785
 30
0.0
 11
309.0
 21
135.88685
 31
0.0
  0
LINE
  5
11E
330
1E
100
AcDbEntity
  8
0
100
AcDbLine
 10
309.0
 20
129.08785
 30
0.0
 11
309.0
 21
122.52285
 31
0.0
  0
LINE
  5
11F
330
1E
100
AcDbEntity
  8
0
100
AcDbLine
 10
309.0
 20
142.80485
 30
0.0
 11
309.0
 21
149.72285
 31
0.0
  0
LINE
  5
120
330
1E
100
AcDbEntity
  8
0
100
AcDbLine
 10
309.0
 20
142.80485
 30
0.0
 11
309.0
 21
135.88685
 31
0.0
  0
LINE
  5
121
330
1E
100
AcDbEntity
  8
0
100
AcDbLine
 10
309.0
 20
158.61385
 30
0.0
 11
350.0
 21
158.61385
 31
0.0
  0
LINE
  5
122
330
1E
100
AcDbEntity
  8
0
100
AcDbLine
 10
309.0
 20
158.30485
 30
0.0
 11
350.0
 21
158.30485
 31
0.0
  0
LINE
  5
123
330
1E
100
AcDbEntity
  8
0
100
AcDbLine
 10
309.0
 20
168.918363513514
 30
0.0
 11
310.2
 21
169.40485
 31
0.0
  0
LINE
  5
124
330
1E
100
AcDbEntity
  8
0
100
AcDbLine
 10
309.0
 20
169.30485
 30
0.0
 11
309.0
 21
175.06885
 31
0.0
  0
LINE
  5
125
330
1E
100
AcDbEntity
  8
0
100
AcDbLine
 10
309.0
 20
169.30485
 30
0.0
 11
309.0
 21
163.08685
 31
0.0
  0
LINE
  5
126
330
1E
100
AcDbEntity
  8
0
100
AcDbLine
 10
309.0
 20
163.08685
 30
0.0
 11
309.0
 21
156.52185
 31
0.0
  0
LINE
  5
127
330
1E
100
AcDbEntity
  8
0
100
AcDbLine
 10
309.0
 20
163.08685
 30
0.0
 11
309.0
 21
169.30485
 31
0.0
  0
LINE
  5
128
330
1E
100
AcDbEntity
  8
0
100
AcDbLine
 10
350.0
 20
158.61385
 30
0.0
 11
498.653578867263
 21
158.33988017356
 31
0.0
  0
LINE
  5
129
330
1E
100
AcDbEntity
  8
0
100
AcDbLine
 10
350.0
 20
158.30485
 30
0.0
 11
498.653494578899
 21
158.30485
 31
0.0
  0
LINE
  5
12A
330
1E
100
AcDbEntity
  8
0
100
AcDbLine
 10
405.0
 20
166.30485
 30
0.0
 11
412.6
 21
167.40485
 31
0.0
  0
LINE
  5
12B
330
1E
100
AcDbEntity
  8
0
100
AcDbLine
 10
405.0
 20
165.80485
 30
0.0
 11
412.7
 21
166.90485
 31
0.0
  0
LINE
  5
12E
330
1E
100
AcDbEntity
  8
0
100
AcDbLine
 10
412.8
 20
166.40485
 30
0.0
 11
420.2
 21
169.40485
 31
0.0
  0
LINE
  5
12F
330
1E
100
AcDbEntity
  8
0
100
AcDbLine
 10
405.0
 20
165.30485
 30
0.0
 11
412.8
 21
166.40485
 31
0.0
  0
LINE
  5
130
330
1E
100
AcDbEntity
  8
0
100
AcDbLine
 10
397.4
 20
167.40485
 30
0.0
 11
405.0
 21
166.30485
 31
0.0
  0
LINE
  5
131
330
1E
100
AcDbEntity
  8
0
100
AcDbLine
 10
397.3
 20
166.90485
 30
0.0
 11
405.0
 21
165.80485
 31
0.0
  0
LINE
  5
132
330
1E
100
AcDbEntity
  8
0
100
AcDbLine
 10
412.6
 20
167.40485
 30
0.0
 11
419.7
 21
170.30485
 31
0.0
  0
LINE
  5
138
330
1E
100
AcDbEntity
  8
0
100
AcDbLine
 10
420.2
 20
169.40485
 30
0.0
 11
426.5
 21
174.30485
 31
0.0
  0
LINE
  5
139
330
1E
100
AcDbEntity
  8
0
100
AcDbLine
 10
412.7
 20
166.90485
 30
0.0
 11
419.9
 21
169.80485
 31
0.0
  0
LINE
  5
13A
330
1E
100
AcDbEntity
  8
0
100
AcDbLine
 10
397.2
 20
166.40485
 30
0.0
 11
405.0
 21
165.30485
 31
0.0
  0
LINE
  5
13B
330
1E
100
AcDbEntity
  8
0
100
AcDbLine
 10
389.8
 20
169.40485
 30
0.0
 11
397.2
 21
166.40485
 31
0.0
  0
LINE
  5
13C
330
1E
100
AcDbEntity
  8
0
100
AcDbLine
 10
310.2
 20
169.40485
 30
0.0
 11
316.5
 21
174.30485
 31
0.0
  0
LINE
  5
13D
330
1E
100
AcDbEntity
  8
0
100
AcDbLine
 10
309.0
 20
156.52185
 30
0.0
 11
309.0
 21
149.72285
 31
0.0
  0
LINE
  5
13E
330
1E
100
AcDbEntity
  8
0
100
AcDbLine
 10
309.0
 20
156.52185
 30
0.0
 11
309.0
 21
163.08685
 31
0.0
  0
LINE
  5
13F
330
1E
100
AcDbEntity
  8
0
100
AcDbLine
 10
309.0
 20
149.72285
 30
0.0
 11
309.0
 21
156.52185
 31
0.0
  0
LINE
  5
140
330
1E
100
AcDbEntity
  8
0
100
AcDbLine
 10
309.0
 20
149.72285
 30
0.0
 11
309.0
 21
142.80485
 31
0.0
  0
LINE
  5
141
330
1E
100
AcDbEntity
  8
0
100
AcDbLine
 10
281.0
 20
149.72285
 30
0.0
 11
281.0
 21
142.80485
 31
0.0
  0
LINE
  5
142
330
1E
100
AcDbEntity
  8
0
100
AcDbLine
 10
281.0
 20
149.72285
 30
0.0
 11
281.0
 21
156.52185
 31
0.0
  0
LINE
  5
143
330
1E
100
AcDbEntity
  8
0
100
AcDbLine
 10
170.1
 20
169.80485
 30
0.0
 11
177.3
 21
166.90485
 31
0.0
  0
LINE
  5
144
330
1E
100
AcDbEntity
  8
0
100
AcDbLine
 10
170.3
 20
170.30485
 30
0.0
 11
177.4
 21
167.40485
 31
0.0
  0
LINE
  5
145
330
1E
100
AcDbEntity
  8
0
100
AcDbLine
 10
199.9
 20
169.80485
 30
0.0
 11
206.2
 21
174.60485
 31
0.0
  0
LINE
  5
146
330
1E
100
AcDbEntity
  8
0
100
AcDbLine
 10
199.7
 20
170.30485
 30
0.0
 11
205.8
 21
175.00485
 31
0.0
  0
LINE
  5
147
330
1E
100
AcDbEntity
  8
0
100
AcDbLine
 10
309.0
 20
169.44235
 30
0.0
 11
309.9
 21
169.80485
 31
0.0
  0
LINE
  5
14B
330
1E
100
AcDbEntity
  8
0
100
AcDbLine
 10
390.1
 20
169.80485
 30
0.0
 11
397.3
 21
166.90485
 31
0.0
  0
LINE
  5
14C
330
1E
100
AcDbEntity
  8
0
100
AcDbLine
 10
390.3
 20
170.30485
 30
0.0
 11
397.4
 21
167.40485
 31
0.0
  0
LINE
  5
14D
330
1E
100
AcDbEntity
  8
0
100
AcDbLine
 10
419.7
 20
170.30485
 30
0.0
 11
425.8
 21
175.00485
 31
0.0
  0
LINE
  5
14E
330
1E
100
AcDbEntity
  8
0
100
AcDbLine
 10
419.9
 20
169.80485
 30
0.0
 11
426.2
 21
174.60485
 31
0.0
  0
LINE
  5
14F
330
1E
100
AcDbEntity
  8
0
100
AcDbLine
 10
309.9
 20
169.80485
 30
0.0
 11
316.2
 21
174.60485
 31
0.0
  0
LINE
  5
150
330
1E
100
AcDbEntity
  8
0
100
AcDbLine
 10
309.7
 20
170.30485
 30
0.0
 11
315.8
 21
175.00485
 31
0.0
  0
LINE
  5
151
330
1E
100
AcDbEntity
  8
0
100
AcDbLine
 10
309.0
 20
170.018934507042
 30
0.0
 11
309.7
 21
170.30485
 31
0.0
  0
LINE
  5
152
330
1E
100
AcDbEntity
  8
0
100
AcDbLine
 10
280.3
 20
170.30485
 30
0.0
 11
281.0
 21
170.018934507042
 31
0.0
  0
LINE
  5
153
330
1E
100
AcDbEntity
  8
0
100
AcDbLine
 10
280.1
 20
169.80485
 30
0.0
 11
281.0
 21
169.44235
 31
0.0
  0
LINE
  5
154
330
1E
100
AcDbEntity
  8
0
100
AcDbLine
 10
279.8
 20
169.40485
 30
0.0
 11
281.0
 21
168.918363513514
 31
0.0
  0
LINE
  5
157
330
1E
100
AcDbEntity
  8
0
100
AcDbLine
 10
163.5
 20
174.30485
 30
0.0
 11
169.8
 21
169.40485
 31
0.0
  0
LINE
  5
158
330
1E
100
AcDbEntity
  8
0
100
AcDbLine
 10
163.8
 20
174.60485
 30
0.0
 11
170.1
 21
169.80485
 31
0.0
  0
LINE
  5
159
330
1E
100
AcDbEntity
  8
0
100
AcDbLine
 10
164.2
 20
175.00485
 30
0.0
 11
170.3
 21
170.30485
 31
0.0
  0
LINE
  5
15A
330
1E
100
AcDbEntity
  8
0
100
AcDbLine
 10
205.8
 20
175.00485
 30
0.0
 11
210.5
 21
181.10485
 31
0.0
  0
LINE
  5
15B
330
1E
100
AcDbEntity
  8
0
100
AcDbLine
 10
206.2
 20
174.60485
 30
0.0
 11
211.0
 21
180.90485
 31
0.0
  0
LINE
  5
15C
330
1E
100
AcDbEntity
  8
0
100
AcDbLine
 10
206.5
 20
174.30485
 30
0.0
 11
211.4
 21
180.60485
 31
0.0
  0
LINE
  5
15D
330
1E
100
AcDbEntity
  8
0
100
AcDbLine
 10
316.2
 20
174.60485
 30
0.0
 11
321.0
 21
180.90485
 31
0.0
  0
LINE
  5
162
330
1E
100
AcDbEntity
  8
0
100
AcDbLine
 10
426.5
 20
174.30485
 30
0.0
 11
431.4
 21
180.60485
 31
0.0
  0
LINE
  5
163
330
1E
100
AcDbEntity
  8
0
100
AcDbLine
 10
383.8
 20
174.60485
 30
0.0
 11
390.1
 21
169.80485
 31
0.0
  0
LINE
  5
165
330
1E
100
AcDbEntity
  8
0
100
AcDbLine
 10
426.2
 20
174.60485
 30
0.0
 11
431.0
 21
180.90485
 31
0.0
  0
LINE
  5
166
330
1E
100
AcDbEntity
  8
0
100
AcDbLine
 10
383.5
 20
174.30485
 30
0.0
 11
389.8
 21
169.40485
 31
0.0
  0
LINE
  5
167
330
1E
100
AcDbEntity
  8
0
100
AcDbLine
 10
316.5
 20
174.30485
 30
0.0
 11
321.4
 21
180.60485
 31
0.0
  0
LINE
  5
168
330
1E
100
AcDbEntity
  8
0
100
AcDbLine
 10
384.2
 20
175.00485
 30
0.0
 11
390.3
 21
170.30485
 31
0.0
  0
LINE
  5
16B
330
1E
100
AcDbEntity
  8
0
100
AcDbLine
 10
425.8
 20
175.00485
 30
0.0
 11
430.5
 21
181.10485
 31
0.0
  0
LINE
  5
16C
330
1E
100
AcDbEntity
  8
0
100
AcDbLine
 10
315.8
 20
175.00485
 30
0.0
 11
320.5
 21
181.10485
 31
0.0
  0
LINE
  5
16D
330
1E
100
AcDbEntity
  8
0
100
AcDbLine
 10
309.0
 20
175.06885
 30
0.0
 11
309.0
 21
169.30485
 31
0.0
  0
LINE
  5
16E
330
1E
100
AcDbEntity
  8
0
100
AcDbLine
 10
309.0
 20
175.06885
 30
0.0
 11
309.0
 21
180.28185
 31
0.0
  0
LINE
  5
170
330
1E
100
AcDbEntity
  8
0
100
AcDbLine
 10
281.0
 20
175.06885
 30
0.0
 11
281.0
 21
169.30485
 31
0.0
  0
LINE
  5
171
330
1E
100
AcDbEntity
  8
0
100
AcDbLine
 10
281.0
 20
175.06885
 30
0.0
 11
281.0
 21
180.28185
 31
0.0
  0
LINE
  5
172
330
1E
100
AcDbEntity
  8
0
100
AcDbLine
 10
274.2
 20
175.00485
 30
0.0
 11
280.3
 21
170.30485
 31
0.0
  0
LINE
  5
173
330
1E
100
AcDbEntity
  8
0
100
AcDbLine
 10
273.8
 20
174.60485
 30
0.0
 11
280.1
 21
169.80485
 31
0.0
  0
LINE
  5
174
330
1E
100
AcDbEntity
  8
0
100
AcDbLine
 10
273.5
 20
174.30485
 30
0.0
 11
279.8
 21
169.40485
 31
0.0
  0
LINE
  5
17B
330
1E
100
AcDbEntity
  8
0
100
AcDbLine
 10
145.308810726599
 20
181.80485
 30
0.0
 11
145.308824
 21
164.48085
 31
0.0
  0
LINE
  5
17C
330
1E
100
AcDbEntity
  8
0
100
AcDbLine
 10
145.0
 20
181.80485
 30
0.0
 11
145.0
 21
164.48085
 31
0.0
  0
LINE
  5
17D
330
1E
100
AcDbEntity
  8
0
100
AcDbLine
 10
159.0
 20
180.90485
 30
0.0
 11
163.8
 21
174.60485
 31
0.0
  0
LINE
  5
17E
330
1E
100
AcDbEntity
  8
0
100
AcDbLine
 10
158.6375
 20
181.80485
 30
0.0
 11
159.0
 21
180.90485
 31
0.0
  0
LINE
  5
17F
330
1E
100
AcDbEntity
  8
0
100
AcDbLine
 10
159.5
 20
181.10485
 30
0.0
 11
164.2
 21
175.00485
 31
0.0
  0
LINE
  5
180
330
1E
100
AcDbEntity
  8
0
100
AcDbLine
 10
159.214084507042
 20
181.80485
 30
0.0
 11
159.5
 21
181.10485
 31
0.0
  0
LINE
  5
181
330
1E
100
AcDbEntity
  8
0
100
AcDbLine
 10
158.6
 20
180.60485
 30
0.0
 11
163.5
 21
174.30485
 31
0.0
  0
LINE
  5
182
330
1E
100
AcDbEntity
  8
0
100
AcDbLine
 10
158.113513513514
 20
181.80485
 30
0.0
 11
158.6
 21
180.60485
 31
0.0
  0
LINE
  5
183
330
1E
100
AcDbEntity
  8
0
100
AcDbLine
 10
165.1612
 20
181.80485
 30
0.0
 11
168.6042
 21
181.80485
 31
0.0
  0
LINE
  5
184
330
1E
100
AcDbEntity
  8
0
100
AcDbLine
 10
162.0903
 20
181.80485
 30
0.0
 11
165.1612
 21
181.80485
 31
0.0
  0
LINE
  5
185
330
1E
100
AcDbEntity
  8
0
100
AcDbLine
 10
162.0903
 20
181.80485
 30
0.0
 11
170.0
 21
181.80485
 31
0.0
  0
LINE
  5
186
330
1E
100
AcDbEntity
  8
0
100
AcDbLine
 10
134.5014
 20
181.80485
 30
0.0
 11
162.0903
 21
181.80485
 31
0.0
  0
LINE
  5
187
330
1E
100
AcDbEntity
  8
0
100
AcDbLine
 10
134.5014
 20
181.80485
 30
0.0
 11
170.0
 21
181.80485
 31
0.0
  0
LINE
  5
188
330
1E
100
AcDbEntity
  8
0
100
AcDbLine
 10
170.0
 20
181.80485
 30
0.0
 11
185.1591
 21
181.80485
 31
0.0
  0
LINE
  5
189
330
1E
100
AcDbEntity
  8
0
100
AcDbLine
 10
210.5
 20
181.10485
 30
0.0
 11
213.4
 21
188.20485
 31
0.0
  0
LINE
  5
18A
330
1E
100
AcDbEntity
  8
0
100
AcDbLine
 10
211.0
 20
180.90485
 30
0.0
 11
213.9
 21
188.10485
 31
0.0
  0
LINE
  5
18B
330
1E
100
AcDbEntity
  8
0
100
AcDbLine
 10
211.4
 20
180.60485
 30
0.0
 11
214.4
 21
188.00485
 31
0.0
  0
LINE
  5
18C
330
1E
100
AcDbEntity
  8
0
100
AcDbLine
 10
185.1591
 20
181.80485
 30
0.0
 11
188.7182
 21
182.20485
 31
0.0
  0
LINE
  5
18D
330
1E
100
AcDbEntity
  8
0
100
AcDbLine
 10
184.6318
 20
181.80485
 30
0.0
 11
185.1591
 21
181.80485
 31
0.0
  0
LINE
  5
18E
330
1E
100
AcDbEntity
  8
0
100
AcDbLine
 10
182.6545
 20
181.80485
 30
0.0
 11
184.6318
 21
181.80485
 31
0.0
  0
LINE
  5
18F
330
1E
100
AcDbEntity
  8
0
100
AcDbLine
 10
178.9636
 20
181.80485
 30
0.0
 11
182.6545
 21
181.80485
 31
0.0
  0
LINE
  5
190
330
1E
100
AcDbEntity
  8
0
100
AcDbLine
 10
173.2955
 20
181.80485
 30
0.0
 11
178.9636
 21
181.80485
 31
0.0
  0
LINE
  5
191
330
1E
100
AcDbEntity
  8
0
100
AcDbLine
 10
131.0296
 20
182.20485
 30
0.0
 11
134.5014
 21
181.80485
 31
0.0
  0
LINE
  5
192
330
1E
100
AcDbEntity
  8
0
100
AcDbLine
 10
127.815
 20
183.67185
 30
0.0
 11
131.0296
 21
182.20485
 31
0.0
  0
LINE
  5
193
330
1E
100
AcDbEntity
  8
0
100
AcDbLine
 10
188.7182
 20
182.20485
 30
0.0
 11
192.0136
 21
183.67185
 31
0.0
  0
LINE
  5
194
330
1E
100
AcDbEntity
  8
0
100
AcDbLine
 10
124.8575
 20
185.80485
 30
0.0
 11
127.815
 21
183.67185
 31
0.0
  0
LINE
  5
195
330
1E
100
AcDbEntity
  8
0
100
AcDbLine
 10
122.8002
 20
188.87185
 30
0.0
 11
124.8575
 21
185.80485
 31
0.0
  0
LINE
  5
196
330
1E
100
AcDbEntity
  8
0
100
AcDbLine
 10
192.0136
 20
183.67185
 30
0.0
 11
195.0454
 21
185.80485
 31
0.0
  0
LINE
  5
197
330
1E
100
AcDbEntity
  8
0
100
AcDbLine
 10
195.0454
 20
185.80485
 30
0.0
 11
197.1545
 21
188.87185
 31
0.0
  0
LINE
  5
19D
330
1E
100
AcDbEntity
  8
0
100
AcDbLine
 10
122.8002
 20
202.73785
 30
0.0
 11
124.8575
 21
205.80485
 31
0.0
  0
LINE
  5
19E
330
1E
100
AcDbEntity
  8
0
100
AcDbLine
 10
121.3858
 20
199.40485
 30
0.0
 11
122.8002
 21
202.73785
 31
0.0
  0
LINE
  5
19F
330
1E
100
AcDbEntity
  8
0
100
AcDbLine
 10
127.815
 20
207.93785
 30
0.0
 11
131.0296
 21
209.40485
 31
0.0
  0
LINE
  5
1A0
330
1E
100
AcDbEntity
  8
0
100
AcDbLine
 10
124.8575
 20
205.80485
 30
0.0
 11
127.815
 21
207.93785
 31
0.0
  0
LINE
  5
1A1
330
1E
100
AcDbEntity
  8
0
100
AcDbLine
 10
145.308810726599
 20
209.80485
 30
0.0
 11
145.308824
 21
227.12885
 31
0.0
  0
LINE
  5
1A2
330
1E
100
AcDbEntity
  8
0
100
AcDbLine
 10
145.0
 20
209.80485
 30
0.0
 11
145.0
 21
227.12885
 31
0.0
  0
LINE
  5
1A3
330
1E
100
AcDbEntity
  8
0
100
AcDbLine
 10
131.0296
 20
209.40485
 30
0.0
 11
134.5014
 21
209.80485
 31
0.0
  0
LINE
  5
1A4
330
1E
100
AcDbEntity
  8
0
100
AcDbLine
 10
158.113513513514
 20
209.80485
 30
0.0
 11
158.6
 21
211.00485
 31
0.0
  0
LINE
  5
1A5
330
1E
100
AcDbEntity
  8
0
100
AcDbLine
 10
158.6375
 20
209.80485
 30
0.0
 11
159.0
 21
210.70485
 31
0.0
  0
LINE
  5
1A6
330
1E
100
AcDbEntity
  8
0
100
AcDbLine
 10
159.214084507042
 20
209.80485
 30
0.0
 11
159.5
 21
210.50485
 31
0.0
  0
LINE
  5
1A7
330
1E
100
AcDbEntity
  8
0
100
AcDbLine
 10
134.5014
 20
209.80485
 30
0.0
 11
170.0
 21
209.80485
 31
0.0
  0
LINE
  5
1A8
330
1E
100
AcDbEntity
  8
0
100
AcDbLine
 10
170.0
 20
209.80485
 30
0.0
 11
185.1591
 21
209.80485
 31
0.0
  0
LINE
  5
1A9
330
1E
100
AcDbEntity
  8
0
100
AcDbLine
 10
158.6
 20
211.00485
 30
0.0
 11
163.5
 21
217.30485
 31
0.0
  0
LINE
  5
1AA
330
1E
100
AcDbEntity
  8
0
100
AcDbLine
 10
159.0
 20
210.70485
 30
0.0
 11
163.8
 21
217.00485
 31
0.0
  0
LINE
  5
1AB
330
1E
100
AcDbEntity
  8
0
100
AcDbLine
 10
159.5
 20
210.50485
 30
0.0
 11
164.2
 21
216.60485
 31
0.0
  0
LINE
  5
1AC
330
1E
100
AcDbEntity
  8
0
100
AcDbLine
 10
164.2
 20
216.60485
 30
0.0
 11
170.3
 21
221.30485
 31
0.0
  0
LINE
  5
1AD
330
1E
100
AcDbEntity
  8
0
100
AcDbLine
 10
163.8
 20
217.00485
 30
0.0
 11
170.1
 21
221.80485
 31
0.0
  0
LINE
  5
1AE
330
1E
100
AcDbEntity
  8
0
100
AcDbLine
 10
163.5
 20
217.30485
 30
0.0
 11
169.8
 21
222.20485
 31
0.0
  0
LINE
  5
1AF
330
1E
100
AcDbEntity
  8
0
100
AcDbLine
 10
170.3
 20
221.30485
 30
0.0
 11
177.4
 21
224.20485
 31
0.0
  0
LINE
  5
1B0
330
1E
100
AcDbEntity
  8
0
100
AcDbLine
 10
170.1
 20
221.80485
 30
0.0
 11
177.3
 21
224.70485
 31
0.0
  0
LINE
  5
1B1
330
1E
100
AcDbEntity
  8
0
100
AcDbLine
 10
145.308824
 20
227.12885
 30
0.0
 11
145.514706
 21
228.67285
 31
0.0
  0
LINE
  5
1B2
330
1E
100
AcDbEntity
  8
0
100
AcDbLine
 10
146.13235
 20
230.01085
 30
0.0
 11
147.05882
 21
231.24585
 31
0.0
  0
LINE
  5
1B3
330
1E
100
AcDbEntity
  8
0
100
AcDbLine
 10
145.514706
 20
228.67285
 30
0.0
 11
146.13235
 21
230.01085
 31
0.0
  0
LINE
  5
1B4
330
1E
100
AcDbEntity
  8
0
100
AcDbLine
 10
145.823529
 20
230.21685
 30
0.0
 11
146.85294
 21
231.45185
 31
0.0
  0
LINE
  5
1B5
330
1E
100
AcDbEntity
  8
0
100
AcDbLine
 10
145.205882
 20
228.67285
 30
0.0
 11
145.823529
 21
230.21685
 31
0.0
  0
LINE
  5
1B6
330
1E
100
AcDbEntity
  8
0
100
AcDbLine
 10
145.0
 20
227.12885
 30
0.0
 11
145.205882
 21
228.67285
 31
0.0
  0
LINE
  5
1B7
330
1E
100
AcDbEntity
  8
0
100
AcDbLine
 10
145.0
 20
227.12885
 30
0.0
 11
145.0
 21
209.80485
 31
0.0
  0
LINE
  5
1B8
330
1E
100
AcDbEntity
  8
0
100
AcDbLine
 10
147.05882
 20
231.24585
 30
0.0
 11
148.29412
 21
232.17285
 31
0.0
  0
LINE
  5
1B9
330
1E
100
AcDbEntity
  8
0
100
AcDbLine
 10
146.85294
 20
231.45185
 30
0.0
 11
148.08823
 21
232.48085
 31
0.0
  0
LINE
  5
1BA
330
1E
100
AcDbEntity
  8
0
100
AcDbLine
 10
148.29412
 20
232.17285
 30
0.0
 11
149.63235
 21
232.78985
 31
0.0
  0
LINE
  5
1BB
330
1E
100
AcDbEntity
  8
0
100
AcDbLine
 10
149.63235
 20
232.78985
 30
0.0
 11
151.17647
 21
232.99585
 31
0.0
  0
LINE
  5
1BC
330
1E
100
AcDbEntity
  8
0
100
AcDbLine
 10
151.17647
 20
232.99585
 30
0.0
 11
350.0
 21
232.99585
 31
0.0
  0
LINE
  5
1BD
330
1E
100
AcDbEntity
  8
0
100
AcDbLine
 10
148.08823
 20
232.48085
 30
0.0
 11
149.63235
 21
233.09885
 31
0.0
  0
LINE
  5
1BE
330
1E
100
AcDbEntity
  8
0
100
AcDbLine
 10
149.63235
 20
233.09885
 30
0.0
 11
151.17647
 21
233.30485
 31
0.0
  0
LINE
  5
1BF
330
1E
100
AcDbEntity
  8
0
100
AcDbLine
 10
151.17647
 20
233.30485
 30
0.0
 11
350.0
 21
233.30485
 31
0.0
  0
LINE
  5
1C0
330
1E
100
AcDbEntity
  8
0
100
AcDbLine
 10
169.8
 20
222.20485
 30
0.0
 11
177.2
 21
225.20485
 31
0.0
  0
LINE
  5
1C1
330
1E
100
AcDbEntity
  8
0
100
AcDbLine
 10
177.4
 20
224.20485
 30
0.0
 11
185.0
 21
225.30485
 31
0.0
  0
LINE
  5
1C2
330
1E
100
AcDbEntity
  8
0
100
AcDbLine
 10
185.0
 20
226.30485
 30
0.0
 11
192.8
 21
225.20485
 31
0.0
  0
LINE
  5
1C3
330
1E
100
AcDbEntity
  8
0
100
AcDbLine
 10
185.0
 20
225.80485
 30
0.0
 11
192.7
 21
224.70485
 31
0.0
  0
LINE
  5
1C4
330
1E
100
AcDbEntity
  8
0
100
AcDbLine
 10
185.0
 20
225.30485
 30
0.0
 11
192.6
 21
224.20485
 31
0.0
  0
LINE
  5
1C5
330
1E
100
AcDbEntity
  8
0
100
AcDbLine
 10
177.3
 20
224.70485
 30
0.0
 11
185.0
 21
225.80485
 31
0.0
  0
LINE
  5
1C6
330
1E
100
AcDbEntity
  8
0
100
AcDbLine
 10
177.2
 20
225.20485
 30
0.0
 11
185.0
 21
226.30485
 31
0.0
  0
LINE
  5
1C7
330
1E
100
AcDbEntity
  8
0
100
AcDbLine
 10
185.1591
 20
209.80485
 30
0.0
 11
188.7182
 21
209.40485
 31
0.0
  0
LINE
  5
1C8
330
1E
100
AcDbEntity
  8
0
100
AcDbLine
 10
192.8
 20
225.20485
 30
0.0
 11
200.2
 21
222.20485
 31
0.0
  0
LINE
  5
1C9
330
1E
100
AcDbEntity
  8
0
100
AcDbLine
 10
192.7
 20
224.70485
 30
0.0
 11
199.9
 21
221.80485
 31
0.0
  0
LINE
  5
1CA
330
1E
100
AcDbEntity
  8
0
100
AcDbLine
 10
192.6
 20
224.20485
 30
0.0
 11
199.7
 21
221.30485
 31
0.0
  0
LINE
  5
1CB
330
1E
100
AcDbEntity
  8
0
100
AcDbLine
 10
188.7182
 20
209.40485
 30
0.0
 11
192.0136
 21
207.93785
 31
0.0
  0
LINE
  5
1CC
330
1E
100
AcDbEntity
  8
0
100
AcDbLine
 10
192.0136
 20
207.93785
 30
0.0
 11
195.0454
 21
205.80485
 31
0.0
  0
LINE
  5
1CD
330
1E
100
AcDbEntity
  8
0
100
AcDbLine
 10
195.0454
 20
205.80485
 30
0.0
 11
197.1545
 21
202.73785
 31
0.0
  0
LINE
  5
1CE
330
1E
100
AcDbEntity
  8
0
100
AcDbLine
 10
197.1545
 20
202.73785
 30
0.0
 11
198.6045
 21
199.40485
 31
0.0
  0
LINE
  5
1CF
330
1E
100
AcDbEntity
  8
0
100
AcDbLine
 10
198.6045
 20
199.40485
 30
0.0
 11
199.0
 21
195.80485
 31
0.0
  0
LINE
  5
1D0
330
1E
100
AcDbEntity
  8
0
100
AcDbLine
 10
121.3858
 20
192.20485
 30
0.0
 11
122.8002
 21
188.87185
 31
0.0
  0
LINE
  5
1D1
330
1E
100
AcDbEntity
  8
0
100
AcDbLine
 10
121.0
 20
195.80485
 30
0.0
 11
121.3858
 21
192.20485
 31
0.0
  0
LINE
  5
1D2
330
1E
100
AcDbEntity
  8
0
100
AcDbLine
 10
121.0
 20
195.80485
 30
0.0
 11
121.3858
 21
199.40485
 31
0.0
  0
LINE
  5
1D3
330
1E
100
AcDbEntity
  8
0
100
AcDbLine
 10
197.1545
 20
188.87185
 30
0.0
 11
198.6045
 21
192.20485
 31
0.0
  0
LINE
  5
1D4
330
1E
100
AcDbEntity
  8
0
100
AcDbLine
 10
200.2
 20
222.20485
 30
0.0
 11
206.5
 21
217.30485
 31
0.0
  0
LINE
  5
1D5
330
1E
100
AcDbEntity
  8
0
100
AcDbLine
 10
199.9
 20
221.80485
 30
0.0
 11
206.2
 21
217.00485
 31
0.0
  0
LINE
  5
1D6
330
1E
100
AcDbEntity
  8
0
100
AcDbLine
 10
206.5
 20
217.30485
 30
0.0
 11
211.4
 21
211.00485
 31
0.0
  0
LINE
  5
1D7
330
1E
100
AcDbEntity
  8
0
100
AcDbLine
 10
206.2
 20
217.00485
 30
0.0
 11
211.0
 21
210.70485
 31
0.0
  0
LINE
  5
1D8
330
1E
100
AcDbEntity
  8
0
100
AcDbLine
 10
205.8
 20
216.60485
 30
0.0
 11
210.5
 21
210.50485
 31
0.0
  0
LINE
  5
1D9
330
1E
100
AcDbEntity
  8
0
100
AcDbLine
 10
211.4
 20
211.00485
 30
0.0
 11
214.4
 21
203.60485
 31
0.0
  0
LINE
  5
1DA
330
1E
100
AcDbEntity
  8
0
100
AcDbLine
 10
211.0
 20
210.70485
 30
0.0
 11
213.9
 21
203.50485
 31
0.0
  0
LINE
  5
1DB
330
1E
100
AcDbEntity
  8
0
100
AcDbLine
 10
213.9
 20
203.50485
 30
0.0
 11
215.0
 21
195.80485
 31
0.0
  0
LINE
  5
1DC
330
1E
100
AcDbEntity
  8
0
100
AcDbLine
 10
210.5
 20
210.50485
 30
0.0
 11
213.4
 21
203.40485
 31
0.0
  0
LINE
  5
1DD
330
1E
100
AcDbEntity
  8
0
100
AcDbLine
 10
213.4
 20
203.40485
 30
0.0
 11
214.5
 21
195.80485
 31
0.0
  0
LINE
  5
1DE
330
1E
100
AcDbEntity
  8
0
100
AcDbLine
 10
199.7
 20
221.30485
 30
0.0
 11
205.8
 21
216.60485
 31
0.0
  0
LINE
  5
1DF
330
1E
100
AcDbEntity
  8
0
100
AcDbLine
 10
213.4
 20
188.20485
 30
0.0
 11
214.5
 21
195.80485
 31
0.0
  0
LINE
  5
1E0
330
1E
100
AcDbEntity
  8
0
100
AcDbLine
 10
214.4
 20
203.60485
 30
0.0
 11
215.5
 21
195.80485
 31
0.0
  0
LINE
  5
1E1
330
1E
100
AcDbEntity
  8
0
100
AcDbLine
 10
213.9
 20
188.10485
 30
0.0
 11
215.0
 21
195.80485
 31
0.0
  0
LINE
  5
1E2
330
1E
100
AcDbEntity
  8
0
100
AcDbLine
 10
214.4
 20
188.00485
 30
0.0
 11
215.5
 21
195.80485
 31
0.0
  0
LINE
  5
1E3
330
1E
100
AcDbEntity
  8
0
100
AcDbLine
 10
198.6045
 20
192.20485
 30
0.0
 11
199.0
 21
195.80485
 31
0.0
  0
LINE
  5
1E4
330
1E
100
AcDbEntity
  8
0
100
AcDbLine
 10
168.6042
 20
181.80485
 30
0.0
 11
173.2955
 21
181.80485
 31
0.0
  0
LINE
  5
1E5
330
1E
100
AcDbEntity
  8
0
100
AcDbLine
 10
265.5
 20
195.80485
 30
0.0
 11
266.6
 21
188.20485
 31
0.0
  0
LINE
  5
1E6
330
1E
100
AcDbEntity
  8
0
100
AcDbLine
 10
265.5
 20
195.80485
 30
0.0
 11
266.6
 21
203.40485
 31
0.0
  0
LINE
  5
1E7
330
1E
100
AcDbEntity
  8
0
100
AcDbLine
 10
309.0
 20
179.698183333333
 30
0.0
 11
310.2
 21
180.60485
 31
0.0
  0
LINE
  5
1ED
330
1E
100
AcDbEntity
  8
0
100
AcDbLine
 10
309.0
 20
179.130936956522
 30
0.0
 11
310.5
 21
180.30485
 31
0.0
  0
LINE
  5
1EE
330
1E
100
AcDbEntity
  8
0
100
AcDbLine
 10
310.2
 20
180.60485
 30
0.0
 11
313.6
 21
185.10485
 31
0.0
  0
LINE
  5
1F1
330
1E
100
AcDbEntity
  8
0
100
AcDbLine
 10
431.4
 20
180.60485
 30
0.0
 11
431.886486486486
 21
181.80485
 31
0.0
  0
LINE
  5
1F2
330
1E
100
AcDbEntity
  8
0
100
AcDbLine
 10
378.6
 20
180.60485
 30
0.0
 11
383.5
 21
174.30485
 31
0.0
  0
LINE
  5
1F3
330
1E
100
AcDbEntity
  8
0
100
AcDbLine
 10
321.4
 20
180.60485
 30
0.0
 11
324.4
 21
188.00485
 31
0.0
  0
LINE
  5
1F4
330
1E
100
AcDbEntity
  8
0
100
AcDbLine
 10
310.5
 20
180.30485
 30
0.0
 11
314.1
 21
184.90485
 31
0.0
  0
LINE
  5
1F5
330
1E
100
AcDbEntity
  8
0
100
AcDbLine
 10
309.0
 20
180.28185
 30
0.0
 11
309.0
 21
184.85285
 31
0.0
  0
LINE
  5
1F6
330
1E
100
AcDbEntity
  8
0
100
AcDbLine
 10
309.0
 20
180.28185
 30
0.0
 11
309.0
 21
175.06885
 31
0.0
  0
LINE
  5
1F7
330
1E
100
AcDbEntity
  8
0
100
AcDbLine
 10
281.0
 20
180.28185
 30
0.0
 11
281.0
 21
184.85285
 31
0.0
  0
LINE
  5
1F8
330
1E
100
AcDbEntity
  8
0
100
AcDbLine
 10
281.0
 20
180.28185
 30
0.0
 11
281.0
 21
175.06885
 31
0.0
  0
LINE
  5
1FB
330
1E
100
AcDbEntity
  8
0
100
AcDbLine
 10
379.0
 20
180.90485
 30
0.0
 11
383.8
 21
174.60485
 31
0.0
  0
LINE
  5
1FC
330
1E
100
AcDbEntity
  8
0
100
AcDbLine
 10
431.0
 20
180.90485
 30
0.0
 11
431.3625
 21
181.80485
 31
0.0
  0
LINE
  5
1FD
330
1E
100
AcDbEntity
  8
0
100
AcDbLine
 10
321.0
 20
180.90485
 30
0.0
 11
323.9
 21
188.10485
 31
0.0
  0
LINE
  5
1FE
330
1E
100
AcDbEntity
  8
0
100
AcDbLine
 10
279.8
 20
180.60485
 30
0.0
 11
281.0
 21
179.698183333333
 31
0.0
  0
LINE
  5
1FF
330
1E
100
AcDbEntity
  8
0
100
AcDbLine
 10
279.5
 20
180.30485
 30
0.0
 11
281.0
 21
179.130936956522
 31
0.0
  0
LINE
  5
202
330
1E
100
AcDbEntity
  8
0
100
AcDbLine
 10
379.5
 20
181.10485
 30
0.0
 11
384.2
 21
175.00485
 31
0.0
  0
LINE
  5
203
330
1E
100
AcDbEntity
  8
0
100
AcDbLine
 10
404.841
 20
181.80485
 30
0.0
 11
405.368
 21
181.80485
 31
0.0
  0
LINE
  5
204
330
1E
100
AcDbEntity
  8
0
100
AcDbLine
 10
404.841
 20
181.80485
 30
0.0
 11
420.0
 21
181.80485
 31
0.0
  0
LINE
  5
205
330
1E
100
AcDbEntity
  8
0
100
AcDbLine
 10
405.368
 20
181.80485
 30
0.0
 11
407.345
 21
181.80485
 31
0.0
  0
LINE
  5
206
330
1E
100
AcDbEntity
  8
0
100
AcDbLine
 10
407.345
 20
181.80485
 30
0.0
 11
411.036
 21
181.80485
 31
0.0
  0
LINE
  5
207
330
1E
100
AcDbEntity
  8
0
100
AcDbLine
 10
411.036
 20
181.80485
 30
0.0
 11
416.704
 21
181.80485
 31
0.0
  0
LINE
  5
208
330
1E
100
AcDbEntity
  8
0
100
AcDbLine
 10
416.704
 20
181.80485
 30
0.0
 11
421.396
 21
181.80485
 31
0.0
  0
LINE
  5
209
330
1E
100
AcDbEntity
  8
0
100
AcDbLine
 10
420.0
 20
181.80485
 30
0.0
 11
455.499
 21
181.80485
 31
0.0
  0
LINE
  5
20A
330
1E
100
AcDbEntity
  8
0
100
AcDbLine
 10
420.0
 20
181.80485
 30
0.0
 11
427.91
 21
181.80485
 31
0.0
  0
LINE
  5
20B
330
1E
100
AcDbEntity
  8
0
100
AcDbLine
 10
421.396
 20
181.80485
 30
0.0
 11
424.839
 21
181.80485
 31
0.0
  0
LINE
  5
20C
330
1E
100
AcDbEntity
  8
0
100
AcDbLine
 10
401.282
 20
182.20485
 30
0.0
 11
404.841
 21
181.80485
 31
0.0
  0
LINE
  5
20D
330
1E
100
AcDbEntity
  8
0
100
AcDbLine
 10
397.986
 20
183.67185
 30
0.0
 11
401.282
 21
182.20485
 31
0.0
  0
LINE
  5
20E
330
1E
100
AcDbEntity
  8
0
100
AcDbLine
 10
424.839
 20
181.80485
 30
0.0
 11
427.91
 21
181.80485
 31
0.0
  0
LINE
  5
20F
330
1E
100
AcDbEntity
  8
0
100
AcDbLine
 10
458.97
 20
182.20485
 30
0.0
 11
462.185
 21
183.67185
 31
0.0
  0
LINE
  5
212
330
1E
100
AcDbEntity
  8
0
100
AcDbLine
 10
462.185
 20
183.67185
 30
0.0
 11
465.142
 21
185.80485
 31
0.0
  0
LINE
  5
213
330
1E
100
AcDbEntity
  8
0
100
AcDbLine
 10
455.499
 20
181.80485
 30
0.0
 11
458.97
 21
182.20485
 31
0.0
  0
LINE
  5
214
330
1E
100
AcDbEntity
  8
0
100
AcDbLine
 10
427.91
 20
181.80485
 30
0.0
 11
455.499
 21
181.80485
 31
0.0
  0
LINE
  5
215
330
1E
100
AcDbEntity
  8
0
100
AcDbLine
 10
430.5
 20
181.10485
 30
0.0
 11
430.785915492958
 21
181.80485
 31
0.0
  0
LINE
  5
216
330
1E
100
AcDbEntity
  8
0
100
AcDbLine
 10
320.5
 20
181.10485
 30
0.0
 11
323.4
 21
188.20485
 31
0.0
  0
LINE
  5
217
330
1E
100
AcDbEntity
  8
0
100
AcDbLine
 10
314.1
 20
184.90485
 30
0.0
 11
316.2
 21
190.10485
 31
0.0
  0
LINE
  5
218
330
1E
100
AcDbEntity
  8
0
100
AcDbLine
 10
309.0
 20
184.85285
 30
0.0
 11
309.0
 21
180.28185
 31
0.0
  0
LINE
  5
219
330
1E
100
AcDbEntity
  8
0
100
AcDbLine
 10
309.0
 20
184.85285
 30
0.0
 11
309.0
 21
188.70385
 31
0.0
  0
LINE
  5
21A
330
1E
100
AcDbEntity
  8
0
100
AcDbLine
 10
281.0
 20
184.85285
 30
0.0
 11
281.0
 21
180.28185
 31
0.0
  0
LINE
  5
21B
330
1E
100
AcDbEntity
  8
0
100
AcDbLine
 10
281.0
 20
184.85285
 30
0.0
 11
281.0
 21
188.70385
 31
0.0
  0
LINE
  5
21C
330
1E
100
AcDbEntity
  8
0
100
AcDbLine
 10
323.9
 20
188.10485
 30
0.0
 11
325.0
 21
195.80485
 31
0.0
  0
LINE
  5
21F
330
1E
100
AcDbEntity
  8
0
100
AcDbLine
 10
465.142
 20
185.80485
 30
0.0
 11
467.2
 21
188.87185
 31
0.0
  0
LINE
  5
220
330
1E
100
AcDbEntity
  8
0
100
AcDbLine
 10
394.955
 20
185.80485
 30
0.0
 11
397.986
 21
183.67185
 31
0.0
  0
LINE
  5
222
330
1E
100
AcDbEntity
  8
0
100
AcDbLine
 10
376.1
 20
188.10485
 30
0.0
 11
379.0
 21
180.90485
 31
0.0
  0
LINE
  5
223
330
1E
100
AcDbEntity
  8
0
100
AcDbLine
 10
375.6
 20
188.00485
 30
0.0
 11
378.6
 21
180.60485
 31
0.0
  0
LINE
  5
224
330
1E
100
AcDbEntity
  8
0
100
AcDbLine
 10
324.4
 20
188.00485
 30
0.0
 11
325.5
 21
195.80485
 31
0.0
  0
LINE
  5
225
330
1E
100
AcDbEntity
  8
0
100
AcDbLine
 10
313.6
 20
185.10485
 30
0.0
 11
315.7
 21
190.30485
 31
0.0
  0
LINE
  5
226
330
1E
100
AcDbEntity
  8
0
100
AcDbLine
 10
276.4
 20
185.10485
 30
0.0
 11
279.8
 21
180.60485
 31
0.0
  0
LINE
  5
227
330
1E
100
AcDbEntity
  8
0
100
AcDbLine
 10
275.9
 20
184.90485
 30
0.0
 11
279.5
 21
180.30485
 31
0.0
  0
LINE
  5
228
330
1E
100
AcDbEntity
  8
0
100
AcDbLine
 10
269.5
 20
181.10485
 30
0.0
 11
274.2
 21
175.00485
 31
0.0
  0
LINE
  5
229
330
1E
100
AcDbEntity
  8
0
100
AcDbLine
 10
269.0
 20
180.90485
 30
0.0
 11
273.8
 21
174.60485
 31
0.0
  0
LINE
  5
22A
330
1E
100
AcDbEntity
  8
0
100
AcDbLine
 10
268.6
 20
180.60485
 30
0.0
 11
273.5
 21
174.30485
 31
0.0
  0
LINE
  5
22D
330
1E
100
AcDbEntity
  8
0
100
AcDbLine
 10
376.6
 20
188.20485
 30
0.0
 11
379.5
 21
181.10485
 31
0.0
  0
LINE
  5
22E
330
1E
100
AcDbEntity
  8
0
100
AcDbLine
 10
323.4
 20
188.20485
 30
0.0
 11
324.5
 21
195.80485
 31
0.0
  0
LINE
  5
22F
330
1E
100
AcDbEntity
  8
0
100
AcDbLine
 10
467.2
 20
188.87185
 30
0.0
 11
468.614
 21
192.20485
 31
0.0
  0
LINE
  5
230
330
1E
100
AcDbEntity
  8
0
100
AcDbLine
 10
392.845
 20
188.87185
 30
0.0
 11
394.955
 21
185.80485
 31
0.0
  0
LINE
  5
231
330
1E
100
AcDbEntity
  8
0
100
AcDbLine
 10
316.2
 20
190.10485
 30
0.0
 11
317.0
 21
195.80485
 31
0.0
  0
LINE
  5
232
330
1E
100
AcDbEntity
  8
0
100
AcDbLine
 10
309.0
 20
188.70385
 30
0.0
 11
309.0
 21
184.85285
 31
0.0
  0
LINE
  5
233
330
1E
100
AcDbEntity
  8
0
100
AcDbLine
 10
309.0
 20
188.70385
 30
0.0
 11
309.0
 21
191.77085
 31
0.0
  0
LINE
  5
234
330
1E
100
AcDbEntity
  8
0
100
AcDbLine
 10
281.0
 20
188.70385
 30
0.0
 11
281.0
 21
184.85285
 31
0.0
  0
LINE
  5
235
330
1E
100
AcDbEntity
  8
0
100
AcDbLine
 10
281.0
 20
188.70385
 30
0.0
 11
281.0
 21
191.77085
 31
0.0
  0
LINE
  5
236
330
1E
100
AcDbEntity
  8
0
100
AcDbLine
 10
281.0
 20
191.77085
 30
0.0
 11
281.0
 21
188.70385
 31
0.0
  0
LINE
  5
237
330
1E
100
AcDbEntity
  8
0
100
AcDbLine
 10
281.0
 20
191.77085
 30
0.0
 11
281.0
 21
193.99885
 31
0.0
  0
LINE
  5
239
330
1E
100
AcDbEntity
  8
0
100
AcDbLine
 10
468.614
 20
192.20485
 30
0.0
 11
469.0
 21
195.80485
 31
0.0
  0
LINE
  5
23A
330
1E
100
AcDbEntity
  8
0
100
AcDbLine
 10
391.395
 20
192.20485
 30
0.0
 11
392.845
 21
188.87185
 31
0.0
  0
LINE
  5
23B
330
1E
100
AcDbEntity
  8
0
100
AcDbLine
 10
315.7
 20
190.30485
 30
0.0
 11
316.5
 21
195.80485
 31
0.0
  0
LINE
  5
23C
330
1E
100
AcDbEntity
  8
0
100
AcDbLine
 10
309.0
 20
191.77085
 30
0.0
 11
309.0
 21
188.70385
 31
0.0
  0
LINE
  5
23D
330
1E
100
AcDbEntity
  8
0
100
AcDbLine
 10
309.0
 20
191.77085
 30
0.0
 11
309.0
 21
193.99885
 31
0.0
  0
LINE
  5
23E
330
1E
100
AcDbEntity
  8
0
100
AcDbLine
 10
309.0
 20
195.35185
 30
0.0
 11
309.0
 21
193.99885
 31
0.0
  0
LINE
  5
23F
330
1E
100
AcDbEntity
  8
0
100
AcDbLine
 10
309.0
 20
195.35185
 30
0.0
 11
309.0
 21
195.80485
 31
0.0
  0
LINE
  5
240
330
1E
100
AcDbEntity
  8
0
100
AcDbLine
 10
309.0
 20
193.99885
 30
0.0
 11
309.0
 21
191.77085
 31
0.0
  0
LINE
  5
241
330
1E
100
AcDbEntity
  8
0
100
AcDbLine
 10
309.0
 20
193.99885
 30
0.0
 11
309.0
 21
195.35185
 31
0.0
  0
LINE
  5
242
330
1E
100
AcDbEntity
  8
0
100
AcDbLine
 10
281.0
 20
193.99885
 30
0.0
 11
281.0
 21
195.35185
 31
0.0
  0
LINE
  5
243
330
1E
100
AcDbEntity
  8
0
100
AcDbLine
 10
281.0
 20
193.99885
 30
0.0
 11
281.0
 21
191.77085
 31
0.0
  0
LINE
  5
244
330
1E
100
AcDbEntity
  8
0
100
AcDbLine
 10
375.5
 20
195.80485
 30
0.0
 11
376.6
 21
203.40485
 31
0.0
  0
LINE
  5
245
330
1E
100
AcDbEntity
  8
0
100
AcDbLine
 10
375.5
 20
195.80485
 30
0.0
 11
376.6
 21
188.20485
 31
0.0
  0
LINE
  5
246
330
1E
100
AcDbEntity
  8
0
100
AcDbLine
 10
375.0
 20
195.80485
 30
0.0
 11
376.1
 21
203.50485
 31
0.0
  0
LINE
  5
247
330
1E
100
AcDbEntity
  8
0
100
AcDbLine
 10
375.0
 20
195.80485
 30
0.0
 11
376.1
 21
188.10485
 31
0.0
  0
LINE
  5
250
330
1E
100
AcDbEntity
  8
0
100
AcDbLine
 10
374.5
 20
195.80485
 30
0.0
 11
375.6
 21
188.00485
 31
0.0
  0
LINE
  5
251
330
1E
100
AcDbEntity
  8
0
100
AcDbLine
 10
374.5
 20
195.80485
 30
0.0
 11
375.6
 21
203.60485
 31
0.0
  0
LINE
  5
253
330
1E
100
AcDbEntity
  8
0
100
AcDbLine
 10
281.0
 20
195.35185
 30
0.0
 11
281.0
 21
195.80485
 31
0.0
  0
LINE
  5
254
330
1E
100
AcDbEntity
  8
0
100
AcDbLine
 10
281.0
 20
195.35185
 30
0.0
 11
281.0
 21
193.99885
 31
0.0
  0
LINE
  5
255
330
1E
100
AcDbEntity
  8
0
100
AcDbLine
 10
274.3
 20
190.30485
 30
0.0
 11
276.4
 21
185.10485
 31
0.0
  0
LINE
  5
256
330
1E
100
AcDbEntity
  8
0
100
AcDbLine
 10
273.5
 20
195.80485
 30
0.0
 11
274.3
 21
190.30485
 31
0.0
  0
LINE
  5
257
330
1E
100
AcDbEntity
  8
0
100
AcDbLine
 10
273.5
 20
195.80485
 30
0.0
 11
274.3
 21
201.30485
 31
0.0
  0
LINE
  5
258
330
1E
100
AcDbEntity
  8
0
100
AcDbLine
 10
273.0
 20
195.80485
 30
0.0
 11
273.8
 21
190.10485
 31
0.0
  0
LINE
  5
259
330
1E
100
AcDbEntity
  8
0
100
AcDbLine
 10
273.0
 20
195.80485
 30
0.0
 11
273.8
 21
201.50485
 31
0.0
  0
LINE
  5
25A
330
1E
100
AcDbEntity
  8
0
100
AcDbLine
 10
273.8
 20
190.10485
 30
0.0
 11
275.9
 21
184.90485
 31
0.0
  0
LINE
  5
25B
330
1E
100
AcDbEntity
  8
0
100
AcDbLine
 10
266.6
 20
188.20485
 30
0.0
 11
269.5
 21
181.10485
 31
0.0
  0
LINE
  5
25C
330
1E
100
AcDbEntity
  8
0
100
AcDbLine
 10
266.1
 20
188.10485
 30
0.0
 11
269.0
 21
180.90485
 31
0.0
  0
LINE
  5
25D
330
1E
100
AcDbEntity
  8
0
100
AcDbLine
 10
265.6
 20
188.00485
 30
0.0
 11
268.6
 21
180.60485
 31
0.0
  0
LINE
  5
25E
330
1E
100
AcDbEntity
  8
0
100
AcDbLine
 10
274.3
 20
201.30485
 30
0.0
 11
276.4
 21
206.50485
 31
0.0
  0
LINE
  5
25F
330
1E
100
AcDbEntity
  8
0
100
AcDbLine
 10
273.8
 20
201.50485
 30
0.0
 11
275.9
 21
206.70485
 31
0.0
  0
LINE
  5
260
330
1E
100
AcDbEntity
  8
0
100
AcDbLine
 10
268.6
 20
211.00485
 30
0.0
 11
273.5
 21
217.30485
 31
0.0
  0
LINE
  5
261
330
1E
100
AcDbEntity
  8
0
100
AcDbLine
 10
269.0
 20
210.70485
 30
0.0
 11
273.8
 21
217.00485
 31
0.0
  0
LINE
  5
262
330
1E
100
AcDbEntity
  8
0
100
AcDbLine
 10
265.6
 20
203.60485
 30
0.0
 11
268.6
 21
211.00485
 31
0.0
  0
LINE
  5
263
330
1E
100
AcDbEntity
  8
0
100
AcDbLine
 10
266.1
 20
203.50485
 30
0.0
 11
269.0
 21
210.70485
 31
0.0
  0
LINE
  5
264
330
1E
100
AcDbEntity
  8
0
100
AcDbLine
 10
276.4
 20
206.50485
 30
0.0
 11
279.8
 21
211.00485
 31
0.0
  0
LINE
  5
265
330
1E
100
AcDbEntity
  8
0
100
AcDbLine
 10
279.8
 20
211.00485
 30
0.0
 11
284.3
 21
214.40485
 31
0.0
  0
LINE
  5
266
330
1E
100
AcDbEntity
  8
0
100
AcDbLine
 10
279.5
 20
211.30485
 30
0.0
 11
284.1
 21
214.90485
 31
0.0
  0
LINE
  5
267
330
1E
100
AcDbEntity
  8
0
100
AcDbLine
 10
273.8
 20
217.00485
 30
0.0
 11
280.1
 21
221.80485
 31
0.0
  0
LINE
  5
268
330
1E
100
AcDbEntity
  8
0
100
AcDbLine
 10
273.5
 20
217.30485
 30
0.0
 11
279.8
 21
222.20485
 31
0.0
  0
LINE
  5
269
330
1E
100
AcDbEntity
  8
0
100
AcDbLine
 10
280.1
 20
221.80485
 30
0.0
 11
287.3
 21
224.70485
 31
0.0
  0
LINE
  5
26A
330
1E
100
AcDbEntity
  8
0
100
AcDbLine
 10
279.8
 20
222.20485
 30
0.0
 11
287.2
 21
225.20485
 31
0.0
  0
LINE
  5
26B
330
1E
100
AcDbEntity
  8
0
100
AcDbLine
 10
274.2
 20
216.60485
 30
0.0
 11
280.3
 21
221.30485
 31
0.0
  0
LINE
  5
26C
330
1E
100
AcDbEntity
  8
0
100
AcDbLine
 10
280.3
 20
221.30485
 30
0.0
 11
287.4
 21
224.20485
 31
0.0
  0
LINE
  5
26D
330
1E
100
AcDbEntity
  8
0
100
AcDbLine
 10
275.9
 20
206.70485
 30
0.0
 11
279.5
 21
211.30485
 31
0.0
  0
LINE
  5
26E
330
1E
100
AcDbEntity
  8
0
100
AcDbLine
 10
269.5
 20
210.50485
 30
0.0
 11
274.2
 21
216.60485
 31
0.0
  0
LINE
  5
26F
330
1E
100
AcDbEntity
  8
0
100
AcDbLine
 10
266.6
 20
203.40485
 30
0.0
 11
269.5
 21
210.50485
 31
0.0
  0
LINE
  5
270
330
1E
100
AcDbEntity
  8
0
100
AcDbLine
 10
282.9
 20
202.80485
 30
0.0
 11
285.1
 21
205.70485
 31
0.0
  0
LINE
  5
271
330
1E
100
AcDbEntity
  8
0
100
AcDbLine
 10
281.5
 20
199.40485
 30
0.0
 11
282.9
 21
202.80485
 31
0.0
  0
LINE
  5
274
330
1E
100
AcDbEntity
  8
0
100
AcDbLine
 10
288.0
 20
207.90485
 30
0.0
 11
291.4
 21
209.30485
 31
0.0
  0
LINE
  5
275
330
1E
100
AcDbEntity
  8
0
100
AcDbLine
 10
285.1
 20
205.70485
 30
0.0
 11
288.0
 21
207.90485
 31
0.0
  0
LINE
  5
276
330
1E
100
AcDbEntity
  8
0
100
AcDbLine
 10
284.3
 20
214.40485
 30
0.0
 11
289.5
 21
216.50485
 31
0.0
  0
LINE
  5
277
330
1E
100
AcDbEntity
  8
0
100
AcDbLine
 10
284.1
 20
214.90485
 30
0.0
 11
289.3
 21
217.00485
 31
0.0
  0
LINE
  5
278
330
1E
100
AcDbEntity
  8
0
100
AcDbLine
 10
291.096
 20
211.80485
 30
0.0
 11
291.24
 21
211.80485
 31
0.0
  0
LINE
  5
279
330
1E
100
AcDbEntity
  8
0
100
AcDbLine
 10
291.0
 20
212.03585
 30
0.0
 11
291.096
 21
211.80485
 31
0.0
  0
LINE
  5
27A
330
1E
100
AcDbEntity
  8
0
100
AcDbLine
 10
291.0
 20
212.03585
 30
0.0
 11
291.0
 21
223.57385
 31
0.0
  0
LINE
  5
27B
330
1E
100
AcDbEntity
  8
0
100
AcDbLine
 10
291.24
 20
211.80485
 30
0.0
 11
291.624
 21
211.80485
 31
0.0
  0
LINE
  5
27C
330
1E
100
AcDbEntity
  8
0
100
AcDbLine
 10
391.0
 20
195.80485
 30
0.0
 11
391.395
 21
199.40485
 31
0.0
  0
LINE
  5
27D
330
1E
100
AcDbEntity
  8
0
100
AcDbLine
 10
391.0
 20
195.80485
 30
0.0
 11
391.395
 21
192.20485
 31
0.0
  0
LINE
  5
27E
330
1E
100
AcDbEntity
  8
0
100
AcDbLine
 10
292.0
 20
211.80485
 30
0.0
 11
292.0
 21
209.388183333333
 31
0.0
  0
LINE
  5
27F
330
1E
100
AcDbEntity
  8
0
100
AcDbLine
 10
292.0
 20
211.80485
 30
0.0
 11
292.108
 21
211.80485
 31
0.0
  0
LINE
  5
280
330
1E
100
AcDbEntity
  8
0
100
AcDbLine
 10
292.108
 20
211.80485
 30
0.0
 11
292.396
 21
211.80485
 31
0.0
  0
LINE
  5
281
330
1E
100
AcDbEntity
  8
0
100
AcDbLine
 10
292.396
 20
211.80485
 30
0.0
 11
292.876
 21
211.80485
 31
0.0
  0
LINE
  5
282
330
1E
100
AcDbEntity
  8
0
100
AcDbLine
 10
292.876
 20
211.80485
 30
0.0
 11
293.512
 21
211.80485
 31
0.0
  0
LINE
  5
283
330
1E
100
AcDbEntity
  8
0
100
AcDbLine
 10
292.0
 20
209.388183333333
 30
0.0
 11
292.0
 21
211.80485
 31
0.0
  0
LINE
  5
284
330
1E
100
AcDbEntity
  8
0
100
AcDbLine
 10
292.248
 20
211.80485
 30
0.0
 11
293.064
 21
211.80485
 31
0.0
  0
LINE
  5
285
330
1E
100
AcDbEntity
  8
0
100
AcDbLine
 10
293.512
 20
211.80485
 30
0.0
 11
294.232
 21
211.80485
 31
0.0
  0
LINE
  5
286
330
1E
100
AcDbEntity
  8
0
100
AcDbLine
 10
294.232
 20
211.80485
 30
0.0
 11
295.0
 21
211.80485
 31
0.0
  0
LINE
  5
287
330
1E
100
AcDbEntity
  8
0
100
AcDbLine
 10
293.064
 20
211.80485
 30
0.0
 11
293.992
 21
211.80485
 31
0.0
  0
LINE
  5
288
330
1E
100
AcDbEntity
  8
0
100
AcDbLine
 10
293.992
 20
211.80485
 30
0.0
 11
295.0
 21
211.80485
 31
0.0
  0
LINE
  5
289
330
1E
100
AcDbEntity
  8
0
100
AcDbLine
 10
295.0
 20
211.80485
 30
0.0
 11
296.008
 21
211.80485
 31
0.0
  0
LINE
  5
28A
330
1E
100
AcDbEntity
  8
0
100
AcDbLine
 10
295.0
 20
211.80485
 30
0.0
 11
295.768
 21
211.80485
 31
0.0
  0
LINE
  5
28B
330
1E
100
AcDbEntity
  8
0
100
AcDbLine
 10
291.624
 20
211.80485
 30
0.0
 11
292.0
 21
211.80485
 31
0.0
  0
LINE
  5
28C
330
1E
100
AcDbEntity
  8
0
100
AcDbLine
 10
291.624
 20
211.80485
 30
0.0
 11
292.248
 21
211.80485
 31
0.0
  0
LINE
  5
28D
330
1E
100
AcDbEntity
  8
0
100
AcDbLine
 10
296.488
 20
211.80485
 30
0.0
 11
297.124
 21
211.80485
 31
0.0
  0
LINE
  5
28E
330
1E
100
AcDbEntity
  8
0
100
AcDbLine
 10
295.768
 20
211.80485
 30
0.0
 11
296.488
 21
211.80485
 31
0.0
  0
LINE
  5
28F
330
1E
100
AcDbEntity
  8
0
100
AcDbLine
 10
297.892
 20
211.80485
 30
0.0
 11
298.0
 21
211.80485
 31
0.0
  0
LINE
  5
290
330
1E
100
AcDbEntity
  8
0
100
AcDbLine
 10
298.0
 20
209.388183333333
 30
0.0
 11
298.0
 21
211.80485
 31
0.0
  0
LINE
  5
291
330
1E
100
AcDbEntity
  8
0
100
AcDbLine
 10
297.604
 20
211.80485
 30
0.0
 11
297.892
 21
211.80485
 31
0.0
  0
LINE
  5
292
330
1E
100
AcDbEntity
  8
0
100
AcDbLine
 10
297.124
 20
211.80485
 30
0.0
 11
297.604
 21
211.80485
 31
0.0
  0
LINE
  5
293
330
1E
100
AcDbEntity
  8
0
100
AcDbLine
 10
297.752
 20
211.80485
 30
0.0
 11
298.376
 21
211.80485
 31
0.0
  0
LINE
  5
294
330
1E
100
AcDbEntity
  8
0
100
AcDbLine
 10
296.936
 20
211.80485
 30
0.0
 11
297.752
 21
211.80485
 31
0.0
  0
LINE
  5
295
330
1E
100
AcDbEntity
  8
0
100
AcDbLine
 10
296.008
 20
211.80485
 30
0.0
 11
296.936
 21
211.80485
 31
0.0
  0
LINE
  5
296
330
1E
100
AcDbEntity
  8
0
100
AcDbLine
 10
298.76
 20
211.80485
 30
0.0
 11
298.904
 21
211.80485
 31
0.0
  0
LINE
  5
297
330
1E
100
AcDbEntity
  8
0
100
AcDbLine
 10
298.904
 20
211.80485
 30
0.0
 11
299.0
 21
212.03585
 31
0.0
  0
LINE
  5
298
330
1E
100
AcDbEntity
  8
0
100
AcDbLine
 10
298.376
 20
211.80485
 30
0.0
 11
298.76
 21
211.80485
 31
0.0
  0
LINE
  5
299
330
1E
100
AcDbEntity
  8
0
100
AcDbLine
 10
298.0
 20
211.80485
 30
0.0
 11
298.376
 21
211.80485
 31
0.0
  0
LINE
  5
29A
330
1E
100
AcDbEntity
  8
0
100
AcDbLine
 10
298.0
 20
211.80485
 30
0.0
 11
298.0
 21
209.388183333333
 31
0.0
  0
LINE
  5
29B
330
1E
100
AcDbEntity
  8
0
100
AcDbLine
 10
299.0
 20
212.03585
 30
0.0
 11
299.0
 21
223.57385
 31
0.0
  0
LINE
  5
29C
330
1E
100
AcDbEntity
  8
0
100
AcDbLine
 10
300.5
 20
216.50485
 30
0.0
 11
305.7
 21
214.40485
 31
0.0
  0
LINE
  5
29D
330
1E
100
AcDbEntity
  8
0
100
AcDbLine
 10
295.0
 20
209.80485
 30
0.0
 11
298.6
 21
209.30485
 31
0.0
  0
LINE
  5
29E
330
1E
100
AcDbEntity
  8
0
100
AcDbLine
 10
298.6
 20
209.30485
 30
0.0
 11
302.0
 21
207.90485
 31
0.0
  0
LINE
  5
2A1
330
1E
100
AcDbEntity
  8
0
100
AcDbLine
 10
305.7
 20
214.40485
 30
0.0
 11
310.2
 21
211.00485
 31
0.0
  0
LINE
  5
2A2
330
1E
100
AcDbEntity
  8
0
100
AcDbLine
 10
305.9
 20
214.90485
 30
0.0
 11
310.5
 21
211.30485
 31
0.0
  0
LINE
  5
2A3
330
1E
100
AcDbEntity
  8
0
100
AcDbLine
 10
302.0
 20
207.90485
 30
0.0
 11
304.9
 21
205.70485
 31
0.0
  0
LINE
  5
2A4
330
1E
100
AcDbEntity
  8
0
100
AcDbLine
 10
304.9
 20
205.70485
 30
0.0
 11
307.1
 21
202.80485
 31
0.0
  0
LINE
  5
2A5
330
1E
100
AcDbEntity
  8
0
100
AcDbLine
 10
315.7
 20
201.30485
 30
0.0
 11
316.5
 21
195.80485
 31
0.0
  0
LINE
  5
2A6
330
1E
100
AcDbEntity
  8
0
100
AcDbLine
 10
468.614
 20
199.40485
 30
0.0
 11
469.0
 21
195.80485
 31
0.0
  0
LINE
  5
2A7
330
1E
100
AcDbEntity
  8
0
100
AcDbLine
 10
376.6
 20
203.40485
 30
0.0
 11
379.5
 21
210.50485
 31
0.0
  0
LINE
  5
2AB
330
1E
100
AcDbEntity
  8
0
100
AcDbLine
 10
467.2
 20
202.73785
 30
0.0
 11
468.614
 21
199.40485
 31
0.0
  0
LINE
  5
2AC
330
1E
100
AcDbEntity
  8
0
100
AcDbLine
 10
392.845
 20
202.73785
 30
0.0
 11
394.955
 21
205.80485
 31
0.0
  0
LINE
  5
2AD
330
1E
100
AcDbEntity
  8
0
100
AcDbLine
 10
391.395
 20
199.40485
 30
0.0
 11
392.845
 21
202.73785
 31
0.0
  0
LINE
  5
2AE
330
1E
100
AcDbEntity
  8
0
100
AcDbLine
 10
316.2
 20
201.50485
 30
0.0
 11
317.0
 21
195.80485
 31
0.0
  0
LINE
  5
2AF
330
1E
100
AcDbEntity
  8
0
100
AcDbLine
 10
310.2
 20
211.00485
 30
0.0
 11
313.6
 21
206.50485
 31
0.0
  0
LINE
  5
2B0
330
1E
100
AcDbEntity
  8
0
100
AcDbLine
 10
313.6
 20
206.50485
 30
0.0
 11
315.7
 21
201.30485
 31
0.0
  0
LINE
  5
2B1
330
1E
100
AcDbEntity
  8
0
100
AcDbLine
 10
314.1
 20
206.70485
 30
0.0
 11
316.2
 21
201.50485
 31
0.0
  0
LINE
  5
2B2
330
1E
100
AcDbEntity
  8
0
100
AcDbLine
 10
310.5
 20
211.30485
 30
0.0
 11
314.1
 21
206.70485
 31
0.0
  0
LINE
  5
2B5
330
1E
100
AcDbEntity
  8
0
100
AcDbLine
 10
375.6
 20
203.60485
 30
0.0
 11
378.6
 21
211.00485
 31
0.0
  0
LINE
  5
2B6
330
1E
100
AcDbEntity
  8
0
100
AcDbLine
 10
376.1
 20
203.50485
 30
0.0
 11
379.0
 21
210.70485
 31
0.0
  0
LINE
  5
2B7
330
1E
100
AcDbEntity
  8
0
100
AcDbLine
 10
323.9
 20
203.50485
 30
0.0
 11
325.0
 21
195.80485
 31
0.0
  0
LINE
  5
2B8
330
1E
100
AcDbEntity
  8
0
100
AcDbLine
 10
401.282
 20
209.40485
 30
0.0
 11
404.841
 21
209.80485
 31
0.0
  0
LINE
  5
2B9
330
1E
100
AcDbEntity
  8
0
100
AcDbLine
 10
404.841
 20
209.80485
 30
0.0
 11
420.0
 21
209.80485
 31
0.0
  0
LINE
  5
2BA
330
1E
100
AcDbEntity
  8
0
100
AcDbLine
 10
397.986
 20
207.93785
 30
0.0
 11
401.282
 21
209.40485
 31
0.0
  0
LINE
  5
2BB
330
1E
100
AcDbEntity
  8
0
100
AcDbLine
 10
394.955
 20
205.80485
 30
0.0
 11
397.986
 21
207.93785
 31
0.0
  0
LINE
  5
2BC
330
1E
100
AcDbEntity
  8
0
100
AcDbLine
 10
378.6
 20
211.00485
 30
0.0
 11
383.5
 21
217.30485
 31
0.0
  0
LINE
  5
2BD
330
1E
100
AcDbEntity
  8
0
100
AcDbLine
 10
379.5
 20
210.50485
 30
0.0
 11
384.2
 21
216.60485
 31
0.0
  0
LINE
  5
2BE
330
1E
100
AcDbEntity
  8
0
100
AcDbLine
 10
379.0
 20
210.70485
 30
0.0
 11
383.8
 21
217.00485
 31
0.0
  0
LINE
  5
2BF
330
1E
100
AcDbEntity
  8
0
100
AcDbLine
 10
420.0
 20
209.80485
 30
0.0
 11
455.499
 21
209.80485
 31
0.0
  0
LINE
  5
2C1
330
1E
100
AcDbEntity
  8
0
100
AcDbLine
 10
465.142
 20
205.80485
 30
0.0
 11
467.2
 21
202.73785
 31
0.0
  0
LINE
  5
2C2
330
1E
100
AcDbEntity
  8
0
100
AcDbLine
 10
431.4
 20
211.00485
 30
0.0
 11
431.886486486486
 21
209.80485
 31
0.0
  0
LINE
  5
2C3
330
1E
100
AcDbEntity
  8
0
100
AcDbLine
 10
431.0
 20
210.70485
 30
0.0
 11
431.3625
 21
209.80485
 31
0.0
  0
LINE
  5
2C4
330
1E
100
AcDbEntity
  8
0
100
AcDbLine
 10
455.499
 20
209.80485
 30
0.0
 11
458.97
 21
209.40485
 31
0.0
  0
LINE
  5
2C9
330
1E
100
AcDbEntity
  8
0
100
AcDbLine
 10
458.97
 20
209.40485
 30
0.0
 11
462.185
 21
207.93785
 31
0.0
  0
LINE
  5
2CA
330
1E
100
AcDbEntity
  8
0
100
AcDbLine
 10
462.185
 20
207.93785
 30
0.0
 11
465.142
 21
205.80485
 31
0.0
  0
LINE
  5
2CB
330
1E
100
AcDbEntity
  8
0
100
AcDbLine
 10
430.5
 20
210.50485
 30
0.0
 11
430.785915492958
 21
209.80485
 31
0.0
  0
LINE
  5
2CE
330
1E
100
AcDbEntity
  8
0
100
AcDbLine
 10
321.4
 20
211.00485
 30
0.0
 11
324.4
 21
203.60485
 31
0.0
  0
LINE
  5
2CF
330
1E
100
AcDbEntity
  8
0
100
AcDbLine
 10
321.0
 20
210.70485
 30
0.0
 11
323.9
 21
203.50485
 31
0.0
  0
LINE
  5
2D0
330
1E
100
AcDbEntity
  8
0
100
AcDbLine
 10
324.4
 20
203.60485
 30
0.0
 11
325.5
 21
195.80485
 31
0.0
  0
LINE
  5
2D1
330
1E
100
AcDbEntity
  8
0
100
AcDbLine
 10
320.5
 20
210.50485
 30
0.0
 11
323.4
 21
203.40485
 31
0.0
  0
LINE
  5
2D2
330
1E
100
AcDbEntity
  8
0
100
AcDbLine
 10
323.4
 20
203.40485
 30
0.0
 11
324.5
 21
195.80485
 31
0.0
  0
LINE
  5
2D3
330
1E
100
AcDbEntity
  8
0
100
AcDbLine
 10
307.1
 20
202.80485
 30
0.0
 11
308.5
 21
199.40485
 31
0.0
  0
LINE
  5
2D4
330
1E
100
AcDbEntity
  8
0
100
AcDbLine
 10
309.0
 20
195.80485
 30
0.0
 11
309.0
 21
195.35185
 31
0.0
  0
LINE
  5
2D5
330
1E
100
AcDbEntity
  8
0
100
AcDbLine
 10
291.4
 20
209.30485
 30
0.0
 11
295.0
 21
209.80485
 31
0.0
  0
LINE
  5
2D6
330
1E
100
AcDbEntity
  8
0
100
AcDbLine
 10
299.0
 20
216.723031818182
 30
0.0
 11
300.5
 21
216.50485
 31
0.0
  0
LINE
  5
2D7
330
1E
100
AcDbEntity
  8
0
100
AcDbLine
 10
300.7
 20
217.00485
 30
0.0
 11
305.9
 21
214.90485
 31
0.0
  0
LINE
  5
2D8
330
1E
100
AcDbEntity
  8
0
100
AcDbLine
 10
291.096
 20
223.80485
 30
0.0
 11
291.24
 21
223.80485
 31
0.0
  0
LINE
  5
2D9
330
1E
100
AcDbEntity
  8
0
100
AcDbLine
 10
291.24
 20
223.80485
 30
0.0
 11
291.624
 21
223.80485
 31
0.0
  0
LINE
  5
2DA
330
1E
100
AcDbEntity
  8
0
100
AcDbLine
 10
291.624
 20
223.80485
 30
0.0
 11
292.248
 21
223.80485
 31
0.0
  0
LINE
  5
2DB
330
1E
100
AcDbEntity
  8
0
100
AcDbLine
 10
292.248
 20
223.80485
 30
0.0
 11
293.064
 21
223.80485
 31
0.0
  0
LINE
  5
2DC
330
1E
100
AcDbEntity
  8
0
100
AcDbLine
 10
293.064
 20
223.80485
 30
0.0
 11
293.992
 21
223.80485
 31
0.0
  0
LINE
  5
2DD
330
1E
100
AcDbEntity
  8
0
100
AcDbLine
 10
293.992
 20
223.80485
 30
0.0
 11
295.0
 21
223.80485
 31
0.0
  0
LINE
  5
2DE
330
1E
100
AcDbEntity
  8
0
100
AcDbLine
 10
298.76
 20
223.80485
 30
0.0
 11
298.904
 21
223.80485
 31
0.0
  0
LINE
  5
2DF
330
1E
100
AcDbEntity
  8
0
100
AcDbLine
 10
298.376
 20
223.80485
 30
0.0
 11
298.76
 21
223.80485
 31
0.0
  0
LINE
  5
2E0
330
1E
100
AcDbEntity
  8
0
100
AcDbLine
 10
297.752
 20
223.80485
 30
0.0
 11
298.376
 21
223.80485
 31
0.0
  0
LINE
  5
2E1
330
1E
100
AcDbEntity
  8
0
100
AcDbLine
 10
296.936
 20
223.80485
 30
0.0
 11
297.752
 21
223.80485
 31
0.0
  0
LINE
  5
2E2
330
1E
100
AcDbEntity
  8
0
100
AcDbLine
 10
296.008
 20
223.80485
 30
0.0
 11
296.936
 21
223.80485
 31
0.0
  0
LINE
  5
2E3
330
1E
100
AcDbEntity
  8
0
100
AcDbLine
 10
295.0
 20
223.80485
 30
0.0
 11
296.008
 21
223.80485
 31
0.0
  0
LINE
  5
2E4
330
1E
100
AcDbEntity
  8
0
100
AcDbLine
 10
291.0
 20
223.57385
 30
0.0
 11
291.096
 21
223.80485
 31
0.0
  0
LINE
  5
2E5
330
1E
100
AcDbEntity
  8
0
100
AcDbLine
 10
291.0
 20
223.57385
 30
0.0
 11
291.0
 21
212.03585
 31
0.0
  0
LINE
  5
2E6
330
1E
100
AcDbEntity
  8
0
100
AcDbLine
 10
299.0
 20
223.57385
 30
0.0
 11
299.0
 21
212.03585
 31
0.0
  0
LINE
  5
2E7
330
1E
100
AcDbEntity
  8
0
100
AcDbLine
 10
298.904
 20
223.80485
 30
0.0
 11
299.0
 21
223.57385
 31
0.0
  0
LINE
  5
2E8
330
1E
100
AcDbEntity
  8
0
100
AcDbLine
 10
299.0
 20
217.243446491228
 30
0.0
 11
300.7
 21
217.00485
 31
0.0
  0
LINE
  5
2E9
330
1E
100
AcDbEntity
  8
0
100
AcDbLine
 10
384.2
 20
216.60485
 30
0.0
 11
390.3
 21
221.30485
 31
0.0
  0
LINE
  5
2EA
330
1E
100
AcDbEntity
  8
0
100
AcDbLine
 10
383.8
 20
217.00485
 30
0.0
 11
390.1
 21
221.80485
 31
0.0
  0
LINE
  5
2ED
330
1E
100
AcDbEntity
  8
0
100
AcDbLine
 10
426.2
 20
217.00485
 30
0.0
 11
431.0
 21
210.70485
 31
0.0
  0
LINE
  5
2EE
330
1E
100
AcDbEntity
  8
0
100
AcDbLine
 10
425.8
 20
216.60485
 30
0.0
 11
430.5
 21
210.50485
 31
0.0
  0
LINE
  5
2EF
330
1E
100
AcDbEntity
  8
0
100
AcDbLine
 10
390.3
 20
221.30485
 30
0.0
 11
397.4
 21
224.20485
 31
0.0
  0
LINE
  5
2F0
330
1E
100
AcDbEntity
  8
0
100
AcDbLine
 10
383.5
 20
217.30485
 30
0.0
 11
389.8
 21
222.20485
 31
0.0
  0
LINE
  5
2F5
330
1E
100
AcDbEntity
  8
0
100
AcDbLine
 10
426.5
 20
217.30485
 30
0.0
 11
431.4
 21
211.00485
 31
0.0
  0
LINE
  5
2F6
330
1E
100
AcDbEntity
  8
0
100
AcDbLine
 10
419.7
 20
221.30485
 30
0.0
 11
425.8
 21
216.60485
 31
0.0
  0
LINE
  5
2F7
330
1E
100
AcDbEntity
  8
0
100
AcDbLine
 10
316.5
 20
217.30485
 30
0.0
 11
321.4
 21
211.00485
 31
0.0
  0
LINE
  5
2F8
330
1E
100
AcDbEntity
  8
0
100
AcDbLine
 10
316.2
 20
217.00485
 30
0.0
 11
321.0
 21
210.70485
 31
0.0
  0
LINE
  5
2F9
330
1E
100
AcDbEntity
  8
0
100
AcDbLine
 10
315.8
 20
216.60485
 30
0.0
 11
320.5
 21
210.50485
 31
0.0
  0
LINE
  5
2FA
330
1E
100
AcDbEntity
  8
0
100
AcDbLine
 10
390.1
 20
221.80485
 30
0.0
 11
397.3
 21
224.70485
 31
0.0
  0
LINE
  5
2FB
330
1E
100
AcDbEntity
  8
0
100
AcDbLine
 10
389.8
 20
222.20485
 30
0.0
 11
397.2
 21
225.20485
 31
0.0
  0
LINE
  5
2FF
330
1E
100
AcDbEntity
  8
0
100
AcDbLine
 10
420.2
 20
222.20485
 30
0.0
 11
426.5
 21
217.30485
 31
0.0
  0
LINE
  5
300
330
1E
100
AcDbEntity
  8
0
100
AcDbLine
 10
419.9
 20
221.80485
 30
0.0
 11
426.2
 21
217.00485
 31
0.0
  0
LINE
  5
301
330
1E
100
AcDbEntity
  8
0
100
AcDbLine
 10
397.4
 20
224.20485
 30
0.0
 11
405.0
 21
225.30485
 31
0.0
  0
LINE
  5
306
330
1E
100
AcDbEntity
  8
0
100
AcDbLine
 10
412.6
 20
224.20485
 30
0.0
 11
419.7
 21
221.30485
 31
0.0
  0
LINE
  5
307
330
1E
100
AcDbEntity
  8
0
100
AcDbLine
 10
310.2
 20
222.20485
 30
0.0
 11
316.5
 21
217.30485
 31
0.0
  0
LINE
  5
308
330
1E
100
AcDbEntity
  8
0
100
AcDbLine
 10
309.9
 20
221.80485
 30
0.0
 11
316.2
 21
217.00485
 31
0.0
  0
LINE
  5
309
330
1E
100
AcDbEntity
  8
0
100
AcDbLine
 10
309.7
 20
221.30485
 30
0.0
 11
315.8
 21
216.60485
 31
0.0
  0
LINE
  5
30A
330
1E
100
AcDbEntity
  8
0
100
AcDbLine
 10
302.6
 20
224.20485
 30
0.0
 11
309.7
 21
221.30485
 31
0.0
  0
LINE
  5
30B
330
1E
100
AcDbEntity
  8
0
100
AcDbLine
 10
289.5
 20
216.50485
 30
0.0
 11
291.0
 21
216.723031818182
 31
0.0
  0
LINE
  5
30C
330
1E
100
AcDbEntity
  8
0
100
AcDbLine
 10
289.3
 20
217.00485
 30
0.0
 11
291.0
 21
217.243446491228
 31
0.0
  0
LINE
  5
30E
330
1E
100
AcDbEntity
  8
0
100
AcDbLine
 10
397.3
 20
224.70485
 30
0.0
 11
405.0
 21
225.80485
 31
0.0
  0
LINE
  5
30F
330
1E
100
AcDbEntity
  8
0
100
AcDbLine
 10
412.7
 20
224.70485
 30
0.0
 11
419.9
 21
221.80485
 31
0.0
  0
LINE
  5
310
330
1E
100
AcDbEntity
  8
0
100
AcDbLine
 10
302.7
 20
224.70485
 30
0.0
 11
309.9
 21
221.80485
 31
0.0
  0
LINE
  5
311
330
1E
100
AcDbEntity
  8
0
100
AcDbLine
 10
295.0
 20
226.30485
 30
0.0
 11
302.8
 21
225.20485
 31
0.0
  0
LINE
  5
312
330
1E
100
AcDbEntity
  8
0
100
AcDbLine
 10
295.0
 20
225.80485
 30
0.0
 11
302.7
 21
224.70485
 31
0.0
  0
LINE
  5
313
330
1E
100
AcDbEntity
  8
0
100
AcDbLine
 10
397.2
 20
225.20485
 30
0.0
 11
405.0
 21
226.30485
 31
0.0
  0
LINE
  5
315
330
1E
100
AcDbEntity
  8
0
100
AcDbLine
 10
412.8
 20
225.20485
 30
0.0
 11
420.2
 21
222.20485
 31
0.0
  0
LINE
  5
316
330
1E
100
AcDbEntity
  8
0
100
AcDbLine
 10
350.0
 20
232.99585
 30
0.0
 11
548.824
 21
232.99585
 31
0.0
  0
LINE
  5
317
330
1E
100
AcDbEntity
  8
0
100
AcDbLine
 10
350.0
 20
233.30485
 30
0.0
 11
548.824
 21
233.30485
 31
0.0
  0
LINE
  5
318
330
1E
100
AcDbEntity
  8
0
100
AcDbLine
 10
405.0
 20
226.30485
 30
0.0
 11
412.8
 21
225.20485
 31
0.0
  0
LINE
  5
319
330
1E
100
AcDbEntity
  8
0
100
AcDbLine
 10
405.0
 20
225.80485
 30
0.0
 11
412.7
 21
224.70485
 31
0.0
  0
LINE
  5
31D
330
1E
100
AcDbEntity
  8
0
100
AcDbLine
 10
405.0
 20
225.30485
 30
0.0
 11
412.6
 21
224.20485
 31
0.0
  0
LINE
  5
31E
330
1E
100
AcDbEntity
  8
0
100
AcDbLine
 10
302.8
 20
225.20485
 30
0.0
 11
310.2
 21
222.20485
 31
0.0
  0
LINE
  5
31F
330
1E
100
AcDbEntity
  8
0
100
AcDbLine
 10
295.0
 20
225.30485
 30
0.0
 11
302.6
 21
224.20485
 31
0.0
  0
LINE
  5
320
330
1E
100
AcDbEntity
  8
0
100
AcDbLine
 10
287.3
 20
224.70485
 30
0.0
 11
295.0
 21
225.80485
 31
0.0
  0
LINE
  5
321
330
1E
100
AcDbEntity
  8
0
100
AcDbLine
 10
287.2
 20
225.20485
 30
0.0
 11
295.0
 21
226.30485
 31
0.0
  0
LINE
  5
322
330
1E
100
AcDbEntity
  8
0
100
AcDbLine
 10
287.4
 20
224.20485
 30
0.0
 11
295.0
 21
225.30485
 31
0.0
  0
LINE
  5
323
330
1E
100
AcDbEntity
  8
0
100
AcDbLine
 10
281.0
 20
195.80485
 30
0.0
 11
281.031594364626
 21
195.577370574697
 31
0.0
  0
LINE
  5
324
330
1E
100
AcDbEntity
  8
0
100
AcDbLine
 10
281.0
 20
195.80485
 30
0.0
 11
281.0
 21
195.35185
 31
0.0
  0
LINE
  5
325
330
1E
100
AcDbEntity
  8
0
100
AcDbLine
 10
265.0
 20
195.80485
 30
0.0
 11
266.1
 21
188.10485
 31
0.0
  0
LINE
  5
326
330
1E
100
AcDbEntity
  8
0
100
AcDbLine
 10
265.0
 20
195.80485
 30
0.0
 11
266.1
 21
203.50485
 31
0.0
  0
LINE
  5
327
330
1E
100
AcDbEntity
  8
0
100
AcDbLine
 10
264.5
 20
195.80485
 30
0.0
 11
265.6
 21
188.00485
 31
0.0
  0
LINE
  5
328
330
1E
100
AcDbEntity
  8
0
100
AcDbLine
 10
264.5
 20
195.80485
 30
0.0
 11
265.6
 21
203.60485
 31
0.0
  0
LINE
  5
352
330
1E
100
AcDbEntity
  8
0
100
AcDbLine
 10
530.627811669633
 20
158.61385
 30
0.0
 11
548.824
 21
158.61385
 31
0.0
  0
LINE
  5
353
330
1E
100
AcDbEntity
  8
0
100
AcDbLine
 10
530.628325812728
 20
158.30485
 30
0.0
 11
548.824
 21
158.30485
 31
0.0
  0
LINE
  5
3A6
330
1E
100
AcDbEntity
  8
0
100
AcDbLine
 10
548.824
 20
158.61385
 30
0.0
 11
550.368
 21
158.81985
 31
0.0
  0
LINE
  5
3A8
330
1E
100
AcDbEntity
  8
0
100
AcDbLine
 10
548.824
 20
232.99585
 30
0.0
 11
550.368
 21
232.78985
 31
0.0
  0
LINE
  5
3A9
330
1E
100
AcDbEntity
  8
0
100
AcDbLine
 10
548.824
 20
233.30485
 30
0.0
 11
550.368
 21
233.09885
 31
0.0
  0
LINE
  5
3B5
330
1E
100
AcDbEntity
  8
0
100
AcDbLine
 10
551.706
 20
232.17285
 30
0.0
 11
552.941
 21
231.24585
 31
0.0
  0
LINE
  5
3B6
330
1E
100
AcDbEntity
  8
0
100
AcDbLine
 10
550.368
 20
232.78985
 30
0.0
 11
551.706
 21
232.17285
 31
0.0
  0
LINE
  5
3B7
330
1E
100
AcDbEntity
  8
0
100
AcDbLine
 10
550.368
 20
233.09885
 30
0.0
 11
551.912
 21
232.48085
 31
0.0
  0
LINE
  5
3B8
330
1E
100
AcDbEntity
  8
0
100
AcDbLine
 10
551.912
 20
232.48085
 30
0.0
 11
553.147
 21
231.45185
 31
0.0
  0
LINE
  5
3B9
330
1E
100
AcDbEntity
  8
0
100
AcDbLine
 10
551.706
 20
159.43685
 30
0.0
 11
552.941
 21
160.36385
 31
0.0
  0
LINE
  5
3BA
330
1E
100
AcDbEntity
  8
0
100
AcDbLine
 10
550.368
 20
158.81985
 30
0.0
 11
551.706
 21
159.43685
 31
0.0
  0
LINE
  5
3BB
330
1E
100
AcDbEntity
  8
0
100
AcDbLine
 10
552.941
 20
231.24585
 30
0.0
 11
553.868
 21
230.01085
 31
0.0
  0
LINE
  5
3BC
330
1E
100
AcDbEntity
  8
0
100
AcDbLine
 10
553.868
 20
230.01085
 30
0.0
 11
554.485
 21
228.67285
 31
0.0
  0
LINE
  5
3BD
330
1E
100
AcDbEntity
  8
0
100
AcDbLine
 10
553.147
 20
231.45185
 30
0.0
 11
554.176
 21
230.21685
 31
0.0
  0
LINE
  5
3BE
330
1E
100
AcDbEntity
  8
0
100
AcDbLine
 10
552.941
 20
160.36385
 30
0.0
 11
553.868
 21
161.59885
 31
0.0
  0
LINE
  5
3BF
330
1E
100
AcDbEntity
  8
0
100
AcDbLine
 10
553.868
 20
161.59885
 30
0.0
 11
554.485
 21
162.93685
 31
0.0
  0
LINE
  5
3C0
330
1E
100
AcDbEntity
  8
0
100
AcDbLine
 10
553.147
 20
160.15785
 30
0.0
 11
554.176
 21
161.39285
 31
0.0
  0
LINE
  5
3C1
330
1E
100
AcDbEntity
  8
0
100
AcDbLine
 10
551.912
 20
159.12885
 30
0.0
 11
553.147
 21
160.15785
 31
0.0
  0
LINE
  5
3C2
330
1E
100
AcDbEntity
  8
0
100
AcDbLine
 10
550.368
 20
158.51085
 30
0.0
 11
551.912
 21
159.12885
 31
0.0
  0
LINE
  5
3C5
330
1E
100
AcDbEntity
  8
0
100
AcDbLine
 10
554.485
 20
228.67285
 30
0.0
 11
554.691
 21
227.12885
 31
0.0
  0
LINE
  5
3C6
330
1E
100
AcDbEntity
  8
0
100
AcDbLine
 10
554.691
 20
227.12885
 30
0.0
 11
554.691
 21
195.80485
 31
0.0
  0
LINE
  5
3C7
330
1E
100
AcDbEntity
  8
0
100
AcDbLine
 10
554.176
 20
230.21685
 30
0.0
 11
554.794
 21
228.67285
 31
0.0
  0
LINE
  5
3C8
330
1E
100
AcDbEntity
  8
0
100
AcDbLine
 10
554.691
 20
164.48085
 30
0.0
 11
554.691
 21
195.80485
 31
0.0
  0
LINE
  5
3C9
330
1E
100
AcDbEntity
  8
0
100
AcDbLine
 10
554.485
 20
162.93685
 30
0.0
 11
554.691
 21
164.48085
 31
0.0
  0
LINE
  5
3CA
330
1E
100
AcDbEntity
  8
0
100
AcDbLine
 10
554.794
 20
228.67285
 30
0.0
 11
555.0
 21
227.12885
 31
0.0
  0
LINE
  5
3CB
330
1E
100
AcDbEntity
  8
0
100
AcDbLine
 10
554.691
 20
195.80485
 30
0.0
 11
554.691
 21
164.48085
 31
0.0
  0
LINE
  5
3CC
330
1E
100
AcDbEntity
  8
0
100
AcDbLine
 10
554.691
 20
195.80485
 30
0.0
 11
554.691
 21
227.12885
 31
0.0
  0
LINE
  5
3CD
330
1E
100
AcDbEntity
  8
0
100
AcDbLine
 10
554.176
 20
161.39285
 30
0.0
 11
554.794
 21
162.93685
 31
0.0
  0
LINE
  5
3CE
330
1E
100
AcDbEntity
  8
0
100
AcDbLine
 10
555.0
 20
195.80485
 30
0.0
 11
555.0
 21
227.12885
 31
0.0
  0
LINE
  5
3D0
330
1E
100
AcDbEntity
  8
0
100
AcDbLine
 10
555.0
 20
227.12885
 30
0.0
 11
555.0
 21
195.80485
 31
0.0
  0
LINE
  5
3D1
330
1E
100
AcDbEntity
  8
0
100
AcDbLine
 10
554.794
 20
162.93685
 30
0.0
 11
555.0
 21
164.48085
 31
0.0
  0
LINE
  5
3ED
330
1E
100
AcDbEntity
  8
0
100
AcDbLine
 10
145.205882
 20
162.93685
 30
0.0
 11
145.0
 21
164.48085
 31
0.0
  0
LINE
  5
3EE
330
1E
100
AcDbEntity
  8
0
100
AcDbLine
 10
145.823529
 20
161.39285
 30
0.0
 11
146.85294
 21
160.15785
 31
0.0
  0
LINE
  5
3EF
330
1E
100
AcDbEntity
  8
0
100
AcDbLine
 10
148.08823
 20
159.12885
 30
0.0
 11
149.0
 21
158.763934151491
 31
0.0
  0
LINE
  5
3F0
330
1E
100
AcDbEntity
  8
0
100
AcDbLine
 10
149.0
 20
158.763934151491
 30
0.0
 11
151.17647
 21
158.30485
 31
0.0
  0
LINE
  5
3F1
330
1E
100
AcDbEntity
  8
0
100
AcDbLine
 10
281.0
 20
195.80485
 30
0.0
 11
281.5
 21
199.40485
 31
0.0
  0
LINE
  5
3F2
330
1E
100
AcDbEntity
  8
0
100
AcDbLine
 10
309.0
 20
195.80485
 30
0.0
 11
308.5
 21
199.40485
 31
0.0
  0
LINE
  5
3F3
330
1E
100
AcDbEntity
  8
0
100
AcDbLine
 10
548.824
 20
158.30485
 30
0.0
 11
550.368
 21
158.51085
 31
0.0
  0
LINE
  5
3F4
330
1E
100
AcDbEntity
  8
0
100
AcDbLine
 10
555.0
 20
164.48085
 30
0.0
 11
555.0
 21
195.80485
 31
0.0
  0
LINE
  5
5CB
330
1E
100
AcDbEntity
  8
0
100
AcDbLine
 10
484.296755513525
 20
-11.10408017891
 30
0.0
 11
489.770755513525
 21
-14.41212017891
 31
0.0
  0
LINE
  5
5CC
330
1E
100
AcDbEntity
  8
0
100
AcDbLine
 10
489.770755513525
 20
-14.41212017891
 30
0.0
 11
495.537755513525
 21
-16.99180017891
 31
0.0
  0
LINE
  5
5CD
330
1E
100
AcDbEntity
  8
0
100
AcDbLine
 10
495.537755513525
 20
-16.99180017891
 30
0.0
 11
501.741755513525
 21
-18.84410017891
 31
0.0
  0
LINE
  5
5CE
330
1E
100
AcDbEntity
  8
0
100
AcDbLine
 10
501.741755513525
 20
-18.84410017891
 30
0.0
 11
508.238755513525
 21
-20.03500017891
 31
0.0
  0
LINE
  5
5CF
330
1E
100
AcDbEntity
  8
0
100
AcDbLine
 10
508.238755513525
 20
-20.03500017891
 30
0.0
 11
514.661755513525
 21
-20.49770017891
 31
0.0
  0
LINE
  5
5D0
330
1E
100
AcDbEntity
  8
0
100
AcDbLine
 10
508.238755513525
 20
-11.16008017891
 30
0.0
 11
514.661755513525
 21
-11.62263017891
 31
0.0
  0
LINE
  5
5D1
330
1E
100
AcDbEntity
  8
0
100
AcDbLine
 10
514.661755513525
 20
-20.49770017891
 30
0.0
 11
521.084755513525
 21
-20.03500017891
 31
0.0
  0
LINE
  5
5D2
330
1E
100
AcDbEntity
  8
0
100
AcDbLine
 10
539.552755513525
 20
-14.41212017891
 30
0.0
 11
545.026755513525
 21
-11.10408017891
 31
0.0
  0
LINE
  5
5D3
330
1E
100
AcDbEntity
  8
0
100
AcDbLine
 10
533.785755513525
 20
-16.99180017891
 30
0.0
 11
539.552755513525
 21
-14.41212017891
 31
0.0
  0
LINE
  5
5D4
330
1E
100
AcDbEntity
  8
0
100
AcDbLine
 10
527.581755513525
 20
-18.84410017891
 30
0.0
 11
533.785755513525
 21
-16.99180017891
 31
0.0
  0
LINE
  5
5D5
330
1E
100
AcDbEntity
  8
0
100
AcDbLine
 10
521.084755513525
 20
-20.03500017891
 30
0.0
 11
527.581755513525
 21
-18.84410017891
 31
0.0
  0
LINE
  5
5D6
330
1E
100
AcDbEntity
  8
0
100
AcDbLine
 10
545.026755513525
 20
-11.10408017891
 30
0.0
 11
549.989755513525
 21
-7.20063017891
 31
0.0
  0
LINE
  5
5D7
330
1E
100
AcDbEntity
  8
0
100
AcDbLine
 10
521.084755513525
 20
-11.16008017891
 30
0.0
 11
527.581755513525
 21
-9.96915017891
 31
0.0
  0
LINE
  5
5D8
330
1E
100
AcDbEntity
  8
0
100
AcDbLine
 10
514.661755513525
 20
-11.62263017891
 30
0.0
 11
521.084755513525
 21
-11.16008017891
 31
0.0
  0
LINE
  5
5D9
330
1E
100
AcDbEntity
  8
0
100
AcDbLine
 10
465.172755513525
 20
18.99579982109
 30
0.0
 11
466.486755513525
 21
13.10809982109
 31
0.0
  0
LINE
  5
5DA
330
1E
100
AcDbEntity
  8
0
100
AcDbLine
 10
465.172755513525
 20
27.87069982109
 30
0.0
 11
466.486755513525
 21
21.98299982109
 31
0.0
  0
LINE
  5
5DB
330
1E
100
AcDbEntity
  8
0
100
AcDbLine
 10
464.661755513525
 20
24.81749982109
 30
0.0
 11
464.661755513525
 21
33.69249982109
 31
0.0
  0
LINE
  5
5DC
330
1E
100
AcDbEntity
  8
0
100
AcDbLine
 10
464.661755513525
 20
24.81749982109
 30
0.0
 11
465.172755513525
 21
18.99579982109
 31
0.0
  0
LINE
  5
5DD
330
1E
100
AcDbEntity
  8
0
100
AcDbLine
 10
465.172755513525
 20
39.51399982109
 30
0.0
 11
466.486755513525
 21
45.40159982109
 31
0.0
  0
LINE
  5
5DE
330
1E
100
AcDbEntity
  8
0
100
AcDbLine
 10
464.661755513525
 20
33.69249982109
 30
0.0
 11
465.172755513525
 21
39.51399982109
 31
0.0
  0
LINE
  5
5DF
330
1E
100
AcDbEntity
  8
0
100
AcDbLine
 10
464.661755513525
 20
33.69249982109
 30
0.0
 11
465.172755513525
 21
27.87069982109
 31
0.0
  0
LINE
  5
5E0
330
1E
100
AcDbEntity
  8
0
100
AcDbLine
 10
464.661755513525
 20
33.69249982109
 30
0.0
 11
464.661755513525
 21
24.81749982109
 31
0.0
  0
LINE
  5
5E1
330
1E
100
AcDbEntity
  8
0
100
AcDbLine
 10
468.530755513525
 20
7.48509982109
 30
0.0
 11
471.376755513525
 21
2.25879982109
 31
0.0
  0
LINE
  5
5E2
330
1E
100
AcDbEntity
  8
0
100
AcDbLine
 10
466.486755513525
 20
13.10809982109
 30
0.0
 11
468.530755513525
 21
7.48509982109
 31
0.0
  0
LINE
  5
5E3
330
1E
100
AcDbEntity
  8
0
100
AcDbLine
 10
468.530755513525
 20
16.36009982109
 30
0.0
 11
471.376755513525
 21
11.13389982109
 31
0.0
  0
LINE
  5
5E4
330
1E
100
AcDbEntity
  8
0
100
AcDbLine
 10
466.486755513525
 20
21.98299982109
 30
0.0
 11
468.530755513525
 21
16.36009982109
 31
0.0
  0
LINE
  5
5E5
330
1E
100
AcDbEntity
  8
0
100
AcDbLine
 10
475.026755513525
 20
-2.70270017891
 30
0.0
 11
479.333755513525
 21
-7.20063017891
 31
0.0
  0
LINE
  5
5E6
330
1E
100
AcDbEntity
  8
0
100
AcDbLine
 10
471.376755513525
 20
2.25879982109
 30
0.0
 11
475.026755513525
 21
-2.70270017891
 31
0.0
  0
LINE
  5
5E7
330
1E
100
AcDbEntity
  8
0
100
AcDbLine
 10
475.026755513525
 20
6.17229982109
 30
0.0
 11
479.333755513525
 21
1.67439982109
 31
0.0
  0
LINE
  5
5E8
330
1E
100
AcDbEntity
  8
0
100
AcDbLine
 10
471.376755513525
 20
11.13389982109
 30
0.0
 11
475.026755513525
 21
6.17229982109
 31
0.0
  0
LINE
  5
5E9
330
1E
100
AcDbEntity
  8
0
100
AcDbLine
 10
479.333755513525
 20
-7.20063017891
 30
0.0
 11
484.296755513525
 21
-11.10408017891
 31
0.0
  0
LINE
  5
5EA
330
1E
100
AcDbEntity
  8
0
100
AcDbLine
 10
479.333755513525
 20
1.67439982109
 30
0.0
 11
484.296755513525
 21
-2.22910017891
 31
0.0
  0
LINE
  5
5EB
330
1E
100
AcDbEntity
  8
0
100
AcDbLine
 10
479.843755513525
 20
2.55959982109
 30
0.0
 11
484.734755513525
 21
-1.27700017891
 31
0.0
  0
LINE
  5
5EC
330
1E
100
AcDbEntity
  8
0
100
AcDbLine
 10
475.610755513525
 20
6.99149982109
 30
0.0
 11
479.843755513525
 21
2.55959982109
 31
0.0
  0
LINE
  5
5ED
330
1E
100
AcDbEntity
  8
0
100
AcDbLine
 10
471.960755513525
 20
11.88709982109
 30
0.0
 11
475.610755513525
 21
6.99149982109
 31
0.0
  0
LINE
  5
5EE
330
1E
100
AcDbEntity
  8
0
100
AcDbLine
 10
469.260755513525
 20
17.04749982109
 30
0.0
 11
471.960755513525
 21
11.88709982109
 31
0.0
  0
LINE
  5
5EF
330
1E
100
AcDbEntity
  8
0
100
AcDbLine
 10
467.143755513525
 20
22.86919982109
 30
0.0
 11
469.260755513525
 21
17.04749982109
 31
0.0
  0
LINE
  5
5F0
330
1E
100
AcDbEntity
  8
0
100
AcDbLine
 10
465.902755513525
 20
28.35929982109
 30
0.0
 11
467.143755513525
 21
22.86919982109
 31
0.0
  0
LINE
  5
5F1
330
1E
100
AcDbEntity
  8
0
100
AcDbLine
 10
466.486755513525
 20
45.40159982109
 30
0.0
 11
468.530755513525
 21
51.02479982109
 31
0.0
  0
LINE
  5
5F2
330
1E
100
AcDbEntity
  8
0
100
AcDbLine
 10
468.530755513525
 20
51.02479982109
 30
0.0
 11
471.376755513525
 21
56.25079982109
 31
0.0
  0
LINE
  5
5F3
330
1E
100
AcDbEntity
  8
0
100
AcDbLine
 10
471.376755513525
 20
56.25079982109
 30
0.0
 11
475.026755513525
 21
61.21239982109
 31
0.0
  0
LINE
  5
5F4
330
1E
100
AcDbEntity
  8
0
100
AcDbLine
 10
475.026755513525
 20
61.21239982109
 30
0.0
 11
479.333755513525
 21
65.71089982109
 31
0.0
  0
LINE
  5
5F5
330
1E
100
AcDbEntity
  8
0
100
AcDbLine
 10
475.610755513525
 20
61.23799982109
 30
0.0
 11
479.843755513525
 21
65.67039982109
 31
0.0
  0
LINE
  5
5F6
330
1E
100
AcDbEntity
  8
0
100
AcDbLine
 10
471.960755513525
 20
56.34269982109
 30
0.0
 11
475.610755513525
 21
61.23799982109
 31
0.0
  0
LINE
  5
5F7
330
1E
100
AcDbEntity
  8
0
100
AcDbLine
 10
469.260755513525
 20
51.18269982109
 30
0.0
 11
471.960755513525
 21
56.34269982109
 31
0.0
  0
LINE
  5
5F8
330
1E
100
AcDbEntity
  8
0
100
AcDbLine
 10
467.143755513525
 20
45.36109982109
 30
0.0
 11
469.260755513525
 21
51.18269982109
 31
0.0
  0
LINE
  5
5F9
330
1E
100
AcDbEntity
  8
0
100
AcDbLine
 10
465.902755513525
 20
39.87039982109
 30
0.0
 11
467.143755513525
 21
45.36109982109
 31
0.0
  0
LINE
  5
5FA
330
1E
100
AcDbEntity
  8
0
100
AcDbLine
 10
465.391755513525
 20
34.11509982109
 30
0.0
 11
465.902755513525
 21
39.87039982109
 31
0.0
  0
LINE
  5
5FB
330
1E
100
AcDbEntity
  8
0
100
AcDbLine
 10
465.391755513525
 20
34.11509982109
 30
0.0
 11
465.902755513525
 21
28.35929982109
 31
0.0
  0
LINE
  5
5FC
330
1E
100
AcDbEntity
  8
0
100
AcDbLine
 10
479.333755513525
 20
65.71089982109
 30
0.0
 11
484.296755513525
 21
69.61379982109
 31
0.0
  0
LINE
  5
5FD
330
1E
100
AcDbEntity
  8
0
100
AcDbLine
 10
484.296755513525
 20
-2.22910017891
 30
0.0
 11
489.770755513525
 21
-5.53717017891
 31
0.0
  0
LINE
  5
5FE
330
1E
100
AcDbEntity
  8
0
100
AcDbLine
 10
489.770755513525
 20
-5.53717017891
 30
0.0
 11
495.537755513525
 21
-8.11681017891
 31
0.0
  0
LINE
  5
5FF
330
1E
100
AcDbEntity
  8
0
100
AcDbLine
 10
484.734755513525
 20
-1.27700017891
 30
0.0
 11
490.135755513525
 21
-4.58500017891
 31
0.0
  0
LINE
  5
600
330
1E
100
AcDbEntity
  8
0
100
AcDbLine
 10
490.135755513525
 20
-4.58500017891
 30
0.0
 11
495.829755513525
 21
-7.03279017891
 31
0.0
  0
LINE
  5
601
330
1E
100
AcDbEntity
  8
0
100
AcDbLine
 10
479.843755513525
 20
65.67039982109
 30
0.0
 11
484.734755513525
 21
69.50719982109
 31
0.0
  0
LINE
  5
602
330
1E
100
AcDbEntity
  8
0
100
AcDbLine
 10
484.296755513525
 20
69.61379982109
 30
0.0
 11
489.770755513525
 21
72.92159982109
 31
0.0
  0
LINE
  5
603
330
1E
100
AcDbEntity
  8
0
100
AcDbLine
 10
489.770755513525
 20
72.92159982109
 30
0.0
 11
495.537755513525
 21
75.50159982109
 31
0.0
  0
LINE
  5
604
330
1E
100
AcDbEntity
  8
0
100
AcDbLine
 10
484.734755513525
 20
69.50719982109
 30
0.0
 11
490.135755513525
 21
72.81499982109
 31
0.0
  0
LINE
  5
605
330
1E
100
AcDbEntity
  8
0
100
AcDbLine
 10
495.537755513525
 20
-8.11681017891
 30
0.0
 11
501.741755513525
 21
-9.96915017891
 31
0.0
  0
LINE
  5
606
330
1E
100
AcDbEntity
  8
0
100
AcDbLine
 10
501.741755513525
 20
-9.96915017891
 30
0.0
 11
508.238755513525
 21
-11.16008017891
 31
0.0
  0
LINE
  5
607
330
1E
100
AcDbEntity
  8
0
100
AcDbLine
 10
495.829755513525
 20
-7.03279017891
 30
0.0
 11
502.252755513525
 21
-8.95102017891
 31
0.0
  0
LINE
  5
608
330
1E
100
AcDbEntity
  8
0
100
AcDbLine
 10
502.252755513525
 20
-8.95102017891
 30
0.0
 11
508.311755513525
 21
-10.07606017891
 31
0.0
  0
LINE
  5
609
330
1E
100
AcDbEntity
  8
0
100
AcDbLine
 10
490.135755513525
 20
72.81499982109
 30
0.0
 11
495.829755513525
 21
75.26269982109
 31
0.0
  0
LINE
  5
60A
330
1E
100
AcDbEntity
  8
0
100
AcDbLine
 10
495.537755513525
 20
75.50159982109
 30
0.0
 11
501.741755513525
 21
77.35389982109
 31
0.0
  0
LINE
  5
60B
330
1E
100
AcDbEntity
  8
0
100
AcDbLine
 10
501.741755513525
 20
77.35389982109
 30
0.0
 11
508.238755513525
 21
78.54469982109
 31
0.0
  0
LINE
  5
60C
330
1E
100
AcDbEntity
  8
0
100
AcDbLine
 10
495.829755513525
 20
75.26269982109
 30
0.0
 11
502.252755513525
 21
77.18119982109
 31
0.0
  0
LINE
  5
60D
330
1E
100
AcDbEntity
  8
0
100
AcDbLine
 10
506.021755513525
 20
78.138357878655
 30
0.0
 11
506.021755513525
 21
87.64759982109
 31
0.0
  0
LINE
  5
60E
330
1E
100
AcDbEntity
  8
0
100
AcDbLine
 10
508.311755513525
 20
-10.07606017891
 30
0.0
 11
514.661755513525
 21
-10.53860017891
 31
0.0
  0
LINE
  5
60F
330
1E
100
AcDbEntity
  8
0
100
AcDbLine
 10
502.252755513525
 20
77.18119982109
 30
0.0
 11
508.311755513525
 21
78.30569982109
 31
0.0
  0
LINE
  5
610
330
1E
100
AcDbEntity
  8
0
100
AcDbLine
 10
508.238755513525
 20
78.54469982109
 30
0.0
 11
514.661755513525
 21
79.00779982109
 31
0.0
  0
LINE
  5
611
330
1E
100
AcDbEntity
  8
0
100
AcDbLine
 10
508.311755513525
 20
78.30569982109
 30
0.0
 11
514.661755513525
 21
78.76879982109
 31
0.0
  0
LINE
  5
612
330
1E
100
AcDbEntity
  8
0
100
AcDbLine
 10
521.011755513525
 20
78.30569982109
 30
0.0
 11
527.070755513525
 21
77.18119982109
 31
0.0
  0
LINE
  5
613
330
1E
100
AcDbEntity
  8
0
100
AcDbLine
 10
503.045755513525
 20
86.26759982109
 30
0.0
 11
504.293755513525
 21
84.96559982109
 31
0.0
  0
LINE
  5
614
330
1E
100
AcDbEntity
  8
0
100
AcDbLine
 10
502.661755513525
 20
87.64759982109
 30
0.0
 11
503.045755513525
 21
89.06759982109
 31
0.0
  0
LINE
  5
615
330
1E
100
AcDbEntity
  8
0
100
AcDbLine
 10
502.661755513525
 20
87.64759982109
 30
0.0
 11
503.045755513525
 21
86.26759982109
 31
0.0
  0
LINE
  5
616
330
1E
100
AcDbEntity
  8
0
100
AcDbLine
 10
502.661755513525
 20
87.64759982109
 30
0.0
 11
502.661755513525
 21
148.12859982109
 31
0.0
  0
LINE
  5
617
330
1E
100
AcDbEntity
  8
0
100
AcDbLine
 10
504.293755513525
 20
84.96559982109
 30
0.0
 11
506.021755513525
 21
83.93635982109
 31
0.0
  0
LINE
  5
618
330
1E
100
AcDbEntity
  8
0
100
AcDbLine
 10
503.045755513525
 20
89.06759982109
 30
0.0
 11
504.293755513525
 21
90.36959982109
 31
0.0
  0
LINE
  5
619
330
1E
100
AcDbEntity
  8
0
100
AcDbLine
 10
504.293755513525
 20
90.36959982109
 30
0.0
 11
506.213755513525
 21
91.51259982109
 31
0.0
  0
LINE
  5
61A
330
1E
100
AcDbEntity
  8
0
100
AcDbLine
 10
506.213755513525
 20
91.51259982109
 30
0.0
 11
508.709755513525
 21
92.38059982109
 31
0.0
  0
LINE
  5
61B
330
1E
100
AcDbEntity
  8
0
100
AcDbLine
 10
512.453755513525
 20
91.43359982109
 30
0.0
 11
514.661755513525
 21
91.59159982109
 31
0.0
  0
LINE
  5
61C
330
1E
100
AcDbEntity
  8
0
100
AcDbLine
 10
510.341755513525
 20
91.03859982109
 30
0.0
 11
512.453755513525
 21
91.43359982109
 31
0.0
  0
LINE
  5
61D
330
1E
100
AcDbEntity
  8
0
100
AcDbLine
 10
508.517755513525
 20
90.40859982109
 30
0.0
 11
510.341755513525
 21
91.03859982109
 31
0.0
  0
LINE
  5
61E
330
1E
100
AcDbEntity
  8
0
100
AcDbLine
 10
507.173755513525
 20
89.61959982109
 30
0.0
 11
508.517755513525
 21
90.40859982109
 31
0.0
  0
LINE
  5
61F
330
1E
100
AcDbEntity
  8
0
100
AcDbLine
 10
506.309755513525
 20
88.67259982109
 30
0.0
 11
507.173755513525
 21
89.61959982109
 31
0.0
  0
LINE
  5
620
330
1E
100
AcDbEntity
  8
0
100
AcDbLine
 10
506.021755513525
 20
87.64759982109
 30
0.0
 11
506.021755513525
 21
78.138357878655
 31
0.0
  0
LINE
  5
621
330
1E
100
AcDbEntity
  8
0
100
AcDbLine
 10
506.021755513525
 20
87.64759982109
 30
0.0
 11
506.309755513525
 21
88.67259982109
 31
0.0
  0
LINE
  5
622
330
1E
100
AcDbEntity
  8
0
100
AcDbLine
 10
499.264755513525
 20
147.16359982109
 30
0.0
 11
500.726755513525
 21
144.30859982109
 31
0.0
  0
LINE
  5
623
330
1E
100
AcDbEntity
  8
0
100
AcDbLine
 10
502.310755513525
 20
142.53459982109
 30
0.0
 11
502.661755513525
 21
142.259841624369
 31
0.0
  0
LINE
  5
624
330
1E
100
AcDbEntity
  8
0
100
AcDbLine
 10
500.726755513525
 20
144.30859982109
 30
0.0
 11
501.183755513525
 21
144.10359982109
 31
0.0
  0
LINE
  5
625
330
1E
100
AcDbEntity
  8
0
100
AcDbLine
 10
500.835805122009
 20
144.259682600654
 30
0.0
 11
502.310755513525
 21
142.53459982109
 31
0.0
  0
LINE
  5
626
330
1E
100
AcDbEntity
  8
0
100
AcDbLine
 10
501.183755513525
 20
144.10359982109
 30
0.0
 11
502.661755513525
 21
142.523958662869
 31
0.0
  0
LINE
  5
627
330
1E
100
AcDbEntity
  8
0
100
AcDbLine
 10
499.601755513525
 20
146.48759982109
 30
0.0
 11
499.661522554586
 21
146.388791406433
 31
0.0
  0
LINE
  5
628
330
1E
100
AcDbEntity
  8
0
100
AcDbLine
 10
498.628755513525
 20
151.21459982109
 30
0.0
 11
499.151755513525
 21
153.88659982109
 31
0.0
  0
LINE
  5
629
330
1E
100
AcDbEntity
  8
0
100
AcDbLine
 10
498.628755513525
 20
151.21459982109
 30
0.0
 11
498.811755513525
 21
148.81259982109
 31
0.0
  0
LINE
  5
62A
330
1E
100
AcDbEntity
  8
0
100
AcDbLine
 10
498.811755513525
 20
148.81259982109
 30
0.0
 11
499.264755513525
 21
147.16359982109
 31
0.0
  0
LINE
  5
62B
330
1E
100
AcDbEntity
  8
0
100
AcDbLine
 10
502.661755513525
 20
148.12859982109
 30
0.0
 11
502.661755513525
 21
87.64759982109
 31
0.0
  0
LINE
  5
62C
330
1E
100
AcDbEntity
  8
0
100
AcDbLine
 10
502.661755513525
 20
148.12859982109
 30
0.0
 11
503.045755513525
 21
150.52259982109
 31
0.0
  0
LINE
  5
62D
330
1E
100
AcDbEntity
  8
0
100
AcDbLine
 10
503.045755513525
 20
150.52259982109
 30
0.0
 11
504.293755513525
 21
152.74859982109
 31
0.0
  0
LINE
  5
62E
330
1E
100
AcDbEntity
  8
0
100
AcDbLine
 10
499.151755513525
 20
153.88659982109
 30
0.0
 11
500.456755513525
 21
156.40259982109
 31
0.0
  0
LINE
  5
62F
330
1E
100
AcDbEntity
  8
0
100
AcDbLine
 10
504.293755513525
 20
152.74859982109
 30
0.0
 11
506.213755513525
 21
154.67859982109
 31
0.0
  0
LINE
  5
630
330
1E
100
AcDbEntity
  8
0
100
AcDbLine
 10
506.213755513525
 20
154.67859982109
 30
0.0
 11
508.709755513525
 21
156.10259982109
 31
0.0
  0
LINE
  5
631
330
1E
100
AcDbEntity
  8
0
100
AcDbLine
 10
500.456755513525
 20
156.40259982109
 30
0.0
 11
502.390755513525
 21
158.66859982109
 31
0.0
  0
LINE
  5
632
330
1E
100
AcDbEntity
  8
0
100
AcDbLine
 10
508.709755513525
 20
156.10259982109
 30
0.0
 11
511.589755513525
 21
156.98259982109
 31
0.0
  0
LINE
  5
633
330
1E
100
AcDbEntity
  8
0
100
AcDbLine
 10
508.709755513525
 20
92.38059982109
 30
0.0
 11
511.589755513525
 21
92.89259982109
 31
0.0
  0
LINE
  5
634
330
1E
100
AcDbEntity
  8
0
100
AcDbLine
 10
511.589755513525
 20
156.98259982109
 30
0.0
 11
514.661755513525
 21
157.31959982109
 31
0.0
  0
LINE
  5
635
330
1E
100
AcDbEntity
  8
0
100
AcDbLine
 10
511.589755513525
 20
92.89259982109
 30
0.0
 11
514.661755513525
 21
93.08959982109
 31
0.0
  0
LINE
  5
636
330
1E
100
AcDbEntity
  8
0
100
AcDbLine
 10
502.390755513525
 20
158.66859982109
 30
0.0
 11
505.275755513525
 21
160.70559982109
 31
0.0
  0
LINE
  5
637
330
1E
100
AcDbEntity
  8
0
100
AcDbLine
 10
505.275755513525
 20
160.70559982109
 30
0.0
 11
509.089755513525
 21
162.25859982109
 31
0.0
  0
LINE
  5
638
330
1E
100
AcDbEntity
  8
0
100
AcDbLine
 10
514.661755513525
 20
157.31959982109
 30
0.0
 11
517.733755513525
 21
156.98259982109
 31
0.0
  0
LINE
  5
639
330
1E
100
AcDbEntity
  8
0
100
AcDbLine
 10
514.661755513525
 20
93.08959982109
 30
0.0
 11
517.733755513525
 21
92.89259982109
 31
0.0
  0
LINE
  5
63A
330
1E
100
AcDbEntity
  8
0
100
AcDbLine
 10
514.661755513525
 20
91.59159982109
 30
0.0
 11
516.869755513525
 21
91.43359982109
 31
0.0
  0
LINE
  5
63B
330
1E
100
AcDbEntity
  8
0
100
AcDbLine
 10
520.805755513525
 20
90.40859982109
 30
0.0
 11
522.149755513525
 21
89.61959982109
 31
0.0
  0
LINE
  5
63C
330
1E
100
AcDbEntity
  8
0
100
AcDbLine
 10
518.981755513525
 20
91.03859982109
 30
0.0
 11
520.805755513525
 21
90.40859982109
 31
0.0
  0
LINE
  5
63D
330
1E
100
AcDbEntity
  8
0
100
AcDbLine
 10
517.733755513525
 20
156.98259982109
 30
0.0
 11
520.613755513525
 21
156.10259982109
 31
0.0
  0
LINE
  5
63E
330
1E
100
AcDbEntity
  8
0
100
AcDbLine
 10
520.613755513525
 20
156.10259982109
 30
0.0
 11
523.109755513525
 21
154.67859982109
 31
0.0
  0
LINE
  5
63F
330
1E
100
AcDbEntity
  8
0
100
AcDbLine
 10
520.613755513525
 20
92.38059982109
 30
0.0
 11
523.109755513525
 21
91.51259982109
 31
0.0
  0
LINE
  5
640
330
1E
100
AcDbEntity
  8
0
100
AcDbLine
 10
517.733755513525
 20
92.89259982109
 30
0.0
 11
520.613755513525
 21
92.38059982109
 31
0.0
  0
LINE
  5
641
330
1E
100
AcDbEntity
  8
0
100
AcDbLine
 10
516.869755513525
 20
91.43359982109
 30
0.0
 11
518.981755513525
 21
91.03859982109
 31
0.0
  0
LINE
  5
642
330
1E
100
AcDbEntity
  8
0
100
AcDbLine
 10
514.661755513525
 20
79.00779982109
 30
0.0
 11
521.084755513525
 21
78.54469982109
 31
0.0
  0
LINE
  5
643
330
1E
100
AcDbEntity
  8
0
100
AcDbLine
 10
514.661755513525
 20
78.76879982109
 30
0.0
 11
521.011755513525
 21
78.30569982109
 31
0.0
  0
LINE
  5
644
330
1E
100
AcDbEntity
  8
0
100
AcDbLine
 10
527.581755513525
 20
-9.96915017891
 30
0.0
 11
533.785755513525
 21
-8.11681017891
 31
0.0
  0
LINE
  5
645
330
1E
100
AcDbEntity
  8
0
100
AcDbLine
 10
533.493755513525
 20
75.26269982109
 30
0.0
 11
539.187755513525
 21
72.81499982109
 31
0.0
  0
LINE
  5
646
330
1E
100
AcDbEntity
  8
0
100
AcDbLine
 10
523.301755513525
 20
83.93635982109
 30
0.0
 11
525.029755513525
 21
84.96559982109
 31
0.0
  0
LINE
  5
647
330
1E
100
AcDbEntity
  8
0
100
AcDbLine
 10
525.029755513525
 20
84.96559982109
 30
0.0
 11
526.277755513525
 21
86.26759982109
 31
0.0
  0
LINE
  5
648
330
1E
100
AcDbEntity
  8
0
100
AcDbLine
 10
526.661755513525
 20
87.64759982109
 30
0.0
 11
526.661755513525
 21
148.12859982109
 31
0.0
  0
LINE
  5
649
330
1E
100
AcDbEntity
  8
0
100
AcDbLine
 10
526.277755513525
 20
86.26759982109
 30
0.0
 11
526.661755513525
 21
87.64759982109
 31
0.0
  0
LINE
  5
64A
330
1E
100
AcDbEntity
  8
0
100
AcDbLine
 10
523.109755513525
 20
154.67859982109
 30
0.0
 11
525.029755513525
 21
152.74859982109
 31
0.0
  0
LINE
  5
64B
330
1E
100
AcDbEntity
  8
0
100
AcDbLine
 10
526.277755513525
 20
89.06759982109
 30
0.0
 11
526.661755513525
 21
87.64759982109
 31
0.0
  0
LINE
  5
64C
330
1E
100
AcDbEntity
  8
0
100
AcDbLine
 10
526.661755513525
 20
142.307163313153
 30
0.0
 11
527.382755513525
 21
143.04859982109
 31
0.0
  0
LINE
  5
64D
330
1E
100
AcDbEntity
  8
0
100
AcDbLine
 10
526.661755513525
 20
142.994929094883
 30
0.0
 11
526.885755513525
 21
143.19659982109
 31
0.0
  0
LINE
  5
64E
330
1E
100
AcDbEntity
  8
0
100
AcDbLine
 10
527.382755513525
 20
143.04859982109
 30
0.0
 11
529.272755513525
 21
145.46159982109
 31
0.0
  0
LINE
  5
64F
330
1E
100
AcDbEntity
  8
0
100
AcDbLine
 10
530.260755513525
 20
147.84059982109
 30
0.0
 11
530.648755513525
 21
149.93059982109
 31
0.0
  0
LINE
  5
650
330
1E
100
AcDbEntity
  8
0
100
AcDbLine
 10
529.272755513525
 20
145.46159982109
 30
0.0
 11
530.260755513525
 21
147.84059982109
 31
0.0
  0
LINE
  5
651
330
1E
100
AcDbEntity
  8
0
100
AcDbLine
 10
526.661755513525
 20
148.12859982109
 30
0.0
 11
526.661755513525
 21
87.64759982109
 31
0.0
  0
LINE
  5
652
330
1E
100
AcDbEntity
  8
0
100
AcDbLine
 10
525.592755513525
 20
159.70359982109
 30
0.0
 11
527.447755513525
 21
158.14059982109
 31
0.0
  0
LINE
  5
653
330
1E
100
AcDbEntity
  8
0
100
AcDbLine
 10
527.447755513525
 20
158.14059982109
 30
0.0
 11
528.676755513525
 21
156.60059982109
 31
0.0
  0
LINE
  5
654
330
1E
100
AcDbEntity
  8
0
100
AcDbLine
 10
530.419755513525
 20
152.93259982109
 30
0.0
 11
530.648755513525
 21
149.93059982109
 31
0.0
  0
LINE
  5
655
330
1E
100
AcDbEntity
  8
0
100
AcDbLine
 10
529.669755513525
 20
154.96059982109
 30
0.0
 11
529.72974517379
 21
154.783896100283
 31
0.0
  0
LINE
  5
656
330
1E
100
AcDbEntity
  8
0
100
AcDbLine
 10
529.842755513525
 20
154.68959982109
 30
0.0
 11
530.419755513525
 21
152.93259982109
 31
0.0
  0
LINE
  5
657
330
1E
100
AcDbEntity
  8
0
100
AcDbLine
 10
528.676755513525
 20
156.60059982109
 30
0.0
 11
529.669755513525
 21
154.96059982109
 31
0.0
  0
LINE
  5
658
330
1E
100
AcDbEntity
  8
0
100
AcDbLine
 10
526.277755513525
 20
150.52259982109
 30
0.0
 11
526.661755513525
 21
148.12859982109
 31
0.0
  0
LINE
  5
659
330
1E
100
AcDbEntity
  8
0
100
AcDbLine
 10
525.029755513525
 20
152.74859982109
 30
0.0
 11
526.277755513525
 21
150.52259982109
 31
0.0
  0
LINE
  5
65A
330
1E
100
AcDbEntity
  8
0
100
AcDbLine
 10
525.029755513525
 20
90.36959982109
 30
0.0
 11
526.277755513525
 21
89.06759982109
 31
0.0
  0
LINE
  5
65B
330
1E
100
AcDbEntity
  8
0
100
AcDbLine
 10
523.109755513525
 20
91.51259982109
 30
0.0
 11
525.029755513525
 21
90.36959982109
 31
0.0
  0
LINE
  5
65C
330
1E
100
AcDbEntity
  8
0
100
AcDbLine
 10
523.301755513525
 20
87.64759982109
 30
0.0
 11
523.301755513525
 21
78.138357878655
 31
0.0
  0
LINE
  5
65D
330
1E
100
AcDbEntity
  8
0
100
AcDbLine
 10
523.013755513525
 20
88.67259982109
 30
0.0
 11
523.301755513525
 21
87.64759982109
 31
0.0
  0
LINE
  5
65E
330
1E
100
AcDbEntity
  8
0
100
AcDbLine
 10
523.301755513525
 20
78.138357878655
 30
0.0
 11
523.301755513525
 21
87.64759982109
 31
0.0
  0
LINE
  5
65F
330
1E
100
AcDbEntity
  8
0
100
AcDbLine
 10
522.149755513525
 20
89.61959982109
 30
0.0
 11
523.013755513525
 21
88.67259982109
 31
0.0
  0
LINE
  5
660
330
1E
100
AcDbEntity
  8
0
100
AcDbLine
 10
527.581755513525
 20
77.35389982109
 30
0.0
 11
533.785755513525
 21
75.50159982109
 31
0.0
  0
LINE
  5
661
330
1E
100
AcDbEntity
  8
0
100
AcDbLine
 10
521.084755513525
 20
78.54469982109
 30
0.0
 11
527.581755513525
 21
77.35389982109
 31
0.0
  0
LINE
  5
662
330
1E
100
AcDbEntity
  8
0
100
AcDbLine
 10
527.070755513525
 20
77.18119982109
 30
0.0
 11
533.493755513525
 21
75.26269982109
 31
0.0
  0
LINE
  5
663
330
1E
100
AcDbEntity
  8
0
100
AcDbLine
 10
549.989755513525
 20
-7.20063017891
 30
0.0
 11
554.296755513525
 21
-2.70270017891
 31
0.0
  0
LINE
  5
664
330
1E
100
AcDbEntity
  8
0
100
AcDbLine
 10
539.552755513525
 20
-5.53717017891
 30
0.0
 11
545.026755513525
 21
-2.22910017891
 31
0.0
  0
LINE
  5
665
330
1E
100
AcDbEntity
  8
0
100
AcDbLine
 10
533.785755513525
 20
-8.11681017891
 30
0.0
 11
539.552755513525
 21
-5.53717017891
 31
0.0
  0
LINE
  5
666
330
1E
100
AcDbEntity
  8
0
100
AcDbLine
 10
544.588755513525
 20
69.50719982109
 30
0.0
 11
549.479755513525
 21
65.67039982109
 31
0.0
  0
LINE
  5
667
330
1E
100
AcDbEntity
  8
0
100
AcDbLine
 10
539.552755513525
 20
72.92159982109
 30
0.0
 11
545.026755513525
 21
69.61379982109
 31
0.0
  0
LINE
  5
668
330
1E
100
AcDbEntity
  8
0
100
AcDbLine
 10
533.785755513525
 20
75.50159982109
 30
0.0
 11
539.552755513525
 21
72.92159982109
 31
0.0
  0
LINE
  5
669
330
1E
100
AcDbEntity
  8
0
100
AcDbLine
 10
539.187755513525
 20
72.81499982109
 30
0.0
 11
544.588755513525
 21
69.50719982109
 31
0.0
  0
LINE
  5
66A
330
1E
100
AcDbEntity
  8
0
100
AcDbLine
 10
554.296755513525
 20
-2.70270017891
 30
0.0
 11
557.946755513525
 21
2.25879982109
 31
0.0
  0
LINE
  5
66B
330
1E
100
AcDbEntity
  8
0
100
AcDbLine
 10
549.989755513525
 20
1.67439982109
 30
0.0
 11
554.296755513525
 21
6.17229982109
 31
0.0
  0
LINE
  5
66C
330
1E
100
AcDbEntity
  8
0
100
AcDbLine
 10
549.479755513525
 20
2.55959982109
 30
0.0
 11
553.712755513525
 21
6.99149982109
 31
0.0
  0
LINE
  5
66D
330
1E
100
AcDbEntity
  8
0
100
AcDbLine
 10
557.946755513525
 20
2.25879982109
 30
0.0
 11
560.792755513525
 21
7.48509982109
 31
0.0
  0
LINE
  5
66E
330
1E
100
AcDbEntity
  8
0
100
AcDbLine
 10
554.296755513525
 20
6.17229982109
 30
0.0
 11
557.946755513525
 21
11.13389982109
 31
0.0
  0
LINE
  5
66F
330
1E
100
AcDbEntity
  8
0
100
AcDbLine
 10
557.946755513525
 20
11.13389982109
 30
0.0
 11
560.792755513525
 21
16.36009982109
 31
0.0
  0
LINE
  5
670
330
1E
100
AcDbEntity
  8
0
100
AcDbLine
 10
553.712755513525
 20
6.99149982109
 30
0.0
 11
557.362755513525
 21
11.88709982109
 31
0.0
  0
LINE
  5
671
330
1E
100
AcDbEntity
  8
0
100
AcDbLine
 10
557.362755513525
 20
11.88709982109
 30
0.0
 11
560.062755513525
 21
17.04749982109
 31
0.0
  0
LINE
  5
672
330
1E
100
AcDbEntity
  8
0
100
AcDbLine
 10
560.792755513525
 20
7.48509982109
 30
0.0
 11
562.836755513525
 21
13.10809982109
 31
0.0
  0
LINE
  5
673
330
1E
100
AcDbEntity
  8
0
100
AcDbLine
 10
562.836755513525
 20
13.10809982109
 30
0.0
 11
564.150755513525
 21
18.99579982109
 31
0.0
  0
LINE
  5
674
330
1E
100
AcDbEntity
  8
0
100
AcDbLine
 10
560.792755513525
 20
16.36009982109
 30
0.0
 11
562.836755513525
 21
21.98299982109
 31
0.0
  0
LINE
  5
675
330
1E
100
AcDbEntity
  8
0
100
AcDbLine
 10
562.836755513525
 20
21.98299982109
 30
0.0
 11
564.150755513525
 21
27.87069982109
 31
0.0
  0
LINE
  5
676
330
1E
100
AcDbEntity
  8
0
100
AcDbLine
 10
560.062755513525
 20
17.04749982109
 30
0.0
 11
562.179755513525
 21
22.86919982109
 31
0.0
  0
LINE
  5
677
330
1E
100
AcDbEntity
  8
0
100
AcDbLine
 10
557.946755513525
 20
56.25079982109
 30
0.0
 11
560.792755513525
 21
51.02479982109
 31
0.0
  0
LINE
  5
678
330
1E
100
AcDbEntity
  8
0
100
AcDbLine
 10
545.026755513525
 20
69.61379982109
 30
0.0
 11
549.989755513525
 21
65.71089982109
 31
0.0
  0
LINE
  5
679
330
1E
100
AcDbEntity
  8
0
100
AcDbLine
 10
549.989755513525
 20
65.71089982109
 30
0.0
 11
554.296755513525
 21
61.21239982109
 31
0.0
  0
LINE
  5
67A
330
1E
100
AcDbEntity
  8
0
100
AcDbLine
 10
549.479755513525
 20
65.67039982109
 30
0.0
 11
553.712755513525
 21
61.23799982109
 31
0.0
  0
LINE
  5
67B
330
1E
100
AcDbEntity
  8
0
100
AcDbLine
 10
554.296755513525
 20
61.21239982109
 30
0.0
 11
557.946755513525
 21
56.25079982109
 31
0.0
  0
LINE
  5
67C
330
1E
100
AcDbEntity
  8
0
100
AcDbLine
 10
553.712755513525
 20
61.23799982109
 30
0.0
 11
557.362755513525
 21
56.34269982109
 31
0.0
  0
LINE
  5
67D
330
1E
100
AcDbEntity
  8
0
100
AcDbLine
 10
557.362755513525
 20
56.34269982109
 30
0.0
 11
560.062755513525
 21
51.18269982109
 31
0.0
  0
LINE
  5
67E
330
1E
100
AcDbEntity
  8
0
100
AcDbLine
 10
560.792755513525
 20
51.02479982109
 30
0.0
 11
562.836755513525
 21
45.40159982109
 31
0.0
  0
LINE
  5
67F
330
1E
100
AcDbEntity
  8
0
100
AcDbLine
 10
562.836755513525
 20
45.40159982109
 30
0.0
 11
564.150755513525
 21
39.51399982109
 31
0.0
  0
LINE
  5
680
330
1E
100
AcDbEntity
  8
0
100
AcDbLine
 10
560.062755513525
 20
51.18269982109
 30
0.0
 11
562.179755513525
 21
45.36109982109
 31
0.0
  0
LINE
  5
681
330
1E
100
AcDbEntity
  8
0
100
AcDbLine
 10
562.179755513525
 20
45.36109982109
 30
0.0
 11
563.420755513525
 21
39.87039982109
 31
0.0
  0
LINE
  5
682
330
1E
100
AcDbEntity
  8
0
100
AcDbLine
 10
563.420755513525
 20
39.87039982109
 30
0.0
 11
563.931755513525
 21
34.11509982109
 31
0.0
  0
LINE
  5
683
330
1E
100
AcDbEntity
  8
0
100
AcDbLine
 10
562.179755513525
 20
22.86919982109
 30
0.0
 11
563.420755513525
 21
28.35929982109
 31
0.0
  0
LINE
  5
684
330
1E
100
AcDbEntity
  8
0
100
AcDbLine
 10
564.661755513525
 20
24.81749982109
 30
0.0
 11
564.661755513525
 21
33.69249982109
 31
0.0
  0
LINE
  5
685
330
1E
100
AcDbEntity
  8
0
100
AcDbLine
 10
564.150755513525
 20
18.99579982109
 30
0.0
 11
564.661755513525
 21
24.81749982109
 31
0.0
  0
LINE
  5
686
330
1E
100
AcDbEntity
  8
0
100
AcDbLine
 10
564.661755513525
 20
33.69249982109
 30
0.0
 11
564.661755513525
 21
24.81749982109
 31
0.0
  0
LINE
  5
687
330
1E
100
AcDbEntity
  8
0
100
AcDbLine
 10
564.150755513525
 20
39.51399982109
 30
0.0
 11
564.661755513525
 21
33.69249982109
 31
0.0
  0
LINE
  5
688
330
1E
100
AcDbEntity
  8
0
100
AcDbLine
 10
564.150755513525
 20
27.87069982109
 30
0.0
 11
564.661755513525
 21
33.69249982109
 31
0.0
  0
LINE
  5
689
330
1E
100
AcDbEntity
  8
0
100
AcDbLine
 10
563.420755513525
 20
28.35929982109
 30
0.0
 11
563.931755513525
 21
34.11509982109
 31
0.0
  0
LINE
  5
68A
330
1E
100
AcDbEntity
  8
0
100
AcDbLine
 10
545.026755513525
 20
-2.22910017891
 30
0.0
 11
549.989755513525
 21
1.67439982109
 31
0.0
  0
LINE
  5
68B
330
1E
100
AcDbEntity
  8
0
100
AcDbLine
 10
544.588755513525
 20
-1.27700017891
 30
0.0
 11
549.479755513525
 21
2.55959982109
 31
0.0
  0
LINE
  5
68C
330
1E
100
AcDbEntity
  8
0
100
AcDbLine
 10
539.187755513525
 20
-4.58500017891
 30
0.0
 11
544.588755513525
 21
-1.27700017891
 31
0.0
  0
LINE
  5
68D
330
1E
100
AcDbEntity
  8
0
100
AcDbLine
 10
533.493755513525
 20
-7.03279017891
 30
0.0
 11
539.187755513525
 21
-4.58500017891
 31
0.0
  0
LINE
  5
68E
330
1E
100
AcDbEntity
  8
0
100
AcDbLine
 10
527.070755513525
 20
-8.95102017891
 30
0.0
 11
533.493755513525
 21
-7.03279017891
 31
0.0
  0
LINE
  5
68F
330
1E
100
AcDbEntity
  8
0
100
AcDbLine
 10
521.011755513525
 20
-10.07606017891
 30
0.0
 11
527.070755513525
 21
-8.95102017891
 31
0.0
  0
LINE
  5
690
330
1E
100
AcDbEntity
  8
0
100
AcDbLine
 10
514.661755513525
 20
-10.53860017891
 30
0.0
 11
521.011755513525
 21
-10.07606017891
 31
0.0
  0
LINE
  5
695
330
1E
100
AcDbEntity
  8
0
100
AcDbLine
 10
498.643755513525
 20
162.02959982109
 30
0.0
 11
498.671462880994
 21
151.432791189882
 31
0.0
  0
LINE
  5
696
330
1E
100
AcDbEntity
  8
0
100
AcDbLine
 10
498.643755513525
 20
162.02959982109
 30
0.0
 11
498.865755513525
 21
165.03459982109
 31
0.0
  0
LINE
  5
697
330
1E
100
AcDbEntity
  8
0
100
AcDbLine
 10
498.885374005937
 20
165.080243170292
 30
0.0
 11
499.028755513525
 21
166.12659982109
 31
0.0
  0
LINE
  5
698
330
1E
100
AcDbEntity
  8
0
100
AcDbLine
 10
498.865755513525
 20
165.03459982109
 30
0.0
 11
500.093755513525
 21
167.89159982109
 31
0.0
  0
LINE
  5
699
330
1E
100
AcDbEntity
  8
0
100
AcDbLine
 10
509.089755513525
 20
162.25859982109
 30
0.0
 11
512.914755513525
 21
162.95259982109
 31
0.0
  0
LINE
  5
69A
330
1E
100
AcDbEntity
  8
0
100
AcDbLine
 10
522.085755513525
 20
161.64859982109
 30
0.0
 11
525.592755513525
 21
159.70359982109
 31
0.0
  0
LINE
  5
69B
330
1E
100
AcDbEntity
  8
0
100
AcDbLine
 10
512.914755513525
 20
162.95259982109
 30
0.0
 11
518.007755513525
 21
162.75059982109
 31
0.0
  0
LINE
  5
69C
330
1E
100
AcDbEntity
  8
0
100
AcDbLine
 10
518.007755513525
 20
162.75059982109
 30
0.0
 11
522.085755513525
 21
161.64859982109
 31
0.0
  0
LINE
  5
69E
330
1E
100
AcDbEntity
  8
0
100
AcDbLine
 10
530.438755513525
 20
165.17559982109
 30
0.0
 11
530.635755513525
 21
163.25859982109
 31
0.0
  0
LINE
  5
69F
330
1E
100
AcDbEntity
  8
0
100
AcDbLine
 10
530.348755513525
 20
165.25359982109
 30
0.0
 11
530.622755513525
 21
161.65259982109
 31
0.0
  0
LINE
  5
6A0
330
1E
100
AcDbEntity
  8
0
100
AcDbLine
 10
530.635755513525
 20
163.067194769425
 30
0.0
 11
530.635755513525
 21
189.07759982109
 31
0.0
  0
LINE
  5
6A1
330
1E
100
AcDbEntity
  8
0
100
AcDbLine
 10
530.622755513525
 20
161.65259982109
 30
0.0
 11
530.641755513525
 21
150.23359982109
 31
0.0
  0
LINE
  5
6A2
330
1E
100
AcDbEntity
  8
0
100
AcDbLine
 10
499.028755513525
 20
166.12659982109
 30
0.0
 11
500.378755513525
 21
168.82359982109
 31
0.0
  0
LINE
  5
6A3
330
1E
100
AcDbEntity
  8
0
100
AcDbLine
 10
500.093755513525
 20
167.89159982109
 30
0.0
 11
502.134755513525
 21
170.45659982109
 31
0.0
  0
LINE
  5
6A4
330
1E
100
AcDbEntity
  8
0
100
AcDbLine
 10
529.683755513525
 20
166.99159982109
 30
0.0
 11
530.348755513525
 21
165.25359982109
 31
0.0
  0
LINE
  5
6A6
330
1E
100
AcDbEntity
  8
0
100
AcDbLine
 10
529.460755513525
 20
167.96659982109
 30
0.0
 11
530.438755513525
 21
165.17559982109
 31
0.0
  0
LINE
  5
6A7
330
1E
100
AcDbEntity
  8
0
100
AcDbLine
 10
500.378755513525
 20
168.82259982109
 30
0.0
 11
501.690755513525
 21
170.46259982109
 31
0.0
  0
LINE
  5
6A9
330
1E
100
AcDbEntity
  8
0
100
AcDbLine
 10
528.719755513525
 20
168.64059982109
 30
0.0
 11
529.683755513525
 21
166.99159982109
 31
0.0
  0
LINE
  5
6AB
330
1E
100
AcDbEntity
  8
0
100
AcDbLine
 10
496.220755513525
 20
172.42459982109
 30
0.0
 11
498.524755513525
 21
170.66359982109
 31
0.0
  0
LINE
  5
6AD
330
1E
100
AcDbEntity
  8
0
100
AcDbLine
 10
502.134755513525
 20
170.45659982109
 30
0.0
 11
505.596755513525
 21
172.90559982109
 31
0.0
  0
LINE
  5
6AE
330
1E
100
AcDbEntity
  8
0
100
AcDbLine
 10
530.635755513525
 20
170.595979424489
 30
0.0
 11
530.745755513525
 21
170.66359982109
 31
0.0
  0
LINE
  5
6AF
330
1E
100
AcDbEntity
  8
0
100
AcDbLine
 10
530.745755513525
 20
170.66359982109
 30
0.0
 11
533.049755513525
 21
172.42559982109
 31
0.0
  0
LINE
  5
6B0
330
1E
100
AcDbEntity
  8
0
100
AcDbLine
 10
501.690755513525
 20
170.46259982109
 30
0.0
 11
503.321755513525
 21
171.92559982109
 31
0.0
  0
LINE
  5
6B2
330
1E
100
AcDbEntity
  8
0
100
AcDbLine
 10
503.321755513525
 20
171.92559982109
 30
0.0
 11
505.230755513525
 21
173.17459982109
 31
0.0
  0
LINE
  5
6B3
330
1E
100
AcDbEntity
  8
0
100
AcDbLine
 10
526.837755513525
 20
171.24359982109
 30
0.0
 11
529.460755513525
 21
167.96659982109
 31
0.0
  0
LINE
  5
6B4
330
1E
100
AcDbEntity
  8
0
100
AcDbLine
 10
524.060755513525
 20
172.66659982109
 30
0.0
 11
526.407755513525
 21
171.06659982109
 31
0.0
  0
LINE
  5
6B5
330
1E
100
AcDbEntity
  8
0
100
AcDbLine
 10
533.049755513525
 20
172.42559982109
 30
0.0
 11
535.161755513525
 21
174.41259982109
 31
0.0
  0
LINE
  5
6B7
330
1E
100
AcDbEntity
  8
0
100
AcDbLine
 10
526.407755513525
 20
171.06659982109
 30
0.0
 11
528.719755513525
 21
168.64059982109
 31
0.0
  0
LINE
  5
6B8
330
1E
100
AcDbEntity
  8
0
100
AcDbLine
 10
498.524755513525
 20
170.66359982109
 30
0.0
 11
498.635755513525
 21
170.595364693611
 31
0.0
  0
LINE
  5
6B9
330
1E
100
AcDbEntity
  8
0
100
AcDbLine
 10
505.596755513525
 20
172.90559982109
 30
0.0
 11
509.100755513525
 21
174.25959982109
 31
0.0
  0
LINE
  5
6BA
330
1E
100
AcDbEntity
  8
0
100
AcDbLine
 10
507.108755513525
 20
173.49159982109
 30
0.0
 11
507.220533256023
 21
173.533052750126
 31
0.0
  0
LINE
  5
6BB
330
1E
100
AcDbEntity
  8
0
100
AcDbLine
 10
505.230755513525
 20
173.17459982109
 30
0.0
 11
507.371755513525
 21
174.17959982109
 31
0.0
  0
LINE
  5
6BC
330
1E
100
AcDbEntity
  8
0
100
AcDbLine
 10
521.351755513525
 20
173.88559982109
 30
0.0
 11
524.060755513525
 21
172.66659982109
 31
0.0
  0
LINE
  5
6BD
330
1E
100
AcDbEntity
  8
0
100
AcDbLine
 10
509.100755513525
 20
174.25959982109
 30
0.0
 11
512.139755513525
 21
174.86559982109
 31
0.0
  0
LINE
  5
6BE
330
1E
100
AcDbEntity
  8
0
100
AcDbLine
 10
507.371755513525
 20
174.17959982109
 30
0.0
 11
509.691755513525
 21
174.91559982109
 31
0.0
  0
LINE
  5
6BF
330
1E
100
AcDbEntity
  8
0
100
AcDbLine
 10
523.022755513525
 20
173.73959982109
 30
0.0
 11
526.837755513525
 21
171.24359982109
 31
0.0
  0
LINE
  5
6C0
330
1E
100
AcDbEntity
  8
0
100
AcDbLine
 10
494.108755513525
 20
174.41259982109
 30
0.0
 11
496.220755513525
 21
172.42459982109
 31
0.0
  0
LINE
  5
6C1
330
1E
100
AcDbEntity
  8
0
100
AcDbLine
 10
535.161755513525
 20
174.41259982109
 30
0.0
 11
537.060755513525
 21
176.60459982109
 31
0.0
  0
LINE
  5
6C3
330
1E
100
AcDbEntity
  8
0
100
AcDbLine
 10
518.384755513525
 20
174.67459982109
 30
0.0
 11
521.351755513525
 21
173.88559982109
 31
0.0
  0
LINE
  5
6C4
330
1E
100
AcDbEntity
  8
0
100
AcDbLine
 10
512.139755513525
 20
174.86559982109
 30
0.0
 11
515.273755513525
 21
175.00559982109
 31
0.0
  0
LINE
  5
6C5
330
1E
100
AcDbEntity
  8
0
100
AcDbLine
 10
509.691755513525
 20
174.91559982109
 30
0.0
 11
512.132755513525
 21
175.36459982109
 31
0.0
  0
LINE
  5
6C6
330
1E
100
AcDbEntity
  8
0
100
AcDbLine
 10
515.273755513525
 20
175.00559982109
 30
0.0
 11
518.384755513525
 21
174.67459982109
 31
0.0
  0
LINE
  5
6C7
330
1E
100
AcDbEntity
  8
0
100
AcDbLine
 10
517.137755513525
 20
175.36459982109
 30
0.0
 11
519.579755513525
 21
174.91559982109
 31
0.0
  0
LINE
  5
6C8
330
1E
100
AcDbEntity
  8
0
100
AcDbLine
 10
519.579755513525
 20
174.91559982109
 30
0.0
 11
523.022755513525
 21
173.73959982109
 31
0.0
  0
LINE
  5
6C9
330
1E
100
AcDbEntity
  8
0
100
AcDbLine
 10
514.635755513525
 20
175.51559982109
 30
0.0
 11
517.137755513525
 21
175.36459982109
 31
0.0
  0
LINE
  5
6CA
330
1E
100
AcDbEntity
  8
0
100
AcDbLine
 10
530.635755513525
 20
175.646929664022
 30
0.0
 11
531.502755513525
 21
176.82259982109
 31
0.0
  0
LINE
  5
6CB
330
1E
100
AcDbEntity
  8
0
100
AcDbLine
 10
512.132755513525
 20
175.36459982109
 30
0.0
 11
514.635755513525
 21
175.51559982109
 31
0.0
  0
LINE
  5
6CC
330
1E
100
AcDbEntity
  8
0
100
AcDbLine
 10
497.975755513525
 20
176.53059982109
 30
0.0
 11
498.635755513525
 21
175.596607147097
 31
0.0
  0
LINE
  5
6CD
330
1E
100
AcDbEntity
  8
0
100
AcDbLine
 10
492.209755513525
 20
176.60359982109
 30
0.0
 11
494.108755513525
 21
174.41259982109
 31
0.0
  0
LINE
  5
6CE
330
1E
100
AcDbEntity
  8
0
100
AcDbLine
 10
537.060755513525
 20
176.60459982109
 30
0.0
 11
538.726755513525
 21
178.97859982109
 31
0.0
  0
LINE
  5
6CF
330
1E
100
AcDbEntity
  8
0
100
AcDbLine
 10
531.502755513525
 20
176.82259982109
 30
0.0
 11
532.953755513525
 21
179.39759982109
 31
0.0
  0
LINE
  5
6D2
330
1E
100
AcDbEntity
  8
0
100
AcDbLine
 10
490.544755513525
 20
178.97859982109
 30
0.0
 11
492.209755513525
 21
176.60359982109
 31
0.0
  0
LINE
  5
6D3
330
1E
100
AcDbEntity
  8
0
100
AcDbLine
 10
496.565755513525
 20
178.91359982109
 30
0.0
 11
497.975755513525
 21
176.53059982109
 31
0.0
  0
LINE
  5
6D4
330
1E
100
AcDbEntity
  8
0
100
AcDbLine
 10
538.726755513525
 20
178.97859982109
 30
0.0
 11
540.141755513525
 21
181.50959982109
 31
0.0
  0
LINE
  5
6D5
330
1E
100
AcDbEntity
  8
0
100
AcDbLine
 10
532.953755513525
 20
179.39759982109
 30
0.0
 11
533.959755513525
 21
181.61759982109
 31
0.0
  0
LINE
  5
6D6
330
1E
100
AcDbEntity
  8
0
100
AcDbLine
 10
489.128755513525
 20
181.50859982109
 30
0.0
 11
490.544755513525
 21
178.97859982109
 31
0.0
  0
LINE
  5
6D7
330
1E
100
AcDbEntity
  8
0
100
AcDbLine
 10
495.390755513525
 20
181.45059982109
 30
0.0
 11
496.565755513525
 21
178.91359982109
 31
0.0
  0
LINE
  5
6D8
330
1E
100
AcDbEntity
  8
0
100
AcDbLine
 10
540.141755513525
 20
181.50959982109
 30
0.0
 11
541.291755513525
 21
184.17159982109
 31
0.0
  0
LINE
  5
6D9
330
1E
100
AcDbEntity
  8
0
100
AcDbLine
 10
533.959755513525
 20
181.61759982109
 30
0.0
 11
535.354755513525
 21
185.98259982109
 31
0.0
  0
LINE
  5
6DD
330
1E
100
AcDbEntity
  8
0
100
AcDbLine
 10
494.556755513525
 20
183.79059982109
 30
0.0
 11
495.390755513525
 21
181.45059982109
 31
0.0
  0
LINE
  5
6DE
330
1E
100
AcDbEntity
  8
0
100
AcDbLine
 10
487.978755513525
 20
184.17159982109
 30
0.0
 11
489.128755513525
 21
181.50859982109
 31
0.0
  0
LINE
  5
6DF
330
1E
100
AcDbEntity
  8
0
100
AcDbLine
 10
541.291755513525
 20
184.17159982109
 30
0.0
 11
542.165755513525
 21
186.93759982109
 31
0.0
  0
LINE
  5
6E0
330
1E
100
AcDbEntity
  8
0
100
AcDbLine
 10
535.354755513525
 20
185.98259982109
 30
0.0
 11
535.938755513525
 21
189.69059982109
 31
0.0
  0
LINE
  5
6E1
330
1E
100
AcDbEntity
  8
0
100
AcDbLine
 10
493.916755513525
 20
186.19059982109
 30
0.0
 11
494.556755513525
 21
183.79059982109
 31
0.0
  0
LINE
  5
6E3
330
1E
100
AcDbEntity
  8
0
100
AcDbLine
 10
487.104755513525
 20
186.93659982109
 30
0.0
 11
487.978755513525
 21
184.17159982109
 31
0.0
  0
LINE
  5
6E4
330
1E
100
AcDbEntity
  8
0
100
AcDbLine
 10
542.165755513525
 20
186.93759982109
 30
0.0
 11
542.752755513525
 21
189.77759982109
 31
0.0
  0
LINE
  5
6E5
330
1E
100
AcDbEntity
  8
0
100
AcDbLine
 10
493.467755513525
 20
188.62259982109
 30
0.0
 11
493.916755513525
 21
186.18759982109
 31
0.0
  0
LINE
  5
6E6
330
1E
100
AcDbEntity
  8
0
100
AcDbLine
 10
493.468755513525
 20
188.62359982109
 30
0.0
 11
493.916755513525
 21
186.19059982109
 31
0.0
  0
LINE
  5
6E8
330
1E
100
AcDbEntity
  8
0
100
AcDbLine
 10
486.517755513525
 20
189.77759982109
 30
0.0
 11
487.104755513525
 21
186.93659982109
 31
0.0
  0
LINE
  5
6E9
330
1E
100
AcDbEntity
  8
0
100
AcDbLine
 10
535.938755513525
 20
189.69059982109
 30
0.0
 11
536.085755513525
 21
191.47859982109
 31
0.0
  0
LINE
  5
6EA
330
1E
100
AcDbEntity
  8
0
100
AcDbLine
 10
542.752755513525
 20
189.77759982109
 30
0.0
 11
543.048755513525
 21
192.66159982109
 31
0.0
  0
LINE
  5
6EB
330
1E
100
AcDbEntity
  8
0
100
AcDbLine
 10
498.635755513525
 20
189.07759982109
 30
0.0
 11
498.644755513525
 21
189.81659982109
 31
0.0
  0
LINE
  5
6EC
330
1E
100
AcDbEntity
  8
0
100
AcDbLine
 10
498.635755513525
 20
189.07759982109
 30
0.0
 11
498.654843848742
 21
163.068002067469
 31
0.0
  0
LINE
  5
6ED
330
1E
100
AcDbEntity
  8
0
100
AcDbLine
 10
493.256755513525
 20
190.46559982109
 30
0.0
 11
493.468755513525
 21
188.62359982109
 31
0.0
  0
LINE
  5
6EE
330
1E
100
AcDbEntity
  8
0
100
AcDbLine
 10
493.256755513525
 20
190.46559982109
 30
0.0
 11
493.467755513525
 21
188.62259982109
 31
0.0
  0
LINE
  5
6EF
330
1E
100
AcDbEntity
  8
0
100
AcDbLine
 10
498.726755513525
 20
191.29959982109
 30
0.0
 11
499.419755513525
 21
195.84059982109
 31
0.0
  0
LINE
  5
6F0
330
1E
100
AcDbEntity
  8
0
100
AcDbLine
 10
536.085755513525
 20
191.47859982109
 30
0.0
 11
536.135755513525
 21
193.27359982109
 31
0.0
  0
LINE
  5
6F2
330
1E
100
AcDbEntity
  8
0
100
AcDbLine
 10
498.644755513525
 20
189.81659982109
 30
0.0
 11
498.726755513525
 21
191.29959982109
 31
0.0
  0
LINE
  5
6F3
330
1E
100
AcDbEntity
  8
0
100
AcDbLine
 10
493.148755513525
 20
192.31559982109
 30
0.0
 11
493.256755513525
 21
190.46559982109
 31
0.0
  0
LINE
  5
6F4
330
1E
100
AcDbEntity
  8
0
100
AcDbLine
 10
493.149755513525
 20
192.31559982109
 30
0.0
 11
493.256755513525
 21
190.46559982109
 31
0.0
  0
LINE
  5
6F5
330
1E
100
AcDbEntity
  8
0
100
AcDbLine
 10
486.221755513525
 20
192.66259982109
 30
0.0
 11
486.517755513525
 21
189.77759982109
 31
0.0
  0
LINE
  5
6F6
330
1E
100
AcDbEntity
  8
0
100
AcDbLine
 10
486.221755513525
 20
192.66259982109
 30
0.0
 11
486.221755513525
 21
195.56259982109
 31
0.0
  0
LINE
  5
6F7
330
1E
100
AcDbEntity
  8
0
100
AcDbLine
 10
543.048755513525
 20
192.66159982109
 30
0.0
 11
543.048755513525
 21
195.56159982109
 31
0.0
  0
LINE
  5
6F8
330
1E
100
AcDbEntity
  8
0
100
AcDbLine
 10
530.334755513525
 20
193.28059982109
 30
0.0
 11
530.635755513525
 21
189.07759982109
 31
0.0
  0
LINE
  5
6F9
330
1E
100
AcDbEntity
  8
0
100
AcDbLine
 10
493.135755513525
 20
193.27359982109
 30
0.0
 11
493.177755513525
 21
194.92859982109
 31
0.0
  0
LINE
  5
6FA
330
1E
100
AcDbEntity
  8
0
100
AcDbLine
 10
493.135755513525
 20
193.27359982109
 30
0.0
 11
493.149755513525
 21
192.31559982109
 31
0.0
  0
LINE
  5
6FB
330
1E
100
AcDbEntity
  8
0
100
AcDbLine
 10
493.135755513525
 20
193.27359982109
 30
0.0
 11
493.148755513525
 21
192.31559982109
 31
0.0
  0
LINE
  5
6FC
330
1E
100
AcDbEntity
  8
0
100
AcDbLine
 10
493.135755513525
 20
193.27359982109
 30
0.0
 11
493.176755513525
 21
194.92859982109
 31
0.0
  0
LINE
  5
700
330
1E
100
AcDbEntity
  8
0
100
AcDbLine
 10
493.176755513525
 20
194.92859982109
 30
0.0
 11
493.302755513525
 21
196.58059982109
 31
0.0
  0
LINE
  5
701
330
1E
100
AcDbEntity
  8
0
100
AcDbLine
 10
486.221755513525
 20
195.56259982109
 30
0.0
 11
486.517755513525
 21
198.44659982109
 31
0.0
  0
LINE
  5
702
330
1E
100
AcDbEntity
  8
0
100
AcDbLine
 10
493.302755513525
 20
196.58059982109
 30
0.0
 11
493.508755513525
 21
198.19659982109
 31
0.0
  0
LINE
  5
703
330
1E
100
AcDbEntity
  8
0
100
AcDbLine
 10
536.121755513525
 20
194.23059982109
 30
0.0
 11
536.135755513525
 21
193.27359982109
 31
0.0
  0
LINE
  5
704
330
1E
100
AcDbEntity
  8
0
100
AcDbLine
 10
499.419755513525
 20
195.84059982109
 30
0.0
 11
500.943755513525
 21
199.88659982109
 31
0.0
  0
LINE
  5
705
330
1E
100
AcDbEntity
  8
0
100
AcDbLine
 10
493.508755513525
 20
198.19659982109
 30
0.0
 11
493.796755513525
 21
199.80159982109
 31
0.0
  0
LINE
  5
706
330
1E
100
AcDbEntity
  8
0
100
AcDbLine
 10
493.796755513525
 20
199.80159982109
 30
0.0
 11
495.077755513525
 21
204.42059982109
 31
0.0
  0
LINE
  5
707
330
1E
100
AcDbEntity
  8
0
100
AcDbLine
 10
486.517755513525
 20
198.44659982109
 30
0.0
 11
487.104755513525
 21
201.28659982109
 31
0.0
  0
LINE
  5
708
330
1E
100
AcDbEntity
  8
0
100
AcDbLine
 10
535.802755513525
 20
197.92259982109
 30
0.0
 11
536.014755513525
 21
196.08059982109
 31
0.0
  0
LINE
  5
709
330
1E
100
AcDbEntity
  8
0
100
AcDbLine
 10
542.752755513525
 20
198.44659982109
 30
0.0
 11
543.048755513525
 21
195.56159982109
 31
0.0
  0
LINE
  5
70A
330
1E
100
AcDbEntity
  8
0
100
AcDbLine
 10
535.742275593188
 20
198.216639818403
 30
0.0
 11
535.811755513525
 21
197.83259982109
 31
0.0
  0
LINE
  5
70B
330
1E
100
AcDbEntity
  8
0
100
AcDbLine
 10
528.377755513525
 20
199.83659982109
 30
0.0
 11
529.526755513525
 21
196.71559982109
 31
0.0
  0
LINE
  5
70C
330
1E
100
AcDbEntity
  8
0
100
AcDbLine
 10
529.526755513525
 20
196.71659982109
 30
0.0
 11
530.334755513525
 21
193.28059982109
 31
0.0
  0
LINE
  5
70E
330
1E
100
AcDbEntity
  8
0
100
AcDbLine
 10
487.104755513525
 20
201.28659982109
 30
0.0
 11
487.978755513525
 21
204.05259982109
 31
0.0
  0
LINE
  5
70F
330
1E
100
AcDbEntity
  8
0
100
AcDbLine
 10
500.943755513525
 20
199.88659982109
 30
0.0
 11
501.977755513525
 21
201.85359982109
 31
0.0
  0
LINE
  5
710
330
1E
100
AcDbEntity
  8
0
100
AcDbLine
 10
542.165755513525
 20
201.28759982109
 30
0.0
 11
542.752755513525
 21
198.44659982109
 31
0.0
  0
LINE
  5
712
330
1E
100
AcDbEntity
  8
0
100
AcDbLine
 10
487.978755513525
 20
204.05259982109
 30
0.0
 11
489.128755513525
 21
206.71459982109
 31
0.0
  0
LINE
  5
714
330
1E
100
AcDbEntity
  8
0
100
AcDbLine
 10
495.077755513525
 20
204.42059982109
 30
0.0
 11
496.967755513525
 21
208.42259982109
 31
0.0
  0
LINE
  5
715
330
1E
100
AcDbEntity
  8
0
100
AcDbLine
 10
501.977755513525
 20
201.85359982109
 30
0.0
 11
503.077755513525
 21
203.52059982109
 31
0.0
  0
LINE
  5
716
330
1E
100
AcDbEntity
  8
0
100
AcDbLine
 10
525.635755513525
 20
204.24459982109
 30
0.0
 11
526.529755513525
 21
203.04659982109
 31
0.0
  0
LINE
  5
717
330
1E
100
AcDbEntity
  8
0
100
AcDbLine
 10
526.945755513525
 20
202.42559982109
 30
0.0
 11
528.377755513525
 21
199.83659982109
 31
0.0
  0
LINE
  5
718
330
1E
100
AcDbEntity
  8
0
100
AcDbLine
 10
534.714755513525
 20
202.75459982109
 30
0.0
 11
535.354755513525
 21
200.35859982109
 31
0.0
  0
LINE
  5
719
330
1E
100
AcDbEntity
  8
0
100
AcDbLine
 10
526.530379483541
 20
202.982170865219
 30
0.0
 11
526.945755513525
 21
202.42559982109
 31
0.0
  0
LINE
  5
71A
330
1E
100
AcDbEntity
  8
0
100
AcDbLine
 10
504.339755513525
 20
205.06459982109
 30
0.0
 11
505.762755513525
 21
206.45859982109
 31
0.0
  0
LINE
  5
71B
330
1E
100
AcDbEntity
  8
0
100
AcDbLine
 10
504.338755513525
 20
205.06459982109
 30
0.0
 11
505.762755513525
 21
206.45859982109
 31
0.0
  0
LINE
  5
71C
330
1E
100
AcDbEntity
  8
0
100
AcDbLine
 10
503.077755513525
 20
203.52059982109
 30
0.0
 11
504.339755513525
 21
205.06459982109
 31
0.0
  0
LINE
  5
71D
330
1E
100
AcDbEntity
  8
0
100
AcDbLine
 10
503.077755513525
 20
203.52059982109
 30
0.0
 11
504.338755513525
 21
205.06459982109
 31
0.0
  0
LINE
  5
71E
330
1E
100
AcDbEntity
  8
0
100
AcDbLine
 10
489.128755513525
 20
206.71459982109
 30
0.0
 11
490.544755513525
 21
209.24559982109
 31
0.0
  0
LINE
  5
71F
330
1E
100
AcDbEntity
  8
0
100
AcDbLine
 10
522.796755513525
 20
207.04359982109
 30
0.0
 11
523.654755513525
 21
206.32959982109
 31
0.0
  0
LINE
  5
720
330
1E
100
AcDbEntity
  8
0
100
AcDbLine
 10
507.303755513525
 20
207.64259982109
 30
0.0
 11
508.206515068277
 21
208.166957167263
 31
0.0
  0
LINE
  5
721
330
1E
100
AcDbEntity
  8
0
100
AcDbLine
 10
505.762755513525
 20
206.45859982109
 30
0.0
 11
507.303755513525
 21
207.64259982109
 31
0.0
  0
LINE
  5
722
330
1E
100
AcDbEntity
  8
0
100
AcDbLine
 10
532.707755513525
 20
207.63059982109
 30
0.0
 11
533.879755513525
 21
205.09459982109
 31
0.0
  0
LINE
  5
723
330
1E
100
AcDbEntity
  8
0
100
AcDbLine
 10
523.654755513525
 20
206.32959982109
 30
0.0
 11
524.686755513525
 21
205.32759982109
 31
0.0
  0
LINE
  5
724
330
1E
100
AcDbEntity
  8
0
100
AcDbLine
 10
532.706755513525
 20
207.63059982109
 30
0.0
 11
533.879755513525
 21
205.09459982109
 31
0.0
  0
LINE
  5
725
330
1E
100
AcDbEntity
  8
0
100
AcDbLine
 10
524.686755513525
 20
205.32759982109
 30
0.0
 11
525.635755513525
 21
204.24459982109
 31
0.0
  0
LINE
  5
726
330
1E
100
AcDbEntity
  8
0
100
AcDbLine
 10
541.291755513525
 20
204.05259982109
 30
0.0
 11
542.165755513525
 21
201.28759982109
 31
0.0
  0
LINE
  5
727
330
1E
100
AcDbEntity
  8
0
100
AcDbLine
 10
540.141755513525
 20
206.71559982109
 30
0.0
 11
541.291755513525
 21
204.05259982109
 31
0.0
  0
LINE
  5
729
330
1E
100
AcDbEntity
  8
0
100
AcDbLine
 10
496.967755513525
 20
208.42259982109
 30
0.0
 11
498.718755513525
 21
211.07359982109
 31
0.0
  0
LINE
  5
72A
330
1E
100
AcDbEntity
  8
0
100
AcDbLine
 10
490.544755513525
 20
209.24559982109
 30
0.0
 11
492.209755513525
 21
211.61959982109
 31
0.0
  0
LINE
  5
72B
330
1E
100
AcDbEntity
  8
0
100
AcDbLine
 10
519.152755513525
 20
209.11359982109
 30
0.0
 11
520.098755513525
 21
208.70859982109
 31
0.0
  0
LINE
  5
72C
330
1E
100
AcDbEntity
  8
0
100
AcDbLine
 10
518.179755513525
 20
209.44459982109
 30
0.0
 11
519.152755513525
 21
209.11359982109
 31
0.0
  0
LINE
  5
72D
330
1E
100
AcDbEntity
  8
0
100
AcDbLine
 10
520.098755513525
 20
208.70859982109
 30
0.0
 11
521.011755513525
 21
208.23359982109
 31
0.0
  0
LINE
  5
72E
330
1E
100
AcDbEntity
  8
0
100
AcDbLine
 10
510.762755513525
 20
209.34259982109
 30
0.0
 11
512.357755513525
 21
209.75159982109
 31
0.0
  0
LINE
  5
72F
330
1E
100
AcDbEntity
  8
0
100
AcDbLine
 10
508.973755513525
 20
208.61259982109
 30
0.0
 11
510.762755513525
 21
209.34259982109
 31
0.0
  0
LINE
  5
730
330
1E
100
AcDbEntity
  8
0
100
AcDbLine
 10
508.21635078152
 20
208.172670126452
 30
0.0
 11
508.973755513525
 21
208.61259982109
 31
0.0
  0
LINE
  5
731
330
1E
100
AcDbEntity
  8
0
100
AcDbLine
 10
521.889755513525
 20
207.69359982109
 30
0.0
 11
522.796755513525
 21
207.04359982109
 31
0.0
  0
LINE
  5
732
330
1E
100
AcDbEntity
  8
0
100
AcDbLine
 10
521.011755513525
 20
208.23359982109
 30
0.0
 11
521.889755513525
 21
207.69359982109
 31
0.0
  0
LINE
  5
733
330
1E
100
AcDbEntity
  8
0
100
AcDbLine
 10
498.718755513525
 20
211.07359982109
 30
0.0
 11
500.369755513525
 21
213.06859982109
 31
0.0
  0
LINE
  5
734
330
1E
100
AcDbEntity
  8
0
100
AcDbLine
 10
498.719755513525
 20
211.07359982109
 30
0.0
 11
500.369755513525
 21
213.06959982109
 31
0.0
  0
LINE
  5
735
330
1E
100
AcDbEntity
  8
0
100
AcDbLine
 10
516.169755513525
 20
209.86759982109
 30
0.0
 11
517.183755513525
 21
209.69759982109
 31
0.0
  0
LINE
  5
736
330
1E
100
AcDbEntity
  8
0
100
AcDbLine
 10
514.260755513525
 20
209.95859982109
 30
0.0
 11
516.169755513525
 21
209.86759982109
 31
0.0
  0
LINE
  5
737
330
1E
100
AcDbEntity
  8
0
100
AcDbLine
 10
512.357755513525
 20
209.75159982109
 30
0.0
 11
514.260755513525
 21
209.95859982109
 31
0.0
  0
LINE
  5
738
330
1E
100
AcDbEntity
  8
0
100
AcDbLine
 10
531.283755513525
 20
210.03259982109
 30
0.0
 11
532.706755513525
 21
207.63059982109
 31
0.0
  0
LINE
  5
739
330
1E
100
AcDbEntity
  8
0
100
AcDbLine
 10
530.478755513525
 20
211.17159982109
 30
0.0
 11
531.283755513525
 21
210.03259982109
 31
0.0
  0
LINE
  5
73A
330
1E
100
AcDbEntity
  8
0
100
AcDbLine
 10
517.183755513525
 20
209.69759982109
 30
0.0
 11
518.179755513525
 21
209.44459982109
 31
0.0
  0
LINE
  5
73B
330
1E
100
AcDbEntity
  8
0
100
AcDbLine
 10
538.726755513525
 20
209.24559982109
 30
0.0
 11
540.141755513525
 21
206.71559982109
 31
0.0
  0
LINE
  5
73E
330
1E
100
AcDbEntity
  8
0
100
AcDbLine
 10
492.209755513525
 20
211.61959982109
 30
0.0
 11
494.108755513525
 21
213.81159982109
 31
0.0
  0
LINE
  5
73F
330
1E
100
AcDbEntity
  8
0
100
AcDbLine
 10
500.369755513525
 20
213.06959982109
 30
0.0
 11
502.227755513525
 21
214.86859982109
 31
0.0
  0
LINE
  5
740
330
1E
100
AcDbEntity
  8
0
100
AcDbLine
 10
528.683755513525
 20
213.30159982109
 30
0.0
 11
529.611755513525
 21
212.26359982109
 31
0.0
  0
LINE
  5
741
330
1E
100
AcDbEntity
  8
0
100
AcDbLine
 10
537.060755513525
 20
211.62059982109
 30
0.0
 11
538.726755513525
 21
209.24559982109
 31
0.0
  0
LINE
  5
743
330
1E
100
AcDbEntity
  8
0
100
AcDbLine
 10
529.611755513525
 20
212.26359982109
 30
0.0
 11
530.478755513525
 21
211.17159982109
 31
0.0
  0
LINE
  5
744
330
1E
100
AcDbEntity
  8
0
100
AcDbLine
 10
494.108755513525
 20
213.81159982109
 30
0.0
 11
496.220755513525
 21
215.79859982109
 31
0.0
  0
LINE
  5
745
330
1E
100
AcDbEntity
  8
0
100
AcDbLine
 10
535.161755513525
 20
213.81259982109
 30
0.0
 11
537.060755513525
 21
211.62059982109
 31
0.0
  0
LINE
  5
747
330
1E
100
AcDbEntity
  8
0
100
AcDbLine
 10
498.524755513525
 20
217.56059982109
 30
0.0
 11
500.995755513525
 21
219.07959982109
 31
0.0
  0
LINE
  5
748
330
1E
100
AcDbEntity
  8
0
100
AcDbLine
 10
496.220755513525
 20
215.79859982109
 30
0.0
 11
498.524755513525
 21
217.56059982109
 31
0.0
  0
LINE
  5
749
330
1E
100
AcDbEntity
  8
0
100
AcDbLine
 10
504.511755513525
 20
216.58459982109
 30
0.0
 11
506.332755513525
 21
217.64059982109
 31
0.0
  0
LINE
  5
74A
330
1E
100
AcDbEntity
  8
0
100
AcDbLine
 10
503.340755513525
 20
215.76559982109
 30
0.0
 11
504.511755513525
 21
216.58459982109
 31
0.0
  0
LINE
  5
74B
330
1E
100
AcDbEntity
  8
0
100
AcDbLine
 10
502.227755513525
 20
214.86859982109
 30
0.0
 11
503.340755513525
 21
215.76559982109
 31
0.0
  0
LINE
  5
74C
330
1E
100
AcDbEntity
  8
0
100
AcDbLine
 10
500.995755513525
 20
219.07959982109
 30
0.0
 11
503.556755513525
 21
220.31659982109
 31
0.0
  0
LINE
  5
74D
330
1E
100
AcDbEntity
  8
0
100
AcDbLine
 10
506.332755513525
 20
217.64059982109
 30
0.0
 11
508.331755513525
 21
218.51459982109
 31
0.0
  0
LINE
  5
74E
330
1E
100
AcDbEntity
  8
0
100
AcDbLine
 10
519.882755513525
 20
218.87159982109
 30
0.0
 11
521.131755513525
 21
218.44159982109
 31
0.0
  0
LINE
  5
74F
330
1E
100
AcDbEntity
  8
0
100
AcDbLine
 10
510.738755513525
 20
219.22859982109
 30
0.0
 11
512.040755513525
 21
219.46959982109
 31
0.0
  0
LINE
  5
750
330
1E
100
AcDbEntity
  8
0
100
AcDbLine
 10
513.355755513525
 20
219.61359982109
 30
0.0
 11
514.677755513525
 21
219.65959982109
 31
0.0
  0
LINE
  5
751
330
1E
100
AcDbEntity
  8
0
100
AcDbLine
 10
512.040755513525
 20
219.46959982109
 30
0.0
 11
513.355755513525
 21
219.61359982109
 31
0.0
  0
LINE
  5
752
330
1E
100
AcDbEntity
  8
0
100
AcDbLine
 10
518.606755513525
 20
219.21159982109
 30
0.0
 11
519.882755513525
 21
218.87159982109
 31
0.0
  0
LINE
  5
753
330
1E
100
AcDbEntity
  8
0
100
AcDbLine
 10
517.351073484774
 20
219.426379345096
 30
0.0
 11
518.606755513525
 21
219.21159982109
 31
0.0
  0
LINE
  5
754
330
1E
100
AcDbEntity
  8
0
100
AcDbLine
 10
509.688755513525
 20
218.96159982109
 30
0.0
 11
510.738755513525
 21
219.22859982109
 31
0.0
  0
LINE
  5
755
330
1E
100
AcDbEntity
  8
0
100
AcDbLine
 10
508.331755513525
 20
218.51459982109
 30
0.0
 11
509.688755513525
 21
218.96159982109
 31
0.0
  0
LINE
  5
756
330
1E
100
AcDbEntity
  8
0
100
AcDbLine
 10
521.131755513525
 20
218.44159982109
 30
0.0
 11
522.348755513525
 21
217.92459982109
 31
0.0
  0
LINE
  5
757
330
1E
100
AcDbEntity
  8
0
100
AcDbLine
 10
522.348755513525
 20
217.92459982109
 30
0.0
 11
523.408961749325
 21
217.366335942111
 31
0.0
  0
LINE
  5
758
330
1E
100
AcDbEntity
  8
0
100
AcDbLine
 10
523.408961749325
 20
217.366335942111
 30
0.0
 11
525.755755513525
 21
215.89559982109
 31
0.0
  0
LINE
  5
759
330
1E
100
AcDbEntity
  8
0
100
AcDbLine
 10
527.696755513525
 20
214.28159982109
 30
0.0
 11
528.683755513525
 21
213.30159982109
 31
0.0
  0
LINE
  5
75A
330
1E
100
AcDbEntity
  8
0
100
AcDbLine
 10
525.755755513525
 20
215.89559982109
 30
0.0
 11
527.696755513525
 21
214.28159982109
 31
0.0
  0
LINE
  5
75B
330
1E
100
AcDbEntity
  8
0
100
AcDbLine
 10
514.677755513525
 20
219.65959982109
 30
0.0
 11
517.351073484774
 21
219.426379345096
 31
0.0
  0
LINE
  5
75C
330
1E
100
AcDbEntity
  8
0
100
AcDbLine
 10
503.556755513525
 20
220.31659982109
 30
0.0
 11
506.227755513525
 21
221.29059982109
 31
0.0
  0
LINE
  5
75E
330
1E
100
AcDbEntity
  8
0
100
AcDbLine
 10
506.227755513525
 20
221.29059982109
 30
0.0
 11
508.982755513525
 21
221.99559982109
 31
0.0
  0
LINE
  5
75F
330
1E
100
AcDbEntity
  8
0
100
AcDbLine
 10
511.795755513525
 20
222.42059982109
 30
0.0
 11
514.634755513525
 21
222.56159982109
 31
0.0
  0
LINE
  5
760
330
1E
100
AcDbEntity
  8
0
100
AcDbLine
 10
508.982755513525
 20
221.99559982109
 30
0.0
 11
511.795755513525
 21
222.42059982109
 31
0.0
  0
LINE
  5
761
330
1E
100
AcDbEntity
  8
0
100
AcDbLine
 10
523.042755513525
 20
221.29059982109
 30
0.0
 11
525.713755513525
 21
220.31659982109
 31
0.0
  0
LINE
  5
762
330
1E
100
AcDbEntity
  8
0
100
AcDbLine
 10
520.287755513525
 20
221.99559982109
 30
0.0
 11
523.042755513525
 21
221.29059982109
 31
0.0
  0
LINE
  5
763
330
1E
100
AcDbEntity
  8
0
100
AcDbLine
 10
514.634755513525
 20
222.56159982109
 30
0.0
 11
517.474755513525
 21
222.42059982109
 31
0.0
  0
LINE
  5
765
330
1E
100
AcDbEntity
  8
0
100
AcDbLine
 10
517.474755513525
 20
222.42059982109
 30
0.0
 11
520.287755513525
 21
221.99559982109
 31
0.0
  0
LINE
  5
766
330
1E
100
AcDbEntity
  8
0
100
AcDbLine
 10
525.713755513525
 20
220.31659982109
 30
0.0
 11
528.274755513525
 21
219.07959982109
 31
0.0
  0
LINE
  5
767
330
1E
100
AcDbEntity
  8
0
100
AcDbLine
 10
533.049755513525
 20
215.79959982109
 30
0.0
 11
535.161755513525
 21
213.81259982109
 31
0.0
  0
LINE
  5
769
330
1E
100
AcDbEntity
  8
0
100
AcDbLine
 10
530.745755513525
 20
217.56059982109
 30
0.0
 11
533.049755513525
 21
215.79959982109
 31
0.0
  0
LINE
  5
76C
330
1E
100
AcDbEntity
  8
0
100
AcDbLine
 10
528.274755513525
 20
219.07959982109
 30
0.0
 11
530.745755513525
 21
217.56059982109
 31
0.0
  0
LINE
  5
775
330
1E
100
AcDbEntity
  8
0
100
AcDbLine
 10
533.879755513525
 20
205.09459982109
 30
0.0
 11
534.714755513525
 21
202.75459982109
 31
0.0
  0
LINE
  5
776
330
1E
100
AcDbEntity
  8
0
100
AcDbLine
 10
535.354755513525
 20
200.35859982109
 30
0.0
 11
535.742275593188
 21
198.216639818403
 31
0.0
  0
LINE
  5
777
330
1E
100
AcDbEntity
  8
0
100
AcDbLine
 10
536.014755513525
 20
196.08059982109
 30
0.0
 11
536.121755513525
 21
194.23059982109
 31
0.0
  0
ENDSEC
  0
SECTION
  2
OBJECTS
  0
DICTIONARY
  5
C
330
0
100
AcDbDictionary
281
     1
  3
ACAD_GROUP
350
D
  3
ACAD_LAYOUT
350
19
  3
ACAD_MLEADERSTYLE
350
77A
  3
ACAD_MLINESTYLE
350
16
  3
ACAD_PLOTSETTINGS
350
18
  3
ACAD_PLOTSTYLENAME
350
E
  3
ACAD_SCALELIST
350
3F9
  3
AcDbVariableDictionary
350
3F5
  3
DWGPROPS
350
77D
  0
DICTIONARY
  5
D
102
{ACAD_REACTORS
330
C
102
}
330
C
100
AcDbDictionary
281
     1
  0
DICTIONARY
  5
19
102
{ACAD_REACTORS
330
C
102
}
330
C
100
AcDbDictionary
281
     1
  3
Layout1
350
1D
  3
Model
350
21
  0
DICTIONARY
  5
77A
102
{ACAD_REACTORS
330
C
102
}
330
C
100
AcDbDictionary
281
     1
  0
DICTIONARY
  5
16
102
{ACAD_REACTORS
330
C
102
}
330
C
100
AcDbDictionary
281
     1
  3
Standard
350
17
  0
DICTIONARY
  5
18
102
{ACAD_REACTORS
330
C
102
}
330
C
100
AcDbDictionary
281
     1
  0
ACDBDICTIONARYWDFLT
  5
E
102
{ACAD_REACTORS
330
C
102
}
330
C
100
AcDbDictionary
281
     1
  3
Normal
350
F
100
AcDbDictionaryWithDefault
340
F
  0
DICTIONARY
  5
3F9
102
{ACAD_REACTORS
330
C
102
}
330
C
100
AcDbDictionary
281
     1
  3
A0
350
3FA
  3
A1
350
3FB
  3
A2
350
3FC
  3
A3
350
3FD
  3
A4
350
3FE
  3
A5
350
3FF
  3
A6
350
400
  3
A7
350
401
  3
A8
350
402
  3
A9
350
403
  3
B0
350
404
  3
B1
350
405
  3
B2
350
406
  3
B3
350
407
  3
B4
350
408
  3
B5
350
409
  3
B6
350
40A
  3
B7
350
40B
  3
B8
350
40C
  3
B9
350
40D
  3
C0
350
40E
  3
C1
350
40F
  3
C2
350
410
  3
C3
350
411
  3
C4
350
412
  3
C5
350
413
  3
C6
350
414
  3
C7
350
415
  3
C8
350
416
  3
C9
350
417
  3
D0
350
418
  3
D1
350
419
  3
D2
350
41A
  0
DICTIONARY
  5
3F5
102
{ACAD_REACTORS
330
C
102
}
330
C
100
AcDbDictionary
281
     1
  3
CANNOSCALE
350
77B
  3
DIMASSOC
350
3F6
  0
XRECORD
  5
77D
102
{ACAD_REACTORS
330
C
102
}
330
C
100
AcDbXrecord
280
     1
  1
DWGPROPS COOKIE
  2

  3

  4

  6

  7

  8
MARTIN
  9

300
=
301
=
302
=
303
=
304
=
305
=
306
=
307
=
308
=
309
=
 40
0.0
 41
2454638.634877384
 42
2456209.737114792
  1

 90
        0
  0
LAYOUT
  5
1D
102
{ACAD_REACTORS
330
19
102
}
330
19
100
AcDbPlotSettings
  1

  2
hp deskjet 980c series
  4

  6

 40
0.0
 41
0.0
 42
0.0
 43
0.0
 44
0.0
 45
0.0
 46
0.0
 47
0.0
 48
0.0
 49
0.0
140
0.0
141
0.0
142
1.0
143
1.0
 70
   688
 72
     0
 73
     0
 74
     5
  7

 75
    16
147
1.0
148
0.0
149
0.0
100
AcDbLayout
  1
Layout1
 70
     1
 71
     1
 10
0.0
 20
0.0
 11
12.0
 21
9.0
 12
0.0
 22
0.0
 32
0.0
 14
1.000000000000E+20
 24
1.000000000000E+20
 34
1.000000000000E+20
 15
-1.000000000000E+20
 25
-1.000000000000E+20
 35
-1.000000000000E+20
146
0.0
 13
0.0
 23
0.0
 33
0.0
 16
1.0
 26
0.0
 36
0.0
 17
0.0
 27
1.0
 37
0.0
 76
     0
330
1A
  0
LAYOUT
  5
21
102
{ACAD_REACTORS
330
19
102
}
330
19
100
AcDbPlotSettings
  1

  2
hp deskjet 980c series
  4

  6

 40
0.0
 41
0.0
 42
0.0
 43
0.0
 44
0.0
 45
0.0
 46
0.0
 47
0.0
 48
0.0
 49
0.0
140
0.0
141
0.0
142
1.0
143
1.0
 70
  1712
 72
     0
 73
     0
 74
     0
  7

 75
     0
147
1.0
148
0.0
149
0.0
100
AcDbLayout
  1
Model
 70
     1
 71
     0
 10
0.0
 20
0.0
 11
12.0
 21
9.0
 12
0.0
 22
0.0
 32
0.0
 14
121.0
 24
-20.49770017891
 34
0.0
 15
564.661755513525
 25
233.30485
 35
0.0
146
0.0
 13
0.0
 23
0.0
 33
0.0
 16
1.0
 26
0.0
 36
0.0
 17
0.0
 27
1.0
 37
0.0
 76
     0
330
1E
331
3F8
  0
MLINESTYLE
  5
17
102
{ACAD_REACTORS
330
16
102
}
330
16
100
AcDbMlineStyle
  2
STANDARD
 70
     0
  3

 62
   256
 51
90.0
 52
90.0
 71
     2
 49
0.5
 62
   256
  6
BYLAYER
 49
-0.5
 62
   256
  6
BYLAYER
  0
ACDBPLACEHOLDER
  5
F
102
{ACAD_REACTORS
330
E
102
}
330
E
  0
SCALE
  5
3FA
102
{ACAD_REACTORS
330
3F9
102
}
330
3F9
100
AcDbScale
 70
     0
300
1:1
140
1.0
141
1.0
290
     1
  0
SCALE
  5
3FB
102
{ACAD_REACTORS
330
3F9
102
}
330
3F9
100
AcDbScale
 70
     0
300
1:2
140
1.0
141
2.0
290
     0
  0
SCALE
  5
3FC
102
{ACAD_REACTORS
330
3F9
102
}
330
3F9
100
AcDbScale
 70
     0
300
1:4
140
1.0
141
4.0
290
     0
  0
SCALE
  5
3FD
102
{ACAD_REACTORS
330
3F9
102
}
330
3F9
100
AcDbScale
 70
     0
300
1:5
140
1.0
141
5.0
290
     0
  0
SCALE
  5
3FE
102
{ACAD_REACTORS
330
3F9
102
}
330
3F9
100
AcDbScale
 70
     0
300
1:8
140
1.0
141
8.0
290
     0
  0
SCALE
  5
3FF
102
{ACAD_REACTORS
330
3F9
102
}
330
3F9
100
AcDbScale
 70
     0
300
1:10
140
1.0
141
10.0
290
     0
  0
SCALE
  5
400
102
{ACAD_REACTORS
330
3F9
102
}
330
3F9
100
AcDbScale
 70
     0
300
1:16
140
1.0
141
16.0
290
     0
  0
SCALE
  5
401
102
{ACAD_REACTORS
330
3F9
102
}
330
3F9
100
AcDbScale
 70
     0
300
1:20
140
1.0
141
20.0
290
     0
  0
SCALE
  5
402
102
{ACAD_REACTORS
330
3F9
102
}
330
3F9
100
AcDbScale
 70
     0
300
1:30
140
1.0
141
30.0
290
     0
  0
SCALE
  5
403
102
{ACAD_REACTORS
330
3F9
102
}
330
3F9
100
AcDbScale
 70
     0
300
1:40
140
1.0
141
40.0
290
     0
  0
SCALE
  5
404
102
{ACAD_REACTORS
330
3F9
102
}
330
3F9
100
AcDbScale
 70
     0
300
1:50
140
1.0
141
50.0
290
     0
  0
SCALE
  5
405
102
{ACAD_REACTORS
330
3F9
102
}
330
3F9
100
AcDbScale
 70
     0
300
1:100
140
1.0
141
100.0
290
     0
  0
SCALE
  5
406
102
{ACAD_REACTORS
330
3F9
102
}
330
3F9
100
AcDbScale
 70
     0
300
2:1
140
2.0
141
1.0
290
     0
  0
SCALE
  5
407
102
{ACAD_REACTORS
330
3F9
102
}
330
3F9
100
AcDbScale
 70
     0
300
4:1
140
4.0
141
1.0
290
     0
  0
SCALE
  5
408
102
{ACAD_REACTORS
330
3F9
102
}
330
3F9
100
AcDbScale
 70
     0
300
8:1
140
8.0
141
1.0
290
     0
  0
SCALE
  5
409
102
{ACAD_REACTORS
330
3F9
102
}
330
3F9
100
AcDbScale
 70
     0
300
10:1
140
10.0
141
1.0
290
     0
  0
SCALE
  5
40A
102
{ACAD_REACTORS
330
3F9
102
}
330
3F9
100
AcDbScale
 70
     0
300
100:1
140
100.0
141
1.0
290
     0
  0
SCALE
  5
40B
102
{ACAD_REACTORS
330
3F9
102
}
330
3F9
100
AcDbScale
 70
     0
300
1/128" = 1'-0"
140
0.0078125
141
12.0
290
     0
  0
SCALE
  5
40C
102
{ACAD_REACTORS
330
3F9
102
}
330
3F9
100
AcDbScale
 70
     0
300
1/64" = 1'-0"
140
0.015625
141
12.0
290
     0
  0
SCALE
  5
40D
102
{ACAD_REACTORS
330
3F9
102
}
330
3F9
100
AcDbScale
 70
     0
300
1/32" = 1'-0"
140
0.03125
141
12.0
290
     0
  0
SCALE
  5
40E
102
{ACAD_REACTORS
330
3F9
102
}
330
3F9
100
AcDbScale
 70
     0
300
1/16" = 1'-0"
140
0.0625
141
12.0
290
     0
  0
SCALE
  5
40F
102
{ACAD_REACTORS
330
3F9
102
}
330
3F9
100
AcDbScale
 70
     0
300
3/32" = 1'-0"
140
0.09375
141
12.0
290
     0
  0
SCALE
  5
410
102
{ACAD_REACTORS
330
3F9
102
}
330
3F9
100
AcDbScale
 70
     0
300
1/8" = 1'-0"
140
0.125
141
12.0
290
     0
  0
SCALE
  5
411
102
{ACAD_REACTORS
330
3F9
102
}
330
3F9
100
AcDbScale
 70
     0
300
3/16" = 1'-0"
140
0.1875
141
12.0
290
     0
  0
SCALE
  5
412
102
{ACAD_REACTORS
330
3F9
102
}
330
3F9
100
AcDbScale
 70
     0
300
1/4" = 1'-0"
140
0.25
141
12.0
290
     0
  0
SCALE
  5
413
102
{ACAD_REACTORS
330
3F9
102
}
330
3F9
100
AcDbScale
 70
     0
300
3/8" = 1'-0"
140
0.375
141
12.0
290
     0
  0
SCALE
  5
414
102
{ACAD_REACTORS
330
3F9
102
}
330
3F9
100
AcDbScale
 70
     0
300
1/2" = 1'-0"
140
0.5
141
12.0
290
     0
  0
SCALE
  5
415
102
{ACAD_REACTORS
330
3F9
102
}
330
3F9
100
AcDbScale
 70
     0
300
3/4" = 1'-0"
140
0.75
141
12.0
290
     0
  0
SCALE
  5
416
102
{ACAD_REACTORS
330
3F9
102
}
330
3F9
100
AcDbScale
 70
     0
300
1" = 1'-0"
140
1.0
141
12.0
290
     0
  0
SCALE
  5
417
102
{ACAD_REACTORS
330
3F9
102
}
330
3F9
100
AcDbScale
 70
     0
300
1-1/2" = 1'-0"
140
1.5
141
12.0
290
     0
  0
SCALE
  5
418
102
{ACAD_REACTORS
330
3F9
102
}
330
3F9
100
AcDbScale
 70
     0
300
3" = 1'-0"
140
3.0
141
12.0
290
     0
  0
SCALE
  5
419
102
{ACAD_REACTORS
330
3F9
102
}
330
3F9
100
AcDbScale
 70
     0
300
6" = 1'-0"
140
6.0
141
12.0
290
     0
  0
SCALE
  5
41A
102
{ACAD_REACTORS
330
3F9
102
}
330
3F9
100
AcDbScale
 70
     0
300
1'-0" = 1'-0"
140
12.0
141
12.0
290
     0
  0
DICTIONARYVAR
  5
77B
102
{ACAD_REACTORS
330
3F5
102
}
330
3F5
100
DictionaryVariables
280
     0
  1
1:1
  0
DICTIONARYVAR
  5
3F6
102
{ACAD_REACTORS
330
3F5
102
}
330
3F5
100
DictionaryVariables
280
     0
  1
1
  0
ENDSEC
  0
SECTION
  2
THUMBNAILIMAGE
 90
    16364
310
28000000B40000005500000001000800000000000000000000000000000000000000000000000000FFFFFF000000FF0000FFFF0000FF0000FFFF0000FF000000FF00FF000000000080808000C0C0C0000000FF007F7FFF000000A5005252A50000007F003F3F7F0000004C0026264C000000260013132600003FFF007F9FFF
310
000029A5005267A500001F7F003F4F7F0000134C00262F4C000009260013172600007FFF007FBFFF000052A500527CA500003F7F003F5F7F0000264C0026394C0000132600131C260000BFFF007FDFFF00007CA5005291A500005F7F003F6F7F0000394C0026424C00001C26001321260000FFFF007FFFFF0000A5A50052A5
310
A500007F7F003F7F7F00004C4C00264C4C00002626001326260000FFBF007FFFDF0000A57C0052A59100007F5F003F7F6F00004C3900264C420000261C001326210000FF7F007FFFBF0000A5520052A57C00007F3F003F7F5F00004C2600264C39000026130013261C0000FF3F007FFF9F0000A5290052A56700007F1F003F
310
7F4F00004C1300264C2F00002609001326170000FF00007FFF7F0000A5000052A55200007F00003F7F3F00004C0000264C260000260000132613003FFF00009FFF7F0029A5000067A552001F7F00004F7F3F00134C00002F4C260009260000172613007FFF0000BFFF7F0052A500007CA552003F7F00005F7F3F00264C0000
310
394C2600132600001C261300BFFF0000DFFF7F007CA5000091A552005F7F00006F7F3F00394C0000424C26001C26000021261300FFFF0000FFFF7F00A5A50000A5A552007F7F00007F7F3F004C4C00004C4C26002626000026261300FFBF0000FFDF7F00A57C0000A59152007F5F00007F6F3F004C3900004C422600261C00
310
0026211300FF7F0000FFBF7F00A5520000A57C52007F3F00007F5F3F004C2600004C39260026130000261C1300FF3F0000FF9F7F00A5290000A56752007F1F00007F4F3F004C1300004C2F26002609000026171300FF000000FF7F7F00A5000000A55252007F0000007F3F3F004C0000004C2626002600000026131300FF00
310
3F00FF7F9F00A5002900A55267007F001F007F3F4F004C0013004C262F002600090026131700FF007F00FF7FBF00A5005200A5527C007F003F007F3F5F004C0026004C2639002600130026131C00FF00BF00FF7FDF00A5007C00A55291007F005F007F3F6F004C0039004C26420026001C0026132100FF00FF00FF7FFF00A5
310
00A500A552A5007F007F007F3F7F004C004C004C264C002600260026132600BF00FF00DF7FFF007C00A5009152A5005F007F006F3F7F0039004C0042264C001C002600211326007F00FF00BF7FFF005200A5007C52A5003F007F005F3F7F0026004C0039264C00130026001C1326003F00FF009F7FFF002900A5006752A500
310
1F007F004F3F7F0013004C002F264C000900260017132600000000002D2D2D005B5B5B0089898900B7B7B700B3B3B30000000000000000000000000000000000000000000000000000000000000000000000000000000000000000000000000000000000000000000000000000000000000000000000000000000000000000
310
00000000000000000000000000000000000000000000000000000000000000000000000000000000000000000000000000000000000000000000000000000000000000000000000000000000000000000000000000000000000000000000000000000000000000000000000000000000000000000000000000000000000000
310
00000000000000000000000000000000000000000000000000000000000000000000000000000000000000000000000000000000000000000000000000000000000000000000000000000000000000000000000000000000000000000000000000000000000000000000000000000000000000000000000000000000000000
310
00000000000000000000000000000000000000000000000000000000000000000000000000000000000000000000000000000000000000000000000000000000000000000000000000000000000000000000000000000000000000000000000000000000000000000000000000000000000000000000000000000000000000
310
00000000000000000000000000000000000000000000000000000000000000000000000000000000000000000000000000000000000000000000000000000000000000000000000000000000000000000000000000000000000000000000000000000000000000000000000000000000000000000000000000000000000000
310
00000000000000000000000000000000000000000000000000000000000000000000000000000000000000000000000000000000000000000000000000000000000000000000000000000000000000000000000000000000000000000000000000000000000000000000000000000707070707070707070000000000000000
310
00000000000000000000000000000000000000000000000000000000000000000000000000000000000000000000000000000000000000000000000000000000000000000000000000000000000000000000000000000000000000000000000000000000000000000000000000000000000000000000000000000000000000
310
00000000000000000000000000000000000000000000000000000000000000000000070700000000000000000007070000000000000000000000000000000000000000000000000000000000000000000000000000000000000000000000000000000000000000000000000000000000000000000000000000000000000000
310
00000000000000000000000000000000000000000000000000000000000000000000000000000000000000000000000000000000000000000000000000000000000000000000000000000000000000000000000000070700000000000007000000000000070700000000000000000000000000000000000000000000000000
310
00000000000000000000000000000000000000000000000000000000000000000000000000000000000000000000000000000000000000000000000000000000000000000000000000000000000000000000000000000000000000000000000000000000000000000000000000000000000000000000000000000000000000
310
00000000000000000000070000070707070707070707070707070000070000000000000000000000000000000000000000000000000000000000000000000000000000000000000000000000000000000000000000000000000000000000000000000000000000000000000000000000000000000000000000000000000000
310
00000000000000000000000000000000000000000000000000000000000000000000000000000000000000000000000000000000000000000000000000070700070707070000000000000000000707070700070700000000000000000000000000000000000000000000000000000000000000000000000000000000000000
310
00000000000000000000000000000000000000000000000000000000000000000000000000000000000000000000000000000000000000000000000000000000000000000000000000000000000000000000000000000000000000000000000000000000000000000000000000000000000700000700070000000000000000
310
00000000000707070000070000000000000000000000000000000000000000000000000000000000000000000000000000000000000000000000000000000000000000000000000000000000000000000000000000000000000000000000000000000000000000000000000000000000000000000000000000000000000000
310
00000000000000000000000000000000000000000000000000000000000000000000000000000700070707070000000000000000000000000000000007070707000000000000000000000000000000000000000000000000000000000000000000000000000000000000000000000000000000000000000000000000000000
310
00000000000000000000000000000000000000000000000000000000000000000000000000000000000000000000000000000000000000000000000000000000000000000000000000000000000000000000000000000000000000070707070000000000000000000000000000000000000007070007000000000000000000
310
00000000000000000000000000000000000000000000000000000000000000000000000000000000000000000000000000000000000000000000000000000000000000000000000000000000000000000000000000000000000000000000000000000000000000000000000000000000000000000000000000000000000000
310
00000000000000000000000000000000070007000000000000000000000000000000000000000000000007000700000000000000000000000000000000000000000000000000000000000000000000000000000000000000000000000000000000000000000000000000000000000000000000000000000000000000000000
310
00000000000000000000000000000000000000000000000000000000000000000000000000000000000000000000000000000000000000000000000000000000000000000700070000000000000000000000000000000000000000000000000707070000000000000000000000000000000000000000000000000000000000
310
00000000000000000000000000000000000000000000000000000000000000000000000000000000000000000000000000000000000000000000000000000000000000000000000000000000000000000000000000000000000000000000000000000000000000000000000000000000000000000000000000070707000000
310
00000000000000000000000000000000000000000000070007000000000000000000000000000000000000000000000000000000000000000000000000000000000000000000000000000000000000000000000000000000000000000000000000000000000000000000000000000000000000000000000000000000000000
310
00000000000000000000000000000000000000000000000000000000000000000000000000000000000000000000000707000000000000000000000000000000000000000000000000000000070700000000000000000000000000000000000000000000000000000000000000000000000000000000000000000000000000
310
00000000000000000000000000000000000000000000000000000000000000000000000000000000000000000000000000000000000000000000000000000000000000000000000000000000000000000000000000000000000000000000000000000000070700000000000000000000000000000000000000000000000000
310
00000707000000000000000000000000000000000000000000000000000000000000000000000000000000000000000000000000000000000000000000000000000000000000000000000000000000000000000000000000000000000000000000000000000000000000000000000000000000000000000000000000000000
310
00000000000000000000000000000000000000000000000000000707000000000000000000000000000000000000000000000000000000000700000000000000000000000000000000000000000000000000000000000000000000000000000000000000000000000000000000000000000000000000000000000000000000
310
00000000000000000000000000000000000000000000000000000000000000000000000000000000000000000000000000000000000000000000000000000000000000000000000000000000000000070000000000000000000000000000000000000000000000000000000000070000000000000000000000000000000000
310
00000000000000000000000000000000000000000000000000000000000000000000000000000000000000000000000000000000000000000000000000000000000000000000000000000000000000000000000000000000000000000000000000000000000000000000000000000000000000000000000000000000000000
310
00000000000700000000000000000000000000000000000000000000000000000000000700000000000000000000000000000000000000000000000000000000000000000000000000000000000000000000000000000000000000000000000000000000000000000000000000000000000000000000000000000000000000
310
00000000000000000000000000000000000000000000000000000000000000000000000000000000000000000000000000000000000000000000070000000000000000000000000000000000000000000000000000000000070000000000000000000000000000000000000000000000000000000000000000000000000000
310
00000000000000000000000000000000000000000000000000000000000000000000000000000000000000000000000000000000000000000000000000000000000000000000000000000000000000000000000000000000000000000000000000000000000000000000000000000007000000000000000000000000000000
310
00000000000000000000000000000700000000000000000000000000000000000000000000000000000000000000000000000000000000000000000000000000000000000000000000000000000000000000000000000000000000000000000000000000000000000000000000000000000000000000000000000000000000
310
00000000000000000000000000000000000000000000000000000000000000000000000000070000000000000000000000000000000000000000000000000000000000070000000000000000000000000000000000000000000000000000000000000000000000000000000000000000000000000000000000000000000000
310
00000000000000000000000000000000000000000000000000000000000000000000000000000000000000000000000000000000000000000000000000000000000000000000000000000000000000000000000000000000000007000000000000000000000000000000000000000000000000000000000007000000000000
310
00000000000000000000000000000000000000000000000000000000000000000000000000000000000000000000000000000000000000000000000000000000000000000000000000000000000000000000000000000000000000000000000000000000000000000000000000000000000000000000000000000000000000
310
00000000000000000000000000000000070700000000000000000000000000000000000000000000000000000000070000000000000000000000000000000000000000000000000000000000000000000000000000000000000000000000000000000000000000000000000000000000000000000000000000000000000000
310
00000000000000000000000000000007070707070000000000000000000000000000000000000000000000000000000000000000000000000000000000000000000000000007070000000000000000000000000000000000000000000000000000000700000000000000000000000000000000000000000000000000000000
310
00000000000000000000000000000000000000000000000000000000000000000000000000000000000000000000000000000000000000000000000000000000000000070000000000070000000000000000000000000000000000000000000000000000000000000000000000000000000000000000000000000007000000
310
00000000000000000000000000000000000000000000000007000000000000000000000000000000000000000000000000000000000000000000000000000000000000000000000000000000000000000000000000000000000000000000000000000000000000000000000000000000000000000000000700000000000000
310
07000000000000000000000000000000000000000000000000000000000000000000000000000000000000000000000000000700000000000000000000000000000000000000000000000000070000000000000000000000000000000000000000000000000000000000000000000000000000000000000000000000000000
310
00000000000000000000000000000000000000000000000000000000000000000000000000000000000000000007000000000000000700000000000000000000000000000000000000000000000000000000000000000000000000000000000000000000000000070000000000000000000000000000000000000000000000
310
00070000000000000000000000000000000000000000000000000000000000000000000000000000000000000000000000000000000000000000000000000000000000000000000000000000000000000000000000000000000000000000000000000700000000000000070000000000000000000000000000000000000000
310
00000000000000000000000000000000000000000000000000000000000007000000000000000000000000000000000000000000000007000000000000000000000000000000000000000000000000000000000000000000000000000000000000000000000000000000000000000000000000000000000000000000000000
310
00000000000000000000000000000000000000000000000007000000000000000700000000000000000000000000000000000000000000000000000000000000000000000000000000000000000000000000000007000000000000000000000000000000000000000000070000000000000000000000000000000000000000
310
00000000000000000000000000000000000000000000000000000000000000000000000000000000000000000000000000000000000000000000000000000000000000000000000000000000000700000000000000070000000000000000000000000000000000000000000000000000000000000000000000000000000000
310
00000000000000000000000707000000000000000000000000000000000007070000000000000000000000000000000000000000000000000000000000000000000000000000000000000000000000000000000000000000000000000000000000000000000000000000000000000000000000000000000000000000000000
310
00000007000000000000000700000000000000000000000000000000000000000000000000000000000000000000000000000000000000000000000000000000000007070000000000000000000000000000070000000000000000000000000000000000000000000000000000000000000000000000000000000000000000
310
00000000000000000000000000000000000000000000000000000000000000000000000000000000000000000000000000000000000000000700000000000000070000000000000000000000000000000000000000000000000000000000000000000000000000000000000000000000000000000000000007070000000000
310
00000000000007070000000000000000000000000000000000000000000000000000000000000000000000000000000000000000000000000000000000000000000000000000000000000000000000000000000000000000000000000000000000000000000000000000000000070000000000000007000000000000000000
310
00000000000000000000000000000000000000000000000000000000000000000000000000000000000000000000000007070707070707070707070000000000000000000000000000000000000000000000000000000000000000000000000000000000000000000000000000000000000000000000000000000000000000
310
00000000000000000000000000000000000000000000000000000000000000000000000700000000000000070000000000000000000000000000000000000000000000000000000000000000000000000000000000000000000000000000000000000000000000070000000000070000000000000000000000000000000000
310
00000000000000000000000000000000000000000000000000000000000000000000000000000000000000000000000000000000000000000000000000000000000000000000000000000000000000000000000000000000070000000000000007000000000000000000000000000000000000000000000000000000000000
310
00000000000000000000000000000000000000000000000000000000000700000000000707000000000000000000000000000000000000000000000000000000000000000000000000000000000000000000000000000000000000000000000000000000000000000000000000000000000000000000000000000000000000
310
00000000000000000000000000000700000000000000070000000000000000000000000000000000000000000000000000000000000000000000000000000000000000000000000000000000000000000007070700000007070700000000000000000000000000000000000000000000000000000000000000000000000000
310
00000000000000000000000000000000000000000000000000000000000000000000000000000000000000000000000000000000000000000000000000000000000000070000000000000007000000000000000000000000000000000000000000000000000000000000000000000000000000000000000000000000000000
310
00000000000000070707070707070707000000000000000000000000000000000000000000000000000000000000000000000000000000000000000000000000000000000000000000000000000000000000000000000000000000000000000000000000000000000000000000000000000000000000000007000000000000
310
00070000000000000000000000000000000000000000000000000000000000000000000000000000000000000000000000000000000000000000000007000000000000000700000000000000000000000000000000000000000000000000000000000000000000000000000000000000000000000000000000000000000000
310
00000000000000000000000000000000000000000000000000000000000000000000000000000000000000000000070000000000000007000000000000000000000000000000000000000000000000000000000000000000000000000000000000000000000000000000000000000000000700000000000000070000000000
310
00000000000000000000000000000000000000000000000000000000000000000000000000000000000000000000000000000000000000000000000000000000000000000000000000000000000000000000000000000000000000000000000000000007000000000000000700000000000000000000000000000000000000
310
00000000000000000000000000000000000000000000000000000000000000000000000000000007000000000000000700000000000000000000000000000000000000000000000000000000000000000000000000000000000000000000000000000000000000000000000000000000000000000000000000000000000000
310
00000000000000000000000000000000000000000000000000070000000000000007000000000000000000000000000000000000000000000000000000000000000000000000000000000000000000000000000000000000000000000700000000000000070000000000000000000000000000000000000000000000000000
310
00000000000000000000000000000000000000000000000000000000000000000000000000000000000000000000000000000000000000000000000000000000000000000000000000000000000007000000000000000700000000000000000000000000000000000000000000000000000000000000000000000000000000
310
00000000000000000000000000000000000007000000000000000700000000000000000000000000000000000000000000000000000000000000000000000000000000000000000000000000000000000000000000000000000000000000000000000000000000000000000000000000000000000000000000000000000000
310
00000000070000000000000007000000000000000000000000000000000000000000000000000000000000000000000000000000000000000000000000000000000000000000000700000000000000070000000000000000000000000000000000000000000000000000000000000000000000000000000000000000000000
310
00000000000000000000000000000000000000000000000000000000000000000000000000000000000000000000000000000000000000000007000000000000000700000000000000000000000000000000000000000000000000000000000000000000000000000000000000000000000000000000000000000000070000
310
00000000000700000000000000000000000000000000000000000000000000000000000000000000000000000000000000000000000000000000000000000000000000000000000000000000000000000000000000000000000000000000000000000000000000000000000000000700000000000000070000000000000000
310
00000000000000000000000000000000000000000000000000000000000000000000000000000000000000000000000000000700000000000000070000000000000000000000000000000000000000000000000000000000000000000000000000000000000000000000000000000000000000000000000000000000000000
310
00000000000000000000000000000000000000000000000000000000000000000000000007000000000000000700000000000000000000000000000000000000000000000000000000000000000000000000000000000000000000000000000000000000000000070000000000000007000000000000000000000000000000
310
00000000000000000000000000000000000000000000000000000000000000000000000000000000000000000000000000000000000000000000000000000000000000000000000000000000000000000000000000000000000700000000000000070000000000000000000000000000000000000000000000000000000000
310
00000000000000000000000000000000000000000000000000000000000700000000000000070000000000000000000000000000000000000000000000000000000000000000000000000000000000000000000000000000000000000000000000000000000000000000000000000000000000000000000000000000000000
310
00000000000000000000000000000007000000000000000700000000000000000000000000000000000000000000000000000000000000000000000000000000000000000000000000000000000000000000070000000000000007000000000000000000000000000000000000000000000000000000000000000000000000
310
00000000000000000000000000000000000000000000000000000000000000000000000000000000000000000000000000000000000000000000000000000000000000000700000000000000070000000000000000000000000000000000000000000000000000000000000000000000000000000000000000000000000000
310
00000000000000000700000000000000070000000000000000000000000000000000000000000000000000000000000000000000000000000000000000000000000000000000000000000000000000000000000000000000000000000000000000000000000000000000000000000000000000000000000000070000000000
310
00000700000000000000000000000000000000000000000000000000000000000000000000000000000000000000000000000000000000000000000000070000000000000007000000000000000000000000000000000000000000000000000000000000000000000000000000000000000000000000000000000000000000
310
00000000000000000000000000000000000000000000000000000000000000000000000000000000000000000000000700000000000000070000000000000000000000000000000000000000000000000000000000000000000000000000000000000000000000000000000000000000000007000000000000000700000000
310
00000000000000000000000000000000000000000000000000000000000000000000000000000000000000000000000000000000000000000000000000000000000000000000000000000000000000000000000000000000000000000000000000000000070000000000000007000000000000000000000000000000000000
310
00000000000000000000000000000000000000000000000000000000000000000000000000000000070000000000000007000000000000000000000000000000000000000000000000000000000000000000000000000000000000000000000000000000000000000000000000000000000000000000000000000000000000
310
00000000000000000000000000000000000000000000000000000700000000000000070000000000000000000000000000000000000000000000000000000000000000000000000000000000000000000000000000000000000000000007000000000000000707000000000000000000000000000000000000000000000000
310
00000000000000000000000000000000000000000000000000000000000000000000000000000000000000000000000000000000000000000000000000000000000000000000000000000000000000070000000000000007000000000000000000000000000000000000000000000000000000000000000000000000000000
310
00000000000000000000000000000000000007070000000000000007070000000000000000000000000000000000000000000000000000000000000000000000000000000000000000000000000000000000000000000000000000000000000000000000000000000000000000000000000000000000000000000000000000
310
00000000000700000000000000070000000000000000000000000000000000000000000000000000000000000000000000000000000000000000000000000000000000000000000700070000000000000700000000000000000000000000000000000000000000000000000000000000000000000000000000000000000000
310
00000000000000000000000000000000000000000000000000000000000000000000000000000000000000000000000000000000000000000000070000000000000007000000000000000000000000000000000000000000000000000000000000000000000000000000000000000000000000000000000000000000070007
310
07000000000700070000000000000000000000000000000000000000000000000000000000000000000000000000000000000000000000000000000000000000000000000000000707070707070707070707070707070707070707070707070707070707070707070707070707070707000000000000000707070707070707
310
07070707070707070707070707070707070707070707070707070707070707070707070707070707070707070707070707070707000707070707000707070707070707000000000000000000000000000000000000000000000000000000000000000000000000000000000000000000000000000000000000000707000000
310
00000000000000000000000000000000000000000000000000000000000000000000000000070000000000000007000000000000000000000000000000000000000000000000000000000000000000000000000000000000000000000000000000000000000000070007000000000707000700000000000707000000000000
310
00000000000000000000000000000000000000000000000000000000000000000000000000000000000000000000000007000000000000000000000000000000000000000000000000000000000000000000000000000000000007000000000000000700000000000000000000000000000000000000000000000000000000
310
00000000000000000000000000000000000000000000000000000000000700000707070700000007000000000000070000000000000000000000000000000000000000000000000000000000000000000000000000000000000000000000000000000000000700000000000000000007070707070700000000000000000000
310
00000000000000000000000000000000070000000000000007000000000000000000000000000000000000000000000000000007070707070700000000000000000000000000000000000000000000000000070700000000000000000700000000000007000000000000000000000000000000000000000000000000000000
310
00000000000000000000000000000000000000000000000000000007000000000000000707000000000000070700000000000000000000000000000000000000000000000707000000000000000707000000000000000000000000000000000000000000000007070000000000000707000000000000000000000000000000
310
00000000000000000707000000000000000707000000000000070000000000000000000000000000000000000000000000000000000000000000000000000000000000000000000000000000000000000700000000000707000000000000000000000707000000000000000000000000000000000000000707000700000000
310
00000007070700000000000000000000000000000000000000000707000000000000000000000707000000000000000000000000000000000000000007070007070707070707000707000000000007000000000000000000000000000000000000000000000000000000000000000000000000000000000000000000000000
310
00000000000007000000000700000000000000000000000000070000000000000000000000000000000000000707000007000000000000000700000700000000000000000000000000000000000007000000000000000000000000000707000000000000000000000000000000000000070007000000070707000000070007
310
00000000070000000000000000000000000000000000000000000000000000000000000000000000000000000000000000000000000000000000000700000007000000000000000000000000000000070000000000000000000000000000000000070000070700000000000000070700000700000000000000000000000000
310
00000007070000000000000000000000000000070700000000000000000000000000000000070707070000000000000000000707070700000007000000000000000000000000000000000000000000000000000000000000000000000000000000000000000000000000000707070707070707070707070707070707070707
310
00000000000700000000000000000000000000000000070700070007000000000000000707000007000000000000000000000000000000000707000000000707070707070707070707070707070707070707070000000000000007000707000000000000000000070700070000000700000000000000000000000000000000
310
00000000000000000000000000000000000000000000000000000000000000000700000000000000000000000000000000000000000700000000000700000000000000000000000000000007000007000700000000000000070007000007000000000000000000000000000000070000000007000000000000000000000000
310
00000000000000000007000000000000070007070000000000000000000707000007000007000000000000000000000000000000000000000000000000000000000000000000000000000000000000000000000007000000000000000000000000000000000000000000000700000000070000000000000000000000000000
310
00070007070007000000000000000700070000070000000000000000000000000000000700000000070000000000000000000000000000000000000000000007000000000700000707000000000000000000000007000700000700000000000000000000000000000000000000000000000000000000000000000000000000
310
00000000000000000000070000000000000000000000000000000000000000000007000000000707000000000000000000000000000007000700000700000000000000070007000007000000000000000000000000000007070000000700000000000000000000000000000000000000000000000700000000070000070700
310
00000000000000000700070007000007000000000000000000000000000000000000000000000000000000000000000000000000000000000000000000000007000000000000000000000000000000000000000000000000000000000000000000000000000000000000000700070000070000000000000007000000000000
310
00000000000000000000000000070700000007000000000000000000000000000000000000000000000000000000000700000707000000000000000000070007000000000700000000000000000000000000000000000000000000000000000000000000000000000000000000000000000000000700000000000000000000
310
00000000000000000000000007000000000700000000000000000000000000000007000700000700000000000000000007000007000000000000000000000000000007070000000700000000000000000000000000000000000000000000000700000000070000070007000000000000000700070700070000070000000000
310
00000000000000000000000000000000000000000000000000000000000000000000000000000000000007000000000000000000000000000000000000000000000700000000070000000000000000000000000000000700070700070000000000000007000700000700000000000000000000000000000007000000000700
310
00000000000000000000000000000000000000000007000000000007000700070700000000000707000700070700000700000000000000000000000000000000000000000000000000000000000000000000000000000000000000000000000007000000000000000000000000000000000000000007000000000707000000
310
00000000000000000000000007000007000007000000000007000007000707000000000000000000000000000000070000000007000000000000000000000000000000000000000000070000000000000700070000070700000000070000070007000000070000000000000000000000000000000000000000000000000000
310
00000000000000000000000000000000000000000000000707070707070707070707070707070707070707000000000007000000000000000000000000000000000007000700000007070707070000070000070000000000000000000000000000000007070000000007070707070707070707070707070707070707070700
310
00000000000000070007000007070707070000070007000000000700000000000000000000000000000000000000000000000000000000000000000000000000000000000000000000000000000000000007000000070700000000000000000000000000070700000000000000000000000000000000000707000700000007
310
07070000000700070700000000000000000000000000000000070700000000000000000000000000070707000000000000000000000000000000000007070707000000000000000707070700000000070000000000000000000000000000000000000000000000000000000000000000000000000000000000000000000000
310
00000000000000070000000007070000000000000000000000000700000000000000000000000000000000000000070700070707070007070707000707000000000000000000000000000000000000070700000000000000000000000007070000000000000000000000000000000000000007000707000000000007070007
310
00000000000700000000000000000000000000000000000000000000000000000000000000000000000000000000000000000000000000000000000007000000000000070000000000000000000007000000000000000000000000000000000000000000070000000007000700000007000000000000000000000000000000
310
00000000000000070000000000000000000007000000000000000000000000000000000000000000000707070707070707070707000000000000070000000000000000000000000000000000000000000000000000000000000000000000000000000000000000000000000000000000000700000000000000070000000000
310
00000007000000000000000000000000000000000000000000000007070000070707000007070000000000000000000000000000000000000000000000070000000000000000070000000000000000000000000000000000000000000000000000070707070707000000000000000007000000000000000000000000000000
310
00000000000000000000000000000000000000000000000000000000000000000000000000000007000000000000000007070707070707070000000000000000000000000000000000000000000000000007070707070707070000000000000000000000000000000000000000000000000000070707070707070700000000
310
00000000000000000000000000000000000000000000000000000000000000000000000000070000000000000000000000000000000000000000000000000000000000000000000000000000000000000000000000000000000000000700000000000000000000000000000000000000000000000000000000000000000000
310
00000000000000000000000000000000000000000000000000000000000000000000000000000000000000000000000000000000000000000000000000000000000000000000000000000000000000000000000000000000000007000000000000000000000000000000000000000000000000000000000000000000000000
310
00000000000000000000000000000000000000070707070707070707070707070707070707070707070707070707070707070707070707070707070707070707070707070707070707070707070707070707070707070707070707070707070707070707070707070707070707070707070707070707070707070707070707
310
07070707070707070707070707070707070000000000000000000000000000000000000000000000000000000000000000000000000000000000000000000000000000000000000000000000000000000000000000000000000000000000000000000000000000000000000000000000000000000000000000000000000000
310
00000000000000000000000000000000000000000000000000000000000000000000000000000000000000000000000000000000000000000000000000000000000000000000000000000000000000000000000000000000000000000000000000000000000000000000000000000000000000000000000000000000000000
310
00000000000000000000000000000000000000000000000000000000000000000000000000000000000000000000000000000000000000000000000000000000000000000000000000000000000000000000000000000000000000000000000000000000000000000000000000000000000000000000000000000000000000
310
00000000000000000000000000000000000000000000000000000000000000000000000000000000000000000000000000000000000000000000000000000000000000000000000000000000000000000000000000000000000000000000000000000000000000000000000000000000000000000000000000000000000000
310
00000000000000000000000000000000000000000000000000000000000000000000000000000000000000000000000000000000000000000000000000000000000000000000000000000000000000000000000000000000000000000000000000000000000000000000000000000000000000000000000000000000000000
310
000000000000000000000000000000000000000000000000000000000000000000000000000000000000000000000000000000000000000000000000000000000000000000000000000000000000000000000000000000000000000000000000000000000000000000000000
  0
ENDSEC
  0
EOF
