  0
SECTION
  2
HEADER
  9
$ACADVER
  1
AC1015
  9
$ACADMAINTVER
 70
    13
  9
$DWGCODEPAGE
  3
ANSI_1252
  9
$INSBASE
 10
0.0
 20
0.0
 30
0.0
  9
$EXTMIN
 10
0.0
 20
0.250000000000004
 30
0.0
  9
$EXTMAX
 10
437.0
 20
253.75
 30
0.0
  9
$LIMMIN
 10
0.0
 20
0.0
  9
$LIMMAX
 10
12.0
 20
9.0
  9
$ORTHOMODE
 70
     0
  9
$REGENMODE
 70
     1
  9
$FILLMODE
 70
     1
  9
$QTEXTMODE
 70
     0
  9
$MIRRTEXT
 70
     1
  9
$LTSCALE
 40
1.0
  9
$ATTMODE
 70
     1
  9
$TEXTSIZE
 40
0.2
  9
$TRACEWID
 40
0.05
  9
$TEXTSTYLE
  7
Standard
  9
$CLAYER
  8
0
  9
$CELTYPE
  6
Continuous
  9
$CECOLOR
 62
   256
  9
$CELTSCALE
 40
1.0
  9
$DISPSILH
 70
     0
  9
$DIMSCALE
 40
1.0
  9
$DIMASZ
 40
0.18
  9
$DIMEXO
 40
0.0625
  9
$DIMDLI
 40
0.38
  9
$DIMRND
 40
0.0
  9
$DIMDLE
 40
0.0
  9
$DIMEXE
 40
0.18
  9
$DIMTP
 40
0.0
  9
$DIMTM
 40
0.0
  9
$DIMTXT
 40
0.18
  9
$DIMCEN
 40
0.09
  9
$DIMTSZ
 40
0.0
  9
$DIMTOL
 70
     0
  9
$DIMLIM
 70
     0
  9
$DIMTIH
 70
     1
  9
$DIMTOH
 70
     1
  9
$DIMSE1
 70
     0
  9
$DIMSE2
 70
     0
  9
$DIMTAD
 70
     0
  9
$DIMZIN
 70
     0
  9
$DIMBLK
  1

  9
$DIMASO
 70
     1
  9
$DIMSHO
 70
     1
  9
$DIMPOST
  1

  9
$DIMAPOST
  1

  9
$DIMALT
 70
     0
  9
$DIMALTD
 70
     2
  9
$DIMALTF
 40
25.4
  9
$DIMLFAC
 40
1.0
  9
$DIMTOFL
 70
     0
  9
$DIMTVP
 40
0.0
  9
$DIMTIX
 70
     0
  9
$DIMSOXD
 70
     0
  9
$DIMSAH
 70
     0
  9
$DIMBLK1
  1

  9
$DIMBLK2
  1

  9
$DIMSTYLE
  2
Standard
  9
$DIMCLRD
 70
     0
  9
$DIMCLRE
 70
     0
  9
$DIMCLRT
 70
     0
  9
$DIMTFAC
 40
1.0
  9
$DIMGAP
 40
0.09
  9
$DIMJUST
 70
     0
  9
$DIMSD1
 70
     0
  9
$DIMSD2
 70
     0
  9
$DIMTOLJ
 70
     1
  9
$DIMTZIN
 70
     0
  9
$DIMALTZ
 70
     0
  9
$DIMALTTZ
 70
     0
  9
$DIMUPT
 70
     0
  9
$DIMDEC
 70
     4
  9
$DIMTDEC
 70
     4
  9
$DIMALTU
 70
     2
  9
$DIMALTTD
 70
     2
  9
$DIMTXSTY
  7
Standard
  9
$DIMAUNIT
 70
     0
  9
$DIMADEC
 70
     0
  9
$DIMALTRND
 40
0.0
  9
$DIMAZIN
 70
     0
  9
$DIMDSEP
 70
    46
  9
$DIMATFIT
 70
     3
  9
$DIMFRAC
 70
     0
  9
$DIMLDRBLK
  1

  9
$DIMLUNIT
 70
     2
  9
$DIMLWD
 70
    -2
  9
$DIMLWE
 70
    -2
  9
$DIMTMOVE
 70
     0
  9
$LUNITS
 70
     2
  9
$LUPREC
 70
     4
  9
$SKETCHINC
 40
0.1
  9
$FILLETRAD
 40
0.0
  9
$AUNITS
 70
     0
  9
$AUPREC
 70
     0
  9
$MENU
  1
.
  9
$ELEVATION
 40
0.0
  9
$PELEVATION
 40
0.0
  9
$THICKNESS
 40
0.0
  9
$LIMCHECK
 70
     0
  9
$CHAMFERA
 40
0.0
  9
$CHAMFERB
 40
0.0
  9
$CHAMFERC
 40
0.0
  9
$CHAMFERD
 40
0.0
  9
$SKPOLY
 70
     0
  9
$TDCREATE
 40
2455321.403350324
  9
$TDUCREATE
 40
2455321.320016991
  9
$TDUPDATE
 40
2455321.422866562
  9
$TDUUPDATE
 40
2455321.339533229
  9
$TDINDWG
 40
0.0195162384
  9
$TDUSRTIMER
 40
0.0195162384
  9
$USRTIMER
 70
     1
  9
$ANGBASE
 50
0.0
  9
$ANGDIR
 70
     0
  9
$PDMODE
 70
     0
  9
$PDSIZE
 40
0.0
  9
$PLINEWID
 40
0.0
  9
$SPLFRAME
 70
     0
  9
$SPLINETYPE
 70
     6
  9
$SPLINESEGS
 70
     8
  9
$HANDSEED
  5
367
  9
$SURFTAB1
 70
     6
  9
$SURFTAB2
 70
     6
  9
$SURFTYPE
 70
     6
  9
$SURFU
 70
     6
  9
$SURFV
 70
     6
  9
$UCSBASE
  2

  9
$UCSNAME
  2

  9
$UCSORG
 10
0.0
 20
0.0
 30
0.0
  9
$UCSXDIR
 10
1.0
 20
0.0
 30
0.0
  9
$UCSYDIR
 10
0.0
 20
1.0
 30
0.0
  9
$UCSORTHOREF
  2

  9
$UCSORTHOVIEW
 70
     1
  9
$UCSORGTOP
 10
0.0
 20
0.0
 30
0.0
  9
$UCSORGBOTTOM
 10
0.0
 20
0.0
 30
0.0
  9
$UCSORGLEFT
 10
0.0
 20
0.0
 30
0.0
  9
$UCSORGRIGHT
 10
0.0
 20
0.0
 30
0.0
  9
$UCSORGFRONT
 10
0.0
 20
0.0
 30
0.0
  9
$UCSORGBACK
 10
0.0
 20
0.0
 30
0.0
  9
$PUCSBASE
  2

  9
$PUCSNAME
  2

  9
$PUCSORG
 10
0.0
 20
0.0
 30
0.0
  9
$PUCSXDIR
 10
1.0
 20
0.0
 30
0.0
  9
$PUCSYDIR
 10
0.0
 20
1.0
 30
0.0
  9
$PUCSORTHOREF
  2

  9
$PUCSORTHOVIEW
 70
     0
  9
$PUCSORGTOP
 10
0.0
 20
0.0
 30
0.0
  9
$PUCSORGBOTTOM
 10
0.0
 20
0.0
 30
0.0
  9
$PUCSORGLEFT
 10
0.0
 20
0.0
 30
0.0
  9
$PUCSORGRIGHT
 10
0.0
 20
0.0
 30
0.0
  9
$PUCSORGFRONT
 10
0.0
 20
0.0
 30
0.0
  9
$PUCSORGBACK
 10
0.0
 20
0.0
 30
0.0
  9
$USERI1
 70
     0
  9
$USERI2
 70
     0
  9
$USERI3
 70
     0
  9
$USERI4
 70
     0
  9
$USERI5
 70
     0
  9
$USERR1
 40
0.0
  9
$USERR2
 40
0.0
  9
$USERR3
 40
0.0
  9
$USERR4
 40
0.0
  9
$USERR5
 40
0.0
  9
$WORLDVIEW
 70
     1
  9
$SHADEDGE
 70
     3
  9
$SHADEDIF
 70
    70
  9
$TILEMODE
 70
     1
  9
$MAXACTVP
 70
    64
  9
$PINSBASE
 10
0.0
 20
0.0
 30
0.0
  9
$PLIMCHECK
 70
     0
  9
$PEXTMIN
 10
1.000000000000000E+20
 20
1.000000000000000E+20
 30
1.000000000000000E+20
  9
$PEXTMAX
 10
-1.000000000000000E+20
 20
-1.000000000000000E+20
 30
-1.000000000000000E+20
  9
$PLIMMIN
 10
0.0
 20
0.0
  9
$PLIMMAX
 10
12.0
 20
9.0
  9
$UNITMODE
 70
     0
  9
$VISRETAIN
 70
     1
  9
$PLINEGEN
 70
     0
  9
$PSLTSCALE
 70
     1
  9
$TREEDEPTH
 70
  3020
  9
$CMLSTYLE
  2
Standard
  9
$CMLJUST
 70
     0
  9
$CMLSCALE
 40
1.0
  9
$PROXYGRAPHICS
 70
     1
  9
$MEASUREMENT
 70
     0
  9
$CELWEIGHT
370
    -1
  9
$ENDCAPS
280
     0
  9
$JOINSTYLE
280
     0
  9
$LWDISPLAY
290
     0
  9
$INSUNITS
 70
     0
  9
$HYPERLINKBASE
  1

  9
$STYLESHEET
  1

  9
$XEDIT
290
     1
  9
$CEPSNTYPE
380
     0
  9
$PSTYLEMODE
290
     1
  9
$FINGERPRINTGUID
  2
{8D8B5DB7-D19F-4E2C-A268-CA27D95841ED}
  9
$VERSIONGUID
  2
{CE37FD18-098C-4686-AE61-438501655EA7}
  9
$EXTNAMES
290
     1
  9
$PSVPSCALE
 40
0.0
  9
$OLESTARTUP
290
     0
  0
ENDSEC
  0
SECTION
  2
CLASSES
  0
CLASS
  1
ACDBDICTIONARYWDFLT
  2
AcDbDictionaryWithDefault
  3
AutoCAD 2000
 90
        0
280
     0
281
     0
  0
CLASS
  1
ACDBPLACEHOLDER
  2
AcDbPlaceHolder
  3
AutoCAD 2000
 90
        0
280
     0
281
     0
  0
CLASS
  1
LAYOUT
  2
AcDbLayout
  3
AutoCAD 2000
 90
        0
280
     0
281
     0
  0
CLASS
  1
DICTIONARYVAR
  2
AcDbDictionaryVar
  3
AutoCAD 2000
 90
        0
280
     0
281
     0
  0
ENDSEC
  0
SECTION
  2
TABLES
  0
TABLE
  2
VPORT
  5
8
330
0
100
AcDbSymbolTable
 70
     3
  0
VPORT
  5
366
330
8
100
AcDbSymbolTableRecord
100
AcDbViewportTableRecord
  2
*Active
 70
     0
 10
0.0
 20
0.0
 11
1.0
 21
1.0
 12
218.5
 22
127.0
 13
0.0
 23
0.0
 14
1.0
 24
1.0
 15
0.0
 25
0.0
 16
0.0
 26
0.0
 36
1.0
 17
0.0
 27
0.0
 37
0.0
 40
255.1641137855579
 41
2.041621029572836
 42
50.0
 43
0.0
 44
0.0
 50
0.0
 51
0.0
 71
     0
 72
   100
 73
     1
 74
     3
 75
     0
 76
     0
 77
     0
 78
     0
281
     0
 65
     1
110
0.0
120
0.0
130
0.0
111
1.0
121
0.0
131
0.0
112
0.0
122
1.0
132
0.0
 79
     1
146
0.0
  0
ENDTAB
  0
TABLE
  2
LTYPE
  5
5
330
0
100
AcDbSymbolTable
 70
     1
  0
LTYPE
  5
13
330
5
100
AcDbSymbolTableRecord
100
AcDbLinetypeTableRecord
  2
ByBlock
 70
     0
  3

 72
    65
 73
     0
 40
0.0
  0
LTYPE
  5
14
330
5
100
AcDbSymbolTableRecord
100
AcDbLinetypeTableRecord
  2
ByLayer
 70
     0
  3

 72
    65
 73
     0
 40
0.0
  0
LTYPE
  5
15
330
5
100
AcDbSymbolTableRecord
100
AcDbLinetypeTableRecord
  2
Continuous
 70
     0
  3
Solid line
 72
    65
 73
     0
 40
0.0
  0
ENDTAB
  0
TABLE
  2
LAYER
  5
2
330
0
100
AcDbSymbolTable
 70
     1
  0
LAYER
  5
10
330
2
100
AcDbSymbolTableRecord
100
AcDbLayerTableRecord
  2
0
 70
     0
 62
     7
  6
Continuous
370
    -3
390
F
  0
ENDTAB
  0
TABLE
  2
STYLE
  5
3
330
0
100
AcDbSymbolTable
 70
     1
  0
STYLE
  5
11
330
3
100
AcDbSymbolTableRecord
100
AcDbTextStyleTableRecord
  2
Standard
 70
     0
 40
0.0
 41
1.0
 50
0.0
 71
     0
 42
0.2
  3
txt
  4

  0
ENDTAB
  0
TABLE
  2
VIEW
  5
6
330
0
100
AcDbSymbolTable
 70
     0
  0
ENDTAB
  0
TABLE
  2
UCS
  5
7
330
0
100
AcDbSymbolTable
 70
     0
  0
ENDTAB
  0
TABLE
  2
APPID
  5
9
330
0
100
AcDbSymbolTable
 70
     1
  0
APPID
  5
12
330
9
100
AcDbSymbolTableRecord
100
AcDbRegAppTableRecord
  2
ACAD
 70
     0
  0
ENDTAB
  0
TABLE
  2
DIMSTYLE
  5
A
330
0
100
AcDbSymbolTable
 70
     1
100
AcDbDimStyleTable
 71
     0
  0
DIMSTYLE
105
2D7
330
A
100
AcDbSymbolTableRecord
100
AcDbDimStyleTableRecord
  2
Standard
 70
     0
340
11
  0
ENDTAB
  0
TABLE
  2
BLOCK_RECORD
  5
1
330
0
100
AcDbSymbolTable
 70
     0
  0
BLOCK_RECORD
  5
1E
330
1
100
AcDbSymbolTableRecord
100
AcDbBlockTableRecord
  2
*Model_Space
340
21
  0
BLOCK_RECORD
  5
1A
330
1
100
AcDbSymbolTableRecord
100
AcDbBlockTableRecord
  2
*Paper_Space
340
1D
  0
ENDTAB
  0
ENDSEC
  0
SECTION
  2
BLOCKS
  0
BLOCK
  5
1F
330
1E
100
AcDbEntity
  8
0
100
AcDbBlockBegin
  2
*Model_Space
 70
     0
 10
0.0
 20
0.0
 30
0.0
  3
*Model_Space
  1

  0
ENDBLK
  5
20
330
1E
100
AcDbEntity
  8
0
100
AcDbBlockEnd
  0
BLOCK
  5
1B
330
1A
100
AcDbEntity
 67
     1
  8
0
100
AcDbBlockBegin
  2
*Paper_Space
 70
     0
 10
0.0
 20
0.0
 30
0.0
  3
*Paper_Space
  1

  0
ENDBLK
  5
1C
330
1A
100
AcDbEntity
 67
     1
  8
0
100
AcDbBlockEnd
  0
ENDSEC
  0
SECTION
  2
ENTITIES
  0
LINE
  5
22
330
1E
100
AcDbEntity
  8
0
100
AcDbLine
 10
155.0
 20
1.28
 30
0.0
 11
157.9
 21
0.820000000000004
 31
0.0
  0
LINE
  5
24
330
1E
100
AcDbEntity
  8
0
100
AcDbLine
 10
152.62
 20
1.74
 30
0.0
 11
155.0
 21
1.28
 31
0.0
  0
LINE
  5
27
330
1E
100
AcDbEntity
  8
0
100
AcDbLine
 10
157.9
 20
0.820000000000004
 30
0.0
 11
161.5
 21
0.4700000000000041
 31
0.0
  0
LINE
  5
2A
330
1E
100
AcDbEntity
  8
0
100
AcDbLine
 10
150.6
 20
2.25
 30
0.0
 11
152.62
 21
1.74
 31
0.0
  0
LINE
  5
2B
330
1E
100
AcDbEntity
  8
0
100
AcDbLine
 10
148.6999999999999
 20
3.049999999999999
 30
0.0
 11
150.6
 21
2.25
 31
0.0
  0
LINE
  5
2C
330
1E
100
AcDbEntity
  8
0
100
AcDbLine
 10
145.0
 20
7.849999999999999
 30
0.0
 11
145.8
 21
5.95
 31
0.0
  0
LINE
  5
2E
330
1E
100
AcDbEntity
  8
0
100
AcDbLine
 10
144.5999999999999
 20
9.949999999999999
 30
0.0
 11
145.0
 21
7.849999999999999
 31
0.0
  0
LINE
  5
31
330
1E
100
AcDbEntity
  8
0
100
AcDbLine
 10
145.8
 20
5.95
 30
0.0
 11
147.0
 21
4.25
 31
0.0
  0
LINE
  5
32
330
1E
100
AcDbEntity
  8
0
100
AcDbLine
 10
147.0
 20
4.25
 30
0.0
 11
148.6999999999999
 21
3.049999999999999
 31
0.0
  0
LINE
  5
34
330
1E
100
AcDbEntity
  8
0
100
AcDbLine
 10
161.5
 20
0.4700000000000041
 30
0.0
 11
164.7
 21
0.306000000000004
 31
0.0
  0
LINE
  5
36
330
1E
100
AcDbEntity
  8
0
100
AcDbLine
 10
15.35289999999999
 20
178.8309999999999
 30
0.0
 11
16.1765
 21
178.75
 31
0.0
  0
LINE
  5
38
330
1E
100
AcDbEntity
  8
0
100
AcDbLine
 10
16.1765
 20
178.75
 30
0.0
 11
144.0
 21
178.75
 31
0.0
  0
LINE
  5
39
330
1E
100
AcDbEntity
  8
0
100
AcDbLine
 10
13.0882
 20
179.5629999999999
 30
0.0
 11
13.8294
 21
179.238
 31
0.0
  0
LINE
  5
3C
330
1E
100
AcDbEntity
  8
0
100
AcDbLine
 10
11.2765
 20
181.147
 30
0.0
 11
11.8118
 21
180.5379999999999
 31
0.0
  0
LINE
  5
3F
330
1E
100
AcDbEntity
  8
0
100
AcDbLine
 10
10.82349999999999
 20
181.798
 30
0.0
 11
11.2765
 21
181.147
 31
0.0
  0
LINE
  5
40
330
1E
100
AcDbEntity
  8
0
100
AcDbLine
 10
10.49409999999999
 20
182.529
 30
0.0
 11
10.82349999999999
 21
181.798
 31
0.0
  0
LINE
  5
45
330
1E
100
AcDbEntity
  8
0
100
AcDbLine
 10
10.2059
 20
183.26
 30
0.0
 11
10.49409999999999
 21
182.529
 31
0.0
  0
LINE
  5
46
330
1E
100
AcDbEntity
  8
0
100
AcDbLine
 10
10.0824
 20
184.0329999999999
 30
0.0
 11
10.2059
 21
183.26
 31
0.0
  0
LINE
  5
47
330
1E
100
AcDbEntity
  8
0
100
AcDbLine
 10
10.0
 20
184.8449999999999
 30
0.0
 11
10.0
 21
199.2499999999999
 31
0.0
  0
LINE
  5
48
330
1E
100
AcDbEntity
  8
0
100
AcDbLine
 10
10.0
 20
184.8449999999999
 30
0.0
 11
10.0824
 21
184.0329999999999
 31
0.0
  0
LINE
  5
4B
330
1E
100
AcDbEntity
  8
0
100
AcDbLine
 10
11.8118
 20
180.5379999999999
 30
0.0
 11
12.42939999999999
 21
180.01
 31
0.0
  0
LINE
  5
4C
330
1E
100
AcDbEntity
  8
0
100
AcDbLine
 10
12.42939999999999
 20
180.01
 30
0.0
 11
13.0882
 21
179.5629999999999
 31
0.0
  0
LINE
  5
4E
330
1E
100
AcDbEntity
  8
0
100
AcDbLine
 10
13.8294
 20
179.238
 30
0.0
 11
14.5706
 21
178.953
 31
0.0
  0
LINE
  5
4F
330
1E
100
AcDbEntity
  8
0
100
AcDbLine
 10
14.5706
 20
178.953
 30
0.0
 11
15.35289999999999
 21
178.8309999999999
 31
0.0
  0
LINE
  5
50
330
1E
100
AcDbEntity
  8
0
100
AcDbLine
 10
16.1765
 20
178.75
 30
0.0
 11
144.0
 21
178.75
 31
0.0
  0
LINE
  5
51
330
1E
100
AcDbEntity
  8
0
100
AcDbLine
 10
144.0
 20
24.25
 30
0.0
 11
144.0099999999999
 21
21.94999999999999
 31
0.0
  0
LINE
  5
53
330
1E
100
AcDbEntity
  8
0
100
AcDbLine
 10
144.0
 20
178.2499999999999
 30
0.0
 11
144.0
 21
170.25
 31
0.0
  0
LINE
  5
54
330
1E
100
AcDbEntity
  8
0
100
AcDbLine
 10
144.0
 20
178.2499999999999
 30
0.0
 11
144.0
 21
183.3179999999999
 31
0.0
  0
LINE
  5
55
330
1E
100
AcDbEntity
  8
0
100
AcDbLine
 10
1.199999999999999
 20
199.2499999999999
 30
0.0
 11
1.7
 21
199.2499999999999
 31
0.0
  0
LINE
  5
56
330
1E
100
AcDbEntity
  8
0
100
AcDbLine
 10
1.7
 20
199.2499999999999
 30
0.0
 11
2.5
 21
199.2499999999999
 31
0.0
  0
LINE
  5
57
330
1E
100
AcDbEntity
  8
0
100
AcDbLine
 10
2.5
 20
199.2499999999999
 30
0.0
 11
3.6
 21
199.2499999999999
 31
0.0
  0
LINE
  5
58
330
1E
100
AcDbEntity
  8
0
100
AcDbLine
 10
3.6
 20
199.2499999999999
 30
0.0
 11
4.799999999999999
 21
199.2499999999999
 31
0.0
  0
LINE
  5
59
330
1E
100
AcDbEntity
  8
0
100
AcDbLine
 10
1.0
 20
199.2499999999999
 30
0.0
 11
1.199999999999999
 21
199.2499999999999
 31
0.0
  0
LINE
  5
5A
330
1E
100
AcDbEntity
  8
0
100
AcDbLine
 10
3.816859999999999
 20
199.2499999999999
 30
0.0
 11
4.233109999999999
 21
199.2499999999999
 31
0.0
  0
LINE
  5
5B
330
1E
100
AcDbEntity
  8
0
100
AcDbLine
 10
3.57405
 20
199.2499999999999
 30
0.0
 11
3.816859999999999
 21
199.2499999999999
 31
0.0
  0
LINE
  5
5C
330
1E
100
AcDbEntity
  8
0
100
AcDbLine
 10
4.799999999999999
 20
199.2499999999999
 30
0.0
 11
6.0
 21
199.2499999999999
 31
0.0
  0
LINE
  5
5D
330
1E
100
AcDbEntity
  8
0
100
AcDbLine
 10
5.35177
 20
199.2499999999999
 30
0.0
 11
6.0
 21
199.2499999999999
 31
0.0
  0
LINE
  5
5E
330
1E
100
AcDbEntity
  8
0
100
AcDbLine
 10
4.710049999999999
 20
199.2499999999999
 30
0.0
 11
5.35177
 21
199.2499999999999
 31
0.0
  0
LINE
  5
5F
330
1E
100
AcDbEntity
  8
0
100
AcDbLine
 10
4.233109999999999
 20
199.2499999999999
 30
0.0
 11
4.710049999999999
 21
199.2499999999999
 31
0.0
  0
LINE
  5
60
330
1E
100
AcDbEntity
  8
0
100
AcDbLine
 10
0.3
 20
199.55
 30
0.0
 11
1.0
 21
199.2499999999999
 31
0.0
  0
LINE
  5
67
330
1E
100
AcDbEntity
  8
0
100
AcDbLine
 10
0.3
 20
199.55
 30
0.0
 11
1.0
 21
199.2499999999999
 31
0.0
  0
LINE
  5
68
330
1E
100
AcDbEntity
  8
0
100
AcDbLine
 10
3.5
 20
199.2499999999999
 30
0.0
 11
3.57405
 21
199.2499999999999
 31
0.0
  0
LINE
  5
6A
330
1E
100
AcDbEntity
  8
0
100
AcDbLine
 10
10.0
 20
199.2499999999999
 30
0.0
 11
10.0
 21
184.8449999999999
 31
0.0
  0
LINE
  5
7B
330
1E
100
AcDbEntity
  8
0
100
AcDbLine
 10
0.0
 20
200.2499999999999
 30
0.0
 11
0.0
 21
232.25
 31
0.0
  0
LINE
  5
7C
330
1E
100
AcDbEntity
  8
0
100
AcDbLine
 10
0.0
 20
200.2499999999999
 30
0.0
 11
0.3
 21
199.55
 31
0.0
  0
LINE
  5
89
330
1E
100
AcDbEntity
  8
0
100
AcDbLine
 10
144.0
 20
217.2499999999999
 30
0.0
 11
144.0
 21
183.3179999999999
 31
0.0
  0
LINE
  5
8B
330
1E
100
AcDbEntity
  8
0
100
AcDbLine
 10
144.0
 20
183.3179999999999
 30
0.0
 11
144.0
 21
178.2499999999999
 31
0.0
  0
LINE
  5
8C
330
1E
100
AcDbEntity
  8
0
100
AcDbLine
 10
144.0
 20
183.3179999999999
 30
0.0
 11
144.0
 21
217.2499999999999
 31
0.0
  0
LINE
  5
8F
330
1E
100
AcDbEntity
  8
0
100
AcDbLine
 10
144.0
 20
219.55
 30
0.0
 11
144.0
 21
217.2499999999999
 31
0.0
  0
LINE
  5
92
330
1E
100
AcDbEntity
  8
0
100
AcDbLine
 10
144.0099999999999
 20
21.94999999999999
 30
0.0
 11
144.05
 21
18.85
 31
0.0
  0
LINE
  5
93
330
1E
100
AcDbEntity
  8
0
100
AcDbLine
 10
144.05
 20
18.85
 30
0.0
 11
144.15
 21
15.25
 31
0.0
  0
LINE
  5
94
330
1E
100
AcDbEntity
  8
0
100
AcDbLine
 10
144.15
 20
15.25
 30
0.0
 11
144.35
 21
12.25
 31
0.0
  0
LINE
  5
96
330
1E
100
AcDbEntity
  8
0
100
AcDbLine
 10
143.9999999999999
 20
24.25000000000653
 30
0.0
 11
144.0
 21
178.2499999999999
 31
0.0
  0
LINE
  5
97
330
1E
100
AcDbEntity
  8
0
100
AcDbLine
 10
144.0099999999999
 20
219.55
 30
0.0
 11
144.15
 21
223.927
 31
0.0
  0
LINE
  5
9C
330
1E
100
AcDbEntity
  8
0
100
AcDbLine
 10
144.35
 20
12.25
 30
0.0
 11
144.5999999999999
 21
9.949999999999999
 31
0.0
  0
LINE
  5
B4
330
1E
100
AcDbEntity
  8
0
100
AcDbLine
 10
144.15
 20
223.927
 30
0.0
 11
144.35
 21
226.927
 31
0.0
  0
LINE
  5
B7
330
1E
100
AcDbEntity
  8
0
100
AcDbLine
 10
79.1
 20
230.15
 30
0.0
 11
79.7
 21
228.75
 31
0.0
  0
LINE
  5
BB
330
1E
100
AcDbEntity
  8
0
100
AcDbLine
 10
79.7
 20
228.75
 30
0.0
 11
80.0
 21
227.2499999999999
 31
0.0
  0
LINE
  5
BC
330
1E
100
AcDbEntity
  8
0
100
AcDbLine
 10
144.35
 20
226.927
 30
0.0
 11
144.5999999999999
 21
229.227
 31
0.0
  0
LINE
  5
C1
330
1E
100
AcDbEntity
  8
0
100
AcDbLine
 10
144.5999999999999
 20
229.227
 30
0.0
 11
145.0
 21
231.327
 31
0.0
  0
LINE
  5
C2
330
1E
100
AcDbEntity
  8
0
100
AcDbLine
 10
0.3
 20
232.9499999999999
 30
0.0
 11
1.0
 21
233.25
 31
0.0
  0
LINE
  5
C6
330
1E
100
AcDbEntity
  8
0
100
AcDbLine
 10
0.3
 20
232.9499999999999
 30
0.0
 11
1.0
 21
233.25
 31
0.0
  0
LINE
  5
C8
330
1E
100
AcDbEntity
  8
0
100
AcDbLine
 10
76.90000000000001
 20
232.35
 30
0.0
 11
78.2
 21
231.4499999999999
 31
0.0
  0
LINE
  5
CB
330
1E
100
AcDbEntity
  8
0
100
AcDbLine
 10
78.2
 20
231.4499999999999
 30
0.0
 11
79.1
 21
230.15
 31
0.0
  0
LINE
  5
CE
330
1E
100
AcDbEntity
  8
0
100
AcDbLine
 10
75.5
 20
232.9499999999999
 30
0.0
 11
76.90000000000001
 21
232.35
 31
0.0
  0
LINE
  5
D2
330
1E
100
AcDbEntity
  8
0
100
AcDbLine
 10
10.0
 20
233.25
 30
0.0
 11
10.0
 21
247.655
 31
0.0
  0
LINE
  5
D3
330
1E
100
AcDbEntity
  8
0
100
AcDbLine
 10
6.0
 20
233.25
 30
0.0
 11
74.0
 21
233.25
 31
0.0
  0
LINE
  5
D4
330
1E
100
AcDbEntity
  8
0
100
AcDbLine
 10
6.000000000000009
 20
233.25
 30
0.0
 11
74.0
 21
233.25
 31
0.0
  0
LINE
  5
D5
330
1E
100
AcDbEntity
  8
0
100
AcDbLine
 10
74.0
 20
233.25
 30
0.0
 11
75.5
 21
232.9499999999999
 31
0.0
  0
LINE
  5
D7
330
1E
100
AcDbEntity
  8
0
100
AcDbLine
 10
2.5
 20
233.25
 30
0.0
 11
3.6
 21
233.25
 31
0.0
  0
LINE
  5
D8
330
1E
100
AcDbEntity
  8
0
100
AcDbLine
 10
4.799999999999999
 20
233.25
 30
0.0
 11
6.0
 21
233.25
 31
0.0
  0
LINE
  5
D9
330
1E
100
AcDbEntity
  8
0
100
AcDbLine
 10
1.7
 20
233.25
 30
0.0
 11
2.5
 21
233.25
 31
0.0
  0
LINE
  5
DA
330
1E
100
AcDbEntity
  8
0
100
AcDbLine
 10
3.6
 20
233.25
 30
0.0
 11
4.799999999999999
 21
233.25
 31
0.0
  0
LINE
  5
DB
330
1E
100
AcDbEntity
  8
0
100
AcDbLine
 10
1.199999999999999
 20
233.25
 30
0.0
 11
1.7
 21
233.25
 31
0.0
  0
LINE
  5
DC
330
1E
100
AcDbEntity
  8
0
100
AcDbLine
 10
1.0
 20
233.25
 30
0.0
 11
1.199999999999999
 21
233.25
 31
0.0
  0
LINE
  5
DD
330
1E
100
AcDbEntity
  8
0
100
AcDbLine
 10
0.0
 20
232.25
 30
0.0
 11
0.0
 21
200.2499999999999
 31
0.0
  0
LINE
  5
DE
330
1E
100
AcDbEntity
  8
0
100
AcDbLine
 10
0.0
 20
232.25
 30
0.0
 11
0.3
 21
232.9499999999999
 31
0.0
  0
LINE
  5
DF
330
1E
100
AcDbEntity
  8
0
100
AcDbLine
 10
145.0
 20
231.327
 30
0.0
 11
145.8
 21
233.227
 31
0.0
  0
LINE
  5
E2
330
1E
100
AcDbEntity
  8
0
100
AcDbLine
 10
145.8
 20
233.227
 30
0.0
 11
147.0
 21
234.927
 31
0.0
  0
LINE
  5
E6
330
1E
100
AcDbEntity
  8
0
100
AcDbLine
 10
10.0
 20
247.655
 30
0.0
 11
10.0
 21
233.25
 31
0.0
  0
LINE
  5
E7
330
1E
100
AcDbEntity
  8
0
100
AcDbLine
 10
10.0
 20
247.655
 30
0.0
 11
10.0824
 21
248.467
 31
0.0
  0
LINE
  5
EC
330
1E
100
AcDbEntity
  8
0
100
AcDbLine
 10
11.2765
 20
251.3529999999999
 30
0.0
 11
11.8118
 21
251.962
 31
0.0
  0
LINE
  5
ED
330
1E
100
AcDbEntity
  8
0
100
AcDbLine
 10
10.82349999999999
 20
250.702
 30
0.0
 11
11.2765
 21
251.3529999999999
 31
0.0
  0
LINE
  5
EE
330
1E
100
AcDbEntity
  8
0
100
AcDbLine
 10
10.49409999999999
 20
249.9709999999999
 30
0.0
 11
10.82349999999999
 21
250.702
 31
0.0
  0
LINE
  5
EF
330
1E
100
AcDbEntity
  8
0
100
AcDbLine
 10
10.2059
 20
249.2399999999999
 30
0.0
 11
10.49409999999999
 21
249.9709999999999
 31
0.0
  0
LINE
  5
F0
330
1E
100
AcDbEntity
  8
0
100
AcDbLine
 10
10.0824
 20
248.467
 30
0.0
 11
10.2059
 21
249.2399999999999
 31
0.0
  0
LINE
  5
F4
330
1E
100
AcDbEntity
  8
0
100
AcDbLine
 10
12.42939999999999
 20
252.49
 30
0.0
 11
13.0882
 21
252.937
 31
0.0
  0
LINE
  5
F5
330
1E
100
AcDbEntity
  8
0
100
AcDbLine
 10
11.8118
 20
251.962
 30
0.0
 11
12.42939999999999
 21
252.49
 31
0.0
  0
LINE
  5
F7
330
1E
100
AcDbEntity
  8
0
100
AcDbLine
 10
13.0882
 20
252.937
 30
0.0
 11
13.8294
 21
253.262
 31
0.0
  0
LINE
  5
F9
330
1E
100
AcDbEntity
  8
0
100
AcDbLine
 10
13.8294
 20
253.262
 30
0.0
 11
14.5706
 21
253.547
 31
0.0
  0
LINE
  5
FC
330
1E
100
AcDbEntity
  8
0
100
AcDbLine
 10
15.35289999999999
 20
253.669
 30
0.0
 11
16.1765
 21
253.75
 31
0.0
  0
LINE
  5
FE
330
1E
100
AcDbEntity
  8
0
100
AcDbLine
 10
16.1765
 20
253.75
 30
0.0
 11
167.0
 21
253.75
 31
0.0
  0
LINE
  5
FF
330
1E
100
AcDbEntity
  8
0
100
AcDbLine
 10
16.1765
 20
253.75
 30
0.0
 11
167.0
 21
253.75
 31
0.0
  0
LINE
  5
100
330
1E
100
AcDbEntity
  8
0
100
AcDbLine
 10
14.5706
 20
253.547
 30
0.0
 11
15.35289999999999
 21
253.669
 31
0.0
  0
LINE
  5
106
330
1E
100
AcDbEntity
  8
0
100
AcDbLine
 10
158.0
 20
237.777
 30
0.0
 11
161.5999999999999
 21
237.877
 31
0.0
  0
LINE
  5
107
330
1E
100
AcDbEntity
  8
0
100
AcDbLine
 10
155.0
 20
237.577
 30
0.0
 11
158.0
 21
237.777
 31
0.0
  0
LINE
  5
108
330
1E
100
AcDbEntity
  8
0
100
AcDbLine
 10
152.6999999999999
 20
237.327
 30
0.0
 11
155.0
 21
237.577
 31
0.0
  0
LINE
  5
109
330
1E
100
AcDbEntity
  8
0
100
AcDbLine
 10
150.6
 20
236.927
 30
0.0
 11
152.6999999999999
 21
237.327
 31
0.0
  0
LINE
  5
10A
330
1E
100
AcDbEntity
  8
0
100
AcDbLine
 10
148.6999999999999
 20
236.127
 30
0.0
 11
150.6
 21
236.927
 31
0.0
  0
LINE
  5
10B
330
1E
100
AcDbEntity
  8
0
100
AcDbLine
 10
147.0
 20
234.927
 30
0.0
 11
148.6999999999999
 21
236.127
 31
0.0
  0
LINE
  5
11F
330
1E
100
AcDbEntity
  8
0
100
AcDbLine
 10
164.7
 20
0.306000000000004
 30
0.0
 11
167.0
 21
0.250000000000004
 31
0.0
  0
LINE
  5
122
330
1E
100
AcDbEntity
  8
0
100
AcDbLine
 10
164.7
 20
237.917
 30
0.0
 11
167.0
 21
237.927
 31
0.0
  0
LINE
  5
123
330
1E
100
AcDbEntity
  8
0
100
AcDbLine
 10
161.5999999999999
 20
237.877
 30
0.0
 11
164.7
 21
237.917
 31
0.0
  0
LINE
  5
16F
330
1E
100
AcDbEntity
  8
0
100
AcDbLine
 10
356.6349999999999
 20
28.9878
 30
0.0
 11
362.109
 21
25.68
 31
0.0
  0
LINE
  5
170
330
1E
100
AcDbEntity
  8
0
100
AcDbLine
 10
362.109
 20
25.68
 30
0.0
 11
367.876
 21
23.1
 31
0.0
  0
LINE
  5
171
330
1E
100
AcDbEntity
  8
0
100
AcDbLine
 10
367.876
 20
23.1
 30
0.0
 11
374.08
 21
21.24769999999999
 31
0.0
  0
LINE
  5
172
330
1E
100
AcDbEntity
  8
0
100
AcDbLine
 10
374.08
 20
21.24769999999999
 30
0.0
 11
380.5769999999999
 21
20.05689999999999
 31
0.0
  0
LINE
  5
173
330
1E
100
AcDbEntity
  8
0
100
AcDbLine
 10
380.5769999999999
 20
20.05689999999999
 30
0.0
 11
387.0
 21
19.5938
 31
0.0
  0
LINE
  5
174
330
1E
100
AcDbEntity
  8
0
100
AcDbLine
 10
380.5769999999999
 20
28.9319
 30
0.0
 11
387.0
 21
28.4688
 31
0.0
  0
LINE
  5
175
330
1E
100
AcDbEntity
  8
0
100
AcDbLine
 10
387.0
 20
19.5938
 30
0.0
 11
393.4229999999999
 21
20.05689999999999
 31
0.0
  0
LINE
  5
176
330
1E
100
AcDbEntity
  8
0
100
AcDbLine
 10
393.4229999999999
 20
20.05689999999999
 30
0.0
 11
399.92
 21
21.24769999999999
 31
0.0
  0
LINE
  5
177
330
1E
100
AcDbEntity
  8
0
100
AcDbLine
 10
393.4229999999999
 20
28.9319
 30
0.0
 11
399.92
 21
30.12259999999999
 31
0.0
  0
LINE
  5
178
330
1E
100
AcDbEntity
  8
0
100
AcDbLine
 10
387.0
 20
28.4688
 30
0.0
 11
393.4229999999999
 21
28.9319
 31
0.0
  0
LINE
  5
179
330
1E
100
AcDbEntity
  8
0
100
AcDbLine
 10
337.5109999999999
 20
59.0877
 30
0.0
 11
338.8249999999999
 21
53.20009999999999
 31
0.0
  0
LINE
  5
17A
330
1E
100
AcDbEntity
  8
0
100
AcDbLine
 10
337.5109999999999
 20
67.96269999999999
 30
0.0
 11
338.8249999999999
 21
62.075
 31
0.0
  0
LINE
  5
17B
330
1E
100
AcDbEntity
  8
0
100
AcDbLine
 10
337.0
 20
64.9092
 30
0.0
 11
337.0
 21
73.7843
 31
0.0
  0
LINE
  5
17C
330
1E
100
AcDbEntity
  8
0
100
AcDbLine
 10
337.0
 20
64.9092
 30
0.0
 11
337.5109999999999
 21
59.0877
 31
0.0
  0
LINE
  5
17D
330
1E
100
AcDbEntity
  8
0
100
AcDbLine
 10
337.5109999999999
 20
79.6058
 30
0.0
 11
338.8249999999999
 21
85.4935
 31
0.0
  0
LINE
  5
17E
330
1E
100
AcDbEntity
  8
0
100
AcDbLine
 10
337.0
 20
73.7843
 30
0.0
 11
337.5109999999999
 21
79.6058
 31
0.0
  0
LINE
  5
17F
330
1E
100
AcDbEntity
  8
0
100
AcDbLine
 10
337.0
 20
73.7843
 30
0.0
 11
337.5109999999999
 21
67.96269999999999
 31
0.0
  0
LINE
  5
180
330
1E
100
AcDbEntity
  8
0
100
AcDbLine
 10
337.0
 20
73.7843
 30
0.0
 11
337.0
 21
64.9092
 31
0.0
  0
LINE
  5
181
330
1E
100
AcDbEntity
  8
0
100
AcDbLine
 10
340.869
 20
47.5769
 30
0.0
 11
343.7149999999999
 21
42.35079999999999
 31
0.0
  0
LINE
  5
182
330
1E
100
AcDbEntity
  8
0
100
AcDbLine
 10
338.8249999999999
 20
53.20009999999999
 30
0.0
 11
340.869
 21
47.5769
 31
0.0
  0
LINE
  5
183
330
1E
100
AcDbEntity
  8
0
100
AcDbLine
 10
340.869
 20
56.4519
 30
0.0
 11
343.7149999999999
 21
51.2259
 31
0.0
  0
LINE
  5
184
330
1E
100
AcDbEntity
  8
0
100
AcDbLine
 10
338.8249999999999
 20
62.075
 30
0.0
 11
340.869
 21
56.4519
 31
0.0
  0
LINE
  5
185
330
1E
100
AcDbEntity
  8
0
100
AcDbLine
 10
347.365
 20
37.3892
 30
0.0
 11
351.6719999999999
 21
32.8907
 31
0.0
  0
LINE
  5
186
330
1E
100
AcDbEntity
  8
0
100
AcDbLine
 10
343.7149999999999
 20
42.35079999999999
 30
0.0
 11
347.365
 21
37.3892
 31
0.0
  0
LINE
  5
187
330
1E
100
AcDbEntity
  8
0
100
AcDbLine
 10
347.365
 20
46.2642
 30
0.0
 11
351.6719999999999
 21
41.7658
 31
0.0
  0
LINE
  5
188
330
1E
100
AcDbEntity
  8
0
100
AcDbLine
 10
343.7149999999999
 20
51.2259
 30
0.0
 11
347.365
 21
46.2642
 31
0.0
  0
LINE
  5
189
330
1E
100
AcDbEntity
  8
0
100
AcDbLine
 10
351.6719999999999
 20
32.8907
 30
0.0
 11
356.6349999999999
 21
28.9878
 31
0.0
  0
LINE
  5
18A
330
1E
100
AcDbEntity
  8
0
100
AcDbLine
 10
351.6719999999999
 20
41.7658
 30
0.0
 11
356.6349999999999
 21
37.8628
 31
0.0
  0
LINE
  5
18B
330
1E
100
AcDbEntity
  8
0
100
AcDbLine
 10
352.183
 20
42.6516
 30
0.0
 11
357.073
 21
38.8145
 31
0.0
  0
LINE
  5
18C
330
1E
100
AcDbEntity
  8
0
100
AcDbLine
 10
347.949
 20
47.0838
 30
0.0
 11
352.183
 21
42.6516
 31
0.0
  0
LINE
  5
18D
330
1E
100
AcDbEntity
  8
0
100
AcDbLine
 10
344.299
 20
51.97919999999999
 30
0.0
 11
347.949
 21
47.0838
 31
0.0
  0
LINE
  5
18E
330
1E
100
AcDbEntity
  8
0
100
AcDbLine
 10
341.5989999999999
 20
57.1392
 30
0.0
 11
344.299
 21
51.97919999999999
 31
0.0
  0
LINE
  5
18F
330
1E
100
AcDbEntity
  8
0
100
AcDbLine
 10
339.4819999999999
 20
62.9607
 30
0.0
 11
341.5989999999999
 21
57.1392
 31
0.0
  0
LINE
  5
190
330
1E
100
AcDbEntity
  8
0
100
AcDbLine
 10
338.241
 20
68.4515
 30
0.0
 11
339.4819999999999
 21
62.9607
 31
0.0
  0
LINE
  5
191
330
1E
100
AcDbEntity
  8
0
100
AcDbLine
 10
338.8249999999999
 20
85.4935
 30
0.0
 11
340.869
 21
91.1166
 31
0.0
  0
LINE
  5
192
330
1E
100
AcDbEntity
  8
0
100
AcDbLine
 10
340.869
 20
91.1166
 30
0.0
 11
343.7149999999999
 21
96.3427
 31
0.0
  0
LINE
  5
193
330
1E
100
AcDbEntity
  8
0
100
AcDbLine
 10
343.7149999999999
 20
96.3427
 30
0.0
 11
347.365
 21
101.3039999999999
 31
0.0
  0
LINE
  5
194
330
1E
100
AcDbEntity
  8
0
100
AcDbLine
 10
347.365
 20
101.3039999999999
 30
0.0
 11
351.6719999999999
 21
105.803
 31
0.0
  0
LINE
  5
195
330
1E
100
AcDbEntity
  8
0
100
AcDbLine
 10
347.949
 20
101.33
 30
0.0
 11
352.183
 21
105.762
 31
0.0
  0
LINE
  5
196
330
1E
100
AcDbEntity
  8
0
100
AcDbLine
 10
344.299
 20
96.43450000000001
 30
0.0
 11
347.949
 21
101.33
 31
0.0
  0
LINE
  5
197
330
1E
100
AcDbEntity
  8
0
100
AcDbLine
 10
341.5989999999999
 20
91.27460000000001
 30
0.0
 11
344.299
 21
96.43450000000001
 31
0.0
  0
LINE
  5
198
330
1E
100
AcDbEntity
  8
0
100
AcDbLine
 10
339.4819999999999
 20
85.45299999999999
 30
0.0
 11
341.5989999999999
 21
91.27460000000001
 31
0.0
  0
LINE
  5
199
330
1E
100
AcDbEntity
  8
0
100
AcDbLine
 10
338.241
 20
79.9623
 30
0.0
 11
339.4819999999999
 21
85.45299999999999
 31
0.0
  0
LINE
  5
19A
330
1E
100
AcDbEntity
  8
0
100
AcDbLine
 10
337.73
 20
74.2069
 30
0.0
 11
338.241
 21
79.9623
 31
0.0
  0
LINE
  5
19B
330
1E
100
AcDbEntity
  8
0
100
AcDbLine
 10
337.73
 20
74.2069
 30
0.0
 11
338.241
 21
68.4515
 31
0.0
  0
LINE
  5
19C
330
1E
100
AcDbEntity
  8
0
100
AcDbLine
 10
351.6719999999999
 20
105.803
 30
0.0
 11
356.6349999999999
 21
109.706
 31
0.0
  0
LINE
  5
19D
330
1E
100
AcDbEntity
  8
0
100
AcDbLine
 10
362.109
 20
34.5549
 30
0.0
 11
367.876
 21
31.975
 31
0.0
  0
LINE
  5
19E
330
1E
100
AcDbEntity
  8
0
100
AcDbLine
 10
356.6349999999999
 20
37.8628
 30
0.0
 11
362.109
 21
34.5549
 31
0.0
  0
LINE
  5
19F
330
1E
100
AcDbEntity
  8
0
100
AcDbLine
 10
357.073
 20
38.8145
 30
0.0
 11
362.475
 21
35.5069
 31
0.0
  0
LINE
  5
1A0
330
1E
100
AcDbEntity
  8
0
100
AcDbLine
 10
362.475
 20
35.5069
 30
0.0
 11
368.168
 21
33.0591
 31
0.0
  0
LINE
  5
1A1
330
1E
100
AcDbEntity
  8
0
100
AcDbLine
 10
352.183
 20
105.762
 30
0.0
 11
357.073
 21
109.599
 31
0.0
  0
LINE
  5
1A2
330
1E
100
AcDbEntity
  8
0
100
AcDbLine
 10
356.6349999999999
 20
109.706
 30
0.0
 11
362.109
 21
113.0129999999999
 31
0.0
  0
LINE
  5
1A3
330
1E
100
AcDbEntity
  8
0
100
AcDbLine
 10
362.109
 20
113.0129999999999
 30
0.0
 11
367.876
 21
115.5939999999999
 31
0.0
  0
LINE
  5
1A4
330
1E
100
AcDbEntity
  8
0
100
AcDbLine
 10
357.073
 20
109.599
 30
0.0
 11
362.475
 21
112.907
 31
0.0
  0
LINE
  5
1A5
330
1E
100
AcDbEntity
  8
0
100
AcDbLine
 10
374.08
 20
30.12259999999999
 30
0.0
 11
380.5769999999999
 21
28.9319
 31
0.0
  0
LINE
  5
1A6
330
1E
100
AcDbEntity
  8
0
100
AcDbLine
 10
367.876
 20
31.975
 30
0.0
 11
374.08
 21
30.12259999999999
 31
0.0
  0
LINE
  5
1A7
330
1E
100
AcDbEntity
  8
0
100
AcDbLine
 10
368.168
 20
33.0591
 30
0.0
 11
374.591
 21
31.14069999999999
 31
0.0
  0
LINE
  5
1A8
330
1E
100
AcDbEntity
  8
0
100
AcDbLine
 10
374.591
 20
31.14069999999999
 30
0.0
 11
380.6499999999999
 21
30.0161
 31
0.0
  0
LINE
  5
1A9
330
1E
100
AcDbEntity
  8
0
100
AcDbLine
 10
362.475
 20
112.907
 30
0.0
 11
368.168
 21
115.355
 31
0.0
  0
LINE
  5
1AA
330
1E
100
AcDbEntity
  8
0
100
AcDbLine
 10
367.876
 20
115.5939999999999
 30
0.0
 11
374.08
 21
117.446
 31
0.0
  0
LINE
  5
1AB
330
1E
100
AcDbEntity
  8
0
100
AcDbLine
 10
374.08
 20
117.446
 30
0.0
 11
380.5769999999999
 21
118.6369999999999
 31
0.0
  0
LINE
  5
1AC
330
1E
100
AcDbEntity
  8
0
100
AcDbLine
 10
368.168
 20
115.355
 30
0.0
 11
374.591
 21
117.273
 31
0.0
  0
LINE
  5
1AD
330
1E
100
AcDbEntity
  8
0
100
AcDbLine
 10
378.36
 20
118.2305898106819
 30
0.0
 11
378.36
 21
127.7399999999999
 31
0.0
  0
LINE
  5
1AE
330
1E
100
AcDbEntity
  8
0
100
AcDbLine
 10
380.6499999999999
 20
30.0161
 30
0.0
 11
387.0
 21
29.553
 31
0.0
  0
LINE
  5
1AF
330
1E
100
AcDbEntity
  8
0
100
AcDbLine
 10
374.591
 20
117.273
 30
0.0
 11
380.6499999999999
 21
118.398
 31
0.0
  0
LINE
  5
1B0
330
1E
100
AcDbEntity
  8
0
100
AcDbLine
 10
380.5769999999999
 20
118.6369999999999
 30
0.0
 11
387.0
 21
119.1
 31
0.0
  0
LINE
  5
1B1
330
1E
100
AcDbEntity
  8
0
100
AcDbLine
 10
380.6499999999999
 20
118.398
 30
0.0
 11
387.0
 21
118.861
 31
0.0
  0
LINE
  5
1B2
330
1E
100
AcDbEntity
  8
0
100
AcDbLine
 10
393.35
 20
118.398
 30
0.0
 11
399.4089999999999
 21
117.273
 31
0.0
  0
LINE
  5
1B3
330
1E
100
AcDbEntity
  8
0
100
AcDbLine
 10
375.384
 20
126.36
 30
0.0
 11
376.6319999999999
 21
125.0569999999999
 31
0.0
  0
LINE
  5
1B4
330
1E
100
AcDbEntity
  8
0
100
AcDbLine
 10
375.0
 20
127.7399999999999
 30
0.0
 11
375.384
 21
129.159
 31
0.0
  0
LINE
  5
1B5
330
1E
100
AcDbEntity
  8
0
100
AcDbLine
 10
375.0
 20
127.7399999999999
 30
0.0
 11
375.384
 21
126.36
 31
0.0
  0
LINE
  5
1B6
330
1E
100
AcDbEntity
  8
0
100
AcDbLine
 10
375.0
 20
127.7399999999999
 30
0.0
 11
375.0
 21
188.2209999999999
 31
0.0
  0
LINE
  5
1B7
330
1E
100
AcDbEntity
  8
0
100
AcDbLine
 10
376.6319999999999
 20
125.0569999999999
 30
0.0
 11
378.36
 21
124.0283
 31
0.0
  0
LINE
  5
1B8
330
1E
100
AcDbEntity
  8
0
100
AcDbLine
 10
375.384
 20
129.159
 30
0.0
 11
376.6319999999999
 21
130.461
 31
0.0
  0
LINE
  5
1B9
330
1E
100
AcDbEntity
  8
0
100
AcDbLine
 10
376.6319999999999
 20
130.461
 30
0.0
 11
378.5519999999999
 21
131.6039999999999
 31
0.0
  0
LINE
  5
1BA
330
1E
100
AcDbEntity
  8
0
100
AcDbLine
 10
378.5519999999999
 20
131.6039999999999
 30
0.0
 11
381.048
 21
132.4729999999999
 31
0.0
  0
LINE
  5
1BB
330
1E
100
AcDbEntity
  8
0
100
AcDbLine
 10
384.7919999999999
 20
131.526
 30
0.0
 11
387.0
 21
131.6829999999999
 31
0.0
  0
LINE
  5
1BC
330
1E
100
AcDbEntity
  8
0
100
AcDbLine
 10
382.68
 20
131.1309999999999
 30
0.0
 11
384.7919999999999
 21
131.526
 31
0.0
  0
LINE
  5
1BD
330
1E
100
AcDbEntity
  8
0
100
AcDbLine
 10
380.8559999999999
 20
130.501
 30
0.0
 11
382.68
 21
131.1309999999999
 31
0.0
  0
LINE
  5
1BE
330
1E
100
AcDbEntity
  8
0
100
AcDbLine
 10
379.5119999999999
 20
129.711
 30
0.0
 11
380.8559999999999
 21
130.501
 31
0.0
  0
LINE
  5
1BF
330
1E
100
AcDbEntity
  8
0
100
AcDbLine
 10
378.648
 20
128.764
 30
0.0
 11
379.5119999999999
 21
129.711
 31
0.0
  0
LINE
  5
1C0
330
1E
100
AcDbEntity
  8
0
100
AcDbLine
 10
378.36
 20
127.7399999999999
 30
0.0
 11
378.36
 21
118.2305898106819
 31
0.0
  0
LINE
  5
1C1
330
1E
100
AcDbEntity
  8
0
100
AcDbLine
 10
378.36
 20
127.7399999999999
 30
0.0
 11
378.648
 21
128.764
 31
0.0
  0
LINE
  5
1C2
330
1E
100
AcDbEntity
  8
0
100
AcDbLine
 10
381.048
 20
132.4729999999999
 30
0.0
 11
383.928
 21
132.984
 31
0.0
  0
LINE
  5
1C3
330
1E
100
AcDbEntity
  8
0
100
AcDbLine
 10
383.928
 20
132.984
 30
0.0
 11
387.0
 21
133.182
 31
0.0
  0
LINE
  5
1C4
330
1E
100
AcDbEntity
  8
0
100
AcDbLine
 10
387.0
 20
133.182
 30
0.0
 11
390.0719999999999
 21
132.984
 31
0.0
  0
LINE
  5
1C5
330
1E
100
AcDbEntity
  8
0
100
AcDbLine
 10
387.0
 20
131.6829999999999
 30
0.0
 11
389.208
 21
131.526
 31
0.0
  0
LINE
  5
1C6
330
1E
100
AcDbEntity
  8
0
100
AcDbLine
 10
393.144
 20
130.501
 30
0.0
 11
394.488
 21
129.711
 31
0.0
  0
LINE
  5
1C7
330
1E
100
AcDbEntity
  8
0
100
AcDbLine
 10
391.32
 20
131.1309999999999
 30
0.0
 11
393.144
 21
130.501
 31
0.0
  0
LINE
  5
1C8
330
1E
100
AcDbEntity
  8
0
100
AcDbLine
 10
392.952
 20
132.4729999999999
 30
0.0
 11
395.448
 21
131.6039999999999
 31
0.0
  0
LINE
  5
1C9
330
1E
100
AcDbEntity
  8
0
100
AcDbLine
 10
390.0719999999999
 20
132.984
 30
0.0
 11
392.952
 21
132.4729999999999
 31
0.0
  0
LINE
  5
1CA
330
1E
100
AcDbEntity
  8
0
100
AcDbLine
 10
389.208
 20
131.526
 30
0.0
 11
391.32
 21
131.1309999999999
 31
0.0
  0
LINE
  5
1CB
330
1E
100
AcDbEntity
  8
0
100
AcDbLine
 10
387.0
 20
119.1
 30
0.0
 11
393.4229999999999
 21
118.6369999999999
 31
0.0
  0
LINE
  5
1CC
330
1E
100
AcDbEntity
  8
0
100
AcDbLine
 10
387.0
 20
118.861
 30
0.0
 11
393.35
 21
118.398
 31
0.0
  0
LINE
  5
1CD
330
1E
100
AcDbEntity
  8
0
100
AcDbLine
 10
395.64
 20
118.2305898106819
 30
0.0
 11
395.64
 21
127.7399999999999
 31
0.0
  0
LINE
  5
1CE
330
1E
100
AcDbEntity
  8
0
100
AcDbLine
 10
395.64
 20
124.0283
 30
0.0
 11
397.368
 21
125.0569999999999
 31
0.0
  0
LINE
  5
1CF
330
1E
100
AcDbEntity
  8
0
100
AcDbLine
 10
397.368
 20
125.0569999999999
 30
0.0
 11
398.6159999999999
 21
126.36
 31
0.0
  0
LINE
  5
1D0
330
1E
100
AcDbEntity
  8
0
100
AcDbLine
 10
399.0
 20
127.7399999999999
 30
0.0
 11
399.0
 21
188.2209999999999
 31
0.0
  0
LINE
  5
1D1
330
1E
100
AcDbEntity
  8
0
100
AcDbLine
 10
398.6159999999999
 20
126.36
 30
0.0
 11
399.0
 21
127.7399999999999
 31
0.0
  0
LINE
  5
1D2
330
1E
100
AcDbEntity
  8
0
100
AcDbLine
 10
395.64
 20
127.7399999999999
 30
0.0
 11
395.64
 21
118.2305898106819
 31
0.0
  0
LINE
  5
1D3
330
1E
100
AcDbEntity
  8
0
100
AcDbLine
 10
398.6159999999999
 20
129.159
 30
0.0
 11
399.0
 21
127.7399999999999
 31
0.0
  0
LINE
  5
1D4
330
1E
100
AcDbEntity
  8
0
100
AcDbLine
 10
397.368
 20
130.461
 30
0.0
 11
398.6159999999999
 21
129.159
 31
0.0
  0
LINE
  5
1D5
330
1E
100
AcDbEntity
  8
0
100
AcDbLine
 10
395.448
 20
131.6039999999999
 30
0.0
 11
397.368
 21
130.461
 31
0.0
  0
LINE
  5
1D6
330
1E
100
AcDbEntity
  8
0
100
AcDbLine
 10
395.3519999999999
 20
128.764
 30
0.0
 11
395.64
 21
127.7399999999999
 31
0.0
  0
LINE
  5
1D7
330
1E
100
AcDbEntity
  8
0
100
AcDbLine
 10
394.488
 20
129.711
 30
0.0
 11
395.3519999999999
 21
128.764
 31
0.0
  0
LINE
  5
1D8
330
1E
100
AcDbEntity
  8
0
100
AcDbLine
 10
393.4229999999999
 20
118.6369999999999
 30
0.0
 11
399.92
 21
117.446
 31
0.0
  0
LINE
  5
1D9
330
1E
100
AcDbEntity
  8
0
100
AcDbLine
 10
393.35
 20
30.0161
 30
0.0
 11
399.4089999999999
 21
31.14069999999999
 31
0.0
  0
LINE
  5
1DA
330
1E
100
AcDbEntity
  8
0
100
AcDbLine
 10
387.0
 20
29.553
 30
0.0
 11
393.35
 21
30.0161
 31
0.0
  0
LINE
  5
1DB
330
1E
100
AcDbEntity
  8
0
100
AcDbLine
 10
399.92
 20
21.24769999999999
 30
0.0
 11
406.124
 21
23.1
 31
0.0
  0
LINE
  5
1DC
330
1E
100
AcDbEntity
  8
0
100
AcDbLine
 10
417.365
 20
28.9878
 30
0.0
 11
422.329
 21
32.8907
 31
0.0
  0
LINE
  5
1DD
330
1E
100
AcDbEntity
  8
0
100
AcDbLine
 10
411.8909999999999
 20
25.68
 30
0.0
 11
417.365
 21
28.9878
 31
0.0
  0
LINE
  5
1DE
330
1E
100
AcDbEntity
  8
0
100
AcDbLine
 10
406.124
 20
23.1
 30
0.0
 11
411.8909999999999
 21
25.68
 31
0.0
  0
LINE
  5
1DF
330
1E
100
AcDbEntity
  8
0
100
AcDbLine
 10
399.92
 20
30.12259999999999
 30
0.0
 11
406.124
 21
31.975
 31
0.0
  0
LINE
  5
1E0
330
1E
100
AcDbEntity
  8
0
100
AcDbLine
 10
405.832
 20
115.355
 30
0.0
 11
411.5249999999999
 21
112.907
 31
0.0
  0
LINE
  5
1E1
330
1E
100
AcDbEntity
  8
0
100
AcDbLine
 10
399.92
 20
117.446
 30
0.0
 11
406.124
 21
115.5939999999999
 31
0.0
  0
LINE
  5
1E2
330
1E
100
AcDbEntity
  8
0
100
AcDbLine
 10
399.4089999999999
 20
117.273
 30
0.0
 11
405.832
 21
115.355
 31
0.0
  0
LINE
  5
1E3
330
1E
100
AcDbEntity
  8
0
100
AcDbLine
 10
422.329
 20
32.8907
 30
0.0
 11
426.635
 21
37.3892
 31
0.0
  0
LINE
  5
1E4
330
1E
100
AcDbEntity
  8
0
100
AcDbLine
 10
411.8909999999999
 20
34.5549
 30
0.0
 11
417.365
 21
37.8628
 31
0.0
  0
LINE
  5
1E5
330
1E
100
AcDbEntity
  8
0
100
AcDbLine
 10
406.124
 20
31.975
 30
0.0
 11
411.8909999999999
 21
34.5549
 31
0.0
  0
LINE
  5
1E6
330
1E
100
AcDbEntity
  8
0
100
AcDbLine
 10
416.927
 20
109.599
 30
0.0
 11
421.818
 21
105.762
 31
0.0
  0
LINE
  5
1E7
330
1E
100
AcDbEntity
  8
0
100
AcDbLine
 10
411.8909999999999
 20
113.0129999999999
 30
0.0
 11
417.365
 21
109.706
 31
0.0
  0
LINE
  5
1E8
330
1E
100
AcDbEntity
  8
0
100
AcDbLine
 10
406.124
 20
115.5939999999999
 30
0.0
 11
411.8909999999999
 21
113.0129999999999
 31
0.0
  0
LINE
  5
1E9
330
1E
100
AcDbEntity
  8
0
100
AcDbLine
 10
411.5249999999999
 20
112.907
 30
0.0
 11
416.927
 21
109.599
 31
0.0
  0
LINE
  5
1EA
330
1E
100
AcDbEntity
  8
0
100
AcDbLine
 10
426.635
 20
37.3892
 30
0.0
 11
430.285
 21
42.35079999999999
 31
0.0
  0
LINE
  5
1EB
330
1E
100
AcDbEntity
  8
0
100
AcDbLine
 10
422.329
 20
41.7658
 30
0.0
 11
426.635
 21
46.2642
 31
0.0
  0
LINE
  5
1EC
330
1E
100
AcDbEntity
  8
0
100
AcDbLine
 10
421.818
 20
42.6516
 30
0.0
 11
426.051
 21
47.0838
 31
0.0
  0
LINE
  5
1ED
330
1E
100
AcDbEntity
  8
0
100
AcDbLine
 10
430.285
 20
42.35079999999999
 30
0.0
 11
433.131
 21
47.5769
 31
0.0
  0
LINE
  5
1EE
330
1E
100
AcDbEntity
  8
0
100
AcDbLine
 10
426.635
 20
46.2642
 30
0.0
 11
430.285
 21
51.2259
 31
0.0
  0
LINE
  5
1EF
330
1E
100
AcDbEntity
  8
0
100
AcDbLine
 10
430.285
 20
51.2259
 30
0.0
 11
433.131
 21
56.4519
 31
0.0
  0
LINE
  5
1F0
330
1E
100
AcDbEntity
  8
0
100
AcDbLine
 10
426.051
 20
47.0838
 30
0.0
 11
429.7009999999999
 21
51.97919999999999
 31
0.0
  0
LINE
  5
1F1
330
1E
100
AcDbEntity
  8
0
100
AcDbLine
 10
429.7009999999999
 20
51.97919999999999
 30
0.0
 11
432.401
 21
57.1392
 31
0.0
  0
LINE
  5
1F2
330
1E
100
AcDbEntity
  8
0
100
AcDbLine
 10
433.131
 20
47.5769
 30
0.0
 11
435.175
 21
53.20009999999999
 31
0.0
  0
LINE
  5
1F3
330
1E
100
AcDbEntity
  8
0
100
AcDbLine
 10
435.175
 20
53.20009999999999
 30
0.0
 11
436.489
 21
59.0877
 31
0.0
  0
LINE
  5
1F4
330
1E
100
AcDbEntity
  8
0
100
AcDbLine
 10
433.131
 20
56.4519
 30
0.0
 11
435.175
 21
62.075
 31
0.0
  0
LINE
  5
1F5
330
1E
100
AcDbEntity
  8
0
100
AcDbLine
 10
435.175
 20
62.075
 30
0.0
 11
436.489
 21
67.96269999999999
 31
0.0
  0
LINE
  5
1F6
330
1E
100
AcDbEntity
  8
0
100
AcDbLine
 10
432.401
 20
57.1392
 30
0.0
 11
434.518
 21
62.9607
 31
0.0
  0
LINE
  5
1F7
330
1E
100
AcDbEntity
  8
0
100
AcDbLine
 10
430.285
 20
96.3427
 30
0.0
 11
433.131
 21
91.1166
 31
0.0
  0
LINE
  5
1F8
330
1E
100
AcDbEntity
  8
0
100
AcDbLine
 10
417.365
 20
109.706
 30
0.0
 11
422.329
 21
105.803
 31
0.0
  0
LINE
  5
1F9
330
1E
100
AcDbEntity
  8
0
100
AcDbLine
 10
422.329
 20
105.803
 30
0.0
 11
426.635
 21
101.3039999999999
 31
0.0
  0
LINE
  5
1FA
330
1E
100
AcDbEntity
  8
0
100
AcDbLine
 10
421.818
 20
105.762
 30
0.0
 11
426.051
 21
101.33
 31
0.0
  0
LINE
  5
1FB
330
1E
100
AcDbEntity
  8
0
100
AcDbLine
 10
426.635
 20
101.3039999999999
 30
0.0
 11
430.285
 21
96.3427
 31
0.0
  0
LINE
  5
1FC
330
1E
100
AcDbEntity
  8
0
100
AcDbLine
 10
426.051
 20
101.33
 30
0.0
 11
429.7009999999999
 21
96.43450000000001
 31
0.0
  0
LINE
  5
1FD
330
1E
100
AcDbEntity
  8
0
100
AcDbLine
 10
429.7009999999999
 20
96.43450000000001
 30
0.0
 11
432.401
 21
91.27460000000001
 31
0.0
  0
LINE
  5
1FE
330
1E
100
AcDbEntity
  8
0
100
AcDbLine
 10
433.131
 20
91.1166
 30
0.0
 11
435.175
 21
85.4935
 31
0.0
  0
LINE
  5
1FF
330
1E
100
AcDbEntity
  8
0
100
AcDbLine
 10
435.175
 20
85.4935
 30
0.0
 11
436.489
 21
79.6058
 31
0.0
  0
LINE
  5
200
330
1E
100
AcDbEntity
  8
0
100
AcDbLine
 10
432.401
 20
91.27460000000001
 30
0.0
 11
434.518
 21
85.45299999999999
 31
0.0
  0
LINE
  5
201
330
1E
100
AcDbEntity
  8
0
100
AcDbLine
 10
434.518
 20
85.45299999999999
 30
0.0
 11
435.759
 21
79.9623
 31
0.0
  0
LINE
  5
202
330
1E
100
AcDbEntity
  8
0
100
AcDbLine
 10
435.759
 20
79.9623
 30
0.0
 11
436.27
 21
74.2069
 31
0.0
  0
LINE
  5
203
330
1E
100
AcDbEntity
  8
0
100
AcDbLine
 10
434.518
 20
62.9607
 30
0.0
 11
435.759
 21
68.4515
 31
0.0
  0
LINE
  5
204
330
1E
100
AcDbEntity
  8
0
100
AcDbLine
 10
437.0
 20
64.9092
 30
0.0
 11
437.0
 21
73.7843
 31
0.0
  0
LINE
  5
205
330
1E
100
AcDbEntity
  8
0
100
AcDbLine
 10
436.489
 20
59.0877
 30
0.0
 11
437.0
 21
64.9092
 31
0.0
  0
LINE
  5
206
330
1E
100
AcDbEntity
  8
0
100
AcDbLine
 10
437.0
 20
73.7843
 30
0.0
 11
437.0
 21
64.9092
 31
0.0
  0
LINE
  5
207
330
1E
100
AcDbEntity
  8
0
100
AcDbLine
 10
436.489
 20
79.6058
 30
0.0
 11
437.0
 21
73.7843
 31
0.0
  0
LINE
  5
208
330
1E
100
AcDbEntity
  8
0
100
AcDbLine
 10
436.489
 20
67.96269999999999
 30
0.0
 11
437.0
 21
73.7843
 31
0.0
  0
LINE
  5
209
330
1E
100
AcDbEntity
  8
0
100
AcDbLine
 10
435.759
 20
68.4515
 30
0.0
 11
436.27
 21
74.2069
 31
0.0
  0
LINE
  5
20A
330
1E
100
AcDbEntity
  8
0
100
AcDbLine
 10
417.365
 20
37.8628
 30
0.0
 11
422.329
 21
41.7658
 31
0.0
  0
LINE
  5
20B
330
1E
100
AcDbEntity
  8
0
100
AcDbLine
 10
416.927
 20
38.8145
 30
0.0
 11
421.818
 21
42.6516
 31
0.0
  0
LINE
  5
20C
330
1E
100
AcDbEntity
  8
0
100
AcDbLine
 10
411.5249999999999
 20
35.5069
 30
0.0
 11
416.927
 21
38.8145
 31
0.0
  0
LINE
  5
20D
330
1E
100
AcDbEntity
  8
0
100
AcDbLine
 10
405.832
 20
33.0591
 30
0.0
 11
411.5249999999999
 21
35.5069
 31
0.0
  0
LINE
  5
20E
330
1E
100
AcDbEntity
  8
0
100
AcDbLine
 10
399.4089999999999
 20
31.14069999999999
 30
0.0
 11
405.832
 21
33.0591
 31
0.0
  0
LINE
  5
212
330
1E
100
AcDbEntity
  8
0
100
AcDbLine
 10
375.0
 20
188.2209999999999
 30
0.0
 11
375.0
 21
127.7399999999999
 31
0.0
  0
LINE
  5
213
330
1E
100
AcDbEntity
  8
0
100
AcDbLine
 10
375.0
 20
188.2209999999999
 30
0.0
 11
375.384
 21
190.615
 31
0.0
  0
LINE
  5
214
330
1E
100
AcDbEntity
  8
0
100
AcDbLine
 10
399.0
 20
188.2209999999999
 30
0.0
 11
399.0
 21
127.7399999999999
 31
0.0
  0
LINE
  5
215
330
1E
100
AcDbEntity
  8
0
100
AcDbLine
 10
399.0
 20
189.3829999999999
 30
0.0
 11
399.0
 21
195.097
 31
0.0
  0
LINE
  5
216
330
1E
100
AcDbEntity
  8
0
100
AcDbLine
 10
398.9010631413449
 20
188.837809478179
 30
0.0
 11
399.0
 21
189.3829999999999
 31
0.0
  0
LINE
  5
217
330
1E
100
AcDbEntity
  8
0
100
AcDbLine
 10
375.384
 20
190.615
 30
0.0
 11
376.6319999999999
 21
192.8409999999999
 31
0.0
  0
LINE
  5
218
330
1E
100
AcDbEntity
  8
0
100
AcDbLine
 10
398.6159999999999
 20
190.615
 30
0.0
 11
399.0
 21
188.2209999999999
 31
0.0
  0
LINE
  5
219
330
1E
100
AcDbEntity
  8
0
100
AcDbLine
 10
398.3569999999999
 20
191.179
 30
0.0
 11
398.384955095198
 21
191.0271041330839
 31
0.0
  0
LINE
  5
21A
330
1E
100
AcDbEntity
  8
0
100
AcDbLine
 10
376.6319999999999
 20
192.8409999999999
 30
0.0
 11
378.5519999999999
 21
194.77
 31
0.0
  0
LINE
  5
21B
330
1E
100
AcDbEntity
  8
0
100
AcDbLine
 10
397.368
 20
192.8409999999999
 30
0.0
 11
398.6159999999999
 21
190.615
 31
0.0
  0
LINE
  5
21C
330
1E
100
AcDbEntity
  8
0
100
AcDbLine
 10
375.643
 20
191.179
 30
0.0
 11
376.8
 21
193.345
 31
0.0
  0
LINE
  5
21D
330
1E
100
AcDbEntity
  8
0
100
AcDbLine
 10
375.6150449048019
 20
191.0271041330839
 30
0.0
 11
375.643
 21
191.179
 31
0.0
  0
LINE
  5
21E
330
1E
100
AcDbEntity
  8
0
100
AcDbLine
 10
375.0
 20
189.3829999999999
 30
0.0
 11
375.098936858655
 21
188.837809478179
 31
0.0
  0
LINE
  5
21F
330
1E
100
AcDbEntity
  8
0
100
AcDbLine
 10
375.0
 20
189.3829999999999
 30
0.0
 11
375.0
 21
195.097
 31
0.0
  0
LINE
  5
220
330
1E
100
AcDbEntity
  8
0
100
AcDbLine
 10
399.0
 20
192.25
 30
0.0
 11
400.4999999999999
 21
192.8499999999999
 31
0.0
  0
LINE
  5
221
330
1E
100
AcDbEntity
  8
0
100
AcDbLine
 10
397.1999999999999
 20
193.345
 30
0.0
 11
398.3569999999999
 21
191.179
 31
0.0
  0
LINE
  5
222
330
1E
100
AcDbEntity
  8
0
100
AcDbLine
 10
378.5519999999999
 20
194.77
 30
0.0
 11
381.048
 21
196.194
 31
0.0
  0
LINE
  5
223
330
1E
100
AcDbEntity
  8
0
100
AcDbLine
 10
395.448
 20
194.77
 30
0.0
 11
397.368
 21
192.8409999999999
 31
0.0
  0
LINE
  5
224
330
1E
100
AcDbEntity
  8
0
100
AcDbLine
 10
376.8
 20
193.345
 30
0.0
 11
378.6859999999999
 21
195.217
 31
0.0
  0
LINE
  5
225
330
1E
100
AcDbEntity
  8
0
100
AcDbLine
 10
399.0
 20
195.097
 30
0.0
 11
399.0
 21
202.3499999999999
 31
0.0
  0
LINE
  5
226
330
1E
100
AcDbEntity
  8
0
100
AcDbLine
 10
399.0
 20
195.097
 30
0.0
 11
399.0
 21
189.3829999999999
 31
0.0
  0
LINE
  5
227
330
1E
100
AcDbEntity
  8
0
100
AcDbLine
 10
400.4999999999999
 20
192.8499999999999
 30
0.0
 11
406.0999999999999
 21
197.1499999999999
 31
0.0
  0
LINE
  5
228
330
1E
100
AcDbEntity
  8
0
100
AcDbLine
 10
373.4999999999999
 20
192.8499999999999
 30
0.0
 11
375.0
 21
192.25
 31
0.0
  0
LINE
  5
229
330
1E
100
AcDbEntity
  8
0
100
AcDbLine
 10
381.048
 20
196.194
 30
0.0
 11
383.928
 21
197.0749999999999
 31
0.0
  0
LINE
  5
22A
330
1E
100
AcDbEntity
  8
0
100
AcDbLine
 10
378.6859999999999
 20
195.217
 30
0.0
 11
381.1289999999999
 21
196.6609999999999
 31
0.0
  0
LINE
  5
22B
330
1E
100
AcDbEntity
  8
0
100
AcDbLine
 10
392.952
 20
196.194
 30
0.0
 11
395.448
 21
194.77
 31
0.0
  0
LINE
  5
22C
330
1E
100
AcDbEntity
  8
0
100
AcDbLine
 10
395.314
 20
195.217
 30
0.0
 11
397.1999999999999
 21
193.345
 31
0.0
  0
LINE
  5
22D
330
1E
100
AcDbEntity
  8
0
100
AcDbLine
 10
383.928
 20
197.0749999999999
 30
0.0
 11
387.0
 21
197.4109999999999
 31
0.0
  0
LINE
  5
22E
330
1E
100
AcDbEntity
  8
0
100
AcDbLine
 10
390.0719999999999
 20
197.0749999999999
 30
0.0
 11
392.952
 21
196.194
 31
0.0
  0
LINE
  5
22F
330
1E
100
AcDbEntity
  8
0
100
AcDbLine
 10
392.8709999999999
 20
196.6609999999999
 30
0.0
 11
395.314
 21
195.217
 31
0.0
  0
LINE
  5
230
330
1E
100
AcDbEntity
  8
0
100
AcDbLine
 10
381.1289999999999
 20
196.6609999999999
 30
0.0
 11
383.957
 21
197.548
 31
0.0
  0
LINE
  5
231
330
1E
100
AcDbEntity
  8
0
100
AcDbLine
 10
387.0
 20
197.4109999999999
 30
0.0
 11
390.0719999999999
 21
197.0749999999999
 31
0.0
  0
LINE
  5
232
330
1E
100
AcDbEntity
  8
0
100
AcDbLine
 10
390.043
 20
197.548
 30
0.0
 11
392.8709999999999
 21
196.6609999999999
 31
0.0
  0
LINE
  5
233
330
1E
100
AcDbEntity
  8
0
100
AcDbLine
 10
387.0
 20
197.8759999999999
 30
0.0
 11
390.043
 21
197.548
 31
0.0
  0
LINE
  5
234
330
1E
100
AcDbEntity
  8
0
100
AcDbLine
 10
383.957
 20
197.548
 30
0.0
 11
387.0
 21
197.8759999999999
 31
0.0
  0
LINE
  5
235
330
1E
100
AcDbEntity
  8
0
100
AcDbLine
 10
406.0999999999999
 20
197.1499999999999
 30
0.0
 11
410.4
 21
202.7499999999999
 31
0.0
  0
LINE
  5
236
330
1E
100
AcDbEntity
  8
0
100
AcDbLine
 10
367.8999999999999
 20
197.1499999999999
 30
0.0
 11
373.4999999999999
 21
192.8499999999999
 31
0.0
  0
LINE
  5
237
330
1E
100
AcDbEntity
  8
0
100
AcDbLine
 10
375.0
 20
195.097
 30
0.0
 11
375.0
 21
202.3499999999999
 31
0.0
  0
LINE
  5
238
330
1E
100
AcDbEntity
  8
0
100
AcDbLine
 10
375.0
 20
195.097
 30
0.0
 11
375.0
 21
189.3829999999999
 31
0.0
  0
LINE
  5
260
330
1E
100
AcDbEntity
  8
0
100
AcDbLine
 10
361.0
 20
209.25
 30
0.0
 11
363.6
 21
202.7499999999999
 31
0.0
  0
LINE
  5
261
330
1E
100
AcDbEntity
  8
0
100
AcDbLine
 10
363.6
 20
202.7499999999999
 30
0.0
 11
367.8999999999999
 21
197.1499999999999
 31
0.0
  0
LINE
  5
262
330
1E
100
AcDbEntity
  8
0
100
AcDbLine
 10
399.0
 20
202.3499999999999
 30
0.0
 11
399.0
 21
195.097
 31
0.0
  0
LINE
  5
263
330
1E
100
AcDbEntity
  8
0
100
AcDbLine
 10
410.4
 20
202.7499999999999
 30
0.0
 11
413.0
 21
209.25
 31
0.0
  0
LINE
  5
264
330
1E
100
AcDbEntity
  8
0
100
AcDbLine
 10
398.6
 20
205.1499999999999
 30
0.0
 11
399.0
 21
202.3499999999999
 31
0.0
  0
LINE
  5
265
330
1E
100
AcDbEntity
  8
0
100
AcDbLine
 10
395.5
 20
209.9499999999999
 30
0.0
 11
397.3999999999999
 21
207.65
 31
0.0
  0
LINE
  5
266
330
1E
100
AcDbEntity
  8
0
100
AcDbLine
 10
413.0
 20
209.25
 30
0.0
 11
414.0
 21
216.25
 31
0.0
  0
LINE
  5
267
330
1E
100
AcDbEntity
  8
0
100
AcDbLine
 10
397.3999999999999
 20
207.65
 30
0.0
 11
398.6
 21
205.1499999999999
 31
0.0
  0
LINE
  5
268
330
1E
100
AcDbEntity
  8
0
100
AcDbLine
 10
390.1
 20
212.7499999999999
 30
0.0
 11
393.0
 21
211.65
 31
0.0
  0
LINE
  5
269
330
1E
100
AcDbEntity
  8
0
100
AcDbLine
 10
393.0
 20
211.65
 30
0.0
 11
395.5
 21
209.9499999999999
 31
0.0
  0
LINE
  5
26A
330
1E
100
AcDbEntity
  8
0
100
AcDbLine
 10
387.0
 20
213.1499999999999
 30
0.0
 11
390.1
 21
212.7499999999999
 31
0.0
  0
LINE
  5
26B
330
1E
100
AcDbEntity
  8
0
100
AcDbLine
 10
383.9
 20
212.7499999999999
 30
0.0
 11
387.0
 21
213.1499999999999
 31
0.0
  0
LINE
  5
26C
330
1E
100
AcDbEntity
  8
0
100
AcDbLine
 10
381.0
 20
211.65
 30
0.0
 11
383.9
 21
212.7499999999999
 31
0.0
  0
LINE
  5
26D
330
1E
100
AcDbEntity
  8
0
100
AcDbLine
 10
378.5
 20
209.9499999999999
 30
0.0
 11
381.0
 21
211.65
 31
0.0
  0
LINE
  5
26E
330
1E
100
AcDbEntity
  8
0
100
AcDbLine
 10
376.6
 20
207.65
 30
0.0
 11
378.5
 21
209.9499999999999
 31
0.0
  0
LINE
  5
26F
330
1E
100
AcDbEntity
  8
0
100
AcDbLine
 10
375.4
 20
205.1499999999999
 30
0.0
 11
376.6
 21
207.65
 31
0.0
  0
LINE
  5
270
330
1E
100
AcDbEntity
  8
0
100
AcDbLine
 10
375.0
 20
202.3499999999999
 30
0.0
 11
375.0
 21
195.097
 31
0.0
  0
LINE
  5
271
330
1E
100
AcDbEntity
  8
0
100
AcDbLine
 10
375.0
 20
202.3499999999999
 30
0.0
 11
375.4
 21
205.1499999999999
 31
0.0
  0
LINE
  5
272
330
1E
100
AcDbEntity
  8
0
100
AcDbLine
 10
360.0
 20
216.25
 30
0.0
 11
361.0
 21
223.2499999999999
 31
0.0
  0
LINE
  5
273
330
1E
100
AcDbEntity
  8
0
100
AcDbLine
 10
360.0
 20
216.25
 30
0.0
 11
361.0
 21
209.25
 31
0.0
  0
LINE
  5
276
330
1E
100
AcDbEntity
  8
0
100
AcDbLine
 10
413.0
 20
223.2499999999999
 30
0.0
 11
414.0
 21
216.25
 31
0.0
  0
LINE
  5
277
330
1E
100
AcDbEntity
  8
0
100
AcDbLine
 10
361.0
 20
223.2499999999999
 30
0.0
 11
363.6
 21
229.7499999999999
 31
0.0
  0
LINE
  5
278
330
1E
100
AcDbEntity
  8
0
100
AcDbLine
 10
419.0
 20
216.25
 30
0.0
 11
419.0
 21
247.655
 31
0.0
  0
LINE
  5
294
330
1E
100
AcDbEntity
  8
0
100
AcDbLine
 10
410.4
 20
229.7499999999999
 30
0.0
 11
413.0
 21
223.2499999999999
 31
0.0
  0
LINE
  5
295
330
1E
100
AcDbEntity
  8
0
100
AcDbLine
 10
363.6
 20
229.7499999999999
 30
0.0
 11
367.8999999999999
 21
235.3499999999999
 31
0.0
  0
LINE
  5
29F
330
1E
100
AcDbEntity
  8
0
100
AcDbLine
 10
406.0999999999999
 20
235.3499999999999
 30
0.0
 11
410.4
 21
229.7499999999999
 31
0.0
  0
LINE
  5
2A0
330
1E
100
AcDbEntity
  8
0
100
AcDbLine
 10
367.8999999999999
 20
235.3499999999999
 30
0.0
 11
373.4999999999999
 21
239.65
 31
0.0
  0
LINE
  5
2B6
330
1E
100
AcDbEntity
  8
0
100
AcDbLine
 10
400.4999999999999
 20
239.65
 30
0.0
 11
406.0999999999999
 21
235.3499999999999
 31
0.0
  0
LINE
  5
2B7
330
1E
100
AcDbEntity
  8
0
100
AcDbLine
 10
387.0
 20
243.25
 30
0.0
 11
394.0
 21
242.2499999999999
 31
0.0
  0
LINE
  5
2B8
330
1E
100
AcDbEntity
  8
0
100
AcDbLine
 10
394.0
 20
242.2499999999999
 30
0.0
 11
400.4999999999999
 21
239.65
 31
0.0
  0
LINE
  5
2B9
330
1E
100
AcDbEntity
  8
0
100
AcDbLine
 10
380.0
 20
242.2499999999999
 30
0.0
 11
387.0
 21
243.25
 31
0.0
  0
LINE
  5
2BA
330
1E
100
AcDbEntity
  8
0
100
AcDbLine
 10
373.4999999999999
 20
239.65
 30
0.0
 11
380.0
 21
242.2499999999999
 31
0.0
  0
LINE
  5
2C4
330
1E
100
AcDbEntity
  8
0
100
AcDbLine
 10
418.918
 20
248.467
 30
0.0
 11
419.0
 21
247.655
 31
0.0
  0
LINE
  5
2C5
330
1E
100
AcDbEntity
  8
0
100
AcDbLine
 10
419.0
 20
247.655
 30
0.0
 11
419.0
 21
216.25
 31
0.0
  0
LINE
  5
2CA
330
1E
100
AcDbEntity
  8
0
100
AcDbLine
 10
417.188
 20
251.962
 30
0.0
 11
417.724
 21
251.3529999999999
 31
0.0
  0
LINE
  5
2CB
330
1E
100
AcDbEntity
  8
0
100
AcDbLine
 10
417.724
 20
251.3529999999999
 30
0.0
 11
418.1769999999999
 21
250.702
 31
0.0
  0
LINE
  5
2CC
330
1E
100
AcDbEntity
  8
0
100
AcDbLine
 10
418.1769999999999
 20
250.702
 30
0.0
 11
418.506
 21
249.9709999999999
 31
0.0
  0
LINE
  5
2CD
330
1E
100
AcDbEntity
  8
0
100
AcDbLine
 10
418.506
 20
249.9709999999999
 30
0.0
 11
418.794
 21
249.2399999999999
 31
0.0
  0
LINE
  5
2CE
330
1E
100
AcDbEntity
  8
0
100
AcDbLine
 10
418.794
 20
249.2399999999999
 30
0.0
 11
418.918
 21
248.467
 31
0.0
  0
LINE
  5
2CF
330
1E
100
AcDbEntity
  8
0
100
AcDbLine
 10
416.5709999999999
 20
252.49
 30
0.0
 11
417.188
 21
251.962
 31
0.0
  0
LINE
  5
2D0
330
1E
100
AcDbEntity
  8
0
100
AcDbLine
 10
415.9119999999999
 20
252.937
 30
0.0
 11
416.5709999999999
 21
252.49
 31
0.0
  0
LINE
  5
2D1
330
1E
100
AcDbEntity
  8
0
100
AcDbLine
 10
415.1709999999999
 20
253.262
 30
0.0
 11
415.9119999999999
 21
252.937
 31
0.0
  0
LINE
  5
2D2
330
1E
100
AcDbEntity
  8
0
100
AcDbLine
 10
414.429
 20
253.547
 30
0.0
 11
415.1709999999999
 21
253.262
 31
0.0
  0
LINE
  5
2D3
330
1E
100
AcDbEntity
  8
0
100
AcDbLine
 10
413.647
 20
253.669
 30
0.0
 11
414.429
 21
253.547
 31
0.0
  0
LINE
  5
2D4
330
1E
100
AcDbEntity
  8
0
100
AcDbLine
 10
412.823
 20
253.75
 30
0.0
 11
413.647
 21
253.669
 31
0.0
  0
LINE
  5
2DB
330
1E
100
AcDbEntity
  8
0
100
AcDbLine
 10
6.000000000000009
 20
199.2499999999999
 30
0.0
 11
74.0
 21
199.2499999999999
 31
0.0
  0
LINE
  5
2DC
330
1E
100
AcDbEntity
  8
0
100
AcDbLine
 10
6.0
 20
199.2499999999999
 30
0.0
 11
74.0
 21
199.2499999999999
 31
0.0
  0
LINE
  5
2DD
330
1E
100
AcDbEntity
  8
0
100
AcDbLine
 10
78.2
 20
201.0499999999999
 30
0.0
 11
79.1
 21
202.3499999999999
 31
0.0
  0
LINE
  5
2DE
330
1E
100
AcDbEntity
  8
0
100
AcDbLine
 10
79.7
 20
203.75
 30
0.0
 11
80.0
 21
205.25
 31
0.0
  0
LINE
  5
2DF
330
1E
100
AcDbEntity
  8
0
100
AcDbLine
 10
79.1
 20
202.3499999999999
 30
0.0
 11
79.7
 21
203.75
 31
0.0
  0
LINE
  5
2E0
330
1E
100
AcDbEntity
  8
0
100
AcDbLine
 10
76.90000000000001
 20
200.15
 30
0.0
 11
78.2
 21
201.0499999999999
 31
0.0
  0
LINE
  5
2E1
330
1E
100
AcDbEntity
  8
0
100
AcDbLine
 10
74.0
 20
199.2499999999999
 30
0.0
 11
75.5
 21
199.55
 31
0.0
  0
LINE
  5
2E2
330
1E
100
AcDbEntity
  8
0
100
AcDbLine
 10
75.5
 20
199.55
 30
0.0
 11
76.90000000000001
 21
200.15
 31
0.0
  0
LINE
  5
2E3
330
1E
100
AcDbEntity
  8
0
100
AcDbLine
 10
80.0
 20
227.2499999999999
 30
0.0
 11
80.0
 21
205.25
 31
0.0
  0
LINE
  5
2E4
330
1E
100
AcDbEntity
  8
0
100
AcDbLine
 10
190.0
 20
24.25000000000653
 30
0.0
 11
190.0
 21
178.2499999999999
 31
0.0
  0
LINE
  5
2E5
330
1E
100
AcDbEntity
  8
0
100
AcDbLine
 10
185.3
 20
3.049999999999999
 30
0.0
 11
183.3999999999999
 21
2.25
 31
0.0
  0
LINE
  5
2E6
330
1E
100
AcDbEntity
  8
0
100
AcDbLine
 10
189.4
 20
9.949999999999999
 30
0.0
 11
189.0
 21
7.849999999999999
 31
0.0
  0
LINE
  5
2E7
330
1E
100
AcDbEntity
  8
0
100
AcDbLine
 10
188.1999999999999
 20
5.95
 30
0.0
 11
187.0
 21
4.25
 31
0.0
  0
LINE
  5
2E8
330
1E
100
AcDbEntity
  8
0
100
AcDbLine
 10
189.0
 20
7.849999999999999
 30
0.0
 11
188.1999999999999
 21
5.95
 31
0.0
  0
LINE
  5
2E9
330
1E
100
AcDbEntity
  8
0
100
AcDbLine
 10
187.0
 20
4.25
 30
0.0
 11
185.3
 21
3.049999999999999
 31
0.0
  0
LINE
  5
2EA
330
1E
100
AcDbEntity
  8
0
100
AcDbLine
 10
189.9499999999999
 20
18.85
 30
0.0
 11
189.85
 21
15.25
 31
0.0
  0
LINE
  5
2EB
330
1E
100
AcDbEntity
  8
0
100
AcDbLine
 10
189.85
 20
15.25
 30
0.0
 11
189.6499999999999
 21
12.25
 31
0.0
  0
LINE
  5
2EC
330
1E
100
AcDbEntity
  8
0
100
AcDbLine
 10
189.6499999999999
 20
12.25
 30
0.0
 11
189.4
 21
9.949999999999999
 31
0.0
  0
LINE
  5
2ED
330
1E
100
AcDbEntity
  8
0
100
AcDbLine
 10
190.0
 20
24.25
 30
0.0
 11
189.99
 21
21.94999999999999
 31
0.0
  0
LINE
  5
2EE
330
1E
100
AcDbEntity
  8
0
100
AcDbLine
 10
189.99
 20
21.94999999999999
 30
0.0
 11
189.9499999999999
 21
18.85
 31
0.0
  0
LINE
  5
2EF
330
1E
100
AcDbEntity
  8
0
100
AcDbLine
 10
176.0999999999999
 20
0.820000000000004
 30
0.0
 11
172.5
 21
0.4700000000000041
 31
0.0
  0
LINE
  5
2F0
330
1E
100
AcDbEntity
  8
0
100
AcDbLine
 10
181.38
 20
1.74
 30
0.0
 11
179.0
 21
1.28
 31
0.0
  0
LINE
  5
2F1
330
1E
100
AcDbEntity
  8
0
100
AcDbLine
 10
183.3999999999999
 20
2.25
 30
0.0
 11
181.38
 21
1.74
 31
0.0
  0
LINE
  5
2F2
330
1E
100
AcDbEntity
  8
0
100
AcDbLine
 10
179.0
 20
1.28
 30
0.0
 11
176.0999999999999
 21
0.820000000000004
 31
0.0
  0
LINE
  5
2F3
330
1E
100
AcDbEntity
  8
0
100
AcDbLine
 10
172.5
 20
0.4700000000000041
 30
0.0
 11
169.3
 21
0.306000000000004
 31
0.0
  0
LINE
  5
2F4
330
1E
100
AcDbEntity
  8
0
100
AcDbLine
 10
169.3
 20
0.306000000000004
 30
0.0
 11
167.0
 21
0.250000000000004
 31
0.0
  0
LINE
  5
2F5
330
1E
100
AcDbEntity
  8
0
100
AcDbLine
 10
317.8235
 20
253.75
 30
0.0
 11
167.0
 21
253.75
 31
0.0
  0
LINE
  5
2F6
330
1E
100
AcDbEntity
  8
0
100
AcDbLine
 10
412.823
 20
253.75
 30
0.0
 11
167.0
 21
253.75
 31
0.0
  0
LINE
  5
2F7
330
1E
100
AcDbEntity
  8
0
100
AcDbLine
 10
375.0
 20
178.75
 30
0.0
 11
190.0
 21
178.75
 31
0.0
  0
LINE
  5
2F8
330
1E
100
AcDbEntity
  8
0
100
AcDbLine
 10
375.0
 20
178.75
 30
0.0
 11
190.0
 21
178.75
 31
0.0
  0
LINE
  5
2F9
330
1E
100
AcDbEntity
  8
0
100
AcDbLine
 10
254.0
 20
227.2499999999999
 30
0.0
 11
254.0
 21
205.25
 31
0.0
  0
LINE
  5
2FA
330
1E
100
AcDbEntity
  8
0
100
AcDbLine
 10
334.0
 20
232.25
 30
0.0
 11
334.0
 21
200.2499999999999
 31
0.0
  0
LINE
  5
2FB
330
1E
100
AcDbEntity
  8
0
100
AcDbLine
 10
334.0
 20
200.2499999999999
 30
0.0
 11
334.0
 21
232.25
 31
0.0
  0
LINE
  5
2FC
330
1E
100
AcDbEntity
  8
0
100
AcDbLine
 10
328.0
 20
199.2499999999999
 30
0.0
 11
260.0
 21
199.2499999999999
 31
0.0
  0
LINE
  5
2FD
330
1E
100
AcDbEntity
  8
0
100
AcDbLine
 10
328.0
 20
199.2499999999999
 30
0.0
 11
260.0
 21
199.2499999999999
 31
0.0
  0
LINE
  5
309
330
1E
100
AcDbEntity
  8
0
100
AcDbLine
 10
329.2899499999999
 20
199.2499999999999
 30
0.0
 11
328.64823
 21
199.2499999999999
 31
0.0
  0
LINE
  5
30A
330
1E
100
AcDbEntity
  8
0
100
AcDbLine
 10
329.1999999999999
 20
199.2499999999999
 30
0.0
 11
328.0
 21
199.2499999999999
 31
0.0
  0
LINE
  5
30B
330
1E
100
AcDbEntity
  8
0
100
AcDbLine
 10
333.6999999999999
 20
199.55
 30
0.0
 11
333.0
 21
199.2499999999999
 31
0.0
  0
LINE
  5
30C
330
1E
100
AcDbEntity
  8
0
100
AcDbLine
 10
333.6999999999999
 20
199.55
 30
0.0
 11
333.0
 21
199.2499999999999
 31
0.0
  0
LINE
  5
30D
330
1E
100
AcDbEntity
  8
0
100
AcDbLine
 10
334.0
 20
200.2499999999999
 30
0.0
 11
333.6999999999999
 21
199.55
 31
0.0
  0
LINE
  5
30E
330
1E
100
AcDbEntity
  8
0
100
AcDbLine
 10
330.5
 20
199.2499999999999
 30
0.0
 11
330.42595
 21
199.2499999999999
 31
0.0
  0
LINE
  5
30F
330
1E
100
AcDbEntity
  8
0
100
AcDbLine
 10
329.76689
 20
199.2499999999999
 30
0.0
 11
329.2899499999999
 21
199.2499999999999
 31
0.0
  0
LINE
  5
310
330
1E
100
AcDbEntity
  8
0
100
AcDbLine
 10
330.42595
 20
199.2499999999999
 30
0.0
 11
330.1831399999999
 21
199.2499999999999
 31
0.0
  0
LINE
  5
311
330
1E
100
AcDbEntity
  8
0
100
AcDbLine
 10
330.1831399999999
 20
199.2499999999999
 30
0.0
 11
329.76689
 21
199.2499999999999
 31
0.0
  0
LINE
  5
312
330
1E
100
AcDbEntity
  8
0
100
AcDbLine
 10
333.0
 20
199.2499999999999
 30
0.0
 11
332.8
 21
199.2499999999999
 31
0.0
  0
LINE
  5
313
330
1E
100
AcDbEntity
  8
0
100
AcDbLine
 10
330.3999999999999
 20
199.2499999999999
 30
0.0
 11
329.1999999999999
 21
199.2499999999999
 31
0.0
  0
LINE
  5
314
330
1E
100
AcDbEntity
  8
0
100
AcDbLine
 10
331.4999999999999
 20
199.2499999999999
 30
0.0
 11
330.3999999999999
 21
199.2499999999999
 31
0.0
  0
LINE
  5
315
330
1E
100
AcDbEntity
  8
0
100
AcDbLine
 10
332.3
 20
199.2499999999999
 30
0.0
 11
331.4999999999999
 21
199.2499999999999
 31
0.0
  0
LINE
  5
316
330
1E
100
AcDbEntity
  8
0
100
AcDbLine
 10
332.8
 20
199.2499999999999
 30
0.0
 11
332.3
 21
199.2499999999999
 31
0.0
  0
LINE
  5
317
330
1E
100
AcDbEntity
  8
0
100
AcDbLine
 10
328.64823
 20
199.2499999999999
 30
0.0
 11
328.0
 21
199.2499999999999
 31
0.0
  0
LINE
  5
31B
330
1E
100
AcDbEntity
  8
0
100
AcDbLine
 10
255.8
 20
201.0499999999999
 30
0.0
 11
254.8999999999999
 21
202.3499999999999
 31
0.0
  0
LINE
  5
31C
330
1E
100
AcDbEntity
  8
0
100
AcDbLine
 10
257.1
 20
200.15
 30
0.0
 11
255.8
 21
201.0499999999999
 31
0.0
  0
LINE
  5
31D
330
1E
100
AcDbEntity
  8
0
100
AcDbLine
 10
258.4999999999999
 20
199.55
 30
0.0
 11
257.1
 21
200.15
 31
0.0
  0
LINE
  5
31E
330
1E
100
AcDbEntity
  8
0
100
AcDbLine
 10
260.0
 20
199.2499999999999
 30
0.0
 11
258.4999999999999
 21
199.55
 31
0.0
  0
LINE
  5
31F
330
1E
100
AcDbEntity
  8
0
100
AcDbLine
 10
254.8999999999999
 20
202.3499999999999
 30
0.0
 11
254.3
 21
203.75
 31
0.0
  0
LINE
  5
320
330
1E
100
AcDbEntity
  8
0
100
AcDbLine
 10
254.3
 20
203.75
 30
0.0
 11
254.0
 21
205.25
 31
0.0
  0
LINE
  5
322
330
1E
100
AcDbEntity
  8
0
100
AcDbLine
 10
328.0
 20
233.25
 30
0.0
 11
260.0
 21
233.25
 31
0.0
  0
LINE
  5
323
330
1E
100
AcDbEntity
  8
0
100
AcDbLine
 10
328.0
 20
233.25
 30
0.0
 11
260.0
 21
233.25
 31
0.0
  0
LINE
  5
326
330
1E
100
AcDbEntity
  8
0
100
AcDbLine
 10
329.1999999999999
 20
233.25
 30
0.0
 11
328.0
 21
233.25
 31
0.0
  0
LINE
  5
327
330
1E
100
AcDbEntity
  8
0
100
AcDbLine
 10
333.6999999999999
 20
232.9499999999999
 30
0.0
 11
333.0
 21
233.25
 31
0.0
  0
LINE
  5
328
330
1E
100
AcDbEntity
  8
0
100
AcDbLine
 10
333.6999999999999
 20
232.9499999999999
 30
0.0
 11
333.0
 21
233.25
 31
0.0
  0
LINE
  5
329
330
1E
100
AcDbEntity
  8
0
100
AcDbLine
 10
334.0
 20
232.25
 30
0.0
 11
333.6999999999999
 21
232.9499999999999
 31
0.0
  0
LINE
  5
32A
330
1E
100
AcDbEntity
  8
0
100
AcDbLine
 10
333.0
 20
233.25
 30
0.0
 11
332.8
 21
233.25
 31
0.0
  0
LINE
  5
32B
330
1E
100
AcDbEntity
  8
0
100
AcDbLine
 10
332.8
 20
233.25
 30
0.0
 11
332.3
 21
233.25
 31
0.0
  0
LINE
  5
32C
330
1E
100
AcDbEntity
  8
0
100
AcDbLine
 10
330.3999999999999
 20
233.25
 30
0.0
 11
329.1999999999999
 21
233.25
 31
0.0
  0
LINE
  5
32D
330
1E
100
AcDbEntity
  8
0
100
AcDbLine
 10
332.3
 20
233.25
 30
0.0
 11
331.4999999999999
 21
233.25
 31
0.0
  0
LINE
  5
32E
330
1E
100
AcDbEntity
  8
0
100
AcDbLine
 10
331.4999999999999
 20
233.25
 30
0.0
 11
330.3999999999999
 21
233.25
 31
0.0
  0
LINE
  5
337
330
1E
100
AcDbEntity
  8
0
100
AcDbLine
 10
255.8
 20
231.4499999999999
 30
0.0
 11
254.8999999999999
 21
230.15
 31
0.0
  0
LINE
  5
338
330
1E
100
AcDbEntity
  8
0
100
AcDbLine
 10
254.3
 20
228.75
 30
0.0
 11
254.0
 21
227.2499999999999
 31
0.0
  0
LINE
  5
339
330
1E
100
AcDbEntity
  8
0
100
AcDbLine
 10
254.8999999999999
 20
230.15
 30
0.0
 11
254.3
 21
228.75
 31
0.0
  0
LINE
  5
33A
330
1E
100
AcDbEntity
  8
0
100
AcDbLine
 10
257.1
 20
232.35
 30
0.0
 11
255.8
 21
231.4499999999999
 31
0.0
  0
LINE
  5
33B
330
1E
100
AcDbEntity
  8
0
100
AcDbLine
 10
260.0
 20
233.25
 30
0.0
 11
258.4999999999999
 21
232.9499999999999
 31
0.0
  0
LINE
  5
33C
330
1E
100
AcDbEntity
  8
0
100
AcDbLine
 10
258.4999999999999
 20
232.9499999999999
 30
0.0
 11
257.1
 21
232.35
 31
0.0
  0
LINE
  5
340
330
1E
100
AcDbEntity
  8
0
100
AcDbLine
 10
190.0
 20
183.3179999999999
 30
0.0
 11
190.0
 21
217.2499999999999
 31
0.0
  0
LINE
  5
341
330
1E
100
AcDbEntity
  8
0
100
AcDbLine
 10
190.0
 20
217.2499999999999
 30
0.0
 11
190.0
 21
183.3179999999999
 31
0.0
  0
LINE
  5
342
330
1E
100
AcDbEntity
  8
0
100
AcDbLine
 10
190.0
 20
178.2499999999999
 30
0.0
 11
190.0
 21
170.25
 31
0.0
  0
LINE
  5
343
330
1E
100
AcDbEntity
  8
0
100
AcDbLine
 10
190.0
 20
183.3179999999999
 30
0.0
 11
190.0
 21
178.2499999999999
 31
0.0
  0
LINE
  5
344
330
1E
100
AcDbEntity
  8
0
100
AcDbLine
 10
190.0
 20
178.2499999999999
 30
0.0
 11
190.0
 21
183.3179999999999
 31
0.0
  0
LINE
  5
345
330
1E
100
AcDbEntity
  8
0
100
AcDbLine
 10
185.3
 20
236.127
 30
0.0
 11
183.3999999999999
 21
236.927
 31
0.0
  0
LINE
  5
346
330
1E
100
AcDbEntity
  8
0
100
AcDbLine
 10
189.85
 20
223.927
 30
0.0
 11
189.6499999999999
 21
226.927
 31
0.0
  0
LINE
  5
347
330
1E
100
AcDbEntity
  8
0
100
AcDbLine
 10
189.99
 20
219.55
 30
0.0
 11
189.85
 21
223.927
 31
0.0
  0
LINE
  5
348
330
1E
100
AcDbEntity
  8
0
100
AcDbLine
 10
190.0
 20
219.55
 30
0.0
 11
190.0
 21
217.2499999999999
 31
0.0
  0
LINE
  5
349
330
1E
100
AcDbEntity
  8
0
100
AcDbLine
 10
187.0
 20
234.927
 30
0.0
 11
185.3
 21
236.127
 31
0.0
  0
LINE
  5
34A
330
1E
100
AcDbEntity
  8
0
100
AcDbLine
 10
189.4
 20
229.227
 30
0.0
 11
189.0
 21
231.327
 31
0.0
  0
LINE
  5
34B
330
1E
100
AcDbEntity
  8
0
100
AcDbLine
 10
189.6499999999999
 20
226.927
 30
0.0
 11
189.4
 21
229.227
 31
0.0
  0
LINE
  5
34C
330
1E
100
AcDbEntity
  8
0
100
AcDbLine
 10
188.1999999999999
 20
233.227
 30
0.0
 11
187.0
 21
234.927
 31
0.0
  0
LINE
  5
34D
330
1E
100
AcDbEntity
  8
0
100
AcDbLine
 10
189.0
 20
231.327
 30
0.0
 11
188.1999999999999
 21
233.227
 31
0.0
  0
LINE
  5
34E
330
1E
100
AcDbEntity
  8
0
100
AcDbLine
 10
176.0
 20
237.777
 30
0.0
 11
172.4
 21
237.877
 31
0.0
  0
LINE
  5
34F
330
1E
100
AcDbEntity
  8
0
100
AcDbLine
 10
181.3
 20
237.327
 30
0.0
 11
179.0
 21
237.577
 31
0.0
  0
LINE
  5
350
330
1E
100
AcDbEntity
  8
0
100
AcDbLine
 10
183.3999999999999
 20
236.927
 30
0.0
 11
181.3
 21
237.327
 31
0.0
  0
LINE
  5
351
330
1E
100
AcDbEntity
  8
0
100
AcDbLine
 10
179.0
 20
237.577
 30
0.0
 11
176.0
 21
237.777
 31
0.0
  0
LINE
  5
352
330
1E
100
AcDbEntity
  8
0
100
AcDbLine
 10
172.4
 20
237.877
 30
0.0
 11
169.3
 21
237.917
 31
0.0
  0
LINE
  5
353
330
1E
100
AcDbEntity
  8
0
100
AcDbLine
 10
169.3
 20
237.917
 30
0.0
 11
167.0
 21
237.927
 31
0.0
  0
LINE
  5
354
330
1E
100
AcDbEntity
  8
0
100
AcDbLine
 10
412.823
 20
178.75
 30
0.0
 11
399.0
 21
178.75
 31
0.0
  0
LINE
  5
355
330
1E
100
AcDbEntity
  8
0
100
AcDbLine
 10
419.0
 20
184.8449999999999
 30
0.0
 11
419.0
 21
216.25
 31
0.0
  0
LINE
  5
356
330
1E
100
AcDbEntity
  8
0
100
AcDbLine
 10
419.0
 20
216.25
 30
0.0
 11
419.0
 21
184.8449999999999
 31
0.0
  0
LINE
  5
357
330
1E
100
AcDbEntity
  8
0
100
AcDbLine
 10
414.429
 20
178.953
 30
0.0
 11
415.1709999999999
 21
179.238
 31
0.0
  0
LINE
  5
358
330
1E
100
AcDbEntity
  8
0
100
AcDbLine
 10
412.823
 20
178.75
 30
0.0
 11
413.647
 21
178.8309999999999
 31
0.0
  0
LINE
  5
359
330
1E
100
AcDbEntity
  8
0
100
AcDbLine
 10
413.647
 20
178.8309999999999
 30
0.0
 11
414.429
 21
178.953
 31
0.0
  0
LINE
  5
35A
330
1E
100
AcDbEntity
  8
0
100
AcDbLine
 10
417.724
 20
181.147
 30
0.0
 11
418.1769999999999
 21
181.798
 31
0.0
  0
LINE
  5
35B
330
1E
100
AcDbEntity
  8
0
100
AcDbLine
 10
418.794
 20
183.26
 30
0.0
 11
418.918
 21
184.0329999999999
 31
0.0
  0
LINE
  5
35C
330
1E
100
AcDbEntity
  8
0
100
AcDbLine
 10
418.506
 20
182.529
 30
0.0
 11
418.794
 21
183.26
 31
0.0
  0
LINE
  5
35D
330
1E
100
AcDbEntity
  8
0
100
AcDbLine
 10
418.1769999999999
 20
181.798
 30
0.0
 11
418.506
 21
182.529
 31
0.0
  0
LINE
  5
35E
330
1E
100
AcDbEntity
  8
0
100
AcDbLine
 10
418.918
 20
184.0329999999999
 30
0.0
 11
419.0
 21
184.8449999999999
 31
0.0
  0
LINE
  5
35F
330
1E
100
AcDbEntity
  8
0
100
AcDbLine
 10
415.1709999999999
 20
179.238
 30
0.0
 11
415.9119999999999
 21
179.5629999999999
 31
0.0
  0
LINE
  5
360
330
1E
100
AcDbEntity
  8
0
100
AcDbLine
 10
415.9119999999999
 20
179.5629999999999
 30
0.0
 11
416.5709999999999
 21
180.01
 31
0.0
  0
LINE
  5
361
330
1E
100
AcDbEntity
  8
0
100
AcDbLine
 10
416.5709999999999
 20
180.01
 30
0.0
 11
417.188
 21
180.5379999999999
 31
0.0
  0
LINE
  5
362
330
1E
100
AcDbEntity
  8
0
100
AcDbLine
 10
417.188
 20
180.5379999999999
 30
0.0
 11
417.724
 21
181.147
 31
0.0
  0
ENDSEC
  0
SECTION
  2
OBJECTS
  0
DICTIONARY
  5
C
330
0
100
AcDbDictionary
281
     1
  3
ACAD_GROUP
350
D
  3
ACAD_LAYOUT
350
19
  3
ACAD_MLINESTYLE
350
16
  3
ACAD_PLOTSETTINGS
350
18
  3
ACAD_PLOTSTYLENAME
350
E
  3
AcDbVariableDictionary
350
364
  0
DICTIONARY
  5
D
102
{ACAD_REACTORS
330
C
102
}
330
C
100
AcDbDictionary
281
     1
  0
DICTIONARY
  5
19
102
{ACAD_REACTORS
330
C
102
}
330
C
100
AcDbDictionary
281
     1
  3
Layout1
350
1D
  3
Model
350
21
  0
DICTIONARY
  5
16
102
{ACAD_REACTORS
330
C
102
}
330
C
100
AcDbDictionary
281
     1
  3
Standard
350
17
  0
DICTIONARY
  5
18
102
{ACAD_REACTORS
330
C
102
}
330
C
100
AcDbDictionary
281
     1
  0
ACDBDICTIONARYWDFLT
  5
E
102
{ACAD_REACTORS
330
C
102
}
330
C
100
AcDbDictionary
281
     1
  3
Normal
350
F
100
AcDbDictionaryWithDefault
340
F
  0
DICTIONARY
  5
364
102
{ACAD_REACTORS
330
C
102
}
330
C
100
AcDbDictionary
281
     1
  3
DIMASSOC
350
365
  0
LAYOUT
  5
1D
102
{ACAD_REACTORS
330
19
102
}
330
19
100
AcDbPlotSettings
  1

  2
hp deskjet 980c series
  4

  6

 40
0.0
 41
0.0
 42
0.0
 43
0.0
 44
0.0
 45
0.0
 46
0.0
 47
0.0
 48
0.0
 49
0.0
140
0.0
141
0.0
142
1.0
143
1.0
 70
   688
 72
     0
 73
     0
 74
     5
  7

 75
    16
147
1.0
148
0.0
149
0.0
100
AcDbLayout
  1
Layout1
 70
     1
 71
     1
 10
0.0
 20
0.0
 11
12.0
 21
9.0
 12
0.0
 22
0.0
 32
0.0
 14
1.000000000000000E+20
 24
1.000000000000000E+20
 34
1.000000000000000E+20
 15
-1.000000000000000E+20
 25
-1.000000000000000E+20
 35
-1.000000000000000E+20
146
0.0
 13
0.0
 23
0.0
 33
0.0
 16
1.0
 26
0.0
 36
0.0
 17
0.0
 27
1.0
 37
0.0
 76
     0
330
1A
  0
LAYOUT
  5
21
102
{ACAD_REACTORS
330
19
102
}
330
19
100
AcDbPlotSettings
  1

  2
hp deskjet 980c series
  4

  6

 40
0.0
 41
0.0
 42
0.0
 43
0.0
 44
0.0
 45
0.0
 46
0.0
 47
0.0
 48
0.0
 49
0.0
140
0.0
141
0.0
142
1.0
143
1.0
 70
  1712
 72
     0
 73
     0
 74
     0
  7

 75
     0
147
1.0
148
0.0
149
0.0
100
AcDbLayout
  1
Model
 70
     1
 71
     0
 10
0.0
 20
0.0
 11
12.0
 21
9.0
 12
0.0
 22
0.0
 32
0.0
 14
0.0
 24
0.0
 34
0.0
 15
0.0
 25
0.0
 35
0.0
146
0.0
 13
0.0
 23
0.0
 33
0.0
 16
1.0
 26
0.0
 36
0.0
 17
0.0
 27
1.0
 37
0.0
 76
     0
330
1E
  0
MLINESTYLE
  5
17
102
{ACAD_REACTORS
330
16
102
}
330
16
100
AcDbMlineStyle
  2
STANDARD
 70
     0
  3

 62
   256
 51
90.0
 52
90.0
 71
     2
 49
0.5
 62
   256
  6
BYLAYER
 49
-0.5
 62
   256
  6
BYLAYER
  0
ACDBPLACEHOLDER
  5
F
102
{ACAD_REACTORS
330
E
102
}
330
E
  0
DICTIONARYVAR
  5
365
102
{ACAD_REACTORS
330
364
102
}
330
364
100
DictionaryVariables
280
     0
  1
1
  0
ENDSEC
  0
EOF
