  0
SECTION
  2
HEADER
  9
$ACADVER
  1
AC1015
  9
$ACADMAINTVER
 70
    13
  9
$DWGCODEPAGE
  3
ANSI_1252
  9
$INSBASE
 10
0.0
 20
0.0
 30
0.0
  9
$EXTMIN
 10
0.0
 20
-0.169999999999998
 30
0.0
  9
$EXTMAX
 10
428.0059999999999
 20
218.679
 30
0.0
  9
$LIMMIN
 10
0.0
 20
0.0
  9
$LIMMAX
 10
12.0
 20
9.0
  9
$ORTHOMODE
 70
     0
  9
$REGENMODE
 70
     1
  9
$FILLMODE
 70
     1
  9
$QTEXTMODE
 70
     0
  9
$MIRRTEXT
 70
     1
  9
$LTSCALE
 40
1.0
  9
$ATTMODE
 70
     1
  9
$TEXTSIZE
 40
0.2
  9
$TRACEWID
 40
0.05
  9
$TEXTSTYLE
  7
Standard
  9
$CLAYER
  8
0
  9
$CELTYPE
  6
Continuous
  9
$CECOLOR
 62
   256
  9
$CELTSCALE
 40
1.0
  9
$DISPSILH
 70
     0
  9
$DIMSCALE
 40
1.0
  9
$DIMASZ
 40
0.18
  9
$DIMEXO
 40
0.0625
  9
$DIMDLI
 40
0.38
  9
$DIMRND
 40
0.0
  9
$DIMDLE
 40
0.0
  9
$DIMEXE
 40
0.18
  9
$DIMTP
 40
0.0
  9
$DIMTM
 40
0.0
  9
$DIMTXT
 40
0.18
  9
$DIMCEN
 40
0.09
  9
$DIMTSZ
 40
0.0
  9
$DIMTOL
 70
     0
  9
$DIMLIM
 70
     0
  9
$DIMTIH
 70
     1
  9
$DIMTOH
 70
     1
  9
$DIMSE1
 70
     0
  9
$DIMSE2
 70
     0
  9
$DIMTAD
 70
     0
  9
$DIMZIN
 70
     0
  9
$DIMBLK
  1

  9
$DIMASO
 70
     1
  9
$DIMSHO
 70
     1
  9
$DIMPOST
  1

  9
$DIMAPOST
  1

  9
$DIMALT
 70
     0
  9
$DIMALTD
 70
     2
  9
$DIMALTF
 40
25.4
  9
$DIMLFAC
 40
1.0
  9
$DIMTOFL
 70
     0
  9
$DIMTVP
 40
0.0
  9
$DIMTIX
 70
     0
  9
$DIMSOXD
 70
     0
  9
$DIMSAH
 70
     0
  9
$DIMBLK1
  1

  9
$DIMBLK2
  1

  9
$DIMSTYLE
  2
Standard
  9
$DIMCLRD
 70
     0
  9
$DIMCLRE
 70
     0
  9
$DIMCLRT
 70
     0
  9
$DIMTFAC
 40
1.0
  9
$DIMGAP
 40
0.09
  9
$DIMJUST
 70
     0
  9
$DIMSD1
 70
     0
  9
$DIMSD2
 70
     0
  9
$DIMTOLJ
 70
     1
  9
$DIMTZIN
 70
     0
  9
$DIMALTZ
 70
     0
  9
$DIMALTTZ
 70
     0
  9
$DIMUPT
 70
     0
  9
$DIMDEC
 70
     4
  9
$DIMTDEC
 70
     4
  9
$DIMALTU
 70
     2
  9
$DIMALTTD
 70
     2
  9
$DIMTXSTY
  7
Standard
  9
$DIMAUNIT
 70
     0
  9
$DIMADEC
 70
     0
  9
$DIMALTRND
 40
0.0
  9
$DIMAZIN
 70
     0
  9
$DIMDSEP
 70
    46
  9
$DIMATFIT
 70
     3
  9
$DIMFRAC
 70
     0
  9
$DIMLDRBLK
  1

  9
$DIMLUNIT
 70
     2
  9
$DIMLWD
 70
    -2
  9
$DIMLWE
 70
    -2
  9
$DIMTMOVE
 70
     0
  9
$LUNITS
 70
     2
  9
$LUPREC
 70
     4
  9
$SKETCHINC
 40
0.1
  9
$FILLETRAD
 40
0.0
  9
$AUNITS
 70
     0
  9
$AUPREC
 70
     0
  9
$MENU
  1
.
  9
$ELEVATION
 40
0.0
  9
$PELEVATION
 40
0.0
  9
$THICKNESS
 40
0.0
  9
$LIMCHECK
 70
     0
  9
$CHAMFERA
 40
0.0
  9
$CHAMFERB
 40
0.0
  9
$CHAMFERC
 40
0.0
  9
$CHAMFERD
 40
0.0
  9
$SKPOLY
 70
     0
  9
$TDCREATE
 40
2455321.403353761
  9
$TDUCREATE
 40
2455321.320020428
  9
$TDUPDATE
 40
2455321.416905197
  9
$TDUUPDATE
 40
2455321.333571863
  9
$TDINDWG
 40
0.0135514352
  9
$TDUSRTIMER
 40
0.0135514352
  9
$USRTIMER
 70
     1
  9
$ANGBASE
 50
0.0
  9
$ANGDIR
 70
     0
  9
$PDMODE
 70
     0
  9
$PDSIZE
 40
0.0
  9
$PLINEWID
 40
0.0
  9
$SPLFRAME
 70
     0
  9
$SPLINETYPE
 70
     6
  9
$SPLINESEGS
 70
     8
  9
$HANDSEED
  5
B55
  9
$SURFTAB1
 70
     6
  9
$SURFTAB2
 70
     6
  9
$SURFTYPE
 70
     6
  9
$SURFU
 70
     6
  9
$SURFV
 70
     6
  9
$UCSBASE
  2

  9
$UCSNAME
  2

  9
$UCSORG
 10
0.0
 20
0.0
 30
0.0
  9
$UCSXDIR
 10
1.0
 20
0.0
 30
0.0
  9
$UCSYDIR
 10
0.0
 20
1.0
 30
0.0
  9
$UCSORTHOREF
  2

  9
$UCSORTHOVIEW
 70
     1
  9
$UCSORGTOP
 10
0.0
 20
0.0
 30
0.0
  9
$UCSORGBOTTOM
 10
0.0
 20
0.0
 30
0.0
  9
$UCSORGLEFT
 10
0.0
 20
0.0
 30
0.0
  9
$UCSORGRIGHT
 10
0.0
 20
0.0
 30
0.0
  9
$UCSORGFRONT
 10
0.0
 20
0.0
 30
0.0
  9
$UCSORGBACK
 10
0.0
 20
0.0
 30
0.0
  9
$PUCSBASE
  2

  9
$PUCSNAME
  2

  9
$PUCSORG
 10
0.0
 20
0.0
 30
0.0
  9
$PUCSXDIR
 10
1.0
 20
0.0
 30
0.0
  9
$PUCSYDIR
 10
0.0
 20
1.0
 30
0.0
  9
$PUCSORTHOREF
  2

  9
$PUCSORTHOVIEW
 70
     0
  9
$PUCSORGTOP
 10
0.0
 20
0.0
 30
0.0
  9
$PUCSORGBOTTOM
 10
0.0
 20
0.0
 30
0.0
  9
$PUCSORGLEFT
 10
0.0
 20
0.0
 30
0.0
  9
$PUCSORGRIGHT
 10
0.0
 20
0.0
 30
0.0
  9
$PUCSORGFRONT
 10
0.0
 20
0.0
 30
0.0
  9
$PUCSORGBACK
 10
0.0
 20
0.0
 30
0.0
  9
$USERI1
 70
     0
  9
$USERI2
 70
     0
  9
$USERI3
 70
     0
  9
$USERI4
 70
     0
  9
$USERI5
 70
     0
  9
$USERR1
 40
0.0
  9
$USERR2
 40
0.0
  9
$USERR3
 40
0.0
  9
$USERR4
 40
0.0
  9
$USERR5
 40
0.0
  9
$WORLDVIEW
 70
     1
  9
$SHADEDGE
 70
     3
  9
$SHADEDIF
 70
    70
  9
$TILEMODE
 70
     1
  9
$MAXACTVP
 70
    64
  9
$PINSBASE
 10
0.0
 20
0.0
 30
0.0
  9
$PLIMCHECK
 70
     0
  9
$PEXTMIN
 10
1.000000000000000E+20
 20
1.000000000000000E+20
 30
1.000000000000000E+20
  9
$PEXTMAX
 10
-1.000000000000000E+20
 20
-1.000000000000000E+20
 30
-1.000000000000000E+20
  9
$PLIMMIN
 10
0.0
 20
0.0
  9
$PLIMMAX
 10
12.0
 20
9.0
  9
$UNITMODE
 70
     0
  9
$VISRETAIN
 70
     1
  9
$PLINEGEN
 70
     0
  9
$PSLTSCALE
 70
     1
  9
$TREEDEPTH
 70
  3020
  9
$CMLSTYLE
  2
Standard
  9
$CMLJUST
 70
     0
  9
$CMLSCALE
 40
1.0
  9
$PROXYGRAPHICS
 70
     1
  9
$MEASUREMENT
 70
     0
  9
$CELWEIGHT
370
    -1
  9
$ENDCAPS
280
     0
  9
$JOINSTYLE
280
     0
  9
$LWDISPLAY
290
     0
  9
$INSUNITS
 70
     0
  9
$HYPERLINKBASE
  1

  9
$STYLESHEET
  1

  9
$XEDIT
290
     1
  9
$CEPSNTYPE
380
     0
  9
$PSTYLEMODE
290
     1
  9
$FINGERPRINTGUID
  2
{DB16365A-79DB-4116-9291-C7F4CB1BAC86}
  9
$VERSIONGUID
  2
{33A1417A-637D-450A-A9DF-3AF7DDB6C091}
  9
$EXTNAMES
290
     1
  9
$PSVPSCALE
 40
0.0
  9
$OLESTARTUP
290
     0
  0
ENDSEC
  0
SECTION
  2
CLASSES
  0
CLASS
  1
ACDBDICTIONARYWDFLT
  2
AcDbDictionaryWithDefault
  3
AutoCAD 2000
 90
        0
280
     0
281
     0
  0
CLASS
  1
ACDBPLACEHOLDER
  2
AcDbPlaceHolder
  3
AutoCAD 2000
 90
        0
280
     0
281
     0
  0
CLASS
  1
LAYOUT
  2
AcDbLayout
  3
AutoCAD 2000
 90
        0
280
     0
281
     0
  0
CLASS
  1
DICTIONARYVAR
  2
AcDbDictionaryVar
  3
AutoCAD 2000
 90
        0
280
     0
281
     0
  0
ENDSEC
  0
SECTION
  2
TABLES
  0
TABLE
  2
VPORT
  5
8
330
0
100
AcDbSymbolTable
 70
     6
  0
VPORT
  5
B54
330
8
100
AcDbSymbolTableRecord
100
AcDbViewportTableRecord
  2
*Active
 70
     0
 10
0.0
 20
0.0
 11
1.0
 21
1.0
 12
214.0029999999999
 22
109.2545
 13
0.0
 23
0.0
 14
1.0
 24
1.0
 15
0.0
 25
0.0
 16
0.0
 26
0.0
 36
1.0
 17
0.0
 27
0.0
 37
0.0
 40
220.2856455142232
 41
2.041621029572836
 42
50.0
 43
0.0
 44
0.0
 50
0.0
 51
0.0
 71
     0
 72
   100
 73
     1
 74
     3
 75
     0
 76
     0
 77
     0
 78
     0
281
     0
 65
     1
110
0.0
120
0.0
130
0.0
111
1.0
121
0.0
131
0.0
112
0.0
122
1.0
132
0.0
 79
     1
146
0.0
  0
ENDTAB
  0
TABLE
  2
LTYPE
  5
5
330
0
100
AcDbSymbolTable
 70
     1
  0
LTYPE
  5
13
330
5
100
AcDbSymbolTableRecord
100
AcDbLinetypeTableRecord
  2
ByBlock
 70
     0
  3

 72
    65
 73
     0
 40
0.0
  0
LTYPE
  5
14
330
5
100
AcDbSymbolTableRecord
100
AcDbLinetypeTableRecord
  2
ByLayer
 70
     0
  3

 72
    65
 73
     0
 40
0.0
  0
LTYPE
  5
15
330
5
100
AcDbSymbolTableRecord
100
AcDbLinetypeTableRecord
  2
Continuous
 70
     0
  3
Solid line
 72
    65
 73
     0
 40
0.0
  0
ENDTAB
  0
TABLE
  2
LAYER
  5
2
330
0
100
AcDbSymbolTable
 70
     1
  0
LAYER
  5
10
330
2
100
AcDbSymbolTableRecord
100
AcDbLayerTableRecord
  2
0
 70
     0
 62
     7
  6
Continuous
370
    -3
390
F
  0
ENDTAB
  0
TABLE
  2
STYLE
  5
3
330
0
100
AcDbSymbolTable
 70
     1
  0
STYLE
  5
11
330
3
100
AcDbSymbolTableRecord
100
AcDbTextStyleTableRecord
  2
Standard
 70
     0
 40
0.0
 41
1.0
 50
0.0
 71
     0
 42
0.2
  3
txt
  4

  0
ENDTAB
  0
TABLE
  2
VIEW
  5
6
330
0
100
AcDbSymbolTable
 70
     0
  0
ENDTAB
  0
TABLE
  2
UCS
  5
7
330
0
100
AcDbSymbolTable
 70
     0
  0
ENDTAB
  0
TABLE
  2
APPID
  5
9
330
0
100
AcDbSymbolTable
 70
     1
  0
APPID
  5
12
330
9
100
AcDbSymbolTableRecord
100
AcDbRegAppTableRecord
  2
ACAD
 70
     0
  0
ENDTAB
  0
TABLE
  2
DIMSTYLE
  5
A
330
0
100
AcDbSymbolTable
 70
     1
100
AcDbDimStyleTable
 71
     0
  0
DIMSTYLE
105
6CC
330
A
100
AcDbSymbolTableRecord
100
AcDbDimStyleTableRecord
  2
Standard
 70
     0
340
11
  0
ENDTAB
  0
TABLE
  2
BLOCK_RECORD
  5
1
330
0
100
AcDbSymbolTable
 70
     2
  0
BLOCK_RECORD
  5
1E
330
1
100
AcDbSymbolTableRecord
100
AcDbBlockTableRecord
  2
*Model_Space
340
21
  0
BLOCK_RECORD
  5
1A
330
1
100
AcDbSymbolTableRecord
100
AcDbBlockTableRecord
  2
*Paper_Space
340
1D
  0
ENDTAB
  0
ENDSEC
  0
SECTION
  2
BLOCKS
  0
BLOCK
  5
1F
330
1E
100
AcDbEntity
  8
0
100
AcDbBlockBegin
  2
*Model_Space
 70
     0
 10
0.0
 20
0.0
 30
0.0
  3
*Model_Space
  1

  0
ENDBLK
  5
20
330
1E
100
AcDbEntity
  8
0
100
AcDbBlockEnd
  0
BLOCK
  5
1B
330
1A
100
AcDbEntity
 67
     1
  8
0
100
AcDbBlockBegin
  2
*Paper_Space
 70
     0
 10
0.0
 20
0.0
 30
0.0
  3
*Paper_Space
  1

  0
ENDBLK
  5
1C
330
1A
100
AcDbEntity
 67
     1
  8
0
100
AcDbBlockEnd
  0
ENDSEC
  0
SECTION
  2
ENTITIES
  0
LINE
  5
22
330
1E
100
AcDbEntity
  8
0
100
AcDbLine
 10
10.0
 20
-0.169999999999997
 30
0.0
 11
10.0824
 21
-0.169999999999997
 31
0.0
  0
LINE
  5
23
330
1E
100
AcDbEntity
  8
0
100
AcDbLine
 10
11.2765
 20
-0.169999999999998
 30
0.0
 11
11.8118
 21
-0.169999999999998
 31
0.0
  0
LINE
  5
24
330
1E
100
AcDbEntity
  8
0
100
AcDbLine
 10
10.82349999999999
 20
-0.169999999999998
 30
0.0
 11
11.2765
 21
-0.169999999999998
 31
0.0
  0
LINE
  5
25
330
1E
100
AcDbEntity
  8
0
100
AcDbLine
 10
10.49409999999999
 20
-0.169999999999997
 30
0.0
 11
10.82349999999999
 21
-0.169999999999998
 31
0.0
  0
LINE
  5
26
330
1E
100
AcDbEntity
  8
0
100
AcDbLine
 10
10.2059
 20
-0.169999999999997
 30
0.0
 11
10.49409999999999
 21
-0.169999999999997
 31
0.0
  0
LINE
  5
27
330
1E
100
AcDbEntity
  8
0
100
AcDbLine
 10
10.0824
 20
-0.169999999999997
 30
0.0
 11
10.2059
 21
-0.169999999999997
 31
0.0
  0
LINE
  5
28
330
1E
100
AcDbEntity
  8
0
100
AcDbLine
 10
11.8118
 20
-0.169999999999998
 30
0.0
 11
12.42939999999999
 21
-0.169999999999998
 31
0.0
  0
LINE
  5
29
330
1E
100
AcDbEntity
  8
0
100
AcDbLine
 10
11.2765
 20
-0.169999999999993
 30
0.0
 11
11.8118
 21
-0.169999999999993
 31
0.0
  0
LINE
  5
2A
330
1E
100
AcDbEntity
  8
0
100
AcDbLine
 10
10.82349999999999
 20
-0.169999999999993
 30
0.0
 11
11.2765
 21
-0.169999999999993
 31
0.0
  0
LINE
  5
2B
330
1E
100
AcDbEntity
  8
0
100
AcDbLine
 10
10.49409999999999
 20
-0.169999999999993
 30
0.0
 11
10.82349999999999
 21
-0.169999999999993
 31
0.0
  0
LINE
  5
2C
330
1E
100
AcDbEntity
  8
0
100
AcDbLine
 10
10.2059
 20
-0.169999999999993
 30
0.0
 11
10.49409999999999
 21
-0.169999999999993
 31
0.0
  0
LINE
  5
2D
330
1E
100
AcDbEntity
  8
0
100
AcDbLine
 10
10.0824
 20
-0.169999999999993
 30
0.0
 11
10.2059
 21
-0.169999999999993
 31
0.0
  0
LINE
  5
2E
330
1E
100
AcDbEntity
  8
0
100
AcDbLine
 10
10.0
 20
-0.169999999999993
 30
0.0
 11
10.0824
 21
-0.169999999999993
 31
0.0
  0
LINE
  5
2F
330
1E
100
AcDbEntity
  8
0
100
AcDbLine
 10
10.0
 20
-0.169999999999993
 30
0.0
 11
10.0
 21
14.33
 31
0.0
  0
LINE
  5
30
330
1E
100
AcDbEntity
  8
0
100
AcDbLine
 10
12.42939999999999
 20
-0.169999999999998
 30
0.0
 11
13.0882
 21
-0.169999999999998
 31
0.0
  0
LINE
  5
31
330
1E
100
AcDbEntity
  8
0
100
AcDbLine
 10
13.0882
 20
-0.169999999999998
 30
0.0
 11
13.8294
 21
-0.169999999999998
 31
0.0
  0
LINE
  5
32
330
1E
100
AcDbEntity
  8
0
100
AcDbLine
 10
11.8118
 20
-0.169999999999993
 30
0.0
 11
12.42939999999999
 21
-0.169999999999993
 31
0.0
  0
LINE
  5
33
330
1E
100
AcDbEntity
  8
0
100
AcDbLine
 10
12.42939999999999
 20
-0.169999999999993
 30
0.0
 11
13.0882
 21
-0.169999999999993
 31
0.0
  0
LINE
  5
34
330
1E
100
AcDbEntity
  8
0
100
AcDbLine
 10
13.8294
 20
-0.169999999999998
 30
0.0
 11
14.5706
 21
-0.169999999999998
 31
0.0
  0
LINE
  5
35
330
1E
100
AcDbEntity
  8
0
100
AcDbLine
 10
14.5706
 20
-0.169999999999998
 30
0.0
 11
15.35289999999999
 21
-0.169999999999998
 31
0.0
  0
LINE
  5
36
330
1E
100
AcDbEntity
  8
0
100
AcDbLine
 10
13.0882
 20
-0.169999999999993
 30
0.0
 11
13.8294
 21
-0.169999999999993
 31
0.0
  0
LINE
  5
37
330
1E
100
AcDbEntity
  8
0
100
AcDbLine
 10
13.8294
 20
-0.169999999999993
 30
0.0
 11
14.5706
 21
-0.169999999999993
 31
0.0
  0
LINE
  5
38
330
1E
100
AcDbEntity
  8
0
100
AcDbLine
 10
15.35289999999999
 20
-0.169999999999998
 30
0.0
 11
16.1765
 21
-0.169999999999998
 31
0.0
  0
LINE
  5
39
330
1E
100
AcDbEntity
  8
0
100
AcDbLine
 10
16.1765
 20
-0.169999999999998
 30
0.0
 11
167.0
 21
-0.169999999999998
 31
0.0
  0
LINE
  5
3A
330
1E
100
AcDbEntity
  8
0
100
AcDbLine
 10
16.1765
 20
-0.169999999999998
 30
0.0
 11
167.0
 21
-0.169999999999998
 31
0.0
  0
LINE
  5
3B
330
1E
100
AcDbEntity
  8
0
100
AcDbLine
 10
16.1765
 20
-0.169999999999993
 30
0.0
 11
167.0
 21
-0.169999999999993
 31
0.0
  0
LINE
  5
3C
330
1E
100
AcDbEntity
  8
0
100
AcDbLine
 10
14.5706
 20
-0.169999999999993
 30
0.0
 11
15.35289999999999
 21
-0.169999999999993
 31
0.0
  0
LINE
  5
42
330
1E
100
AcDbEntity
  8
0
100
AcDbLine
 10
10.1235
 20
14.67999999999999
 30
0.0
 11
10.41179999999999
 21
14.83
 31
0.0
  0
LINE
  5
43
330
1E
100
AcDbEntity
  8
0
100
AcDbLine
 10
10.0
 20
14.33
 30
0.0
 11
10.0
 21
-0.169999999999992
 31
0.0
  0
LINE
  5
44
330
1E
100
AcDbEntity
  8
0
100
AcDbLine
 10
10.0
 20
14.33
 30
0.0
 11
10.1235
 21
14.67999999999999
 31
0.0
  0
LINE
  5
4D
330
1E
100
AcDbEntity
  8
0
100
AcDbLine
 10
15.35289999999999
 20
-0.169999999999993
 30
0.0
 11
16.1765
 21
-0.169999999999993
 31
0.0
  0
LINE
  5
4E
330
1E
100
AcDbEntity
  8
0
100
AcDbLine
 10
16.1765
 20
-0.169999999999993
 30
0.0
 11
167.0
 21
-0.169999999999993
 31
0.0
  0
LINE
  5
4F
330
1E
100
AcDbEntity
  8
0
100
AcDbLine
 10
4.5
 20
15.13
 30
0.0
 11
6.0
 21
14.83
 31
0.0
  0
LINE
  5
52
330
1E
100
AcDbEntity
  8
0
100
AcDbLine
 10
3.1
 20
15.73
 30
0.0
 11
4.5
 21
15.13
 31
0.0
  0
LINE
  5
55
330
1E
100
AcDbEntity
  8
0
100
AcDbLine
 10
5.35177
 20
18.4111
 30
0.0
 11
6.0
 21
18.33
 31
0.0
  0
LINE
  5
56
330
1E
100
AcDbEntity
  8
0
100
AcDbLine
 10
4.710049999999999
 20
18.6624
 30
0.0
 11
5.35177
 21
18.4111
 31
0.0
  0
LINE
  5
57
330
1E
100
AcDbEntity
  8
0
100
AcDbLine
 10
1.8
 20
16.63
 30
0.0
 11
3.1
 21
15.73
 31
0.0
  0
LINE
  5
58
330
1E
100
AcDbEntity
  8
0
100
AcDbLine
 10
0.9
 20
17.93
 30
0.0
 11
1.8
 21
16.63
 31
0.0
  0
LINE
  5
59
330
1E
100
AcDbEntity
  8
0
100
AcDbLine
 10
0.0
 20
20.82999999999999
 30
0.0
 11
0.0
 21
37.82999999999999
 31
0.0
  0
LINE
  5
5A
330
1E
100
AcDbEntity
  8
0
100
AcDbLine
 10
0.3
 20
19.32999999999999
 30
0.0
 11
0.9
 21
17.93
 31
0.0
  0
LINE
  5
5B
330
1E
100
AcDbEntity
  8
0
100
AcDbLine
 10
4.233109999999999
 20
19.061
 30
0.0
 11
4.710049999999999
 21
18.6624
 31
0.0
  0
LINE
  5
5F
330
1E
100
AcDbEntity
  8
0
100
AcDbLine
 10
3.57405
 20
20.17879999999999
 30
0.0
 11
3.816859999999999
 21
19.5896
 31
0.0
  0
LINE
  5
60
330
1E
100
AcDbEntity
  8
0
100
AcDbLine
 10
3.816859999999999
 20
19.5896
 30
0.0
 11
4.233109999999999
 21
19.061
 31
0.0
  0
LINE
  5
61
330
1E
100
AcDbEntity
  8
0
100
AcDbLine
 10
3.5
 20
20.82999999999999
 30
0.0
 11
3.5
 21
37.82999999999999
 31
0.0
  0
LINE
  5
62
330
1E
100
AcDbEntity
  8
0
100
AcDbLine
 10
3.5
 20
20.82999999999999
 30
0.0
 11
3.57405
 21
20.17879999999999
 31
0.0
  0
LINE
  5
6A
330
1E
100
AcDbEntity
  8
0
100
AcDbLine
 10
0.3
 20
19.32999999999999
 30
0.0
 11
0.9
 21
17.93
 31
0.0
  0
LINE
  5
6B
330
1E
100
AcDbEntity
  8
0
100
AcDbLine
 10
0.0
 20
20.82999999999999
 30
0.0
 11
0.3
 21
19.32999999999999
 31
0.0
  0
LINE
  5
6D
330
1E
100
AcDbEntity
  8
0
100
AcDbLine
 10
6.0
 20
18.33
 30
0.0
 11
50.0
 21
18.33
 31
0.0
  0
LINE
  5
6E
330
1E
100
AcDbEntity
  8
0
100
AcDbLine
 10
6.0
 20
18.33
 30
0.0
 11
50.0
 21
18.33
 31
0.0
  0
LINE
  5
76
330
1E
100
AcDbEntity
  8
0
100
AcDbLine
 10
16.1765
 20
14.83
 30
0.0
 11
167.0
 21
14.83
 31
0.0
  0
LINE
  5
77
330
1E
100
AcDbEntity
  8
0
100
AcDbLine
 10
6.0
 20
14.83
 30
0.0
 11
16.1765
 21
14.83
 31
0.0
  0
LINE
  5
78
330
1E
100
AcDbEntity
  8
0
100
AcDbLine
 10
16.1765
 20
14.83
 30
0.0
 11
167.0
 21
14.83
 31
0.0
  0
LINE
  5
7F
330
1E
100
AcDbEntity
  8
0
100
AcDbLine
 10
50.0
 20
18.33
 30
0.0
 11
50.6482
 21
18.4111
 31
0.0
  0
LINE
  5
82
330
1E
100
AcDbEntity
  8
0
100
AcDbLine
 10
50.6482
 20
18.4111
 30
0.0
 11
51.2899
 21
18.6624
 31
0.0
  0
LINE
  5
85
330
1E
100
AcDbEntity
  8
0
100
AcDbLine
 10
51.2899
 20
18.6624
 30
0.0
 11
51.7669
 21
19.061
 31
0.0
  0
LINE
  5
88
330
1E
100
AcDbEntity
  8
0
100
AcDbLine
 10
51.7669
 20
19.061
 30
0.0
 11
52.1831
 21
19.5896
 31
0.0
  0
LINE
  5
8C
330
1E
100
AcDbEntity
  8
0
100
AcDbLine
 10
80.0
 20
15.83
 30
0.0
 11
80.0
 21
37.82999999999999
 31
0.0
  0
LINE
  5
8D
330
1E
100
AcDbEntity
  8
0
100
AcDbLine
 10
52.1831
 20
19.5896
 30
0.0
 11
52.426
 21
20.17879999999999
 31
0.0
  0
LINE
  5
8E
330
1E
100
AcDbEntity
  8
0
100
AcDbLine
 10
52.5
 20
20.82999999999999
 30
0.0
 11
52.5
 21
37.82999999999999
 31
0.0
  0
LINE
  5
8F
330
1E
100
AcDbEntity
  8
0
100
AcDbLine
 10
52.426
 20
20.17879999999999
 30
0.0
 11
52.5
 21
20.82999999999999
 31
0.0
  0
LINE
  5
97
330
1E
100
AcDbEntity
  8
0
100
AcDbLine
 10
52.5
 20
37.82999999999999
 30
0.0
 11
52.5
 21
54.83
 31
0.0
  0
LINE
  5
98
330
1E
100
AcDbEntity
  8
0
100
AcDbLine
 10
52.5
 20
37.82999999999999
 30
0.0
 11
52.5
 21
20.82999999999999
 31
0.0
  0
LINE
  5
9B
330
1E
100
AcDbEntity
  8
0
100
AcDbLine
 10
3.5
 20
37.82999999999999
 30
0.0
 11
3.5
 21
54.83
 31
0.0
  0
LINE
  5
9C
330
1E
100
AcDbEntity
  8
0
100
AcDbLine
 10
3.5
 20
37.82999999999999
 30
0.0
 11
3.5
 21
20.82999999999999
 31
0.0
  0
LINE
  5
9F
330
1E
100
AcDbEntity
  8
0
100
AcDbLine
 10
80.0
 20
37.82999999999999
 30
0.0
 11
80.0
 21
59.83
 31
0.0
  0
LINE
  5
A0
330
1E
100
AcDbEntity
  8
0
100
AcDbLine
 10
80.0
 20
37.82999999999999
 30
0.0
 11
80.0
 21
15.83
 31
0.0
  0
LINE
  5
A1
330
1E
100
AcDbEntity
  8
0
100
AcDbLine
 10
0.0
 20
37.82999999999999
 30
0.0
 11
0.0
 21
54.83
 31
0.0
  0
LINE
  5
A2
330
1E
100
AcDbEntity
  8
0
100
AcDbLine
 10
0.0
 20
37.82999999999999
 30
0.0
 11
0.0
 21
20.82999999999999
 31
0.0
  0
LINE
  5
A3
330
1E
100
AcDbEntity
  8
0
100
AcDbLine
 10
144.0
 20
46.9945
 30
0.0
 11
144.0
 21
34.83
 31
0.0
  0
LINE
  5
A4
330
1E
100
AcDbEntity
  8
0
100
AcDbLine
 10
144.0
 20
46.9945
 30
0.0
 11
144.0
 21
58.33
 31
0.0
  0
LINE
  5
A5
330
1E
100
AcDbEntity
  8
0
100
AcDbLine
 10
144.0
 20
14.83
 30
0.0
 11
144.0
 21
34.83
 31
0.0
  0
LINE
  5
A8
330
1E
100
AcDbEntity
  8
0
100
AcDbLine
 10
167.0
 20
-0.169999999999993
 30
0.0
 11
412.823
 21
-0.169999999999993
 31
0.0
  0
LINE
  5
A9
330
1E
100
AcDbEntity
  8
0
100
AcDbLine
 10
167.0
 20
-0.169999999999993
 30
0.0
 11
412.823
 21
-0.169999999999993
 31
0.0
  0
LINE
  5
AA
330
1E
100
AcDbEntity
  8
0
100
AcDbLine
 10
167.0
 20
-0.169999999999998
 30
0.0
 11
412.823
 21
-0.169999999999998
 31
0.0
  0
LINE
  5
AB
330
1E
100
AcDbEntity
  8
0
100
AcDbLine
 10
167.0
 20
-0.169999999999998
 30
0.0
 11
412.823
 21
-0.169999999999998
 31
0.0
  0
LINE
  5
AE
330
1E
100
AcDbEntity
  8
0
100
AcDbLine
 10
144.0
 20
34.83
 30
0.0
 11
144.0
 21
14.83
 31
0.0
  0
LINE
  5
AF
330
1E
100
AcDbEntity
  8
0
100
AcDbLine
 10
144.0
 20
34.83
 30
0.0
 11
144.0080864945219
 21
63.9413802785884
 31
0.0
  0
LINE
  5
B0
330
1E
100
AcDbEntity
  8
0
100
AcDbLine
 10
144.0
 20
34.83
 30
0.0
 11
144.0
 21
46.9945
 31
0.0
  0
LINE
  5
B3
330
1E
100
AcDbEntity
  8
0
100
AcDbLine
 10
52.5
 20
54.83
 30
0.0
 11
52.5
 21
37.82999999999999
 31
0.0
  0
LINE
  5
B8
330
1E
100
AcDbEntity
  8
0
100
AcDbLine
 10
3.5
 20
54.83
 30
0.0
 11
3.5
 21
37.82999999999999
 31
0.0
  0
LINE
  5
B9
330
1E
100
AcDbEntity
  8
0
100
AcDbLine
 10
3.5
 20
54.83
 30
0.0
 11
3.57405
 21
55.4812
 31
0.0
  0
LINE
  5
BB
330
1E
100
AcDbEntity
  8
0
100
AcDbLine
 10
3.57405
 20
55.4812
 30
0.0
 11
3.816859999999999
 21
56.0704
 31
0.0
  0
LINE
  5
BC
330
1E
100
AcDbEntity
  8
0
100
AcDbLine
 10
52.426
 20
55.4812
 30
0.0
 11
52.5
 21
54.83
 31
0.0
  0
LINE
  5
BE
330
1E
100
AcDbEntity
  8
0
100
AcDbLine
 10
0.0
 20
54.83
 30
0.0
 11
0.3
 21
56.33
 31
0.0
  0
LINE
  5
BF
330
1E
100
AcDbEntity
  8
0
100
AcDbLine
 10
0.0
 20
54.83
 30
0.0
 11
0.0
 21
37.82999999999999
 31
0.0
  0
LINE
  5
C0
330
1E
100
AcDbEntity
  8
0
100
AcDbLine
 10
156.396
 20
53.8264
 30
0.0
 11
156.66
 21
53.55949999999999
 31
0.0
  0
LINE
  5
C1
330
1E
100
AcDbEntity
  8
0
100
AcDbLine
 10
156.66
 20
53.55949999999999
 30
0.0
 11
157.716
 21
52.6867
 31
0.0
  0
LINE
  5
C2
330
1E
100
AcDbEntity
  8
0
100
AcDbLine
 10
156.264
 20
54.50759999999999
 30
0.0
 11
156.66
 21
55.4557
 31
0.0
  0
LINE
  5
C3
330
1E
100
AcDbEntity
  8
0
100
AcDbLine
 10
156.264
 20
54.50759999999999
 30
0.0
 11
156.66
 21
53.55949999999999
 31
0.0
  0
LINE
  5
C4
330
1E
100
AcDbEntity
  8
0
100
AcDbLine
 10
156.66
 20
55.4557
 30
0.0
 11
157.716
 21
56.3285
 31
0.0
  0
LINE
  5
C5
330
1E
100
AcDbEntity
  8
0
100
AcDbLine
 10
156.0
 20
54.7895
 30
0.0
 11
156.396
 21
55.7526
 31
0.0
  0
LINE
  5
C6
330
1E
100
AcDbEntity
  8
0
100
AcDbLine
 10
156.0
 20
54.7895
 30
0.0
 11
156.396
 21
53.8264
 31
0.0
  0
LINE
  5
C7
330
1E
100
AcDbEntity
  8
0
100
AcDbLine
 10
156.0
 20
54.7895
 30
0.0
 11
156.0
 21
59.27852216748771
 31
0.0
  0
LINE
  5
C8
330
1E
100
AcDbEntity
  8
0
100
AcDbLine
 10
3.816859999999999
 20
56.0704
 30
0.0
 11
4.233109999999999
 21
56.599
 31
0.0
  0
LINE
  5
CA
330
1E
100
AcDbEntity
  8
0
100
AcDbLine
 10
0.3
 20
56.33
 30
0.0
 11
0.9
 21
57.72999999999999
 31
0.0
  0
LINE
  5
CF
330
1E
100
AcDbEntity
  8
0
100
AcDbLine
 10
52.1831
 20
56.0704
 30
0.0
 11
52.426
 21
55.4812
 31
0.0
  0
LINE
  5
D2
330
1E
100
AcDbEntity
  8
0
100
AcDbLine
 10
4.233109999999999
 20
56.599
 30
0.0
 11
4.710049999999999
 21
56.9976
 31
0.0
  0
LINE
  5
D4
330
1E
100
AcDbEntity
  8
0
100
AcDbLine
 10
5.35177
 20
57.2489
 30
0.0
 11
6.0
 21
57.33
 31
0.0
  0
LINE
  5
D5
330
1E
100
AcDbEntity
  8
0
100
AcDbLine
 10
4.710049999999999
 20
56.9976
 30
0.0
 11
5.35177
 21
57.2489
 31
0.0
  0
LINE
  5
D6
330
1E
100
AcDbEntity
  8
0
100
AcDbLine
 10
50.0
 20
57.33
 30
0.0
 11
50.6482
 21
57.2489
 31
0.0
  0
LINE
  5
D7
330
1E
100
AcDbEntity
  8
0
100
AcDbLine
 10
6.0
 20
57.33
 30
0.0
 11
50.0
 21
57.33
 31
0.0
  0
LINE
  5
D8
330
1E
100
AcDbEntity
  8
0
100
AcDbLine
 10
6.0
 20
57.33
 30
0.0
 11
50.0
 21
57.33
 31
0.0
  0
LINE
  5
DA
330
1E
100
AcDbEntity
  8
0
100
AcDbLine
 10
51.7669
 20
56.599
 30
0.0
 11
52.1831
 21
56.0704
 31
0.0
  0
LINE
  5
DB
330
1E
100
AcDbEntity
  8
0
100
AcDbLine
 10
51.2899
 20
56.9976
 30
0.0
 11
51.7669
 21
56.599
 31
0.0
  0
LINE
  5
DC
330
1E
100
AcDbEntity
  8
0
100
AcDbLine
 10
50.6482
 20
57.2489
 30
0.0
 11
51.2899
 21
56.9976
 31
0.0
  0
LINE
  5
E0
330
1E
100
AcDbEntity
  8
0
100
AcDbLine
 10
0.3
 20
56.33
 30
0.0
 11
0.9
 21
57.72999999999999
 31
0.0
  0
LINE
  5
E1
330
1E
100
AcDbEntity
  8
0
100
AcDbLine
 10
156.396
 20
55.7526
 30
0.0
 11
157.4519999999999
 21
56.6556
 31
0.0
  0
LINE
  5
E2
330
1E
100
AcDbEntity
  8
0
100
AcDbLine
 10
157.716
 20
52.6867
 30
0.0
 11
159.432
 21
51.91919999999999
 31
0.0
  0
LINE
  5
E3
330
1E
100
AcDbEntity
  8
0
100
AcDbLine
 10
159.432
 20
51.91919999999999
 30
0.0
 11
161.676
 21
51.3323
 31
0.0
  0
LINE
  5
E4
330
1E
100
AcDbEntity
  8
0
100
AcDbLine
 10
157.716
 20
56.3285
 30
0.0
 11
159.432
 21
57.096
 31
0.0
  0
LINE
  5
E5
330
1E
100
AcDbEntity
  8
0
100
AcDbLine
 10
159.432
 20
57.096
 30
0.0
 11
161.676
 21
57.6829
 31
0.0
  0
LINE
  5
E6
330
1E
100
AcDbEntity
  8
0
100
AcDbLine
 10
157.4519999999999
 20
56.6556
 30
0.0
 11
159.212
 21
57.4532
 31
0.0
  0
LINE
  5
E8
330
1E
100
AcDbEntity
  8
0
100
AcDbLine
 10
0.9
 20
57.72999999999999
 30
0.0
 11
1.8
 21
59.03
 31
0.0
  0
LINE
  5
E9
330
1E
100
AcDbEntity
  8
0
100
AcDbLine
 10
144.0
 20
58.33
 30
0.0
 11
144.0
 21
46.9945
 31
0.0
  0
LINE
  5
EA
330
1E
100
AcDbEntity
  8
0
100
AcDbLine
 10
144.0
 20
58.33
 30
0.0
 11
144.0
 21
66.70449999999999
 31
0.0
  0
LINE
  5
EB
330
1E
100
AcDbEntity
  8
0
100
AcDbLine
 10
159.212
 20
57.4532
 30
0.0
 11
161.5439999999999
 21
58.0551
 31
0.0
  0
LINE
  5
EC
330
1E
100
AcDbEntity
  8
0
100
AcDbLine
 10
161.676
 20
51.3323
 30
0.0
 11
164.2279999999999
 21
50.9711
 31
0.0
  0
LINE
  5
ED
330
1E
100
AcDbEntity
  8
0
100
AcDbLine
 10
164.2279999999999
 20
50.9711
 30
0.0
 11
167.0
 21
50.8357
 31
0.0
  0
LINE
  5
EE
330
1E
100
AcDbEntity
  8
0
100
AcDbLine
 10
161.676
 20
57.6829
 30
0.0
 11
164.2279999999999
 21
58.0441
 31
0.0
  0
LINE
  5
EF
330
1E
100
AcDbEntity
  8
0
100
AcDbLine
 10
164.2279999999999
 20
58.0441
 30
0.0
 11
167.0
 21
58.17949999999999
 31
0.0
  0
LINE
  5
F0
330
1E
100
AcDbEntity
  8
0
100
AcDbLine
 10
161.5439999999999
 20
58.0551
 30
0.0
 11
164.184
 21
58.4163
 31
0.0
  0
LINE
  5
F1
330
1E
100
AcDbEntity
  8
0
100
AcDbLine
 10
164.184
 20
58.4163
 30
0.0
 11
167.0
 21
58.5517
 31
0.0
  0
LINE
  5
F5
330
1E
100
AcDbEntity
  8
0
100
AcDbLine
 10
1.8
 20
59.03
 30
0.0
 11
3.1
 21
59.93
 31
0.0
  0
LINE
  5
FD
330
1E
100
AcDbEntity
  8
0
100
AcDbLine
 10
80.0
 20
59.83
 30
0.0
 11
80.0
 21
37.82999999999999
 31
0.0
  0
LINE
  5
FE
330
1E
100
AcDbEntity
  8
0
100
AcDbLine
 10
79.7
 20
60.53
 30
0.0
 11
80.0
 21
59.83
 31
0.0
  0
LINE
  5
102
330
1E
100
AcDbEntity
  8
0
100
AcDbLine
 10
3.1
 20
59.93
 30
0.0
 11
4.5
 21
60.53
 31
0.0
  0
LINE
  5
103
330
1E
100
AcDbEntity
  8
0
100
AcDbLine
 10
6.000000000000009
 20
60.83
 30
0.0
 11
74.0
 21
60.83
 31
0.0
  0
LINE
  5
104
330
1E
100
AcDbEntity
  8
0
100
AcDbLine
 10
6.0
 20
60.83
 30
0.0
 11
74.0
 21
60.83
 31
0.0
  0
LINE
  5
105
330
1E
100
AcDbEntity
  8
0
100
AcDbLine
 10
77.5
 20
60.83
 30
0.0
 11
78.3
 21
60.83
 31
0.0
  0
LINE
  5
106
330
1E
100
AcDbEntity
  8
0
100
AcDbLine
 10
78.3
 20
60.83
 30
0.0
 11
78.79999999999999
 21
60.83
 31
0.0
  0
LINE
  5
107
330
1E
100
AcDbEntity
  8
0
100
AcDbLine
 10
78.79999999999999
 20
60.83
 30
0.0
 11
79.0
 21
60.83
 31
0.0
  0
LINE
  5
108
330
1E
100
AcDbEntity
  8
0
100
AcDbLine
 10
79.0
 20
60.83
 30
0.0
 11
79.7
 21
60.53
 31
0.0
  0
LINE
  5
109
330
1E
100
AcDbEntity
  8
0
100
AcDbLine
 10
75.2
 20
60.83
 30
0.0
 11
77.5
 21
60.83
 31
0.0
  0
LINE
  5
10A
330
1E
100
AcDbEntity
  8
0
100
AcDbLine
 10
74.0
 20
60.83
 30
0.0
 11
75.2
 21
60.83
 31
0.0
  0
LINE
  5
10B
330
1E
100
AcDbEntity
  8
0
100
AcDbLine
 10
4.5
 20
60.53
 30
0.0
 11
6.0
 21
60.83
 31
0.0
  0
LINE
  5
10C
330
1E
100
AcDbEntity
  8
0
100
AcDbLine
 10
152.5409999999999
 20
59.43
 30
0.0
 11
152.6679999999999
 21
59.43
 31
0.0
  0
LINE
  5
10D
330
1E
100
AcDbEntity
  8
0
100
AcDbLine
 10
152.6679999999999
 20
59.43
 30
0.0
 11
152.9711527196649
 21
59.39678870292889
 31
0.0
  0
LINE
  5
10F
330
1E
100
AcDbEntity
  8
0
100
AcDbLine
 10
150.499
 20
59.83
 30
0.0
 11
152.5409999999999
 21
59.43
 31
0.0
  0
LINE
  5
110
330
1E
100
AcDbEntity
  8
0
100
AcDbLine
 10
148.65
 20
60.63
 30
0.0
 11
150.499
 21
59.83
 31
0.0
  0
LINE
  5
111
330
1E
100
AcDbEntity
  8
0
100
AcDbLine
 10
146.997
 20
61.82999999999999
 30
0.0
 11
148.65
 21
60.63
 31
0.0
  0
LINE
  5
112
330
1E
100
AcDbEntity
  8
0
100
AcDbLine
 10
145.799
 20
63.53
 30
0.0
 11
146.994
 21
61.82999999999999
 31
0.0
  0
LINE
  5
113
330
1E
100
AcDbEntity
  8
0
100
AcDbLine
 10
144.0
 20
66.70449999999999
 30
0.0
 11
144.0
 21
58.33
 31
0.0
  0
LINE
  5
114
330
1E
100
AcDbEntity
  8
0
100
AcDbLine
 10
144.0
 20
66.70449999999999
 30
0.0
 11
144.0
 21
71.3374
 31
0.0
  0
LINE
  5
115
330
1E
100
AcDbEntity
  8
0
100
AcDbLine
 10
144.0
 20
70.9362
 30
0.0
 11
144.0
 21
70.83
 31
0.0
  0
LINE
  5
116
330
1E
100
AcDbEntity
  8
0
100
AcDbLine
 10
144.0
 20
70.83
 30
0.0
 11
144.0
 21
70.9362
 31
0.0
  0
LINE
  5
117
330
1E
100
AcDbEntity
  8
0
100
AcDbLine
 10
144.0
 20
70.83
 30
0.0
 11
144.0
 21
34.83
 31
0.0
  0
LINE
  5
118
330
1E
100
AcDbEntity
  8
0
100
AcDbLine
 10
144.0
 20
73.83
 30
0.0
 11
144.3
 21
74.53
 31
0.0
  0
LINE
  5
119
330
1E
100
AcDbEntity
  8
0
100
AcDbLine
 10
144.0
 20
73.83
 30
0.0
 11
144.0
 21
72.83
 31
0.0
  0
LINE
  5
11A
330
1E
100
AcDbEntity
  8
0
100
AcDbLine
 10
144.0
 20
72.83
 30
0.0
 11
144.0
 21
73.83
 31
0.0
  0
LINE
  5
11B
330
1E
100
AcDbEntity
  8
0
100
AcDbLine
 10
144.0
 20
71.3374
 30
0.0
 11
144.0
 21
66.70449999999999
 31
0.0
  0
LINE
  5
11C
330
1E
100
AcDbEntity
  8
0
100
AcDbLine
 10
144.0
 20
71.3374
 30
0.0
 11
144.0
 21
72.83
 31
0.0
  0
LINE
  5
12A
330
1E
100
AcDbEntity
  8
0
100
AcDbLine
 10
145.0
 20
74.83
 30
0.0
 11
146.8
 21
74.83
 31
0.0
  0
LINE
  5
12B
330
1E
100
AcDbEntity
  8
0
100
AcDbLine
 10
155.5339999999999
 20
74.83
 30
0.0
 11
158.1049999999999
 21
74.83
 31
0.0
  0
LINE
  5
12C
330
1E
100
AcDbEntity
  8
0
100
AcDbLine
 10
153.3849999999999
 20
74.83
 30
0.0
 11
155.5339999999999
 21
74.83
 31
0.0
  0
LINE
  5
12D
330
1E
100
AcDbEntity
  8
0
100
AcDbLine
 10
151.5039999999999
 20
74.83
 30
0.0
 11
153.3849999999999
 21
74.83
 31
0.0
  0
LINE
  5
12E
330
1E
100
AcDbEntity
  8
0
100
AcDbLine
 10
149.6999999999999
 20
74.83
 30
0.0
 11
151.5039999999999
 21
74.83
 31
0.0
  0
LINE
  5
12F
330
1E
100
AcDbEntity
  8
0
100
AcDbLine
 10
148.0
 20
74.83
 30
0.0
 11
149.6999999999999
 21
74.83
 31
0.0
  0
LINE
  5
130
330
1E
100
AcDbEntity
  8
0
100
AcDbLine
 10
146.8
 20
74.83
 30
0.0
 11
148.0
 21
74.83
 31
0.0
  0
LINE
  5
131
330
1E
100
AcDbEntity
  8
0
100
AcDbLine
 10
144.3
 20
74.53
 30
0.0
 11
145.0
 21
74.83
 31
0.0
  0
LINE
  5
132
330
1E
100
AcDbEntity
  8
0
100
AcDbLine
 10
144.0
 20
72.83
 30
0.0
 11
144.0
 21
71.3374
 31
0.0
  0
LINE
  5
13A
330
1E
100
AcDbEntity
  8
0
100
AcDbLine
 10
164.715
 20
74.83
 30
0.0
 11
167.0
 21
74.83
 31
0.0
  0
LINE
  5
13C
330
1E
100
AcDbEntity
  8
0
100
AcDbLine
 10
161.5999999999999
 20
74.83
 30
0.0
 11
164.715
 21
74.83
 31
0.0
  0
LINE
  5
13E
330
1E
100
AcDbEntity
  8
0
100
AcDbLine
 10
158.1049999999999
 20
74.83
 30
0.0
 11
161.5999999999999
 21
74.83
 31
0.0
  0
LINE
  5
142
330
1E
100
AcDbEntity
  8
0
100
AcDbLine
 10
156.0
 20
59.27852216748771
 30
0.0
 11
156.0
 21
54.7895
 31
0.0
  0
LINE
  5
15A
330
1E
100
AcDbEntity
  8
0
100
AcDbLine
 10
412.823
 20
-0.169999999999993
 30
0.0
 11
413.647
 21
-0.169999999999993
 31
0.0
  0
LINE
  5
15C
330
1E
100
AcDbEntity
  8
0
100
AcDbLine
 10
414.429
 20
-0.169999999999993
 30
0.0
 11
415.1709999999999
 21
-0.169999999999993
 31
0.0
  0
LINE
  5
15D
330
1E
100
AcDbEntity
  8
0
100
AcDbLine
 10
413.647
 20
-0.169999999999993
 30
0.0
 11
414.429
 21
-0.169999999999993
 31
0.0
  0
LINE
  5
160
330
1E
100
AcDbEntity
  8
0
100
AcDbLine
 10
415.9119999999999
 20
-0.169999999999993
 30
0.0
 11
416.5709999999999
 21
-0.169999999999993
 31
0.0
  0
LINE
  5
161
330
1E
100
AcDbEntity
  8
0
100
AcDbLine
 10
415.1709999999999
 20
-0.169999999999993
 30
0.0
 11
415.9119999999999
 21
-0.169999999999993
 31
0.0
  0
LINE
  5
165
330
1E
100
AcDbEntity
  8
0
100
AcDbLine
 10
417.188
 20
-0.169999999999998
 30
0.0
 11
417.724
 21
-0.169999999999998
 31
0.0
  0
LINE
  5
166
330
1E
100
AcDbEntity
  8
0
100
AcDbLine
 10
417.724
 20
-0.169999999999998
 30
0.0
 11
418.1769999999999
 21
-0.169999999999998
 31
0.0
  0
LINE
  5
167
330
1E
100
AcDbEntity
  8
0
100
AcDbLine
 10
418.1769999999999
 20
-0.169999999999998
 30
0.0
 11
418.506
 21
-0.169999999999997
 31
0.0
  0
LINE
  5
168
330
1E
100
AcDbEntity
  8
0
100
AcDbLine
 10
418.506
 20
-0.169999999999997
 30
0.0
 11
418.794
 21
-0.169999999999997
 31
0.0
  0
LINE
  5
169
330
1E
100
AcDbEntity
  8
0
100
AcDbLine
 10
418.794
 20
-0.169999999999997
 30
0.0
 11
418.918
 21
-0.169999999999997
 31
0.0
  0
LINE
  5
16A
330
1E
100
AcDbEntity
  8
0
100
AcDbLine
 10
418.918
 20
-0.169999999999997
 30
0.0
 11
419.0
 21
-0.169999999999997
 31
0.0
  0
LINE
  5
16B
330
1E
100
AcDbEntity
  8
0
100
AcDbLine
 10
416.5709999999999
 20
-0.169999999999993
 30
0.0
 11
417.188
 21
-0.169999999999993
 31
0.0
  0
LINE
  5
16C
330
1E
100
AcDbEntity
  8
0
100
AcDbLine
 10
417.188
 20
-0.169999999999993
 30
0.0
 11
417.724
 21
-0.169999999999993
 31
0.0
  0
LINE
  5
16D
330
1E
100
AcDbEntity
  8
0
100
AcDbLine
 10
417.724
 20
-0.169999999999993
 30
0.0
 11
418.1769999999999
 21
-0.169999999999993
 31
0.0
  0
LINE
  5
16E
330
1E
100
AcDbEntity
  8
0
100
AcDbLine
 10
418.1769999999999
 20
-0.169999999999993
 30
0.0
 11
418.506
 21
-0.169999999999993
 31
0.0
  0
LINE
  5
16F
330
1E
100
AcDbEntity
  8
0
100
AcDbLine
 10
418.506
 20
-0.169999999999993
 30
0.0
 11
418.794
 21
-0.169999999999993
 31
0.0
  0
LINE
  5
170
330
1E
100
AcDbEntity
  8
0
100
AcDbLine
 10
419.0
 20
-0.169999999999993
 30
0.0
 11
419.0
 21
14.33
 31
0.0
  0
LINE
  5
171
330
1E
100
AcDbEntity
  8
0
100
AcDbLine
 10
419.0
 20
14.33
 30
0.0
 11
419.0
 21
-0.169999999999992
 31
0.0
  0
LINE
  5
172
330
1E
100
AcDbEntity
  8
0
100
AcDbLine
 10
418.794
 20
-0.169999999999993
 30
0.0
 11
418.918
 21
-0.169999999999993
 31
0.0
  0
LINE
  5
173
330
1E
100
AcDbEntity
  8
0
100
AcDbLine
 10
418.918
 20
-0.169999999999993
 30
0.0
 11
419.0
 21
-0.169999999999993
 31
0.0
  0
LINE
  5
179
330
1E
100
AcDbEntity
  8
0
100
AcDbLine
 10
418.876
 20
14.67999999999999
 30
0.0
 11
419.0
 21
14.33
 31
0.0
  0
LINE
  5
17A
330
1E
100
AcDbEntity
  8
0
100
AcDbLine
 10
416.5709999999999
 20
-0.169999999999998
 30
0.0
 11
417.188
 21
-0.169999999999998
 31
0.0
  0
LINE
  5
17B
330
1E
100
AcDbEntity
  8
0
100
AcDbLine
 10
415.9119999999999
 20
-0.169999999999998
 30
0.0
 11
416.5709999999999
 21
-0.169999999999998
 31
0.0
  0
LINE
  5
17C
330
1E
100
AcDbEntity
  8
0
100
AcDbLine
 10
415.1709999999999
 20
-0.169999999999998
 30
0.0
 11
415.9119999999999
 21
-0.169999999999998
 31
0.0
  0
LINE
  5
17D
330
1E
100
AcDbEntity
  8
0
100
AcDbLine
 10
414.429
 20
-0.169999999999998
 30
0.0
 11
415.1709999999999
 21
-0.169999999999998
 31
0.0
  0
LINE
  5
17E
330
1E
100
AcDbEntity
  8
0
100
AcDbLine
 10
413.647
 20
-0.169999999999998
 30
0.0
 11
414.429
 21
-0.169999999999998
 31
0.0
  0
LINE
  5
17F
330
1E
100
AcDbEntity
  8
0
100
AcDbLine
 10
412.823
 20
-0.169999999999998
 30
0.0
 11
413.647
 21
-0.169999999999998
 31
0.0
  0
LINE
  5
1EE
330
1E
100
AcDbEntity
  8
0
100
AcDbLine
 10
418.588
 20
14.83
 30
0.0
 11
418.876
 21
14.67999999999999
 31
0.0
  0
LINE
  5
1F0
330
1E
100
AcDbEntity
  8
0
100
AcDbLine
 10
415.0059999999999
 20
14.83
 30
0.0
 11
418.588
 21
14.83
 31
0.0
  0
LINE
  5
1F1
330
1E
100
AcDbEntity
  8
0
100
AcDbLine
 10
414.306
 20
14.83
 30
0.0
 11
415.0059999999999
 21
14.83
 31
0.0
  0
LINE
  5
1F2
330
1E
100
AcDbEntity
  8
0
100
AcDbLine
 10
413.565
 20
14.83
 30
0.0
 11
414.306
 21
14.83
 31
0.0
  0
LINE
  5
22F
330
1E
100
AcDbEntity
  8
0
100
AcDbLine
 10
328.0
 20
14.83
 30
0.0
 11
413.565
 21
14.83
 31
0.0
  0
LINE
  5
6D0
330
1E
100
AcDbEntity
  8
0
100
AcDbLine
 10
80.0
 20
15.83
 30
0.0
 11
79.7
 21
15.13
 31
0.0
  0
LINE
  5
6D2
330
1E
100
AcDbEntity
  8
0
100
AcDbLine
 10
79.7
 20
15.13
 30
0.0
 11
79.34195647698823
 21
14.83566279615263
 31
0.0
  0
LINE
  5
6D3
330
1E
100
AcDbEntity
  8
0
100
AcDbLine
 10
145.799
 20
63.53
 30
0.0
 11
144.0
 21
73.83
 31
0.0
  0
LINE
  5
6D4
330
1E
100
AcDbEntity
  8
0
100
AcDbLine
 10
152.9711527196649
 20
59.39678870292889
 30
0.0
 11
167.0739692800857
 21
59.39678870292889
 31
0.0
  0
LINE
  5
6D5
330
1E
100
AcDbEntity
  8
0
100
AcDbLine
 10
317.8235
 20
14.83
 30
0.0
 11
167.0
 21
14.83
 31
0.0
  0
LINE
  5
6D6
330
1E
100
AcDbEntity
  8
0
100
AcDbLine
 10
317.8235
 20
14.83
 30
0.0
 11
167.0
 21
14.83
 31
0.0
  0
LINE
  5
6D7
330
1E
100
AcDbEntity
  8
0
100
AcDbLine
 10
334.0
 20
37.82999999999999
 30
0.0
 11
334.0
 21
20.82999999999999
 31
0.0
  0
LINE
  5
6D8
330
1E
100
AcDbEntity
  8
0
100
AcDbLine
 10
254.0
 20
37.82999999999999
 30
0.0
 11
254.0
 21
15.83
 31
0.0
  0
LINE
  5
6D9
330
1E
100
AcDbEntity
  8
0
100
AcDbLine
 10
330.5
 20
37.82999999999999
 30
0.0
 11
330.5
 21
20.82999999999999
 31
0.0
  0
LINE
  5
6DA
330
1E
100
AcDbEntity
  8
0
100
AcDbLine
 10
281.4999999999999
 20
37.82999999999999
 30
0.0
 11
281.4999999999999
 21
20.82999999999999
 31
0.0
  0
LINE
  5
6DB
330
1E
100
AcDbEntity
  8
0
100
AcDbLine
 10
281.4999999999999
 20
20.82999999999999
 30
0.0
 11
281.4999999999999
 21
37.82999999999999
 31
0.0
  0
LINE
  5
6DC
330
1E
100
AcDbEntity
  8
0
100
AcDbLine
 10
254.0
 20
15.83
 30
0.0
 11
254.0
 21
37.82999999999999
 31
0.0
  0
LINE
  5
6DD
330
1E
100
AcDbEntity
  8
0
100
AcDbLine
 10
330.5
 20
20.82999999999999
 30
0.0
 11
330.5
 21
37.82999999999999
 31
0.0
  0
LINE
  5
6DE
330
1E
100
AcDbEntity
  8
0
100
AcDbLine
 10
334.0
 20
20.82999999999999
 30
0.0
 11
334.0
 21
37.82999999999999
 31
0.0
  0
LINE
  5
6DF
330
1E
100
AcDbEntity
  8
0
100
AcDbLine
 10
328.0
 20
14.83
 30
0.0
 11
317.8235
 21
14.83
 31
0.0
  0
LINE
  5
6E0
330
1E
100
AcDbEntity
  8
0
100
AcDbLine
 10
328.0
 20
18.33
 30
0.0
 11
284.0
 21
18.33
 31
0.0
  0
LINE
  5
6E1
330
1E
100
AcDbEntity
  8
0
100
AcDbLine
 10
328.0
 20
18.33
 30
0.0
 11
284.0
 21
18.33
 31
0.0
  0
LINE
  5
6E4
330
1E
100
AcDbEntity
  8
0
100
AcDbLine
 10
330.42595
 20
20.17879999999999
 30
0.0
 11
330.1831399999999
 21
19.5896
 31
0.0
  0
LINE
  5
6E5
330
1E
100
AcDbEntity
  8
0
100
AcDbLine
 10
334.0
 20
20.82999999999999
 30
0.0
 11
333.6999999999999
 21
19.32999999999999
 31
0.0
  0
LINE
  5
6E6
330
1E
100
AcDbEntity
  8
0
100
AcDbLine
 10
329.2899499999999
 20
18.6624
 30
0.0
 11
328.64823
 21
18.4111
 31
0.0
  0
LINE
  5
6E7
330
1E
100
AcDbEntity
  8
0
100
AcDbLine
 10
329.4999999999999
 20
15.13
 30
0.0
 11
328.0
 21
14.83
 31
0.0
  0
LINE
  5
6E8
330
1E
100
AcDbEntity
  8
0
100
AcDbLine
 10
332.2
 20
16.63
 30
0.0
 11
330.8999999999999
 21
15.73
 31
0.0
  0
LINE
  5
6E9
330
1E
100
AcDbEntity
  8
0
100
AcDbLine
 10
330.8999999999999
 20
15.73
 30
0.0
 11
329.4999999999999
 21
15.13
 31
0.0
  0
LINE
  5
6EA
330
1E
100
AcDbEntity
  8
0
100
AcDbLine
 10
333.6999999999999
 20
19.32999999999999
 30
0.0
 11
333.1
 21
17.93
 31
0.0
  0
LINE
  5
6EB
330
1E
100
AcDbEntity
  8
0
100
AcDbLine
 10
333.6999999999999
 20
19.32999999999999
 30
0.0
 11
333.1
 21
17.93
 31
0.0
  0
LINE
  5
6EC
330
1E
100
AcDbEntity
  8
0
100
AcDbLine
 10
329.76689
 20
19.061
 30
0.0
 11
329.2899499999999
 21
18.6624
 31
0.0
  0
LINE
  5
6ED
330
1E
100
AcDbEntity
  8
0
100
AcDbLine
 10
330.1831399999999
 20
19.5896
 30
0.0
 11
329.76689
 21
19.061
 31
0.0
  0
LINE
  5
6EE
330
1E
100
AcDbEntity
  8
0
100
AcDbLine
 10
333.1
 20
17.93
 30
0.0
 11
332.2
 21
16.63
 31
0.0
  0
LINE
  5
6F1
330
1E
100
AcDbEntity
  8
0
100
AcDbLine
 10
328.64823
 20
18.4111
 30
0.0
 11
328.0
 21
18.33
 31
0.0
  0
LINE
  5
6F2
330
1E
100
AcDbEntity
  8
0
100
AcDbLine
 10
330.5
 20
20.82999999999999
 30
0.0
 11
330.42595
 21
20.17879999999999
 31
0.0
  0
LINE
  5
6F3
330
1E
100
AcDbEntity
  8
0
100
AcDbLine
 10
281.8168999999999
 20
19.5896
 30
0.0
 11
281.574
 21
20.17879999999999
 31
0.0
  0
LINE
  5
6F4
330
1E
100
AcDbEntity
  8
0
100
AcDbLine
 10
282.2330999999999
 20
19.061
 30
0.0
 11
281.8168999999999
 21
19.5896
 31
0.0
  0
LINE
  5
6F5
330
1E
100
AcDbEntity
  8
0
100
AcDbLine
 10
282.7101
 20
18.6624
 30
0.0
 11
282.2330999999999
 21
19.061
 31
0.0
  0
LINE
  5
6F6
330
1E
100
AcDbEntity
  8
0
100
AcDbLine
 10
283.3518
 20
18.4111
 30
0.0
 11
282.7101
 21
18.6624
 31
0.0
  0
LINE
  5
6F7
330
1E
100
AcDbEntity
  8
0
100
AcDbLine
 10
284.0
 20
18.33
 30
0.0
 11
283.3518
 21
18.4111
 31
0.0
  0
LINE
  5
6F8
330
1E
100
AcDbEntity
  8
0
100
AcDbLine
 10
254.3
 20
15.13
 30
0.0
 11
254.6580435230117
 21
14.83566279615263
 31
0.0
  0
LINE
  5
6F9
330
1E
100
AcDbEntity
  8
0
100
AcDbLine
 10
254.0
 20
15.83
 30
0.0
 11
254.3
 21
15.13
 31
0.0
  0
LINE
  5
6FA
330
1E
100
AcDbEntity
  8
0
100
AcDbLine
 10
281.574
 20
20.17879999999999
 30
0.0
 11
281.4999999999999
 21
20.82999999999999
 31
0.0
  0
LINE
  5
6FB
330
1E
100
AcDbEntity
  8
0
100
AcDbLine
 10
328.0
 20
60.83
 30
0.0
 11
260.0
 21
60.83
 31
0.0
  0
LINE
  5
6FC
330
1E
100
AcDbEntity
  8
0
100
AcDbLine
 10
328.0
 20
60.83
 30
0.0
 11
260.0
 21
60.83
 31
0.0
  0
LINE
  5
6FD
330
1E
100
AcDbEntity
  8
0
100
AcDbLine
 10
328.0
 20
57.33
 30
0.0
 11
284.0
 21
57.33
 31
0.0
  0
LINE
  5
6FE
330
1E
100
AcDbEntity
  8
0
100
AcDbLine
 10
328.0
 20
57.33
 30
0.0
 11
284.0
 21
57.33
 31
0.0
  0
LINE
  5
6FF
330
1E
100
AcDbEntity
  8
0
100
AcDbLine
 10
334.0
 20
54.83
 30
0.0
 11
334.0
 21
37.82999999999999
 31
0.0
  0
LINE
  5
700
330
1E
100
AcDbEntity
  8
0
100
AcDbLine
 10
330.5
 20
54.83
 30
0.0
 11
330.5
 21
37.82999999999999
 31
0.0
  0
LINE
  5
701
330
1E
100
AcDbEntity
  8
0
100
AcDbLine
 10
334.0
 20
37.82999999999999
 30
0.0
 11
334.0
 21
54.83
 31
0.0
  0
LINE
  5
702
330
1E
100
AcDbEntity
  8
0
100
AcDbLine
 10
330.5
 20
37.82999999999999
 30
0.0
 11
330.5
 21
54.83
 31
0.0
  0
LINE
  5
703
330
1E
100
AcDbEntity
  8
0
100
AcDbLine
 10
334.0
 20
54.83
 30
0.0
 11
333.6999999999999
 21
56.33
 31
0.0
  0
LINE
  5
704
330
1E
100
AcDbEntity
  8
0
100
AcDbLine
 10
330.42595
 20
55.4812
 30
0.0
 11
330.1831399999999
 21
56.0704
 31
0.0
  0
LINE
  5
705
330
1E
100
AcDbEntity
  8
0
100
AcDbLine
 10
330.5
 20
54.83
 30
0.0
 11
330.42595
 21
55.4812
 31
0.0
  0
LINE
  5
706
330
1E
100
AcDbEntity
  8
0
100
AcDbLine
 10
329.4999999999999
 20
60.53
 30
0.0
 11
328.0
 21
60.83
 31
0.0
  0
LINE
  5
707
330
1E
100
AcDbEntity
  8
0
100
AcDbLine
 10
329.2899499999999
 20
56.9976
 30
0.0
 11
328.64823
 21
57.2489
 31
0.0
  0
LINE
  5
708
330
1E
100
AcDbEntity
  8
0
100
AcDbLine
 10
332.2
 20
59.03
 30
0.0
 11
330.8999999999999
 21
59.93
 31
0.0
  0
LINE
  5
709
330
1E
100
AcDbEntity
  8
0
100
AcDbLine
 10
333.6999999999999
 20
56.33
 30
0.0
 11
333.1
 21
57.72999999999999
 31
0.0
  0
LINE
  5
70A
330
1E
100
AcDbEntity
  8
0
100
AcDbLine
 10
333.6999999999999
 20
56.33
 30
0.0
 11
333.1
 21
57.72999999999999
 31
0.0
  0
LINE
  5
70B
330
1E
100
AcDbEntity
  8
0
100
AcDbLine
 10
333.1
 20
57.72999999999999
 30
0.0
 11
332.2
 21
59.03
 31
0.0
  0
LINE
  5
70C
330
1E
100
AcDbEntity
  8
0
100
AcDbLine
 10
329.76689
 20
56.599
 30
0.0
 11
329.2899499999999
 21
56.9976
 31
0.0
  0
LINE
  5
70D
330
1E
100
AcDbEntity
  8
0
100
AcDbLine
 10
330.1831399999999
 20
56.0704
 30
0.0
 11
329.76689
 21
56.599
 31
0.0
  0
LINE
  5
70E
330
1E
100
AcDbEntity
  8
0
100
AcDbLine
 10
330.8999999999999
 20
59.93
 30
0.0
 11
329.4999999999999
 21
60.53
 31
0.0
  0
LINE
  5
70F
330
1E
100
AcDbEntity
  8
0
100
AcDbLine
 10
328.64823
 20
57.2489
 30
0.0
 11
328.0
 21
57.33
 31
0.0
  0
LINE
  5
710
330
1E
100
AcDbEntity
  8
0
100
AcDbLine
 10
254.0
 20
59.83
 30
0.0
 11
254.0
 21
37.82999999999999
 31
0.0
  0
LINE
  5
711
330
1E
100
AcDbEntity
  8
0
100
AcDbLine
 10
281.4999999999999
 20
54.83
 30
0.0
 11
281.4999999999999
 21
37.82999999999999
 31
0.0
  0
LINE
  5
712
330
1E
100
AcDbEntity
  8
0
100
AcDbLine
 10
254.0
 20
37.82999999999999
 30
0.0
 11
254.0
 21
59.83
 31
0.0
  0
LINE
  5
713
330
1E
100
AcDbEntity
  8
0
100
AcDbLine
 10
281.4999999999999
 20
37.82999999999999
 30
0.0
 11
281.4999999999999
 21
54.83
 31
0.0
  0
LINE
  5
714
330
1E
100
AcDbEntity
  8
0
100
AcDbLine
 10
281.8168999999999
 20
56.0704
 30
0.0
 11
281.574
 21
55.4812
 31
0.0
  0
LINE
  5
715
330
1E
100
AcDbEntity
  8
0
100
AcDbLine
 10
281.574
 20
55.4812
 30
0.0
 11
281.4999999999999
 21
54.83
 31
0.0
  0
LINE
  5
716
330
1E
100
AcDbEntity
  8
0
100
AcDbLine
 10
282.2330999999999
 20
56.599
 30
0.0
 11
281.8168999999999
 21
56.0704
 31
0.0
  0
LINE
  5
717
330
1E
100
AcDbEntity
  8
0
100
AcDbLine
 10
283.3518
 20
57.2489
 30
0.0
 11
282.7101
 21
56.9976
 31
0.0
  0
LINE
  5
718
330
1E
100
AcDbEntity
  8
0
100
AcDbLine
 10
282.7101
 20
56.9976
 30
0.0
 11
282.2330999999999
 21
56.599
 31
0.0
  0
LINE
  5
719
330
1E
100
AcDbEntity
  8
0
100
AcDbLine
 10
284.0
 20
57.33
 30
0.0
 11
283.3518
 21
57.2489
 31
0.0
  0
LINE
  5
71A
330
1E
100
AcDbEntity
  8
0
100
AcDbLine
 10
256.4999999999999
 20
60.83
 30
0.0
 11
255.6999999999999
 21
60.83
 31
0.0
  0
LINE
  5
71B
330
1E
100
AcDbEntity
  8
0
100
AcDbLine
 10
258.8
 20
60.83
 30
0.0
 11
256.4999999999999
 21
60.83
 31
0.0
  0
LINE
  5
71C
330
1E
100
AcDbEntity
  8
0
100
AcDbLine
 10
260.0
 20
60.83
 30
0.0
 11
258.8
 21
60.83
 31
0.0
  0
LINE
  5
71D
330
1E
100
AcDbEntity
  8
0
100
AcDbLine
 10
255.0
 20
60.83
 30
0.0
 11
254.3
 21
60.53
 31
0.0
  0
LINE
  5
71E
330
1E
100
AcDbEntity
  8
0
100
AcDbLine
 10
255.2
 20
60.83
 30
0.0
 11
255.0
 21
60.83
 31
0.0
  0
LINE
  5
71F
330
1E
100
AcDbEntity
  8
0
100
AcDbLine
 10
255.6999999999999
 20
60.83
 30
0.0
 11
255.2
 21
60.83
 31
0.0
  0
LINE
  5
720
330
1E
100
AcDbEntity
  8
0
100
AcDbLine
 10
254.3
 20
60.53
 30
0.0
 11
254.0
 21
59.83
 31
0.0
  0
LINE
  5
721
330
1E
100
AcDbEntity
  8
0
100
AcDbLine
 10
190.0
 20
34.83
 30
0.0
 11
190.0
 21
14.83
 31
0.0
  0
LINE
  5
722
330
1E
100
AcDbEntity
  8
0
100
AcDbLine
 10
190.0
 20
14.83
 30
0.0
 11
190.0
 21
34.83
 31
0.0
  0
LINE
  5
723
330
1E
100
AcDbEntity
  8
0
100
AcDbLine
 10
184.3
 20
74.83
 30
0.0
 11
182.496
 21
74.83
 31
0.0
  0
LINE
  5
724
330
1E
100
AcDbEntity
  8
0
100
AcDbLine
 10
185.35
 20
60.63
 30
0.0
 11
183.501
 21
59.83
 31
0.0
  0
LINE
  5
725
330
1E
100
AcDbEntity
  8
0
100
AcDbLine
 10
190.0
 20
70.83
 30
0.0
 11
190.0
 21
34.83
 31
0.0
  0
LINE
  5
726
330
1E
100
AcDbEntity
  8
0
100
AcDbLine
 10
190.0
 20
66.70449999999999
 30
0.0
 11
190.0
 21
58.33
 31
0.0
  0
LINE
  5
727
330
1E
100
AcDbEntity
  8
0
100
AcDbLine
 10
188.201
 20
63.53
 30
0.0
 11
187.006
 21
61.82999999999999
 31
0.0
  0
LINE
  5
728
330
1E
100
AcDbEntity
  8
0
100
AcDbLine
 10
190.0
 20
58.33
 30
0.0
 11
190.0
 21
66.70449999999999
 31
0.0
  0
LINE
  5
729
330
1E
100
AcDbEntity
  8
0
100
AcDbLine
 10
190.0
 20
34.83
 30
0.0
 11
189.991913505478
 21
63.9413802785884
 31
0.0
  0
LINE
  5
72A
330
1E
100
AcDbEntity
  8
0
100
AcDbLine
 10
190.0
 20
58.33
 30
0.0
 11
190.0
 21
46.9945
 31
0.0
  0
LINE
  5
72B
330
1E
100
AcDbEntity
  8
0
100
AcDbLine
 10
190.0
 20
46.9945
 30
0.0
 11
190.0
 21
58.33
 31
0.0
  0
LINE
  5
72C
330
1E
100
AcDbEntity
  8
0
100
AcDbLine
 10
190.0
 20
34.83
 30
0.0
 11
190.0
 21
46.9945
 31
0.0
  0
LINE
  5
72D
330
1E
100
AcDbEntity
  8
0
100
AcDbLine
 10
190.0
 20
46.9945
 30
0.0
 11
190.0
 21
34.83
 31
0.0
  0
LINE
  5
72E
330
1E
100
AcDbEntity
  8
0
100
AcDbLine
 10
187.0029999999999
 20
61.82999999999999
 30
0.0
 11
185.35
 21
60.63
 31
0.0
  0
LINE
  5
72F
330
1E
100
AcDbEntity
  8
0
100
AcDbLine
 10
188.201
 20
63.53
 30
0.0
 11
190.0
 21
73.83
 31
0.0
  0
LINE
  5
730
330
1E
100
AcDbEntity
  8
0
100
AcDbLine
 10
190.0
 20
71.3374
 30
0.0
 11
190.0
 21
66.70449999999999
 31
0.0
  0
LINE
  5
731
330
1E
100
AcDbEntity
  8
0
100
AcDbLine
 10
190.0
 20
66.70449999999999
 30
0.0
 11
190.0
 21
71.3374
 31
0.0
  0
LINE
  5
732
330
1E
100
AcDbEntity
  8
0
100
AcDbLine
 10
190.0
 20
73.83
 30
0.0
 11
189.7
 21
74.53
 31
0.0
  0
LINE
  5
733
330
1E
100
AcDbEntity
  8
0
100
AcDbLine
 10
190.0
 20
72.83
 30
0.0
 11
190.0
 21
71.3374
 31
0.0
  0
LINE
  5
734
330
1E
100
AcDbEntity
  8
0
100
AcDbLine
 10
190.0
 20
71.3374
 30
0.0
 11
190.0
 21
72.83
 31
0.0
  0
LINE
  5
735
330
1E
100
AcDbEntity
  8
0
100
AcDbLine
 10
190.0
 20
72.83
 30
0.0
 11
190.0
 21
73.83
 31
0.0
  0
LINE
  5
736
330
1E
100
AcDbEntity
  8
0
100
AcDbLine
 10
190.0
 20
73.83
 30
0.0
 11
190.0
 21
72.83
 31
0.0
  0
LINE
  5
737
330
1E
100
AcDbEntity
  8
0
100
AcDbLine
 10
190.0
 20
70.83
 30
0.0
 11
190.0
 21
70.9362
 31
0.0
  0
LINE
  5
738
330
1E
100
AcDbEntity
  8
0
100
AcDbLine
 10
190.0
 20
70.9362
 30
0.0
 11
190.0
 21
70.83
 31
0.0
  0
LINE
  5
739
330
1E
100
AcDbEntity
  8
0
100
AcDbLine
 10
189.0
 20
74.83
 30
0.0
 11
187.1999999999999
 21
74.83
 31
0.0
  0
LINE
  5
73A
330
1E
100
AcDbEntity
  8
0
100
AcDbLine
 10
189.7
 20
74.53
 30
0.0
 11
189.0
 21
74.83
 31
0.0
  0
LINE
  5
73B
330
1E
100
AcDbEntity
  8
0
100
AcDbLine
 10
187.1999999999999
 20
74.83
 30
0.0
 11
186.0
 21
74.83
 31
0.0
  0
LINE
  5
73C
330
1E
100
AcDbEntity
  8
0
100
AcDbLine
 10
186.0
 20
74.83
 30
0.0
 11
184.3
 21
74.83
 31
0.0
  0
LINE
  5
73D
330
1E
100
AcDbEntity
  8
0
100
AcDbLine
 10
178.0
 20
59.27852216748771
 30
0.0
 11
178.0
 21
54.7895
 31
0.0
  0
LINE
  5
73E
330
1E
100
AcDbEntity
  8
0
100
AcDbLine
 10
177.6039999999999
 20
55.7526
 30
0.0
 11
176.548
 21
56.6556
 31
0.0
  0
LINE
  5
73F
330
1E
100
AcDbEntity
  8
0
100
AcDbLine
 10
178.0
 20
54.7895
 30
0.0
 11
178.0
 21
59.27852216748771
 31
0.0
  0
LINE
  5
740
330
1E
100
AcDbEntity
  8
0
100
AcDbLine
 10
177.34
 20
55.4557
 30
0.0
 11
176.2839999999999
 21
56.3285
 31
0.0
  0
LINE
  5
741
330
1E
100
AcDbEntity
  8
0
100
AcDbLine
 10
176.2839999999999
 20
52.6867
 30
0.0
 11
174.5679999999999
 21
51.91919999999999
 31
0.0
  0
LINE
  5
742
330
1E
100
AcDbEntity
  8
0
100
AcDbLine
 10
178.0
 20
54.7895
 30
0.0
 11
177.6039999999999
 21
53.8264
 31
0.0
  0
LINE
  5
743
330
1E
100
AcDbEntity
  8
0
100
AcDbLine
 10
178.0
 20
54.7895
 30
0.0
 11
177.6039999999999
 21
55.7526
 31
0.0
  0
LINE
  5
744
330
1E
100
AcDbEntity
  8
0
100
AcDbLine
 10
177.7359999999999
 20
54.50759999999999
 30
0.0
 11
177.34
 21
53.55949999999999
 31
0.0
  0
LINE
  5
745
330
1E
100
AcDbEntity
  8
0
100
AcDbLine
 10
177.7359999999999
 20
54.50759999999999
 30
0.0
 11
177.34
 21
55.4557
 31
0.0
  0
LINE
  5
746
330
1E
100
AcDbEntity
  8
0
100
AcDbLine
 10
177.34
 20
53.55949999999999
 30
0.0
 11
176.2839999999999
 21
52.6867
 31
0.0
  0
LINE
  5
747
330
1E
100
AcDbEntity
  8
0
100
AcDbLine
 10
177.6039999999999
 20
53.8264
 30
0.0
 11
177.34
 21
53.55949999999999
 31
0.0
  0
LINE
  5
748
330
1E
100
AcDbEntity
  8
0
100
AcDbLine
 10
172.3239999999999
 20
51.3323
 30
0.0
 11
169.772
 21
50.9711
 31
0.0
  0
LINE
  5
749
330
1E
100
AcDbEntity
  8
0
100
AcDbLine
 10
174.5679999999999
 20
51.91919999999999
 30
0.0
 11
172.3239999999999
 21
51.3323
 31
0.0
  0
LINE
  5
74A
330
1E
100
AcDbEntity
  8
0
100
AcDbLine
 10
169.772
 20
50.9711
 30
0.0
 11
167.0
 21
50.8357
 31
0.0
  0
LINE
  5
74B
330
1E
100
AcDbEntity
  8
0
100
AcDbLine
 10
181.028847280335
 20
59.39678870292889
 30
0.0
 11
166.9260307199142
 21
59.39678870292889
 31
0.0
  0
LINE
  5
74C
330
1E
100
AcDbEntity
  8
0
100
AcDbLine
 10
176.548
 20
56.6556
 30
0.0
 11
174.7879999999999
 21
57.4532
 31
0.0
  0
LINE
  5
74D
330
1E
100
AcDbEntity
  8
0
100
AcDbLine
 10
176.2839999999999
 20
56.3285
 30
0.0
 11
174.5679999999999
 21
57.096
 31
0.0
  0
LINE
  5
74E
330
1E
100
AcDbEntity
  8
0
100
AcDbLine
 10
183.501
 20
59.83
 30
0.0
 11
181.459
 21
59.43
 31
0.0
  0
LINE
  5
74F
330
1E
100
AcDbEntity
  8
0
100
AcDbLine
 10
181.332
 20
59.43
 30
0.0
 11
181.028847280335
 21
59.39678870292889
 31
0.0
  0
LINE
  5
750
330
1E
100
AcDbEntity
  8
0
100
AcDbLine
 10
181.459
 20
59.43
 30
0.0
 11
181.332
 21
59.43
 31
0.0
  0
LINE
  5
751
330
1E
100
AcDbEntity
  8
0
100
AcDbLine
 10
172.456
 20
58.0551
 30
0.0
 11
169.8159999999999
 21
58.4163
 31
0.0
  0
LINE
  5
752
330
1E
100
AcDbEntity
  8
0
100
AcDbLine
 10
172.3239999999999
 20
57.6829
 30
0.0
 11
169.772
 21
58.0441
 31
0.0
  0
LINE
  5
753
330
1E
100
AcDbEntity
  8
0
100
AcDbLine
 10
174.7879999999999
 20
57.4532
 30
0.0
 11
172.456
 21
58.0551
 31
0.0
  0
LINE
  5
754
330
1E
100
AcDbEntity
  8
0
100
AcDbLine
 10
174.5679999999999
 20
57.096
 30
0.0
 11
172.3239999999999
 21
57.6829
 31
0.0
  0
LINE
  5
755
330
1E
100
AcDbEntity
  8
0
100
AcDbLine
 10
169.8159999999999
 20
58.4163
 30
0.0
 11
167.0
 21
58.5517
 31
0.0
  0
LINE
  5
756
330
1E
100
AcDbEntity
  8
0
100
AcDbLine
 10
169.772
 20
58.0441
 30
0.0
 11
167.0
 21
58.17949999999999
 31
0.0
  0
LINE
  5
757
330
1E
100
AcDbEntity
  8
0
100
AcDbLine
 10
175.895
 20
74.83
 30
0.0
 11
172.4
 21
74.83
 31
0.0
  0
LINE
  5
758
330
1E
100
AcDbEntity
  8
0
100
AcDbLine
 10
180.615
 20
74.83
 30
0.0
 11
178.466
 21
74.83
 31
0.0
  0
LINE
  5
759
330
1E
100
AcDbEntity
  8
0
100
AcDbLine
 10
182.496
 20
74.83
 30
0.0
 11
180.615
 21
74.83
 31
0.0
  0
LINE
  5
75A
330
1E
100
AcDbEntity
  8
0
100
AcDbLine
 10
178.466
 20
74.83
 30
0.0
 11
175.895
 21
74.83
 31
0.0
  0
LINE
  5
75B
330
1E
100
AcDbEntity
  8
0
100
AcDbLine
 10
172.4
 20
74.83
 30
0.0
 11
169.2849999999999
 21
74.83
 31
0.0
  0
LINE
  5
75C
330
1E
100
AcDbEntity
  8
0
100
AcDbLine
 10
169.2849999999999
 20
74.83
 30
0.0
 11
167.0
 21
74.83
 31
0.0
  0
LINE
  5
A50
330
1E
100
AcDbEntity
  8
0
100
AcDbLine
 10
401.006
 20
143.74
 30
0.0
 11
401.006
 21
42.087
 31
0.0
  0
LINE
  5
A51
330
1E
100
AcDbEntity
  8
0
100
AcDbLine
 10
375.0059999999999
 20
143.74
 30
0.0
 11
375.0059999999999
 21
42.087
 31
0.0
  0
LINE
  5
A52
330
1E
100
AcDbEntity
  8
0
100
AcDbLine
 10
401.006
 20
42.087
 30
0.0
 11
401.006
 21
143.74
 31
0.0
  0
LINE
  5
A53
330
1E
100
AcDbEntity
  8
0
100
AcDbLine
 10
375.0059999999999
 20
42.087
 30
0.0
 11
375.0059999999999
 21
143.74
 31
0.0
  0
LINE
  5
A54
330
1E
100
AcDbEntity
  8
0
100
AcDbLine
 10
428.0059999999999
 20
199.2249999999999
 30
0.0
 11
428.0059999999999
 21
174.2769999999999
 31
0.0
  0
LINE
  5
A55
330
1E
100
AcDbEntity
  8
0
100
AcDbLine
 10
426.606
 20
178.9529999999999
 30
0.0
 11
428.0059999999999
 21
174.2769999999999
 31
0.0
  0
LINE
  5
A56
330
1E
100
AcDbEntity
  8
0
100
AcDbLine
 10
398.306
 20
178.8809999999999
 30
0.0
 11
407.9059999999999
 21
177.065
 31
0.0
  0
LINE
  5
A57
330
1E
100
AcDbEntity
  8
0
100
AcDbLine
 10
422.606
 20
181.9749999999999
 30
0.0
 11
426.606
 21
177.6159999999999
 31
0.0
  0
LINE
  5
A58
330
1E
100
AcDbEntity
  8
0
100
AcDbLine
 10
368.1059999999999
 20
177.065
 30
0.0
 11
377.7059999999999
 21
178.8809999999999
 31
0.0
  0
LINE
  5
A59
330
1E
100
AcDbEntity
  8
0
100
AcDbLine
 10
428.0059999999999
 20
174.2769999999999
 30
0.0
 11
428.0059999999999
 21
199.2249999999999
 31
0.0
  0
LINE
  5
A5A
330
1E
100
AcDbEntity
  8
0
100
AcDbLine
 10
349.4059999999999
 20
177.6159999999999
 30
0.0
 11
353.4059999999999
 21
181.9749999999999
 31
0.0
  0
LINE
  5
A5B
330
1E
100
AcDbEntity
  8
0
100
AcDbLine
 10
348.0059999999999
 20
174.2769999999999
 30
0.0
 11
348.0059999999999
 21
199.2249999999999
 31
0.0
  0
LINE
  5
A5C
330
1E
100
AcDbEntity
  8
0
100
AcDbLine
 10
348.0059999999999
 20
174.2769999999999
 30
0.0
 11
349.4059999999999
 21
178.9529999999999
 31
0.0
  0
LINE
  5
A5D
330
1E
100
AcDbEntity
  8
0
100
AcDbLine
 10
348.0059999999999
 20
199.2249999999999
 30
0.0
 11
348.0059999999999
 21
174.2769999999999
 31
0.0
  0
LINE
  5
A5E
330
1E
100
AcDbEntity
  8
0
100
AcDbLine
 10
407.9059999999999
 20
177.065
 30
0.0
 11
416.2059999999999
 21
174.1599999999999
 31
0.0
  0
LINE
  5
A5F
330
1E
100
AcDbEntity
  8
0
100
AcDbLine
 10
412.7059999999999
 20
172.1249999999999
 30
0.0
 11
418.306
 21
168.8109999999999
 31
0.0
  0
LINE
  5
A60
330
1E
100
AcDbEntity
  8
0
100
AcDbLine
 10
412.7059999999999
 20
171.68
 30
0.0
 11
418.306
 21
168.3659999999999
 31
0.0
  0
LINE
  5
A61
330
1E
100
AcDbEntity
  8
0
100
AcDbLine
 10
414.006
 20
167.2309999999999
 30
0.0
 11
416.9059999999999
 21
163.9619999999999
 31
0.0
  0
LINE
  5
A62
330
1E
100
AcDbEntity
  8
0
100
AcDbLine
 10
414.006
 20
153.702
 30
0.0
 11
416.9059999999999
 21
156.9699999999999
 31
0.0
  0
LINE
  5
A63
330
1E
100
AcDbEntity
  8
0
100
AcDbLine
 10
412.7059999999999
 20
149.2529999999999
 30
0.0
 11
418.306
 21
152.567
 31
0.0
  0
LINE
  5
A64
330
1E
100
AcDbEntity
  8
0
100
AcDbLine
 10
407.9059999999999
 20
145.649
 30
0.0
 11
416.2059999999999
 21
148.555
 31
0.0
  0
LINE
  5
A65
330
1E
100
AcDbEntity
  8
0
100
AcDbLine
 10
377.7059999999999
 20
143.8329999999999
 30
0.0
 11
388.0059999999999
 21
143.1979999999999
 31
0.0
  0
LINE
  5
A66
330
1E
100
AcDbEntity
  8
0
100
AcDbLine
 10
400.5059999999999
 20
141.7089999999999
 30
0.0
 11
401.006
 21
143.74
 31
0.0
  0
LINE
  5
A67
330
1E
100
AcDbEntity
  8
0
100
AcDbLine
 10
400.0059999999999
 20
142.1639999999999
 30
0.0
 11
400.5059999999999
 21
144.134
 31
0.0
  0
LINE
  5
A68
330
1E
100
AcDbEntity
  8
0
100
AcDbLine
 10
398.606
 20
142.4109999999999
 30
0.0
 11
398.9650651558069
 21
143.9576731586399
 31
0.0
  0
LINE
  5
A69
330
1E
100
AcDbEntity
  8
0
100
AcDbLine
 10
388.0059999999999
 20
143.1979999999999
 30
0.0
 11
398.306
 21
143.8329999999999
 31
0.0
  0
LINE
  5
A6A
330
1E
100
AcDbEntity
  8
0
100
AcDbLine
 10
375.0059999999999
 20
143.74
 30
0.0
 11
375.5059999999999
 21
141.7089999999999
 31
0.0
  0
LINE
  5
A6B
330
1E
100
AcDbEntity
  8
0
100
AcDbLine
 10
375.5059999999999
 20
144.134
 30
0.0
 11
376.0059999999999
 21
142.1639999999999
 31
0.0
  0
LINE
  5
A6C
330
1E
100
AcDbEntity
  8
0
100
AcDbLine
 10
377.0469348441929
 20
143.9576731586399
 30
0.0
 11
377.4059999999999
 21
142.4109999999999
 31
0.0
  0
LINE
  5
A6D
330
1E
100
AcDbEntity
  8
0
100
AcDbLine
 10
378.9059999999999
 20
138.1379999999999
 30
0.0
 11
381.5059999999999
 21
136.8449999999999
 31
0.0
  0
LINE
  5
A6E
330
1E
100
AcDbEntity
  8
0
100
AcDbLine
 10
379.2059999999999
 20
138.7169999999999
 30
0.0
 11
381.806
 21
137.485
 31
0.0
  0
LINE
  5
A6F
330
1E
100
AcDbEntity
  8
0
100
AcDbLine
 10
380.2059999999999
 20
139.3319999999999
 30
0.0
 11
382.5059999999999
 21
138.2859999999999
 31
0.0
  0
LINE
  5
A70
330
1E
100
AcDbEntity
  8
0
100
AcDbLine
 10
376.806
 20
139.7389999999999
 30
0.0
 11
378.9059999999999
 21
138.1379999999999
 31
0.0
  0
LINE
  5
A71
330
1E
100
AcDbEntity
  8
0
100
AcDbLine
 10
377.2059999999999
 20
140.317
 30
0.0
 11
379.2059999999999
 21
138.7169999999999
 31
0.0
  0
LINE
  5
A72
330
1E
100
AcDbEntity
  8
0
100
AcDbLine
 10
376.0059999999999
 20
142.1639999999999
 30
0.0
 11
377.2059999999999
 21
140.317
 31
0.0
  0
LINE
  5
A73
330
1E
100
AcDbEntity
  8
0
100
AcDbLine
 10
375.5059999999999
 20
141.7089999999999
 30
0.0
 11
376.806
 21
139.7389999999999
 31
0.0
  0
LINE
  5
A74
330
1E
100
AcDbEntity
  8
0
100
AcDbLine
 10
378.5059999999999
 20
140.7479999999999
 30
0.0
 11
380.2059999999999
 21
139.3319999999999
 31
0.0
  0
LINE
  5
A75
330
1E
100
AcDbEntity
  8
0
100
AcDbLine
 10
377.4059999999999
 20
142.4109999999999
 30
0.0
 11
378.5059999999999
 21
140.7479999999999
 31
0.0
  0
LINE
  5
A76
330
1E
100
AcDbEntity
  8
0
100
AcDbLine
 10
397.1059999999999
 20
138.1379999999999
 30
0.0
 11
399.2059999999998
 21
139.7389999999999
 31
0.0
  0
LINE
  5
A77
330
1E
100
AcDbEntity
  8
0
100
AcDbLine
 10
397.5059999999999
 20
140.7479999999999
 30
0.0
 11
398.606
 21
142.4109999999999
 31
0.0
  0
LINE
  5
A78
330
1E
100
AcDbEntity
  8
0
100
AcDbLine
 10
396.806
 20
138.7169999999999
 30
0.0
 11
398.806
 21
140.317
 31
0.0
  0
LINE
  5
A79
330
1E
100
AcDbEntity
  8
0
100
AcDbLine
 10
388.0059999999999
 20
137.3619999999999
 30
0.0
 11
390.806
 21
137.6079999999999
 31
0.0
  0
LINE
  5
A7A
330
1E
100
AcDbEntity
  8
0
100
AcDbLine
 10
388.0059999999999
 20
135.7369999999999
 30
0.0
 11
391.306
 21
136.045
 31
0.0
  0
LINE
  5
A7B
330
1E
100
AcDbEntity
  8
0
100
AcDbLine
 10
388.0059999999999
 20
136.439
 30
0.0
 11
391.2059999999998
 21
136.7459999999999
 31
0.0
  0
LINE
  5
A7C
330
1E
100
AcDbEntity
  8
0
100
AcDbLine
 10
384.7059999999999
 20
136.045
 30
0.0
 11
388.0059999999999
 21
135.7369999999999
 31
0.0
  0
LINE
  5
A7D
330
1E
100
AcDbEntity
  8
0
100
AcDbLine
 10
384.806
 20
136.7459999999999
 30
0.0
 11
388.0059999999999
 21
136.439
 31
0.0
  0
LINE
  5
A7E
330
1E
100
AcDbEntity
  8
0
100
AcDbLine
 10
385.2059999999998
 20
137.6079999999999
 30
0.0
 11
388.0059999999999
 21
137.3619999999999
 31
0.0
  0
LINE
  5
A7F
330
1E
100
AcDbEntity
  8
0
100
AcDbLine
 10
381.5059999999999
 20
136.8449999999999
 30
0.0
 11
384.7059999999999
 21
136.045
 31
0.0
  0
LINE
  5
A80
330
1E
100
AcDbEntity
  8
0
100
AcDbLine
 10
381.806
 20
137.485
 30
0.0
 11
384.806
 21
136.7459999999999
 31
0.0
  0
LINE
  5
A81
330
1E
100
AcDbEntity
  8
0
100
AcDbLine
 10
382.5059999999999
 20
138.2859999999999
 30
0.0
 11
385.2059999999998
 21
137.6079999999999
 31
0.0
  0
LINE
  5
A82
330
1E
100
AcDbEntity
  8
0
100
AcDbLine
 10
393.506
 20
138.2859999999999
 30
0.0
 11
395.806
 21
139.3319999999999
 31
0.0
  0
LINE
  5
A83
330
1E
100
AcDbEntity
  8
0
100
AcDbLine
 10
391.306
 20
136.045
 30
0.0
 11
394.5059999999999
 21
136.8449999999999
 31
0.0
  0
LINE
  5
A84
330
1E
100
AcDbEntity
  8
0
100
AcDbLine
 10
391.2059999999998
 20
136.7459999999999
 30
0.0
 11
394.2059999999999
 21
137.485
 31
0.0
  0
LINE
  5
A85
330
1E
100
AcDbEntity
  8
0
100
AcDbLine
 10
390.806
 20
137.6079999999999
 30
0.0
 11
393.506
 21
138.2859999999999
 31
0.0
  0
LINE
  5
A86
330
1E
100
AcDbEntity
  8
0
100
AcDbLine
 10
394.5059999999999
 20
136.8449999999999
 30
0.0
 11
397.1059999999999
 21
138.1379999999999
 31
0.0
  0
LINE
  5
A87
330
1E
100
AcDbEntity
  8
0
100
AcDbLine
 10
394.2059999999999
 20
137.485
 30
0.0
 11
396.806
 21
138.7169999999999
 31
0.0
  0
LINE
  5
A88
330
1E
100
AcDbEntity
  8
0
100
AcDbLine
 10
395.806
 20
139.3319999999999
 30
0.0
 11
397.5059999999999
 21
140.7479999999999
 31
0.0
  0
LINE
  5
A89
330
1E
100
AcDbEntity
  8
0
100
AcDbLine
 10
399.2059999999998
 20
139.7389999999999
 30
0.0
 11
400.5059999999999
 21
141.7089999999999
 31
0.0
  0
LINE
  5
A8A
330
1E
100
AcDbEntity
  8
0
100
AcDbLine
 10
398.806
 20
140.317
 30
0.0
 11
400.0059999999999
 21
142.1639999999999
 31
0.0
  0
LINE
  5
A8B
330
1E
100
AcDbEntity
  8
0
100
AcDbLine
 10
379.0059999999999
 20
176.211
 30
0.0
 11
388.0059999999999
 21
176.8009999999999
 31
0.0
  0
LINE
  5
A8C
330
1E
100
AcDbEntity
  8
0
100
AcDbLine
 10
379.0059999999999
 20
175.766
 30
0.0
 11
388.0059999999999
 21
176.356
 31
0.0
  0
LINE
  5
A8D
330
1E
100
AcDbEntity
  8
0
100
AcDbLine
 10
380.306
 20
173.586
 30
0.0
 11
388.0059999999999
 21
174.086
 31
0.0
  0
LINE
  5
A8E
330
1E
100
AcDbEntity
  8
0
100
AcDbLine
 10
376.106
 20
147.014
 30
0.0
 11
381.806
 21
145.9689999999999
 31
0.0
  0
LINE
  5
A8F
330
1E
100
AcDbEntity
  8
0
100
AcDbLine
 10
379.0059999999999
 20
145.1669999999999
 30
0.0
 11
388.0059999999999
 21
144.5759999999999
 31
0.0
  0
LINE
  5
A90
330
1E
100
AcDbEntity
  8
0
100
AcDbLine
 10
353.0059999999999
 20
160.9119999999999
 30
0.0
 11
353.0059999999999
 21
160.466
 31
0.0
  0
LINE
  5
A91
330
1E
100
AcDbEntity
  8
0
100
AcDbLine
 10
348.0059999999999
 20
161.3569999999999
 30
0.0
 11
349.4059999999999
 21
156.6809999999999
 31
0.0
  0
LINE
  5
A92
330
1E
100
AcDbEntity
  8
0
100
AcDbLine
 10
353.0059999999999
 20
160.466
 30
0.0
 11
353.0059999999999
 21
160.9119999999999
 31
0.0
  0
LINE
  5
A93
330
1E
100
AcDbEntity
  8
0
100
AcDbLine
 10
353.0059999999999
 20
160.466
 30
0.0
 11
354.306
 21
164.552
 31
0.0
  0
LINE
  5
A94
330
1E
100
AcDbEntity
  8
0
100
AcDbLine
 10
358.0059999999999
 20
160.466
 30
0.0
 11
359.106
 21
163.9619999999999
 31
0.0
  0
LINE
  5
A95
330
1E
100
AcDbEntity
  8
0
100
AcDbLine
 10
362.0059999999999
 20
153.702
 30
0.0
 11
366.806
 21
150.8419999999999
 31
0.0
  0
LINE
  5
A96
330
1E
100
AcDbEntity
  8
0
100
AcDbLine
 10
359.806
 20
148.555
 30
0.0
 11
368.1059999999999
 21
145.649
 31
0.0
  0
LINE
  5
A97
330
1E
100
AcDbEntity
  8
0
100
AcDbLine
 10
363.306
 20
149.2529999999999
 30
0.0
 11
370.6059999999999
 21
146.438
 31
0.0
  0
LINE
  5
A98
330
1E
100
AcDbEntity
  8
0
100
AcDbLine
 10
353.4059999999999
 20
152.3229999999999
 30
0.0
 11
359.806
 21
148.555
 31
0.0
  0
LINE
  5
A99
330
1E
100
AcDbEntity
  8
0
100
AcDbLine
 10
357.7059999999999
 20
152.567
 30
0.0
 11
363.306
 21
149.2529999999999
 31
0.0
  0
LINE
  5
A9A
330
1E
100
AcDbEntity
  8
0
100
AcDbLine
 10
354.306
 20
156.38
 30
0.0
 11
357.7059999999999
 21
152.567
 31
0.0
  0
LINE
  5
A9B
330
1E
100
AcDbEntity
  8
0
100
AcDbLine
 10
349.4059999999999
 20
156.6809999999999
 30
0.0
 11
353.4059999999999
 21
152.3229999999999
 31
0.0
  0
LINE
  5
A9C
330
1E
100
AcDbEntity
  8
0
100
AcDbLine
 10
353.0059999999999
 20
160.466
 30
0.0
 11
354.306
 21
156.38
 31
0.0
  0
LINE
  5
A9D
330
1E
100
AcDbEntity
  8
0
100
AcDbLine
 10
359.106
 20
156.9699999999999
 30
0.0
 11
362.0059999999999
 21
153.702
 31
0.0
  0
LINE
  5
A9E
330
1E
100
AcDbEntity
  8
0
100
AcDbLine
 10
358.0059999999999
 20
160.466
 30
0.0
 11
359.106
 21
156.9699999999999
 31
0.0
  0
LINE
  5
A9F
330
1E
100
AcDbEntity
  8
0
100
AcDbLine
 10
368.1059999999999
 20
145.649
 30
0.0
 11
377.7059999999999
 21
143.8329999999999
 31
0.0
  0
LINE
  5
AA0
330
1E
100
AcDbEntity
  8
0
100
AcDbLine
 10
371.1059999999999
 20
148.784
 30
0.0
 11
376.106
 21
147.014
 31
0.0
  0
LINE
  5
AA1
330
1E
100
AcDbEntity
  8
0
100
AcDbLine
 10
370.6059999999999
 20
146.438
 30
0.0
 11
379.0059999999999
 21
145.1669999999999
 31
0.0
  0
LINE
  5
AA2
330
1E
100
AcDbEntity
  8
0
100
AcDbLine
 10
366.806
 20
150.8419999999999
 30
0.0
 11
371.1059999999999
 21
148.784
 31
0.0
  0
LINE
  5
AA3
330
1E
100
AcDbEntity
  8
0
100
AcDbLine
 10
375.0059999999999
 20
143.74
 30
0.0
 11
375.147953054587
 21
144.3168972138409
 31
0.0
  0
LINE
  5
AA4
330
1E
100
AcDbEntity
  8
0
100
AcDbLine
 10
375.5059999999999
 20
144.134
 30
0.0
 11
375.5338775164399
 21
144.2438931698069
 31
0.0
  0
LINE
  5
AA5
330
1E
100
AcDbEntity
  8
0
100
AcDbLine
 10
363.306
 20
172.1249999999999
 30
0.0
 11
370.6059999999999
 21
174.94
 31
0.0
  0
LINE
  5
AA6
330
1E
100
AcDbEntity
  8
0
100
AcDbLine
 10
359.806
 20
174.1599999999999
 30
0.0
 11
368.1059999999999
 21
177.065
 31
0.0
  0
LINE
  5
AA7
330
1E
100
AcDbEntity
  8
0
100
AcDbLine
 10
363.306
 20
171.68
 30
0.0
 11
370.6059999999999
 21
174.4939999999999
 31
0.0
  0
LINE
  5
AA8
330
1E
100
AcDbEntity
  8
0
100
AcDbLine
 10
362.0059999999999
 20
167.2309999999999
 30
0.0
 11
366.806
 21
170.091
 31
0.0
  0
LINE
  5
AA9
330
1E
100
AcDbEntity
  8
0
100
AcDbLine
 10
357.7059999999999
 20
168.8109999999999
 30
0.0
 11
363.306
 21
172.1249999999999
 31
0.0
  0
LINE
  5
AAA
330
1E
100
AcDbEntity
  8
0
100
AcDbLine
 10
357.7059999999999
 20
168.3659999999999
 30
0.0
 11
363.306
 21
171.68
 31
0.0
  0
LINE
  5
AAB
330
1E
100
AcDbEntity
  8
0
100
AcDbLine
 10
348.0059999999999
 20
161.3569999999999
 30
0.0
 11
348.0059999999999
 21
172.94
 31
0.0
  0
LINE
  5
AAC
330
1E
100
AcDbEntity
  8
0
100
AcDbLine
 10
349.4059999999999
 20
166.033
 30
0.0
 11
353.4059999999999
 21
170.392
 31
0.0
  0
LINE
  5
AAD
330
1E
100
AcDbEntity
  8
0
100
AcDbLine
 10
348.0059999999999
 20
172.94
 30
0.0
 11
348.0059999999999
 21
161.3569999999999
 31
0.0
  0
LINE
  5
AAE
330
1E
100
AcDbEntity
  8
0
100
AcDbLine
 10
354.306
 20
164.998
 30
0.0
 11
357.7059999999999
 21
168.8109999999999
 31
0.0
  0
LINE
  5
AAF
330
1E
100
AcDbEntity
  8
0
100
AcDbLine
 10
354.306
 20
164.552
 30
0.0
 11
357.7059999999999
 21
168.3659999999999
 31
0.0
  0
LINE
  5
AB0
330
1E
100
AcDbEntity
  8
0
100
AcDbLine
 10
353.0059999999999
 20
160.9119999999999
 30
0.0
 11
354.306
 21
164.998
 31
0.0
  0
LINE
  5
AB1
330
1E
100
AcDbEntity
  8
0
100
AcDbLine
 10
348.0059999999999
 20
161.3569999999999
 30
0.0
 11
349.4059999999999
 21
166.033
 31
0.0
  0
LINE
  5
AB2
330
1E
100
AcDbEntity
  8
0
100
AcDbLine
 10
359.106
 20
163.9619999999999
 30
0.0
 11
362.0059999999999
 21
167.2309999999999
 31
0.0
  0
LINE
  5
AB3
330
1E
100
AcDbEntity
  8
0
100
AcDbLine
 10
353.4059999999999
 20
170.392
 30
0.0
 11
359.806
 21
174.1599999999999
 31
0.0
  0
LINE
  5
AB4
330
1E
100
AcDbEntity
  8
0
100
AcDbLine
 10
348.0059999999999
 20
172.94
 30
0.0
 11
349.4059999999999
 21
177.6159999999999
 31
0.0
  0
LINE
  5
AB5
330
1E
100
AcDbEntity
  8
0
100
AcDbLine
 10
348.0059999999999
 20
174.2769999999999
 30
0.0
 11
348.2061497005989
 21
173.6084999999999
 31
0.0
  0
LINE
  5
AB6
330
1E
100
AcDbEntity
  8
0
100
AcDbLine
 10
370.6059999999999
 20
174.94
 30
0.0
 11
379.0059999999999
 21
176.211
 31
0.0
  0
LINE
  5
AB7
330
1E
100
AcDbEntity
  8
0
100
AcDbLine
 10
370.6059999999999
 20
174.4939999999999
 30
0.0
 11
379.0059999999999
 21
175.766
 31
0.0
  0
LINE
  5
AB8
330
1E
100
AcDbEntity
  8
0
100
AcDbLine
 10
366.806
 20
170.091
 30
0.0
 11
373.1059999999999
 21
172.2699999999999
 31
0.0
  0
LINE
  5
AB9
330
1E
100
AcDbEntity
  8
0
100
AcDbLine
 10
373.1059999999999
 20
172.2699999999999
 30
0.0
 11
380.306
 21
173.586
 31
0.0
  0
LINE
  5
ABA
330
1E
100
AcDbEntity
  8
0
100
AcDbLine
 10
394.2059999999999
 20
145.9689999999999
 30
0.0
 11
399.9059999999999
 21
147.014
 31
0.0
  0
LINE
  5
ABB
330
1E
100
AcDbEntity
  8
0
100
AcDbLine
 10
397.0059999999999
 20
145.1669999999999
 30
0.0
 11
405.4059999999999
 21
146.438
 31
0.0
  0
LINE
  5
ABC
330
1E
100
AcDbEntity
  8
0
100
AcDbLine
 10
388.0059999999999
 20
145.5609999999999
 30
0.0
 11
394.2059999999999
 21
145.9689999999999
 31
0.0
  0
LINE
  5
ABD
330
1E
100
AcDbEntity
  8
0
100
AcDbLine
 10
388.0059999999999
 20
144.5759999999999
 30
0.0
 11
397.0059999999999
 21
145.1669999999999
 31
0.0
  0
LINE
  5
ABE
330
1E
100
AcDbEntity
  8
0
100
AcDbLine
 10
381.806
 20
145.9689999999999
 30
0.0
 11
388.0059999999999
 21
145.5609999999999
 31
0.0
  0
LINE
  5
ABF
330
1E
100
AcDbEntity
  8
0
100
AcDbLine
 10
409.2059999999999
 20
150.8419999999999
 30
0.0
 11
414.006
 21
153.702
 31
0.0
  0
LINE
  5
AC0
330
1E
100
AcDbEntity
  8
0
100
AcDbLine
 10
404.9059999999999
 20
148.784
 30
0.0
 11
409.2059999999999
 21
150.8419999999999
 31
0.0
  0
LINE
  5
AC1
330
1E
100
AcDbEntity
  8
0
100
AcDbLine
 10
405.4059999999999
 20
146.438
 30
0.0
 11
412.7059999999999
 21
149.2529999999999
 31
0.0
  0
LINE
  5
AC2
330
1E
100
AcDbEntity
  8
0
100
AcDbLine
 10
398.306
 20
143.8329999999999
 30
0.0
 11
407.9059999999999
 21
145.649
 31
0.0
  0
LINE
  5
AC3
330
1E
100
AcDbEntity
  8
0
100
AcDbLine
 10
399.9059999999999
 20
147.014
 30
0.0
 11
404.9059999999999
 21
148.784
 31
0.0
  0
LINE
  5
AC4
330
1E
100
AcDbEntity
  8
0
100
AcDbLine
 10
400.8640469454129
 20
144.3168972138409
 30
0.0
 11
401.006
 21
143.74
 31
0.0
  0
LINE
  5
AC5
330
1E
100
AcDbEntity
  8
0
100
AcDbLine
 10
400.47812248356
 20
144.2438931698069
 30
0.0
 11
400.5059999999999
 21
144.134
 31
0.0
  0
LINE
  5
AC6
330
1E
100
AcDbEntity
  8
0
100
AcDbLine
 10
397.0059999999999
 20
176.211
 30
0.0
 11
405.4059999999999
 21
174.94
 31
0.0
  0
LINE
  5
AC7
330
1E
100
AcDbEntity
  8
0
100
AcDbLine
 10
397.0059999999999
 20
175.766
 30
0.0
 11
405.4059999999999
 21
174.4939999999999
 31
0.0
  0
LINE
  5
AC8
330
1E
100
AcDbEntity
  8
0
100
AcDbLine
 10
395.7059999999998
 20
173.586
 30
0.0
 11
402.9059999999999
 21
172.2699999999999
 31
0.0
  0
LINE
  5
AC9
330
1E
100
AcDbEntity
  8
0
100
AcDbLine
 10
388.0059999999999
 20
176.8009999999999
 30
0.0
 11
397.0059999999999
 21
176.211
 31
0.0
  0
LINE
  5
ACA
330
1E
100
AcDbEntity
  8
0
100
AcDbLine
 10
388.0059999999999
 20
176.356
 30
0.0
 11
397.0059999999999
 21
175.766
 31
0.0
  0
LINE
  5
ACB
330
1E
100
AcDbEntity
  8
0
100
AcDbLine
 10
388.0059999999999
 20
174.086
 30
0.0
 11
395.7059999999998
 21
173.586
 31
0.0
  0
LINE
  5
ACC
330
1E
100
AcDbEntity
  8
0
100
AcDbLine
 10
409.2059999999999
 20
170.091
 30
0.0
 11
414.006
 21
167.2309999999999
 31
0.0
  0
LINE
  5
ACD
330
1E
100
AcDbEntity
  8
0
100
AcDbLine
 10
405.4059999999999
 20
174.94
 30
0.0
 11
412.7059999999999
 21
172.1249999999999
 31
0.0
  0
LINE
  5
ACE
330
1E
100
AcDbEntity
  8
0
100
AcDbLine
 10
405.4059999999999
 20
174.4939999999999
 30
0.0
 11
412.7059999999999
 21
171.68
 31
0.0
  0
LINE
  5
ACF
330
1E
100
AcDbEntity
  8
0
100
AcDbLine
 10
402.9059999999999
 20
172.2699999999999
 30
0.0
 11
409.2059999999999
 21
170.091
 31
0.0
  0
LINE
  5
AD0
330
1E
100
AcDbEntity
  8
0
100
AcDbLine
 10
421.7059999999999
 20
164.552
 30
0.0
 11
423.0059999999999
 21
160.466
 31
0.0
  0
LINE
  5
AD1
330
1E
100
AcDbEntity
  8
0
100
AcDbLine
 10
416.9059999999999
 20
163.9619999999999
 30
0.0
 11
418.006
 21
160.466
 31
0.0
  0
LINE
  5
AD2
330
1E
100
AcDbEntity
  8
0
100
AcDbLine
 10
426.606
 20
156.6809999999999
 30
0.0
 11
428.0059999999999
 21
161.3569999999999
 31
0.0
  0
LINE
  5
AD3
330
1E
100
AcDbEntity
  8
0
100
AcDbLine
 10
423.0059999999999
 20
160.9119999999999
 30
0.0
 11
423.0059999999999
 21
160.466
 31
0.0
  0
LINE
  5
AD4
330
1E
100
AcDbEntity
  8
0
100
AcDbLine
 10
423.0059999999999
 20
160.466
 30
0.0
 11
423.0059999999999
 21
160.9119999999999
 31
0.0
  0
LINE
  5
AD5
330
1E
100
AcDbEntity
  8
0
100
AcDbLine
 10
416.2059999999999
 20
148.555
 30
0.0
 11
422.606
 21
152.3229999999999
 31
0.0
  0
LINE
  5
AD6
330
1E
100
AcDbEntity
  8
0
100
AcDbLine
 10
421.7059999999999
 20
156.38
 30
0.0
 11
423.0059999999999
 21
160.466
 31
0.0
  0
LINE
  5
AD7
330
1E
100
AcDbEntity
  8
0
100
AcDbLine
 10
422.606
 20
152.3229999999999
 30
0.0
 11
426.606
 21
156.6809999999999
 31
0.0
  0
LINE
  5
AD8
330
1E
100
AcDbEntity
  8
0
100
AcDbLine
 10
418.306
 20
152.567
 30
0.0
 11
421.7059999999999
 21
156.38
 31
0.0
  0
LINE
  5
AD9
330
1E
100
AcDbEntity
  8
0
100
AcDbLine
 10
416.9059999999999
 20
156.9699999999999
 30
0.0
 11
418.006
 21
160.466
 31
0.0
  0
LINE
  5
ADA
330
1E
100
AcDbEntity
  8
0
100
AcDbLine
 10
428.0059999999999
 20
172.94
 30
0.0
 11
428.0059999999999
 21
161.3569999999999
 31
0.0
  0
LINE
  5
ADB
330
1E
100
AcDbEntity
  8
0
100
AcDbLine
 10
422.606
 20
170.392
 30
0.0
 11
426.606
 21
166.033
 31
0.0
  0
LINE
  5
ADC
330
1E
100
AcDbEntity
  8
0
100
AcDbLine
 10
428.0059999999999
 20
161.3569999999999
 30
0.0
 11
428.0059999999999
 21
172.94
 31
0.0
  0
LINE
  5
ADD
330
1E
100
AcDbEntity
  8
0
100
AcDbLine
 10
421.7059999999999
 20
164.998
 30
0.0
 11
423.0059999999999
 21
160.9119999999999
 31
0.0
  0
LINE
  5
ADE
330
1E
100
AcDbEntity
  8
0
100
AcDbLine
 10
418.306
 20
168.3659999999999
 30
0.0
 11
421.7059999999999
 21
164.552
 31
0.0
  0
LINE
  5
ADF
330
1E
100
AcDbEntity
  8
0
100
AcDbLine
 10
418.306
 20
168.8109999999999
 30
0.0
 11
421.7059999999999
 21
164.998
 31
0.0
  0
LINE
  5
AE0
330
1E
100
AcDbEntity
  8
0
100
AcDbLine
 10
426.606
 20
166.033
 30
0.0
 11
428.0059999999999
 21
161.3569999999999
 31
0.0
  0
LINE
  5
AE1
330
1E
100
AcDbEntity
  8
0
100
AcDbLine
 10
416.2059999999999
 20
174.1599999999999
 30
0.0
 11
422.606
 21
170.392
 31
0.0
  0
LINE
  5
AE2
330
1E
100
AcDbEntity
  8
0
100
AcDbLine
 10
426.606
 20
177.6159999999999
 30
0.0
 11
428.0059999999999
 21
172.94
 31
0.0
  0
LINE
  5
AE3
330
1E
100
AcDbEntity
  8
0
100
AcDbLine
 10
427.805850299401
 20
173.6084999999999
 30
0.0
 11
428.0059999999999
 21
174.2769999999999
 31
0.0
  0
LINE
  5
AE4
330
1E
100
AcDbEntity
  8
0
100
AcDbLine
 10
407.4059999999999
 20
189.1759999999999
 30
0.0
 11
415.5059999999999
 21
186.3159999999999
 31
0.0
  0
LINE
  5
AE5
330
1E
100
AcDbEntity
  8
0
100
AcDbLine
 10
407.9059999999999
 20
189.985
 30
0.0
 11
416.2059999999999
 21
187.079
 31
0.0
  0
LINE
  5
AE6
330
1E
100
AcDbEntity
  8
0
100
AcDbLine
 10
407.9059999999999
 20
214.933
 30
0.0
 11
416.2059999999999
 21
212.027
 31
0.0
  0
LINE
  5
AE7
330
1E
100
AcDbEntity
  8
0
100
AcDbLine
 10
412.7059999999999
 20
214.0029999999999
 30
0.0
 11
416.2059999999999
 21
212.027
 31
0.0
  0
LINE
  5
AE8
330
1E
100
AcDbEntity
  8
0
100
AcDbLine
 10
407.9059999999999
 20
188.6479999999999
 30
0.0
 11
416.2059999999999
 21
185.7429999999999
 31
0.0
  0
LINE
  5
AE9
330
1E
100
AcDbEntity
  8
0
100
AcDbLine
 10
353.4059999999999
 20
208.259
 30
0.0
 11
359.806
 21
212.027
 31
0.0
  0
LINE
  5
AEA
330
1E
100
AcDbEntity
  8
0
100
AcDbLine
 10
377.7059999999999
 20
178.8809999999999
 30
0.0
 11
388.0059999999999
 21
179.5169999999999
 31
0.0
  0
LINE
  5
AEB
330
1E
100
AcDbEntity
  8
0
100
AcDbLine
 10
378.0059999999999
 20
190.901
 30
0.0
 11
387.0059999999999
 21
191.4733999999999
 31
0.0
  0
LINE
  5
AEC
330
1E
100
AcDbEntity
  8
0
100
AcDbLine
 10
377.7059999999999
 20
190.464
 30
0.0
 11
387.0059999999999
 21
191.0382524271839
 31
0.0
  0
LINE
  5
AED
330
1E
100
AcDbEntity
  8
0
100
AcDbLine
 10
377.7059999999999
 20
191.8009999999999
 30
0.0
 11
388.0059999999999
 21
192.4359999999999
 31
0.0
  0
LINE
  5
AEE
330
1E
100
AcDbEntity
  8
0
100
AcDbLine
 10
359.806
 20
185.7429999999999
 30
0.0
 11
368.1059999999999
 21
188.6479999999999
 31
0.0
  0
LINE
  5
AEF
330
1E
100
AcDbEntity
  8
0
100
AcDbLine
 10
360.5059999999999
 20
186.3159999999999
 30
0.0
 11
368.6059999999999
 21
189.1759999999999
 31
0.0
  0
LINE
  5
AF0
330
1E
100
AcDbEntity
  8
0
100
AcDbLine
 10
359.806
 20
187.079
 30
0.0
 11
368.1059999999999
 21
189.985
 31
0.0
  0
LINE
  5
AF1
330
1E
100
AcDbEntity
  8
0
100
AcDbLine
 10
354.2059999999999
 20
182.639
 30
0.0
 11
360.5059999999999
 21
186.3159999999999
 31
0.0
  0
LINE
  5
AF2
330
1E
100
AcDbEntity
  8
0
100
AcDbLine
 10
353.4059999999999
 20
183.3109999999999
 30
0.0
 11
359.806
 21
187.079
 31
0.0
  0
LINE
  5
AF3
330
1E
100
AcDbEntity
  8
0
100
AcDbLine
 10
353.4059999999999
 20
181.9749999999999
 30
0.0
 11
359.806
 21
185.7429999999999
 31
0.0
  0
LINE
  5
AF4
330
1E
100
AcDbEntity
  8
0
100
AcDbLine
 10
349.4059999999999
 20
178.9529999999999
 30
0.0
 11
353.4059999999999
 21
183.3109999999999
 31
0.0
  0
LINE
  5
AF5
330
1E
100
AcDbEntity
  8
0
100
AcDbLine
 10
353.8448526406499
 20
182.2333744921829
 30
0.0
 11
354.2059999999999
 21
182.639
 31
0.0
  0
LINE
  5
AF6
330
1E
100
AcDbEntity
  8
0
100
AcDbLine
 10
368.1059999999999
 20
188.6479999999999
 30
0.0
 11
377.7059999999999
 21
190.464
 31
0.0
  0
LINE
  5
AF7
330
1E
100
AcDbEntity
  8
0
100
AcDbLine
 10
368.6059999999999
 20
189.1759999999999
 30
0.0
 11
378.0059999999999
 21
190.901
 31
0.0
  0
LINE
  5
AF8
330
1E
100
AcDbEntity
  8
0
100
AcDbLine
 10
368.1059999999999
 20
189.985
 30
0.0
 11
377.7059999999999
 21
191.8009999999999
 31
0.0
  0
LINE
  5
AF9
330
1E
100
AcDbEntity
  8
0
100
AcDbLine
 10
348.0059999999999
 20
199.2249999999999
 30
0.0
 11
349.4059999999999
 21
203.901
 31
0.0
  0
LINE
  5
AFA
330
1E
100
AcDbEntity
  8
0
100
AcDbLine
 10
349.4059999999999
 20
203.901
 30
0.0
 11
353.4059999999999
 21
208.259
 31
0.0
  0
LINE
  5
AFB
330
1E
100
AcDbEntity
  8
0
100
AcDbLine
 10
389.0059999999999
 20
191.4733999999999
 30
0.0
 11
398.0059999999999
 21
190.901
 31
0.0
  0
LINE
  5
AFC
330
1E
100
AcDbEntity
  8
0
100
AcDbLine
 10
388.0059999999999
 20
192.4359999999999
 30
0.0
 11
398.306
 21
191.8009999999999
 31
0.0
  0
LINE
  5
AFD
330
1E
100
AcDbEntity
  8
0
100
AcDbLine
 10
389.0059999999999
 20
191.0382524271839
 30
0.0
 11
398.306
 21
190.464
 31
0.0
  0
LINE
  5
AFE
330
1E
100
AcDbEntity
  8
0
100
AcDbLine
 10
388.0059999999999
 20
179.5169999999999
 30
0.0
 11
398.306
 21
178.8809999999999
 31
0.0
  0
LINE
  5
AFF
330
1E
100
AcDbEntity
  8
0
100
AcDbLine
 10
389.0059999999999
 20
191.781
 30
0.0
 11
389.0059999999999
 21
180.198
 31
0.0
  0
LINE
  5
B00
330
1E
100
AcDbEntity
  8
0
100
AcDbLine
 10
387.0059999999999
 20
191.781
 30
0.0
 11
387.0059999999999
 21
180.198
 31
0.0
  0
LINE
  5
B01
330
1E
100
AcDbEntity
  8
0
100
AcDbLine
 10
389.0059999999999
 20
180.198
 30
0.0
 11
389.0059999999999
 21
191.781
 31
0.0
  0
LINE
  5
B02
330
1E
100
AcDbEntity
  8
0
100
AcDbLine
 10
387.0059999999999
 20
180.198
 30
0.0
 11
387.0059999999999
 21
191.781
 31
0.0
  0
LINE
  5
B03
330
1E
100
AcDbEntity
  8
0
100
AcDbLine
 10
389.0059999999999
 20
180.198
 30
0.0
 11
389.0059999999999
 21
179.455252427184
 31
0.0
  0
LINE
  5
B04
330
1E
100
AcDbEntity
  8
0
100
AcDbLine
 10
389.0059999999999
 20
179.455252427184
 30
0.0
 11
389.0059999999999
 21
180.198
 31
0.0
  0
LINE
  5
B05
330
1E
100
AcDbEntity
  8
0
100
AcDbLine
 10
387.0059999999999
 20
180.198
 30
0.0
 11
387.0059999999999
 21
179.455252427184
 31
0.0
  0
LINE
  5
B06
330
1E
100
AcDbEntity
  8
0
100
AcDbLine
 10
387.0059999999999
 20
180.198
 30
0.0
 11
389.0059999999999
 21
180.198
 31
0.0
  0
LINE
  5
B07
330
1E
100
AcDbEntity
  8
0
100
AcDbLine
 10
387.0059999999999
 20
179.455252427184
 30
0.0
 11
387.0059999999999
 21
180.198
 31
0.0
  0
LINE
  5
B08
330
1E
100
AcDbEntity
  8
0
100
AcDbLine
 10
387.0059999999999
 20
191.781
 30
0.0
 11
387.0059999999999
 21
191.0382524271839
 31
0.0
  0
LINE
  5
B09
330
1E
100
AcDbEntity
  8
0
100
AcDbLine
 10
387.0059999999999
 20
191.781
 30
0.0
 11
389.0059999999999
 21
191.781
 31
0.0
  0
LINE
  5
B0A
330
1E
100
AcDbEntity
  8
0
100
AcDbLine
 10
387.0059999999999
 20
191.0382524271839
 30
0.0
 11
387.0059999999999
 21
191.781
 31
0.0
  0
LINE
  5
B0B
330
1E
100
AcDbEntity
  8
0
100
AcDbLine
 10
398.0059999999999
 20
190.901
 30
0.0
 11
407.4059999999999
 21
189.1759999999999
 31
0.0
  0
LINE
  5
B0C
330
1E
100
AcDbEntity
  8
0
100
AcDbLine
 10
398.306
 20
191.8009999999999
 30
0.0
 11
407.9059999999999
 21
189.985
 31
0.0
  0
LINE
  5
B0D
330
1E
100
AcDbEntity
  8
0
100
AcDbLine
 10
398.306
 20
190.464
 30
0.0
 11
407.9059999999999
 21
188.6479999999999
 31
0.0
  0
LINE
  5
B0E
330
1E
100
AcDbEntity
  8
0
100
AcDbLine
 10
379.0059999999999
 20
218.088
 30
0.0
 11
388.0059999999999
 21
218.679
 31
0.0
  0
LINE
  5
B0F
330
1E
100
AcDbEntity
  8
0
100
AcDbLine
 10
377.7059999999999
 20
216.7489999999999
 30
0.0
 11
388.0059999999999
 21
217.385
 31
0.0
  0
LINE
  5
B10
330
1E
100
AcDbEntity
  8
0
100
AcDbLine
 10
363.306
 20
214.0029999999999
 30
0.0
 11
370.6059999999999
 21
216.8169999999999
 31
0.0
  0
LINE
  5
B11
330
1E
100
AcDbEntity
  8
0
100
AcDbLine
 10
359.806
 20
212.027
 30
0.0
 11
368.1059999999999
 21
214.933
 31
0.0
  0
LINE
  5
B12
330
1E
100
AcDbEntity
  8
0
100
AcDbLine
 10
359.806
 20
212.027
 30
0.0
 11
363.306
 21
214.0029999999999
 31
0.0
  0
LINE
  5
B13
330
1E
100
AcDbEntity
  8
0
100
AcDbLine
 10
370.6059999999999
 20
216.8169999999999
 30
0.0
 11
379.0059999999999
 21
218.088
 31
0.0
  0
LINE
  5
B14
330
1E
100
AcDbEntity
  8
0
100
AcDbLine
 10
368.1059999999999
 20
214.933
 30
0.0
 11
377.7059999999999
 21
216.7489999999999
 31
0.0
  0
LINE
  5
B15
330
1E
100
AcDbEntity
  8
0
100
AcDbLine
 10
397.0059999999999
 20
218.088
 30
0.0
 11
405.4059999999999
 21
216.8169999999999
 31
0.0
  0
LINE
  5
B16
330
1E
100
AcDbEntity
  8
0
100
AcDbLine
 10
388.0059999999999
 20
217.385
 30
0.0
 11
398.306
 21
216.7489999999999
 31
0.0
  0
LINE
  5
B17
330
1E
100
AcDbEntity
  8
0
100
AcDbLine
 10
388.0059999999999
 20
218.679
 30
0.0
 11
397.0059999999999
 21
218.088
 31
0.0
  0
LINE
  5
B18
330
1E
100
AcDbEntity
  8
0
100
AcDbLine
 10
405.4059999999999
 20
216.8169999999999
 30
0.0
 11
412.7059999999999
 21
214.0029999999999
 31
0.0
  0
LINE
  5
B19
330
1E
100
AcDbEntity
  8
0
100
AcDbLine
 10
398.306
 20
216.7489999999999
 30
0.0
 11
407.9059999999999
 21
214.933
 31
0.0
  0
LINE
  5
B1A
330
1E
100
AcDbEntity
  8
0
100
AcDbLine
 10
416.2059999999999
 20
212.027
 30
0.0
 11
422.606
 21
208.259
 31
0.0
  0
LINE
  5
B1B
330
1E
100
AcDbEntity
  8
0
100
AcDbLine
 10
415.5059999999999
 20
186.3159999999999
 30
0.0
 11
421.806
 21
182.639
 31
0.0
  0
LINE
  5
B1C
330
1E
100
AcDbEntity
  8
0
100
AcDbLine
 10
416.2059999999999
 20
187.079
 30
0.0
 11
422.606
 21
183.3109999999999
 31
0.0
  0
LINE
  5
B1D
330
1E
100
AcDbEntity
  8
0
100
AcDbLine
 10
422.606
 20
183.3109999999999
 30
0.0
 11
426.606
 21
178.9529999999999
 31
0.0
  0
LINE
  5
B1E
330
1E
100
AcDbEntity
  8
0
100
AcDbLine
 10
416.2059999999999
 20
185.7429999999999
 30
0.0
 11
422.606
 21
181.9749999999999
 31
0.0
  0
LINE
  5
B1F
330
1E
100
AcDbEntity
  8
0
100
AcDbLine
 10
421.806
 20
182.639
 30
0.0
 11
422.1671473593499
 21
182.2333744921829
 31
0.0
  0
LINE
  5
B20
330
1E
100
AcDbEntity
  8
0
100
AcDbLine
 10
426.606
 20
203.901
 30
0.0
 11
428.0059999999999
 21
199.2249999999999
 31
0.0
  0
LINE
  5
B21
330
1E
100
AcDbEntity
  8
0
100
AcDbLine
 10
422.606
 20
208.259
 30
0.0
 11
426.606
 21
203.901
 31
0.0
  0
LINE
  5
B22
330
1E
100
AcDbEntity
  8
0
100
AcDbLine
 10
400.5059999999999
 20
40.0553
 30
0.0
 11
401.006
 21
42.087
 31
0.0
  0
LINE
  5
B23
330
1E
100
AcDbEntity
  8
0
100
AcDbLine
 10
375.0059999999999
 20
42.087
 30
0.0
 11
375.5059999999999
 21
40.0553
 31
0.0
  0
LINE
  5
B24
330
1E
100
AcDbEntity
  8
0
100
AcDbLine
 10
413.0059999999999
 20
19.82999999999999
 30
0.0
 11
415.0059999999999
 21
14.82999999999999
 31
0.0
  0
LINE
  5
B25
330
1E
100
AcDbEntity
  8
0
100
AcDbLine
 10
379.5059999999999
 20
21.92999999999999
 30
0.0
 11
382.0059999999999
 21
21.02999999999998
 31
0.0
  0
LINE
  5
B26
330
1E
100
AcDbEntity
  8
0
100
AcDbLine
 10
379.2059999999999
 20
36.2752
 30
0.0
 11
381.806
 21
35.04389999999999
 31
0.0
  0
LINE
  5
B28
330
1E
100
AcDbEntity
  8
0
100
AcDbLine
 10
363.0059999999999
 20
19.82999999999999
 30
0.0
 11
369.0059999999999
 21
25.83
 31
0.0
  0
LINE
  5
B29
330
1E
100
AcDbEntity
  8
0
100
AcDbLine
 10
376.4059999999999
 20
24.52999999999998
 30
0.0
 11
377.606
 21
23.12999999999999
 31
0.0
  0
LINE
  5
B2A
330
1E
100
AcDbEntity
  8
0
100
AcDbLine
 10
361.0059999999999
 20
14.82999999999999
 30
0.0
 11
363.0059999999999
 21
19.82999999999999
 31
0.0
  0
LINE
  5
B2B
330
1E
100
AcDbEntity
  8
0
100
AcDbLine
 10
377.606
 20
23.12999999999999
 30
0.0
 11
379.5059999999999
 21
21.92999999999999
 31
0.0
  0
LINE
  5
B2C
330
1E
100
AcDbEntity
  8
0
100
AcDbLine
 10
376.0059999999999
 20
26.02999999999998
 30
0.0
 11
376.0059999999999
 21
34.70699999999999
 31
0.0
  0
LINE
  5
B2D
330
1E
100
AcDbEntity
  8
0
100
AcDbLine
 10
376.0059999999999
 20
34.70699999999999
 30
0.0
 11
376.0059999999999
 21
26.02999999999998
 31
0.0
  0
LINE
  5
B2E
330
1E
100
AcDbEntity
  8
0
100
AcDbLine
 10
369.0059999999999
 20
25.83
 30
0.0
 11
376.0059999999999
 21
28.39097560975609
 31
0.0
  0
LINE
  5
B30
330
1E
100
AcDbEntity
  8
0
100
AcDbLine
 10
376.0059999999999
 20
26.02999999999998
 30
0.0
 11
376.4059999999999
 21
24.52999999999998
 31
0.0
  0
LINE
  5
B31
330
1E
100
AcDbEntity
  8
0
100
AcDbLine
 10
376.806
 20
38.0852
 30
0.0
 11
378.9059999999999
 21
36.48449999999998
 31
0.0
  0
LINE
  5
B32
330
1E
100
AcDbEntity
  8
0
100
AcDbLine
 10
376.0059999999999
 20
34.70699999999999
 30
0.0
 11
376.0059999999999
 21
39.29756923076929
 31
0.0
  0
LINE
  5
B33
330
1E
100
AcDbEntity
  8
0
100
AcDbLine
 10
376.0059999999999
 20
39.29756923076929
 30
0.0
 11
376.0059999999999
 21
34.70699999999999
 31
0.0
  0
LINE
  5
B34
330
1E
100
AcDbEntity
  8
0
100
AcDbLine
 10
378.9059999999999
 20
36.48449999999998
 30
0.0
 11
379.2059999999999
 21
36.2752
 31
0.0
  0
LINE
  5
B35
330
1E
100
AcDbEntity
  8
0
100
AcDbLine
 10
375.5059999999999
 20
40.0553
 30
0.0
 11
376.806
 21
38.0852
 31
0.0
  0
LINE
  5
B36
330
1E
100
AcDbEntity
  8
0
100
AcDbLine
 10
407.0059999999999
 20
25.83
 30
0.0
 11
413.0059999999999
 21
19.82999999999999
 31
0.0
  0
LINE
  5
B37
330
1E
100
AcDbEntity
  8
0
100
AcDbLine
 10
398.4059999999999
 20
23.12999999999999
 30
0.0
 11
399.6059999999999
 21
24.52999999999998
 31
0.0
  0
LINE
  5
B38
330
1E
100
AcDbEntity
  8
0
100
AcDbLine
 10
396.5059999999999
 20
21.92999999999999
 30
0.0
 11
398.4059999999999
 21
23.12999999999999
 31
0.0
  0
LINE
  5
B39
330
1E
100
AcDbEntity
  8
0
100
AcDbLine
 10
388.0059999999999
 20
20.22999999999999
 30
0.0
 11
391.1059999999999
 21
20.42999999999999
 31
0.0
  0
LINE
  5
B3A
330
1E
100
AcDbEntity
  8
0
100
AcDbLine
 10
384.9059999999999
 20
20.42999999999999
 30
0.0
 11
388.0059999999999
 21
20.22999999999999
 31
0.0
  0
LINE
  5
B3B
330
1E
100
AcDbEntity
  8
0
100
AcDbLine
 10
382.0059999999999
 20
21.02999999999998
 30
0.0
 11
384.9059999999999
 21
20.42999999999999
 31
0.0
  0
LINE
  5
B3C
330
1E
100
AcDbEntity
  8
0
100
AcDbLine
 10
391.1059999999999
 20
20.42999999999999
 30
0.0
 11
394.0059999999999
 21
21.02999999999998
 31
0.0
  0
LINE
  5
B3D
330
1E
100
AcDbEntity
  8
0
100
AcDbLine
 10
394.0059999999999
 20
21.02999999999998
 30
0.0
 11
396.5059999999999
 21
21.92999999999999
 31
0.0
  0
LINE
  5
B3E
330
1E
100
AcDbEntity
  8
0
100
AcDbLine
 10
397.1059999999999
 20
36.48449999999998
 30
0.0
 11
399.2059999999998
 21
38.0852
 31
0.0
  0
LINE
  5
B3F
330
1E
100
AcDbEntity
  8
0
100
AcDbLine
 10
388.0059999999999
 20
33.99719999999999
 30
0.0
 11
391.2059999999998
 21
34.30509999999999
 31
0.0
  0
LINE
  5
B41
330
1E
100
AcDbEntity
  8
0
100
AcDbLine
 10
384.806
 20
34.30509999999999
 30
0.0
 11
388.0059999999999
 21
33.99719999999999
 31
0.0
  0
LINE
  5
B43
330
1E
100
AcDbEntity
  8
0
100
AcDbLine
 10
381.806
 20
35.04389999999999
 30
0.0
 11
384.806
 21
34.30509999999999
 31
0.0
  0
LINE
  5
B46
330
1E
100
AcDbEntity
  8
0
100
AcDbLine
 10
391.2059999999998
 20
34.30509999999999
 30
0.0
 11
394.2059999999999
 21
35.04389999999999
 31
0.0
  0
LINE
  5
B49
330
1E
100
AcDbEntity
  8
0
100
AcDbLine
 10
396.806
 20
36.2752
 30
0.0
 11
397.1059999999999
 21
36.48449999999998
 31
0.0
  0
LINE
  5
B4A
330
1E
100
AcDbEntity
  8
0
100
AcDbLine
 10
400.0059999999999
 20
34.70699999999999
 30
0.0
 11
400.0059999999999
 21
26.02999999999998
 31
0.0
  0
LINE
  5
B4B
330
1E
100
AcDbEntity
  8
0
100
AcDbLine
 10
400.0059999999999
 20
26.02999999999998
 30
0.0
 11
400.0059999999999
 21
34.70699999999999
 31
0.0
  0
LINE
  5
B4C
330
1E
100
AcDbEntity
  8
0
100
AcDbLine
 10
400.0059999999999
 20
28.39097560975609
 30
0.0
 11
407.0059999999999
 21
25.83
 31
0.0
  0
LINE
  5
B4E
330
1E
100
AcDbEntity
  8
0
100
AcDbLine
 10
399.6059999999999
 20
24.52999999999998
 30
0.0
 11
400.0059999999999
 21
26.02999999999998
 31
0.0
  0
LINE
  5
B4F
330
1E
100
AcDbEntity
  8
0
100
AcDbLine
 10
400.0059999999999
 20
34.70699999999999
 30
0.0
 11
400.0059999999999
 21
39.29756923076929
 31
0.0
  0
LINE
  5
B50
330
1E
100
AcDbEntity
  8
0
100
AcDbLine
 10
400.0059999999999
 20
39.29756923076929
 30
0.0
 11
400.0059999999999
 21
34.70699999999999
 31
0.0
  0
LINE
  5
B51
330
1E
100
AcDbEntity
  8
0
100
AcDbLine
 10
399.2059999999998
 20
38.0852
 30
0.0
 11
400.5059999999999
 21
40.0553
 31
0.0
  0
LINE
  5
B52
330
1E
100
AcDbEntity
  8
0
100
AcDbLine
 10
394.2059999999999
 20
35.04389999999999
 30
0.0
 11
396.806
 21
36.2752
 31
0.0
  0
ENDSEC
  0
SECTION
  2
OBJECTS
  0
DICTIONARY
  5
C
330
0
100
AcDbDictionary
281
     1
  3
ACAD_GROUP
350
D
  3
ACAD_LAYOUT
350
19
  3
ACAD_MLINESTYLE
350
16
  3
ACAD_PLOTSETTINGS
350
18
  3
ACAD_PLOTSTYLENAME
350
E
  3
AcDbVariableDictionary
350
761
  0
DICTIONARY
  5
D
102
{ACAD_REACTORS
330
C
102
}
330
C
100
AcDbDictionary
281
     1
  0
DICTIONARY
  5
19
102
{ACAD_REACTORS
330
C
102
}
330
C
100
AcDbDictionary
281
     1
  3
Layout1
350
1D
  3
Model
350
21
  0
DICTIONARY
  5
16
102
{ACAD_REACTORS
330
C
102
}
330
C
100
AcDbDictionary
281
     1
  3
Standard
350
17
  0
DICTIONARY
  5
18
102
{ACAD_REACTORS
330
C
102
}
330
C
100
AcDbDictionary
281
     1
  0
ACDBDICTIONARYWDFLT
  5
E
102
{ACAD_REACTORS
330
C
102
}
330
C
100
AcDbDictionary
281
     1
  3
Normal
350
F
100
AcDbDictionaryWithDefault
340
F
  0
DICTIONARY
  5
761
102
{ACAD_REACTORS
330
C
102
}
330
C
100
AcDbDictionary
281
     1
  3
DIMASSOC
350
762
  0
LAYOUT
  5
1D
102
{ACAD_REACTORS
330
19
102
}
330
19
100
AcDbPlotSettings
  1

  2
hp deskjet 980c series
  4

  6

 40
0.0
 41
0.0
 42
0.0
 43
0.0
 44
0.0
 45
0.0
 46
0.0
 47
0.0
 48
0.0
 49
0.0
140
0.0
141
0.0
142
1.0
143
1.0
 70
   688
 72
     0
 73
     0
 74
     5
  7

 75
    16
147
1.0
148
0.0
149
0.0
100
AcDbLayout
  1
Layout1
 70
     1
 71
     1
 10
0.0
 20
0.0
 11
12.0
 21
9.0
 12
0.0
 22
0.0
 32
0.0
 14
1.000000000000000E+20
 24
1.000000000000000E+20
 34
1.000000000000000E+20
 15
-1.000000000000000E+20
 25
-1.000000000000000E+20
 35
-1.000000000000000E+20
146
0.0
 13
0.0
 23
0.0
 33
0.0
 16
1.0
 26
0.0
 36
0.0
 17
0.0
 27
1.0
 37
0.0
 76
     0
330
1A
  0
LAYOUT
  5
21
102
{ACAD_REACTORS
330
19
102
}
330
19
100
AcDbPlotSettings
  1

  2
hp deskjet 980c series
  4

  6

 40
0.0
 41
0.0
 42
0.0
 43
0.0
 44
0.0
 45
0.0
 46
0.0
 47
0.0
 48
0.0
 49
0.0
140
0.0
141
0.0
142
1.0
143
1.0
 70
  1712
 72
     0
 73
     0
 74
     0
  7

 75
     0
147
1.0
148
0.0
149
0.0
100
AcDbLayout
  1
Model
 70
     1
 71
     0
 10
0.0
 20
0.0
 11
12.0
 21
9.0
 12
0.0
 22
0.0
 32
0.0
 14
0.0
 24
0.0
 34
0.0
 15
0.0
 25
0.0
 35
0.0
146
0.0
 13
0.0
 23
0.0
 33
0.0
 16
1.0
 26
0.0
 36
0.0
 17
0.0
 27
1.0
 37
0.0
 76
     0
330
1E
  0
MLINESTYLE
  5
17
102
{ACAD_REACTORS
330
16
102
}
330
16
100
AcDbMlineStyle
  2
STANDARD
 70
     0
  3

 62
   256
 51
90.0
 52
90.0
 71
     2
 49
0.5
 62
   256
  6
BYLAYER
 49
-0.5
 62
   256
  6
BYLAYER
  0
ACDBPLACEHOLDER
  5
F
102
{ACAD_REACTORS
330
E
102
}
330
E
  0
DICTIONARYVAR
  5
762
102
{ACAD_REACTORS
330
761
102
}
330
761
100
DictionaryVariables
280
     0
  1
1
  0
ENDSEC
  0
EOF
