  0
SECTION
  2
HEADER
  9
$ACADVER
  1
AC1014
  9
$ACADMAINTVER
 70
     9
  9
$DWGCODEPAGE
  3
ANSI_1252
  9
$INSBASE
 10
0.0
 20
0.0
 30
0.0
  9
$EXTMIN
 10
-0.000000000000003
 20
0.0000000000000031
 30
0.0
  9
$EXTMAX
 10
61.0
 20
212.0
 30
0.0
  9
$LIMMIN
 10
0.0
 20
0.0
  9
$LIMMAX
 10
12.0
 20
9.0
  9
$ORTHOMODE
 70
     0
  9
$REGENMODE
 70
     1
  9
$FILLMODE
 70
     1
  9
$QTEXTMODE
 70
     0
  9
$MIRRTEXT
 70
     1
  9
$DRAGMODE
 70
     2
  9
$LTSCALE
 40
1.0
  9
$OSMODE
 70
    37
  9
$ATTMODE
 70
     1
  9
$TEXTSIZE
 40
0.2
  9
$TRACEWID
 40
0.05
  9
$TEXTSTYLE
  7
STANDARD
  9
$CLAYER
  8
0
  9
$CELTYPE
  6
CONTINUOUS
  9
$CECOLOR
 62
   256
  9
$CELTSCALE
 40
1.0
  9
$DELOBJ
 70
     1
  9
$DISPSILH
 70
     0
  9
$DIMSCALE
 40
1.0
  9
$DIMASZ
 40
0.18
  9
$DIMEXO
 40
0.0625
  9
$DIMDLI
 40
0.38
  9
$DIMRND
 40
0.0
  9
$DIMDLE
 40
0.0
  9
$DIMEXE
 40
0.18
  9
$DIMTP
 40
0.0
  9
$DIMTM
 40
0.0
  9
$DIMTXT
 40
0.18
  9
$DIMCEN
 40
0.09
  9
$DIMTSZ
 40
0.0
  9
$DIMTOL
 70
     0
  9
$DIMLIM
 70
     0
  9
$DIMTIH
 70
     1
  9
$DIMTOH
 70
     1
  9
$DIMSE1
 70
     0
  9
$DIMSE2
 70
     0
  9
$DIMTAD
 70
     0
  9
$DIMZIN
 70
     0
  9
$DIMBLK
  1

  9
$DIMASO
 70
     1
  9
$DIMSHO
 70
     1
  9
$DIMPOST
  1

  9
$DIMAPOST
  1

  9
$DIMALT
 70
     0
  9
$DIMALTD
 70
     2
  9
$DIMALTF
 40
25.4
  9
$DIMLFAC
 40
1.0
  9
$DIMTOFL
 70
     0
  9
$DIMTVP
 40
0.0
  9
$DIMTIX
 70
     0
  9
$DIMSOXD
 70
     0
  9
$DIMSAH
 70
     0
  9
$DIMBLK1
  1

  9
$DIMBLK2
  1

  9
$DIMSTYLE
  2
STANDARD
  9
$DIMCLRD
 70
     0
  9
$DIMCLRE
 70
     0
  9
$DIMCLRT
 70
     0
  9
$DIMTFAC
 40
1.0
  9
$DIMGAP
 40
0.09
  9
$DIMJUST
 70
     0
  9
$DIMSD1
 70
     0
  9
$DIMSD2
 70
     0
  9
$DIMTOLJ
 70
     1
  9
$DIMTZIN
 70
     0
  9
$DIMALTZ
 70
     0
  9
$DIMALTTZ
 70
     0
  9
$DIMFIT
 70
     3
  9
$DIMUPT
 70
     0
  9
$DIMUNIT
 70
     2
  9
$DIMDEC
 70
     4
  9
$DIMTDEC
 70
     4
  9
$DIMALTU
 70
     2
  9
$DIMALTTD
 70
     2
  9
$DIMTXSTY
  7
STANDARD
  9
$DIMAUNIT
 70
     0
  9
$LUNITS
 70
     2
  9
$LUPREC
 70
     4
  9
$SKETCHINC
 40
0.1
  9
$FILLETRAD
 40
0.0
  9
$AUNITS
 70
     0
  9
$AUPREC
 70
     0
  9
$MENU
  1
.
  9
$ELEVATION
 40
0.0
  9
$PELEVATION
 40
0.0
  9
$THICKNESS
 40
0.0
  9
$LIMCHECK
 70
     0
  9
$BLIPMODE
 70
     0
  9
$CHAMFERA
 40
0.0
  9
$CHAMFERB
 40
0.0
  9
$CHAMFERC
 40
0.0
  9
$CHAMFERD
 40
0.0
  9
$SKPOLY
 70
     0
  9
$TDCREATE
 40
2454691.836748044
  9
$TDUPDATE
 40
2454691.836913692
  9
$TDINDWG
 40
0.0001656481
  9
$TDUSRTIMER
 40
0.0001656481
  9
$USRTIMER
 70
     1
  9
$ANGBASE
 50
0.0
  9
$ANGDIR
 70
     0
  9
$PDMODE
 70
     0
  9
$PDSIZE
 40
0.0
  9
$PLINEWID
 40
0.0
  9
$COORDS
 70
     1
  9
$SPLFRAME
 70
     0
  9
$SPLINETYPE
 70
     6
  9
$SPLINESEGS
 70
     8
  9
$ATTDIA
 70
     0
  9
$ATTREQ
 70
     1
  9
$HANDLING
 70
 22529
  9
$HANDSEED
  5
21D
  9
$SURFTAB1
 70
     6
  9
$SURFTAB2
 70
     6
  9
$SURFTYPE
 70
     6
  9
$SURFU
 70
     6
  9
$SURFV
 70
     6
  9
$UCSNAME
  2

  9
$UCSORG
 10
0.0
 20
0.0
 30
0.0
  9
$UCSXDIR
 10
1.0
 20
0.0
 30
0.0
  9
$UCSYDIR
 10
0.0
 20
1.0
 30
0.0
  9
$PUCSNAME
  2

  9
$PUCSORG
 10
0.0
 20
0.0
 30
0.0
  9
$PUCSXDIR
 10
1.0
 20
0.0
 30
0.0
  9
$PUCSYDIR
 10
0.0
 20
1.0
 30
0.0
  9
$USERI1
 70
     0
  9
$USERI2
 70
     0
  9
$USERI3
 70
     0
  9
$USERI4
 70
     0
  9
$USERI5
 70
     0
  9
$USERR1
 40
0.0
  9
$USERR2
 40
0.0
  9
$USERR3
 40
0.0
  9
$USERR4
 40
0.0
  9
$USERR5
 40
0.0
  9
$WORLDVIEW
 70
     1
  9
$SHADEDGE
 70
     3
  9
$SHADEDIF
 70
    70
  9
$TILEMODE
 70
     1
  9
$MAXACTVP
 70
    64
  9
$PINSBASE
 10
0.0
 20
0.0
 30
0.0
  9
$PLIMCHECK
 70
     0
  9
$PEXTMIN
 10
1.000000000000000E+20
 20
1.000000000000000E+20
 30
1.000000000000000E+20
  9
$PEXTMAX
 10
-1.000000000000000E+20
 20
-1.000000000000000E+20
 30
-1.000000000000000E+20
  9
$PLIMMIN
 10
0.0
 20
0.0
  9
$PLIMMAX
 10
12.0
 20
9.0
  9
$UNITMODE
 70
     0
  9
$VISRETAIN
 70
     1
  9
$PLINEGEN
 70
     0
  9
$PSLTSCALE
 70
     1
  9
$TREEDEPTH
 70
  3020
  9
$PICKSTYLE
 70
     1
  9
$CMLSTYLE
  2
STANDARD
  9
$CMLJUST
 70
     0
  9
$CMLSCALE
 40
1.0
  9
$PROXYGRAPHICS
 70
     1
  9
$MEASUREMENT
 70
     0
  0
ENDSEC
  0
SECTION
  2
CLASSES
  0
CLASS
  1
ACDBDICTIONARYWDFLT
  2
AcDbDictionaryWithDefault
  3
AutoCAD 2000
 90
        0
280
     0
281
     0
  0
CLASS
  1
ACDBPLACEHOLDER
  2
AcDbPlaceHolder
  3
AutoCAD 2000
 90
        0
280
     0
281
     0
  0
CLASS
  1
LAYOUT
  2
AcDbLayout
  3
AutoCAD 2000
 90
        0
280
     0
281
     0
  0
CLASS
  1
DICTIONARYVAR
  2
AcDbDictionaryVar
  3
AutoCAD 2000
 90
        0
280
     0
281
     0
  0
CLASS
  1
LONG_TRANSACTION
  2
AcDbLongTransaction
  3
AutoCAD 2000
 90
        0
280
     0
281
     0
  0
CLASS
  1
LWPOLYLINE
  2
AcDbPolyline
  3
AutoCAD 2000
 90
        0
280
     0
281
     1
  0
CLASS
  1
HATCH
  2
AcDbHatch
  3
AutoCAD 2000
 90
        0
280
     0
281
     1
  0
CLASS
  1
XRECORD
  2
AcDbXrecord
  3
AutoCAD 2000
 90
        0
280
     0
281
     0
  0
ENDSEC
  0
SECTION
  2
TABLES
  0
TABLE
  2
VPORT
  5
8
330
0
100
AcDbSymbolTable
 70
     3
  0
VPORT
  5
1F8
330
8
100
AcDbSymbolTableRecord
100
AcDbViewportTableRecord
  2
*ACTIVE
 70
     0
 10
0.0
 20
0.0
 11
1.0
 21
1.0
 12
30.49999999999999
 22
106.0
 13
0.0
 23
0.0
 14
1.0
 24
1.0
 15
0.0
 25
0.0
 16
0.0
 26
0.0
 36
1.0
 17
0.0
 27
0.0
 37
0.0
 40
213.6265984654731
 41
2.078104993597951
 42
50.0
 43
0.0
 44
0.0
 50
0.0
 51
0.0
 71
     0
 72
   100
 73
     1
 74
     3
 75
     0
 76
     0
 77
     0
 78
     0
  0
ENDTAB
  0
TABLE
  2
LTYPE
  5
5
330
0
100
AcDbSymbolTable
 70
     1
  0
LTYPE
  5
13
330
5
100
AcDbSymbolTableRecord
100
AcDbLinetypeTableRecord
  2
BYBLOCK
 70
     0
  3

 72
    65
 73
     0
 40
0.0
  0
LTYPE
  5
14
330
5
100
AcDbSymbolTableRecord
100
AcDbLinetypeTableRecord
  2
BYLAYER
 70
     0
  3

 72
    65
 73
     0
 40
0.0
  0
LTYPE
  5
15
330
5
100
AcDbSymbolTableRecord
100
AcDbLinetypeTableRecord
  2
CONTINUOUS
 70
     0
  3
Solid line
 72
    65
 73
     0
 40
0.0
  0
ENDTAB
  0
TABLE
  2
LAYER
  5
2
330
0
100
AcDbSymbolTable
 70
     1
  0
LAYER
  5
10
330
2
100
AcDbSymbolTableRecord
100
AcDbLayerTableRecord
  2
0
 70
     0
 62
     7
  6
CONTINUOUS
  0
ENDTAB
  0
TABLE
  2
STYLE
  5
3
330
0
100
AcDbSymbolTable
 70
     1
  0
STYLE
  5
11
330
3
100
AcDbSymbolTableRecord
100
AcDbTextStyleTableRecord
  2
STANDARD
 70
     0
 40
0.0
 41
1.0
 50
0.0
 71
     0
 42
0.2
  3
txt
  4

  0
ENDTAB
  0
TABLE
  2
VIEW
  5
6
330
0
100
AcDbSymbolTable
 70
     0
  0
ENDTAB
  0
TABLE
  2
UCS
  5
7
330
0
100
AcDbSymbolTable
 70
     0
  0
ENDTAB
  0
TABLE
  2
APPID
  5
9
330
0
100
AcDbSymbolTable
 70
     1
  0
APPID
  5
12
330
9
100
AcDbSymbolTableRecord
100
AcDbRegAppTableRecord
  2
ACAD
 70
     0
  0
ENDTAB
  0
TABLE
  2
DIMSTYLE
  5
A
330
0
100
AcDbSymbolTable
 70
     1
  0
DIMSTYLE
105
1CD
330
A
100
AcDbSymbolTableRecord
100
AcDbDimStyleTableRecord
  2
STANDARD
 70
     0
  3

  4

  5

  6

  7

 40
1.0
 41
0.18
 42
0.0625
 43
0.38
 44
0.18
 45
0.0
 46
0.0
 47
0.0
 48
0.0
140
0.18
141
0.09
142
0.0
143
25.4
144
1.0
145
0.0
146
1.0
147
0.09
 71
     0
 72
     0
 73
     1
 74
     1
 75
     0
 76
     0
 77
     0
 78
     0
170
     0
171
     2
172
     0
173
     0
174
     0
175
     0
176
     0
177
     0
178
     0
270
     2
271
     4
272
     4
273
     2
274
     2
340
11
275
     0
280
     0
281
     0
282
     0
283
     1
284
     0
285
     0
286
     0
287
     3
288
     0
  0
ENDTAB
  0
TABLE
  2
BLOCK_RECORD
  5
1
330
0
100
AcDbSymbolTable
 70
     0
  0
BLOCK_RECORD
  5
1E
102
{ACAD_XDICTIONARY
360
21B
102
}
330
1
100
AcDbSymbolTableRecord
100
AcDbBlockTableRecord
  2
*MODEL_SPACE
  0
BLOCK_RECORD
  5
1A
102
{ACAD_XDICTIONARY
360
219
102
}
330
1
100
AcDbSymbolTableRecord
100
AcDbBlockTableRecord
  2
*PAPER_SPACE
  0
ENDTAB
  0
ENDSEC
  0
SECTION
  2
BLOCKS
  0
BLOCK
  5
1F
330
1E
100
AcDbEntity
  8
0
100
AcDbBlockBegin
  2
*MODEL_SPACE
 70
     0
 10
0.0
 20
0.0
 30
0.0
  3
*MODEL_SPACE
  1

  0
ENDBLK
  5
20
330
1E
100
AcDbEntity
  8
0
100
AcDbBlockEnd
  0
BLOCK
  5
1B
330
1A
100
AcDbEntity
 67
     1
  8
0
100
AcDbBlockBegin
  2
*PAPER_SPACE
 70
     0
 10
0.0
 20
0.0
 30
0.0
  3
*PAPER_SPACE
  1

  0
ENDBLK
  5
1C
330
1A
100
AcDbEntity
 67
     1
  8
0
100
AcDbBlockEnd
  0
ENDSEC
  0
SECTION
  2
ENTITIES
  0
LINE
  5
22
330
1E
100
AcDbEntity
  8
0
100
AcDbLine
 10
2.118
 20
69.0
 30
0.0
 11
8.0
 21
69.0
 31
0.0
  0
LINE
  5
23
330
1E
100
AcDbEntity
  8
0
100
AcDbLine
 10
7.99999999999999
 20
3.299999999999999
 30
0.0
 11
7.99999999999999
 21
3.1
 31
0.0
  0
LINE
  5
24
330
1E
100
AcDbEntity
  8
0
100
AcDbLine
 10
7.99999999999999
 20
3.299999999999999
 30
0.0
 11
7.99999999999999
 21
3.7
 31
0.0
  0
LINE
  5
25
330
1E
100
AcDbEntity
  8
0
100
AcDbLine
 10
7.99999999999999
 20
3.1
 30
0.0
 11
7.99999999999999
 21
3.0
 31
0.0
  0
LINE
  5
26
330
1E
100
AcDbEntity
  8
0
100
AcDbLine
 10
7.99999999999999
 20
3.1
 30
0.0
 11
7.99999999999999
 21
3.299999999999999
 31
0.0
  0
LINE
  5
27
330
1E
100
AcDbEntity
  8
0
100
AcDbLine
 10
7.99999999999999
 20
3.0
 30
0.0
 11
8.09999999999999
 21
2.2
 31
0.0
  0
LINE
  5
28
330
1E
100
AcDbEntity
  8
0
100
AcDbLine
 10
7.99999999999999
 20
3.0
 30
0.0
 11
7.99999999999999
 21
3.1
 31
0.0
  0
LINE
  5
29
330
1E
100
AcDbEntity
  8
0
100
AcDbLine
 10
7.99999999999999
 20
3.0
 30
0.0
 11
8.00624999999999
 21
3.049999999999999
 31
0.0
  0
LINE
  5
2A
330
1E
100
AcDbEntity
  8
0
100
AcDbLine
 10
7.99999999999999
 20
3.7
 30
0.0
 11
7.99999999999999
 21
4.155689999999999
 31
0.0
  0
LINE
  5
2B
330
1E
100
AcDbEntity
  8
0
100
AcDbLine
 10
7.99999999999999
 20
3.7
 30
0.0
 11
7.99999999999999
 21
3.299999999999999
 31
0.0
  0
LINE
  5
2C
330
1E
100
AcDbEntity
  8
0
100
AcDbLine
 10
7.99999999999999
 20
4.155689999999999
 30
0.0
 11
7.99999999999999
 21
4.7579
 31
0.0
  0
LINE
  5
2D
330
1E
100
AcDbEntity
  8
0
100
AcDbLine
 10
7.99999999999999
 20
4.155689999999999
 30
0.0
 11
7.99999999999999
 21
3.7
 31
0.0
  0
LINE
  5
2E
330
1E
100
AcDbEntity
  8
0
100
AcDbLine
 10
7.99999999999999
 20
4.7579
 30
0.0
 11
7.99999999999999
 21
5.561409999999999
 31
0.0
  0
LINE
  5
2F
330
1E
100
AcDbEntity
  8
0
100
AcDbLine
 10
7.99999999999999
 20
4.7579
 30
0.0
 11
7.99999999999999
 21
4.155689999999999
 31
0.0
  0
LINE
  5
30
330
1E
100
AcDbEntity
  8
0
100
AcDbLine
 10
7.99999999999999
 20
7.52188
 30
0.0
 11
7.99999999999999
 21
6.579889999999999
 31
0.0
  0
LINE
  5
31
330
1E
100
AcDbEntity
  8
0
100
AcDbLine
 10
7.99999999999999
 20
7.52188
 30
0.0
 11
7.99999999999999
 21
8.599999999999999
 31
0.0
  0
LINE
  5
32
330
1E
100
AcDbEntity
  8
0
100
AcDbLine
 10
7.99999999999999
 20
6.579889999999999
 30
0.0
 11
7.99999999999999
 21
5.561409999999999
 31
0.0
  0
LINE
  5
33
330
1E
100
AcDbEntity
  8
0
100
AcDbLine
 10
7.99999999999999
 20
6.579889999999999
 30
0.0
 11
7.99999999999999
 21
7.52188
 31
0.0
  0
LINE
  5
34
330
1E
100
AcDbEntity
  8
0
100
AcDbLine
 10
7.99999999999999
 20
5.561409999999999
 30
0.0
 11
7.99999999999999
 21
6.579889999999999
 31
0.0
  0
LINE
  5
35
330
1E
100
AcDbEntity
  8
0
100
AcDbLine
 10
7.99999999999999
 20
5.561409999999999
 30
0.0
 11
7.99999999999999
 21
4.7579
 31
0.0
  0
LINE
  5
36
330
1E
100
AcDbEntity
  8
0
100
AcDbLine
 10
7.99999999999999
 20
12.0
 30
0.0
 11
8.0
 21
71.92499999999999
 31
0.0
  0
LINE
  5
37
330
1E
100
AcDbEntity
  8
0
100
AcDbLine
 10
7.99999999999999
 20
8.599999999999999
 30
0.0
 11
7.99999999999999
 21
9.699999999999999
 31
0.0
  0
LINE
  5
38
330
1E
100
AcDbEntity
  8
0
100
AcDbLine
 10
7.99999999999999
 20
8.599999999999999
 30
0.0
 11
7.99999999999999
 21
7.52188
 31
0.0
  0
LINE
  5
39
330
1E
100
AcDbEntity
  8
0
100
AcDbLine
 10
7.99999999999999
 20
9.699999999999999
 30
0.0
 11
7.99999999999999
 21
10.8
 31
0.0
  0
LINE
  5
3A
330
1E
100
AcDbEntity
  8
0
100
AcDbLine
 10
7.99999999999999
 20
9.699999999999999
 30
0.0
 11
7.99999999999999
 21
8.599999999999999
 31
0.0
  0
LINE
  5
3B
330
1E
100
AcDbEntity
  8
0
100
AcDbLine
 10
7.99999999999999
 20
12.0
 30
0.0
 11
7.99999999999999
 21
10.8
 31
0.0
  0
LINE
  5
3C
330
1E
100
AcDbEntity
  8
0
100
AcDbLine
 10
7.99999999999999
 20
12.0
 30
0.0
 11
8.0
 21
71.92499999999999
 31
0.0
  0
LINE
  5
3D
330
1E
100
AcDbEntity
  8
0
100
AcDbLine
 10
11.0
 20
0.0000000000000031
 30
0.0
 11
11.8
 21
0.100000000000003
 31
0.0
  0
LINE
  5
3E
330
1E
100
AcDbEntity
  8
0
100
AcDbLine
 10
11.8
 20
0.100000000000003
 30
0.0
 11
12.5
 21
0.400000000000003
 31
0.0
  0
LINE
  5
3F
330
1E
100
AcDbEntity
  8
0
100
AcDbLine
 10
11.8
 20
0.100000000000003
 30
0.0
 11
12.5
 21
0.400000000000003
 31
0.0
  0
LINE
  5
40
330
1E
100
AcDbEntity
  8
0
100
AcDbLine
 10
11.0
 20
0.0000000000000031
 30
0.0
 11
11.8
 21
0.100000000000003
 31
0.0
  0
LINE
  5
41
330
1E
100
AcDbEntity
  8
0
100
AcDbLine
 10
8.09999999999999
 20
2.2
 30
0.0
 11
8.399999999999989
 21
1.5
 31
0.0
  0
LINE
  5
42
330
1E
100
AcDbEntity
  8
0
100
AcDbLine
 10
8.399999999999989
 20
1.5
 30
0.0
 11
8.899999999999989
 21
0.900000000000003
 31
0.0
  0
LINE
  5
43
330
1E
100
AcDbEntity
  8
0
100
AcDbLine
 10
8.899999999999989
 20
0.900000000000003
 30
0.0
 11
9.499999999999991
 21
0.400000000000003
 31
0.0
  0
LINE
  5
44
330
1E
100
AcDbEntity
  8
0
100
AcDbLine
 10
14.0
 20
3.0
 30
0.0
 11
14.0
 21
3.1
 31
0.0
  0
LINE
  5
45
330
1E
100
AcDbEntity
  8
0
100
AcDbLine
 10
14.0
 20
4.155689999999999
 30
0.0
 11
14.0
 21
4.7579
 31
0.0
  0
LINE
  5
46
330
1E
100
AcDbEntity
  8
0
100
AcDbLine
 10
14.0
 20
4.155689999999999
 30
0.0
 11
14.0
 21
3.7
 31
0.0
  0
LINE
  5
47
330
1E
100
AcDbEntity
  8
0
100
AcDbLine
 10
14.0
 20
6.579889999999999
 30
0.0
 11
14.0
 21
5.561409999999999
 31
0.0
  0
LINE
  5
48
330
1E
100
AcDbEntity
  8
0
100
AcDbLine
 10
14.0
 20
6.579889999999999
 30
0.0
 11
14.0
 21
7.52188
 31
0.0
  0
LINE
  5
49
330
1E
100
AcDbEntity
  8
0
100
AcDbLine
 10
14.0
 20
5.561409999999999
 30
0.0
 11
14.0
 21
4.7579
 31
0.0
  0
LINE
  5
4A
330
1E
100
AcDbEntity
  8
0
100
AcDbLine
 10
14.0
 20
5.561409999999999
 30
0.0
 11
14.0
 21
6.579889999999999
 31
0.0
  0
LINE
  5
4B
330
1E
100
AcDbEntity
  8
0
100
AcDbLine
 10
14.0
 20
4.7579
 30
0.0
 11
14.0
 21
5.561409999999999
 31
0.0
  0
LINE
  5
4C
330
1E
100
AcDbEntity
  8
0
100
AcDbLine
 10
14.0
 20
4.7579
 30
0.0
 11
14.0
 21
4.155689999999999
 31
0.0
  0
LINE
  5
4D
330
1E
100
AcDbEntity
  8
0
100
AcDbLine
 10
14.0
 20
3.7
 30
0.0
 11
14.0
 21
3.299999999999999
 31
0.0
  0
LINE
  5
4E
330
1E
100
AcDbEntity
  8
0
100
AcDbLine
 10
14.0
 20
3.7
 30
0.0
 11
14.0
 21
4.155689999999999
 31
0.0
  0
LINE
  5
4F
330
1E
100
AcDbEntity
  8
0
100
AcDbLine
 10
14.0
 20
3.299999999999999
 30
0.0
 11
14.0
 21
3.1
 31
0.0
  0
LINE
  5
50
330
1E
100
AcDbEntity
  8
0
100
AcDbLine
 10
14.0
 20
3.299999999999999
 30
0.0
 11
14.0
 21
3.7
 31
0.0
  0
LINE
  5
51
330
1E
100
AcDbEntity
  8
0
100
AcDbLine
 10
14.0
 20
9.699999999999999
 30
0.0
 11
14.0
 21
10.8
 31
0.0
  0
LINE
  5
52
330
1E
100
AcDbEntity
  8
0
100
AcDbLine
 10
14.0
 20
9.699999999999999
 30
0.0
 11
14.0
 21
8.599999999999999
 31
0.0
  0
LINE
  5
53
330
1E
100
AcDbEntity
  8
0
100
AcDbLine
 10
14.0
 20
10.8
 30
0.0
 11
14.0
 21
12.0
 31
0.0
  0
LINE
  5
54
330
1E
100
AcDbEntity
  8
0
100
AcDbLine
 10
14.0
 20
10.8
 30
0.0
 11
14.0
 21
9.699999999999999
 31
0.0
  0
LINE
  5
55
330
1E
100
AcDbEntity
  8
0
100
AcDbLine
 10
14.0
 20
8.599999999999999
 30
0.0
 11
14.0
 21
7.52188
 31
0.0
  0
LINE
  5
56
330
1E
100
AcDbEntity
  8
0
100
AcDbLine
 10
14.0
 20
8.599999999999999
 30
0.0
 11
14.0
 21
9.699999999999999
 31
0.0
  0
LINE
  5
57
330
1E
100
AcDbEntity
  8
0
100
AcDbLine
 10
14.0
 20
7.52188
 30
0.0
 11
14.0
 21
8.599999999999999
 31
0.0
  0
LINE
  5
58
330
1E
100
AcDbEntity
  8
0
100
AcDbLine
 10
14.0
 20
3.1
 30
0.0
 11
14.0
 21
3.0
 31
0.0
  0
LINE
  5
59
330
1E
100
AcDbEntity
  8
0
100
AcDbLine
 10
14.0
 20
3.1
 30
0.0
 11
14.0
 21
3.299999999999999
 31
0.0
  0
LINE
  5
5A
330
1E
100
AcDbEntity
  8
0
100
AcDbLine
 10
14.0
 20
12.0
 30
0.0
 11
14.0
 21
71.92499999999999
 31
0.0
  0
LINE
  5
5B
330
1E
100
AcDbEntity
  8
0
100
AcDbLine
 10
14.0
 20
12.0
 30
0.0
 11
14.0
 21
71.92499999999999
 31
0.0
  0
LINE
  5
5C
330
1E
100
AcDbEntity
  8
0
100
AcDbLine
 10
14.0
 20
12.0
 30
0.0
 11
14.0
 21
10.8
 31
0.0
  0
LINE
  5
5D
330
1E
100
AcDbEntity
  8
0
100
AcDbLine
 10
13.99375
 20
3.049999999999999
 30
0.0
 11
14.0
 21
3.0
 31
0.0
  0
LINE
  5
5E
330
1E
100
AcDbEntity
  8
0
100
AcDbLine
 10
13.9
 20
2.2
 30
0.0
 11
14.0
 21
3.0
 31
0.0
  0
LINE
  5
5F
330
1E
100
AcDbEntity
  8
0
100
AcDbLine
 10
13.6
 20
1.5
 30
0.0
 11
13.9
 21
2.2
 31
0.0
  0
LINE
  5
60
330
1E
100
AcDbEntity
  8
0
100
AcDbLine
 10
13.1
 20
0.900000000000003
 30
0.0
 11
13.6
 21
1.5
 31
0.0
  0
LINE
  5
61
330
1E
100
AcDbEntity
  8
0
100
AcDbLine
 10
12.5
 20
0.400000000000003
 30
0.0
 11
13.1
 21
0.900000000000003
 31
0.0
  0
LINE
  5
62
330
1E
100
AcDbEntity
  8
0
100
AcDbLine
 10
9.499999999999991
 20
0.400000000000003
 30
0.0
 11
10.2
 21
0.100000000000003
 31
0.0
  0
LINE
  5
63
330
1E
100
AcDbEntity
  8
0
100
AcDbLine
 10
9.499999999999991
 20
0.400000000000003
 30
0.0
 11
10.2
 21
0.100000000000003
 31
0.0
  0
LINE
  5
64
330
1E
100
AcDbEntity
  8
0
100
AcDbLine
 10
10.2
 20
0.100000000000003
 30
0.0
 11
11.0
 21
0.0000000000000031
 31
0.0
  0
LINE
  5
65
330
1E
100
AcDbEntity
  8
0
100
AcDbLine
 10
10.2
 20
0.100000000000003
 30
0.0
 11
11.0
 21
0.0000000000000031
 31
0.0
  0
LINE
  5
66
330
1E
100
AcDbEntity
  8
0
100
AcDbLine
 10
7.99999999999999
 20
10.8
 30
0.0
 11
7.99999999999999
 21
12.0
 31
0.0
  0
LINE
  5
67
330
1E
100
AcDbEntity
  8
0
100
AcDbLine
 10
7.99999999999999
 20
10.8
 30
0.0
 11
7.99999999999999
 21
9.699999999999999
 31
0.0
  0
LINE
  5
68
330
1E
100
AcDbEntity
  8
0
100
AcDbLine
 10
14.0
 20
69.0
 30
0.0
 11
34.0
 21
69.0
 31
0.0
  0
LINE
  5
69
330
1E
100
AcDbEntity
  8
0
100
AcDbLine
 10
2.118
 20
69.0
 30
0.0
 11
8.0
 21
69.0
 31
0.0
  0
LINE
  5
6A
330
1E
100
AcDbEntity
  8
0
100
AcDbLine
 10
1.129999999999999
 20
70.2
 30
0.0
 11
1.129999999999999
 21
72.3
 31
0.0
  0
LINE
  5
6B
330
1E
100
AcDbEntity
  8
0
100
AcDbLine
 10
1.129999999999999
 20
70.2
 30
0.0
 11
1.129999999999999
 21
69.45
 31
0.0
  0
LINE
  5
6C
330
1E
100
AcDbEntity
  8
0
100
AcDbLine
 10
0.200949999999996
 20
77.94719999999999
 30
0.0
 11
0.212039999999996
 21
77.7355
 31
0.0
  0
LINE
  5
6D
330
1E
100
AcDbEntity
  8
0
100
AcDbLine
 10
0.185659999999997
 20
78.23879999999999
 30
0.0
 11
0.5432711099504911
 21
78.25752871939601
 31
0.0
  0
LINE
  5
6E
330
1E
100
AcDbEntity
  8
0
100
AcDbLine
 10
0.187549999999995
 20
78.20289999999999
 30
0.0
 11
0.192569999999995
 21
78.107
 31
0.0
  0
LINE
  5
6F
330
1E
100
AcDbEntity
  8
0
100
AcDbLine
 10
0.185659999999997
 20
78.23879999999999
 30
0.0
 11
0.5432711099504921
 21
78.25752871939601
 31
0.0
  0
LINE
  5
70
330
1E
100
AcDbEntity
  8
0
100
AcDbLine
 10
0.185659999999997
 20
78.23879999999999
 30
0.0
 11
0.374450108401924
 21
78.24868726822692
 31
0.0
  0
LINE
  5
71
330
1E
100
AcDbEntity
  8
0
100
AcDbLine
 10
0.192569999999995
 20
78.107
 30
0.0
 11
0.200949999999996
 21
77.94719999999999
 31
0.0
  0
LINE
  5
72
330
1E
100
AcDbEntity
  8
0
100
AcDbLine
 10
0.212039999999996
 20
77.7355
 30
0.0
 11
0.224599999999996
 21
77.4958
 31
0.0
  0
LINE
  5
73
330
1E
100
AcDbEntity
  8
0
100
AcDbLine
 10
0.224599999999996
 20
77.4958
 30
0.0
 11
0.237999999999997
 21
77.2402
 31
0.0
  0
LINE
  5
74
330
1E
100
AcDbEntity
  8
0
100
AcDbLine
 10
0.290339999999997
 20
76.2415
 30
0.0
 11
0.556202962928114
 21
76.2554503312112
 31
0.0
  0
LINE
  5
75
330
1E
100
AcDbEntity
  8
0
100
AcDbLine
 10
0.290339999999997
 20
76.2415
 30
0.0
 11
0.556202962928114
 21
76.2554503312112
 31
0.0
  0
LINE
  5
76
330
1E
100
AcDbEntity
  8
0
100
AcDbLine
 10
0.2834299999999961
 20
76.3734
 30
0.0
 11
0.288449999999996
 21
76.2775
 31
0.0
  0
LINE
  5
77
330
1E
100
AcDbEntity
  8
0
100
AcDbLine
 10
0.2750499999999961
 20
76.53310000000001
 30
0.0
 11
0.2834299999999961
 21
76.3734
 31
0.0
  0
LINE
  5
78
330
1E
100
AcDbEntity
  8
0
100
AcDbLine
 10
0.263959999999996
 20
76.7449
 30
0.0
 11
0.2750499999999961
 21
76.53310000000001
 31
0.0
  0
LINE
  5
79
330
1E
100
AcDbEntity
  8
0
100
AcDbLine
 10
0.251399999999997
 20
76.9845
 30
0.0
 11
0.263959999999996
 21
76.7449
 31
0.0
  0
LINE
  5
7A
330
1E
100
AcDbEntity
  8
0
100
AcDbLine
 10
0.237999999999997
 20
77.2402
 30
0.0
 11
0.251399999999997
 21
76.9845
 31
0.0
  0
LINE
  5
7B
330
1E
100
AcDbEntity
  8
0
100
AcDbLine
 10
-0.000000000000003
 20
90.0
 30
0.0
 11
0.352999999999998
 21
101.2499999999999
 31
0.0
  0
LINE
  5
7C
330
1E
100
AcDbEntity
  8
0
100
AcDbLine
 10
-0.000000000000003
 20
90.0
 30
0.0
 11
0.352999999999996
 21
78.75
 31
0.0
  0
LINE
  5
7D
330
1E
100
AcDbEntity
  8
0
100
AcDbLine
 10
0.352999999999998
 20
101.2499999999999
 30
0.0
 11
0.705999999999999
 21
109.4999999999999
 31
0.0
  0
LINE
  5
7E
330
1E
100
AcDbEntity
  8
0
100
AcDbLine
 10
-0.000000000000003
 20
90.0
 30
0.0
 11
0.352999999999996
 21
78.75
 31
0.0
  0
LINE
  5
7F
330
1E
100
AcDbEntity
  8
0
100
AcDbLine
 10
-0.000000000000003
 20
90.0
 30
0.0
 11
0.352999999999998
 21
101.2499999999999
 31
0.0
  0
LINE
  5
80
330
1E
100
AcDbEntity
  8
0
100
AcDbLine
 10
0.352999999999996
 20
78.75
 30
0.0
 11
0.374450108401924
 21
78.24868726822692
 31
0.0
  0
LINE
  5
81
330
1E
100
AcDbEntity
  8
0
100
AcDbLine
 10
0.705999999999999
 20
109.4999999999999
 30
0.0
 11
1.129999999999999
 21
110.5499999999999
 31
0.0
  0
LINE
  5
82
330
1E
100
AcDbEntity
  8
0
100
AcDbLine
 10
0.4599525864229611
 20
76.2503998923811
 30
0.0
 11
0.705999999999996
 21
70.5
 31
0.0
  0
LINE
  5
83
330
1E
100
AcDbEntity
  8
0
100
AcDbLine
 10
0.705999999999996
 20
70.5
 30
0.0
 11
1.129999999999999
 21
69.45
 31
0.0
  0
LINE
  5
84
330
1E
100
AcDbEntity
  8
0
100
AcDbLine
 10
1.129999999999999
 20
72.3
 30
0.0
 11
1.129999999999999
 21
75.75
 31
0.0
  0
LINE
  5
85
330
1E
100
AcDbEntity
  8
0
100
AcDbLine
 10
1.129999999999999
 20
75.75
 30
0.0
 11
1.129999999999999
 21
80.175
 31
0.0
  0
LINE
  5
86
330
1E
100
AcDbEntity
  8
0
100
AcDbLine
 10
1.129999999999999
 20
80.175
 30
0.0
 11
1.129999999999999
 21
85.27500000000001
 31
0.0
  0
LINE
  5
87
330
1E
100
AcDbEntity
  8
0
100
AcDbLine
 10
1.129999999999999
 20
109.8
 30
0.0
 11
1.129999999999999
 21
110.5499999999999
 31
0.0
  0
LINE
  5
88
330
1E
100
AcDbEntity
  8
0
100
AcDbLine
 10
1.129999999999999
 20
107.6999999999999
 30
0.0
 11
1.129999999999999
 21
109.8
 31
0.0
  0
LINE
  5
89
330
1E
100
AcDbEntity
  8
0
100
AcDbLine
 10
1.129999999999999
 20
104.2499999999999
 30
0.0
 11
1.129999999999999
 21
107.6999999999999
 31
0.0
  0
LINE
  5
8A
330
1E
100
AcDbEntity
  8
0
100
AcDbLine
 10
1.129999999999999
 20
99.82500000000001
 30
0.0
 11
1.129999999999999
 21
104.2499999999999
 31
0.0
  0
LINE
  5
8B
330
1E
100
AcDbEntity
  8
0
100
AcDbLine
 10
1.129999999999999
 20
94.725
 30
0.0
 11
1.129999999999999
 21
99.82500000000001
 31
0.0
  0
LINE
  5
8C
330
1E
100
AcDbEntity
  8
0
100
AcDbLine
 10
1.129999999999999
 20
90.0
 30
0.0
 11
1.129999999999999
 21
94.725
 31
0.0
  0
LINE
  5
8D
330
1E
100
AcDbEntity
  8
0
100
AcDbLine
 10
1.129999999999999
 20
85.27500000000001
 30
0.0
 11
1.129999999999999
 21
90.0
 31
0.0
  0
LINE
  5
8E
330
1E
100
AcDbEntity
  8
0
100
AcDbLine
 10
33.80599999999999
 20
71.92499999999999
 30
0.0
 11
33.95
 21
69.75
 31
0.0
  0
LINE
  5
8F
330
1E
100
AcDbEntity
  8
0
100
AcDbLine
 10
33.576
 20
75.37510000000001
 30
0.0
 11
33.80599999999999
 21
71.92499999999999
 31
0.0
  0
LINE
  5
90
330
1E
100
AcDbEntity
  8
0
100
AcDbLine
 10
33.27199999999999
 20
79.95
 30
0.0
 11
33.576
 21
75.37510000000001
 31
0.0
  0
LINE
  5
91
330
1E
100
AcDbEntity
  8
0
100
AcDbLine
 10
32.928
 20
85.1251
 30
0.0
 11
33.27199999999999
 21
79.95
 31
0.0
  0
LINE
  5
92
330
1E
100
AcDbEntity
  8
0
100
AcDbLine
 10
31.208
 20
111.0
 30
0.0
 11
31.257
 21
110.2549999999999
 31
0.0
  0
LINE
  5
93
330
1E
100
AcDbEntity
  8
0
100
AcDbLine
 10
31.3065236841437
 20
109.510778567247
 30
0.0
 11
31.704
 21
109.63
 31
0.0
  0
LINE
  5
94
330
1E
100
AcDbEntity
  8
0
100
AcDbLine
 10
31.257
 20
110.2549999999999
 30
0.0
 11
31.402
 21
108.076
 31
0.0
  0
LINE
  5
95
330
1E
100
AcDbEntity
  8
0
100
AcDbLine
 10
31.402
 20
108.076
 30
0.0
 11
31.631
 21
104.627
 31
0.0
  0
LINE
  5
96
330
1E
100
AcDbEntity
  8
0
100
AcDbLine
 10
31.704
 20
109.63
 30
0.0
 11
35.40699999999999
 21
110.0
 31
0.0
  0
LINE
  5
97
330
1E
100
AcDbEntity
  8
0
100
AcDbLine
 10
31.631
 20
104.627
 30
0.0
 11
31.93599999999999
 21
100.0499999999999
 31
0.0
  0
LINE
  5
98
330
1E
100
AcDbEntity
  8
0
100
AcDbLine
 10
31.93599999999999
 20
100.0499999999999
 30
0.0
 11
32.28
 21
94.875
 31
0.0
  0
LINE
  5
99
330
1E
100
AcDbEntity
  8
0
100
AcDbLine
 10
32.28
 20
94.875
 30
0.0
 11
32.604
 21
90.0
 31
0.0
  0
LINE
  5
9A
330
1E
100
AcDbEntity
  8
0
100
AcDbLine
 10
32.604
 20
90.0
 30
0.0
 11
32.928
 21
85.1251
 31
0.0
  0
LINE
  5
9B
330
1E
100
AcDbEntity
  8
0
100
AcDbLine
 10
1.129999999999999
 20
110.5499999999999
 30
0.0
 11
2.118
 21
111.0
 31
0.0
  0
LINE
  5
9C
330
1E
100
AcDbEntity
  8
0
100
AcDbLine
 10
1.129999999999999
 20
110.5499999999999
 30
0.0
 11
1.129999999999999
 21
109.8
 31
0.0
  0
LINE
  5
9D
330
1E
100
AcDbEntity
  8
0
100
AcDbLine
 10
2.0
 20
150.9
 30
0.0
 11
2.0
 21
152.3
 31
0.0
  0
LINE
  5
9E
330
1E
100
AcDbEntity
  8
0
100
AcDbLine
 10
2.0
 20
150.9
 30
0.0
 11
2.0
 21
150.5
 31
0.0
  0
LINE
  5
9F
330
1E
100
AcDbEntity
  8
0
100
AcDbLine
 10
2.0
 20
152.3
 30
0.0
 11
2.0
 21
154.4
 31
0.0
  0
LINE
  5
A0
330
1E
100
AcDbEntity
  8
0
100
AcDbLine
 10
2.0
 20
152.3
 30
0.0
 11
2.0
 21
150.9
 31
0.0
  0
LINE
  5
A1
330
1E
100
AcDbEntity
  8
0
100
AcDbLine
 10
2.0
 20
154.4
 30
0.0
 11
2.0
 21
157.1999999999999
 31
0.0
  0
LINE
  5
A2
330
1E
100
AcDbEntity
  8
0
100
AcDbLine
 10
2.0
 20
154.4
 30
0.0
 11
2.0
 21
152.3
 31
0.0
  0
LINE
  5
A3
330
1E
100
AcDbEntity
  8
0
100
AcDbLine
 10
3.5
 20
149.0
 30
0.0
 11
39.5
 21
149.0
 31
0.0
  0
LINE
  5
A4
330
1E
100
AcDbEntity
  8
0
100
AcDbLine
 10
3.5
 20
149.0
 30
0.0
 11
39.5
 21
149.0
 31
0.0
  0
LINE
  5
A5
330
1E
100
AcDbEntity
  8
0
100
AcDbLine
 10
2.0
 20
157.1999999999999
 30
0.0
 11
2.0
 21
160.4999999999999
 31
0.0
  0
LINE
  5
A6
330
1E
100
AcDbEntity
  8
0
100
AcDbLine
 10
2.5
 20
150.0
 30
0.0
 11
2.5
 21
151.4
 31
0.0
  0
LINE
  5
A7
330
1E
100
AcDbEntity
  8
0
100
AcDbLine
 10
2.5
 20
150.0
 30
0.0
 11
2.5
 21
149.5
 31
0.0
  0
LINE
  5
A8
330
1E
100
AcDbEntity
  8
0
100
AcDbLine
 10
2.5
 20
151.4
 30
0.0
 11
2.5
 21
153.6999999999999
 31
0.0
  0
LINE
  5
A9
330
1E
100
AcDbEntity
  8
0
100
AcDbLine
 10
2.5
 20
153.6999999999999
 30
0.0
 11
2.5
 21
156.6999999999999
 31
0.0
  0
LINE
  5
AA
330
1E
100
AcDbEntity
  8
0
100
AcDbLine
 10
2.5
 20
153.6999999999999
 30
0.0
 11
2.5
 21
151.4
 31
0.0
  0
LINE
  5
AB
330
1E
100
AcDbEntity
  8
0
100
AcDbLine
 10
2.5
 20
156.6999999999999
 30
0.0
 11
2.5
 21
160.1999999999999
 31
0.0
  0
LINE
  5
AC
330
1E
100
AcDbEntity
  8
0
100
AcDbLine
 10
2.5
 20
156.6999999999999
 30
0.0
 11
2.5
 21
153.6999999999999
 31
0.0
  0
LINE
  5
AD
330
1E
100
AcDbEntity
  8
0
100
AcDbLine
 10
2.0
 20
175.6999999999999
 30
0.0
 11
2.0
 21
177.0999999999999
 31
0.0
  0
LINE
  5
AE
330
1E
100
AcDbEntity
  8
0
100
AcDbLine
 10
2.0
 20
175.6999999999999
 30
0.0
 11
2.0
 21
173.5999999999999
 31
0.0
  0
LINE
  5
AF
330
1E
100
AcDbEntity
  8
0
100
AcDbLine
 10
2.0
 20
177.5
 30
0.0
 11
2.0
 21
177.0999999999999
 31
0.0
  0
LINE
  5
B0
330
1E
100
AcDbEntity
  8
0
100
AcDbLine
 10
2.0
 20
177.5
 30
0.0
 11
2.5
 21
178.5
 31
0.0
  0
LINE
  5
B1
330
1E
100
AcDbEntity
  8
0
100
AcDbLine
 10
2.0
 20
177.0999999999999
 30
0.0
 11
2.0
 21
177.5
 31
0.0
  0
LINE
  5
B2
330
1E
100
AcDbEntity
  8
0
100
AcDbLine
 10
2.0
 20
173.5999999999999
 30
0.0
 11
2.0
 21
175.6999999999999
 31
0.0
  0
LINE
  5
B3
330
1E
100
AcDbEntity
  8
0
100
AcDbLine
 10
2.0
 20
173.5999999999999
 30
0.0
 11
2.0
 21
170.8
 31
0.0
  0
LINE
  5
B4
330
1E
100
AcDbEntity
  8
0
100
AcDbLine
 10
2.0
 20
170.8
 30
0.0
 11
2.0
 21
173.5999999999999
 31
0.0
  0
LINE
  5
B5
330
1E
100
AcDbEntity
  8
0
100
AcDbLine
 10
2.0
 20
167.5
 30
0.0
 11
2.0
 21
170.8
 31
0.0
  0
LINE
  5
B6
330
1E
100
AcDbEntity
  8
0
100
AcDbLine
 10
2.0
 20
167.5
 30
0.0
 11
2.0
 21
164.0
 31
0.0
  0
LINE
  5
B7
330
1E
100
AcDbEntity
  8
0
100
AcDbLine
 10
2.0
 20
164.0
 30
0.0
 11
2.0
 21
167.5
 31
0.0
  0
LINE
  5
B8
330
1E
100
AcDbEntity
  8
0
100
AcDbLine
 10
2.5
 20
178.0
 30
0.0
 11
2.5
 21
178.5
 31
0.0
  0
LINE
  5
B9
330
1E
100
AcDbEntity
  8
0
100
AcDbLine
 10
2.5
 20
178.0
 30
0.0
 11
2.5
 21
176.6
 31
0.0
  0
LINE
  5
BA
330
1E
100
AcDbEntity
  8
0
100
AcDbLine
 10
2.5
 20
176.6
 30
0.0
 11
2.5
 21
178.0
 31
0.0
  0
LINE
  5
BB
330
1E
100
AcDbEntity
  8
0
100
AcDbLine
 10
2.5
 20
176.6
 30
0.0
 11
2.5
 21
174.3
 31
0.0
  0
LINE
  5
BC
330
1E
100
AcDbEntity
  8
0
100
AcDbLine
 10
2.5
 20
174.3
 30
0.0
 11
2.5
 21
176.6
 31
0.0
  0
LINE
  5
BD
330
1E
100
AcDbEntity
  8
0
100
AcDbLine
 10
2.5
 20
174.3
 30
0.0
 11
2.5
 21
171.3
 31
0.0
  0
LINE
  5
BE
330
1E
100
AcDbEntity
  8
0
100
AcDbLine
 10
3.5
 20
179.0
 30
0.0
 11
39.5
 21
179.0
 31
0.0
  0
LINE
  5
BF
330
1E
100
AcDbEntity
  8
0
100
AcDbLine
 10
3.5
 20
179.0
 30
0.0
 11
39.5
 21
179.0
 31
0.0
  0
LINE
  5
C0
330
1E
100
AcDbEntity
  8
0
100
AcDbLine
 10
2.5
 20
178.5
 30
0.0
 11
3.5
 21
179.0
 31
0.0
  0
LINE
  5
C1
330
1E
100
AcDbEntity
  8
0
100
AcDbLine
 10
2.5
 20
171.3
 30
0.0
 11
2.5
 21
174.3
 31
0.0
  0
LINE
  5
C2
330
1E
100
AcDbEntity
  8
0
100
AcDbLine
 10
2.5
 20
167.8
 30
0.0
 11
2.5
 21
171.3
 31
0.0
  0
LINE
  5
C3
330
1E
100
AcDbEntity
  8
0
100
AcDbLine
 10
2.5
 20
164.0
 30
0.0
 11
2.5
 21
160.1999999999999
 31
0.0
  0
LINE
  5
C4
330
1E
100
AcDbEntity
  8
0
100
AcDbLine
 10
2.5
 20
164.0
 30
0.0
 11
2.5
 21
167.8
 31
0.0
  0
LINE
  5
C5
330
1E
100
AcDbEntity
  8
0
100
AcDbLine
 10
2.5
 20
160.1999999999999
 30
0.0
 11
2.5
 21
164.0
 31
0.0
  0
LINE
  5
C6
330
1E
100
AcDbEntity
  8
0
100
AcDbLine
 10
2.0
 20
160.4999999999999
 30
0.0
 11
2.0
 21
164.0
 31
0.0
  0
LINE
  5
C7
330
1E
100
AcDbEntity
  8
0
100
AcDbLine
 10
2.0
 20
160.4999999999999
 30
0.0
 11
2.0
 21
157.1999999999999
 31
0.0
  0
LINE
  5
C8
330
1E
100
AcDbEntity
  8
0
100
AcDbLine
 10
2.5
 20
149.5
 30
0.0
 11
3.5
 21
149.0
 31
0.0
  0
LINE
  5
C9
330
1E
100
AcDbEntity
  8
0
100
AcDbLine
 10
2.5
 20
149.5
 30
0.0
 11
2.5
 21
150.0
 31
0.0
  0
LINE
  5
CA
330
1E
100
AcDbEntity
  8
0
100
AcDbLine
 10
2.0
 20
150.5
 30
0.0
 11
2.5
 21
149.5
 31
0.0
  0
LINE
  5
CB
330
1E
100
AcDbEntity
  8
0
100
AcDbLine
 10
2.0
 20
150.5
 30
0.0
 11
2.0
 21
150.9
 31
0.0
  0
LINE
  5
CC
330
1E
100
AcDbEntity
  8
0
100
AcDbLine
 10
2.118
 20
111.0
 30
0.0
 11
31.208
 21
111.0
 31
0.0
  0
LINE
  5
CD
330
1E
100
AcDbEntity
  8
0
100
AcDbLine
 10
1.129999999999999
 20
69.45
 30
0.0
 11
2.118
 21
69.0
 31
0.0
  0
LINE
  5
CE
330
1E
100
AcDbEntity
  8
0
100
AcDbLine
 10
1.129999999999999
 20
69.45
 30
0.0
 11
1.129999999999999
 21
70.2
 31
0.0
  0
LINE
  5
CF
330
1E
100
AcDbEntity
  8
0
100
AcDbLine
 10
14.0
 20
69.0
 30
0.0
 11
34.0
 21
69.0
 31
0.0
  0
LINE
  5
D0
330
1E
100
AcDbEntity
  8
0
100
AcDbLine
 10
51.0
 20
42.0
 30
0.0
 11
61.0
 21
42.0
 31
0.0
  0
LINE
  5
D1
330
1E
100
AcDbEntity
  8
0
100
AcDbLine
 10
61.0
 20
42.0
 30
0.0
 11
61.0
 21
42.9
 31
0.0
  0
LINE
  5
D2
330
1E
100
AcDbEntity
  8
0
100
AcDbLine
 10
48.5
 20
43.6
 30
0.0
 11
49.6
 21
42.5
 31
0.0
  0
LINE
  5
D3
330
1E
100
AcDbEntity
  8
0
100
AcDbLine
 10
48.0
 20
45.0
 30
0.0
 11
48.5
 21
43.6
 31
0.0
  0
LINE
  5
D4
330
1E
100
AcDbEntity
  8
0
100
AcDbLine
 10
48.0
 20
45.0
 30
0.0
 11
48.0
 21
45.8
 31
0.0
  0
LINE
  5
D5
330
1E
100
AcDbEntity
  8
0
100
AcDbLine
 10
49.6
 20
42.5
 30
0.0
 11
51.0
 21
42.0
 31
0.0
  0
LINE
  5
D6
330
1E
100
AcDbEntity
  8
0
100
AcDbLine
 10
61.0
 20
42.9
 30
0.0
 11
61.0
 21
42.0
 31
0.0
  0
LINE
  5
D7
330
1E
100
AcDbEntity
  8
0
100
AcDbLine
 10
61.0
 20
42.9
 30
0.0
 11
61.0
 21
45.1
 31
0.0
  0
LINE
  5
D8
330
1E
100
AcDbEntity
  8
0
100
AcDbLine
 10
48.0
 20
48.0
 30
0.0
 11
48.0
 21
51.4
 31
0.0
  0
LINE
  5
D9
330
1E
100
AcDbEntity
  8
0
100
AcDbLine
 10
48.0
 20
48.0
 30
0.0
 11
48.0
 21
45.8
 31
0.0
  0
LINE
  5
DA
330
1E
100
AcDbEntity
  8
0
100
AcDbLine
 10
48.0
 20
69.1
 30
0.0
 11
48.0
 21
77.2
 31
0.0
  0
LINE
  5
DB
330
1E
100
AcDbEntity
  8
0
100
AcDbLine
 10
48.0
 20
69.1
 30
0.0
 11
48.0
 21
62.0
 31
0.0
  0
LINE
  5
DC
330
1E
100
AcDbEntity
  8
0
100
AcDbLine
 10
48.0
 20
62.0
 30
0.0
 11
48.0
 21
69.1
 31
0.0
  0
LINE
  5
DD
330
1E
100
AcDbEntity
  8
0
100
AcDbLine
 10
48.0
 20
62.0
 30
0.0
 11
48.0
 21
56.0
 31
0.0
  0
LINE
  5
DE
330
1E
100
AcDbEntity
  8
0
100
AcDbLine
 10
48.0
 20
56.0
 30
0.0
 11
48.0
 21
62.0
 31
0.0
  0
LINE
  5
DF
330
1E
100
AcDbEntity
  8
0
100
AcDbLine
 10
48.0
 20
56.0
 30
0.0
 11
48.0
 21
51.4
 31
0.0
  0
LINE
  5
E0
330
1E
100
AcDbEntity
  8
0
100
AcDbLine
 10
61.0
 20
67.0
 30
0.0
 11
61.0
 21
59.7
 31
0.0
  0
LINE
  5
E1
330
1E
100
AcDbEntity
  8
0
100
AcDbLine
 10
61.0
 20
67.0
 30
0.0
 11
61.0
 21
75.3
 31
0.0
  0
LINE
  5
E2
330
1E
100
AcDbEntity
  8
0
100
AcDbLine
 10
61.0
 20
59.7
 30
0.0
 11
61.0
 21
53.39999999999999
 31
0.0
  0
LINE
  5
E3
330
1E
100
AcDbEntity
  8
0
100
AcDbLine
 10
61.0
 20
59.7
 30
0.0
 11
61.0
 21
67.0
 31
0.0
  0
LINE
  5
E4
330
1E
100
AcDbEntity
  8
0
100
AcDbLine
 10
48.0
 20
51.4
 30
0.0
 11
48.0
 21
56.0
 31
0.0
  0
LINE
  5
E5
330
1E
100
AcDbEntity
  8
0
100
AcDbLine
 10
48.0
 20
51.4
 30
0.0
 11
48.0
 21
48.0
 31
0.0
  0
LINE
  5
E6
330
1E
100
AcDbEntity
  8
0
100
AcDbLine
 10
48.0
 20
45.8
 30
0.0
 11
48.0
 21
48.0
 31
0.0
  0
LINE
  5
E7
330
1E
100
AcDbEntity
  8
0
100
AcDbLine
 10
48.0
 20
45.8
 30
0.0
 11
48.0
 21
45.0
 31
0.0
  0
LINE
  5
E8
330
1E
100
AcDbEntity
  8
0
100
AcDbLine
 10
61.0
 20
53.39999999999999
 30
0.0
 11
61.0
 21
48.6
 31
0.0
  0
LINE
  5
E9
330
1E
100
AcDbEntity
  8
0
100
AcDbLine
 10
61.0
 20
53.39999999999999
 30
0.0
 11
61.0
 21
59.7
 31
0.0
  0
LINE
  5
EA
330
1E
100
AcDbEntity
  8
0
100
AcDbLine
 10
61.0
 20
45.1
 30
0.0
 11
61.0
 21
42.9
 31
0.0
  0
LINE
  5
EB
330
1E
100
AcDbEntity
  8
0
100
AcDbLine
 10
61.0
 20
45.1
 30
0.0
 11
61.0
 21
48.6
 31
0.0
  0
LINE
  5
EC
330
1E
100
AcDbEntity
  8
0
100
AcDbLine
 10
61.0
 20
48.6
 30
0.0
 11
61.0
 21
45.1
 31
0.0
  0
LINE
  5
ED
330
1E
100
AcDbEntity
  8
0
100
AcDbLine
 10
61.0
 20
48.6
 30
0.0
 11
61.0
 21
53.39999999999999
 31
0.0
  0
LINE
  5
EE
330
1E
100
AcDbEntity
  8
0
100
AcDbLine
 10
48.0
 20
70.0
 30
0.0
 11
48.0
 21
70.7407
 31
0.0
  0
LINE
  5
EF
330
1E
100
AcDbEntity
  8
0
100
AcDbLine
 10
48.0
 20
70.7407
 30
0.0
 11
48.0
 21
72.66670000000001
 31
0.0
  0
LINE
  5
F0
330
1E
100
AcDbEntity
  8
0
100
AcDbLine
 10
48.0
 20
72.66670000000001
 30
0.0
 11
48.0
 21
75.8519
 31
0.0
  0
LINE
  5
F1
330
1E
100
AcDbEntity
  8
0
100
AcDbLine
 10
48.0
 20
75.8519
 30
0.0
 11
48.0
 21
80.0741
 31
0.0
  0
LINE
  5
F2
330
1E
100
AcDbEntity
  8
0
100
AcDbLine
 10
35.40699999999999
 20
70.0
 30
0.0
 11
48.0
 21
70.0
 31
0.0
  0
LINE
  5
F3
330
1E
100
AcDbEntity
  8
0
100
AcDbLine
 10
48.0
 20
80.0741
 30
0.0
 11
48.0
 21
84.81480000000001
 31
0.0
  0
LINE
  5
F4
330
1E
100
AcDbEntity
  8
0
100
AcDbLine
 10
48.0
 20
84.81480000000001
 30
0.0
 11
48.0
 21
90.0
 31
0.0
  0
LINE
  5
F5
330
1E
100
AcDbEntity
  8
0
100
AcDbLine
 10
48.0
 20
109.2589999999999
 30
0.0
 11
48.0
 21
110.0
 31
0.0
  0
LINE
  5
F6
330
1E
100
AcDbEntity
  8
0
100
AcDbLine
 10
48.0
 20
107.333
 30
0.0
 11
48.0
 21
109.2589999999999
 31
0.0
  0
LINE
  5
F7
330
1E
100
AcDbEntity
  8
0
100
AcDbLine
 10
48.0
 20
104.1479999999999
 30
0.0
 11
48.0
 21
107.333
 31
0.0
  0
LINE
  5
F8
330
1E
100
AcDbEntity
  8
0
100
AcDbLine
 10
48.0
 20
99.92589999999999
 30
0.0
 11
48.0
 21
104.1479999999999
 31
0.0
  0
LINE
  5
F9
330
1E
100
AcDbEntity
  8
0
100
AcDbLine
 10
48.0
 20
95.1852
 30
0.0
 11
48.0
 21
99.92589999999999
 31
0.0
  0
LINE
  5
FA
330
1E
100
AcDbEntity
  8
0
100
AcDbLine
 10
48.0
 20
90.0
 30
0.0
 11
48.0
 21
95.1852
 31
0.0
  0
LINE
  5
FB
330
1E
100
AcDbEntity
  8
0
100
AcDbLine
 10
35.40699999999999
 20
110.0
 30
0.0
 11
48.0
 21
110.0
 31
0.0
  0
LINE
  5
FC
330
1E
100
AcDbEntity
  8
0
100
AcDbLine
 10
48.0
 20
77.2
 30
0.0
 11
48.0
 21
69.1
 31
0.0
  0
LINE
  5
FD
330
1E
100
AcDbEntity
  8
0
100
AcDbLine
 10
48.0
 20
105.8
 30
0.0
 11
48.0
 21
116.3
 31
0.0
  0
LINE
  5
FE
330
1E
100
AcDbEntity
  8
0
100
AcDbLine
 10
48.0
 20
116.3
 30
0.0
 11
48.0
 21
127.0
 31
0.0
  0
LINE
  5
FF
330
1E
100
AcDbEntity
  8
0
100
AcDbLine
 10
48.0
 20
116.3
 30
0.0
 11
48.0
 21
105.8
 31
0.0
  0
LINE
  5
100
330
1E
100
AcDbEntity
  8
0
100
AcDbLine
 10
48.0
 20
127.0
 30
0.0
 11
48.0
 21
137.7
 31
0.0
  0
LINE
  5
101
330
1E
100
AcDbEntity
  8
0
100
AcDbLine
 10
48.0
 20
127.0
 30
0.0
 11
48.0
 21
116.3
 31
0.0
  0
LINE
  5
102
330
1E
100
AcDbEntity
  8
0
100
AcDbLine
 10
39.5
 20
149.0
 30
0.0
 11
40.0
 21
149.5
 31
0.0
  0
LINE
  5
103
330
1E
100
AcDbEntity
  8
0
100
AcDbLine
 10
39.5
 20
149.0
 30
0.0
 11
39.5
 21
149.5
 31
0.0
  0
LINE
  5
104
330
1E
100
AcDbEntity
  8
0
100
AcDbLine
 10
48.0
 20
149.0
 30
0.0
 11
48.0
 21
149.5
 31
0.0
  0
LINE
  5
105
330
1E
100
AcDbEntity
  8
0
100
AcDbLine
 10
40.0
 20
149.5
 30
0.0
 11
40.0
 21
150.0
 31
0.0
  0
LINE
  5
106
330
1E
100
AcDbEntity
  8
0
100
AcDbLine
 10
40.0
 20
150.0
 30
0.0
 11
40.0
 21
151.4
 31
0.0
  0
LINE
  5
107
330
1E
100
AcDbEntity
  8
0
100
AcDbLine
 10
40.0
 20
150.0
 30
0.0
 11
40.0
 21
149.5
 31
0.0
  0
LINE
  5
108
330
1E
100
AcDbEntity
  8
0
100
AcDbLine
 10
39.5
 20
149.5
 30
0.0
 11
39.5
 21
151.0
 31
0.0
  0
LINE
  5
109
330
1E
100
AcDbEntity
  8
0
100
AcDbLine
 10
39.5
 20
149.5
 30
0.0
 11
39.5
 21
149.0
 31
0.0
  0
LINE
  5
10A
330
1E
100
AcDbEntity
  8
0
100
AcDbLine
 10
41.0
 20
150.0
 30
0.0
 11
41.0
 21
150.5
 31
0.0
  0
LINE
  5
10B
330
1E
100
AcDbEntity
  8
0
100
AcDbLine
 10
41.0
 20
150.0
 30
0.0
 11
42.0
 21
149.0
 31
0.0
  0
LINE
  5
10C
330
1E
100
AcDbEntity
  8
0
100
AcDbLine
 10
40.0
 20
151.4
 30
0.0
 11
40.0
 21
153.6999999999999
 31
0.0
  0
LINE
  5
10D
330
1E
100
AcDbEntity
  8
0
100
AcDbLine
 10
40.0
 20
151.4
 30
0.0
 11
40.0
 21
150.0
 31
0.0
  0
LINE
  5
10E
330
1E
100
AcDbEntity
  8
0
100
AcDbLine
 10
39.5
 20
151.0
 30
0.0
 11
39.5
 21
153.3999999999999
 31
0.0
  0
LINE
  5
10F
330
1E
100
AcDbEntity
  8
0
100
AcDbLine
 10
39.5
 20
151.0
 30
0.0
 11
39.5
 21
149.5
 31
0.0
  0
LINE
  5
110
330
1E
100
AcDbEntity
  8
0
100
AcDbLine
 10
40.0
 20
152.0
 30
0.0
 11
41.0
 21
152.0
 31
0.0
  0
LINE
  5
111
330
1E
100
AcDbEntity
  8
0
100
AcDbLine
 10
40.0
 20
153.6999999999999
 30
0.0
 11
40.0
 21
156.6999999999999
 31
0.0
  0
LINE
  5
112
330
1E
100
AcDbEntity
  8
0
100
AcDbLine
 10
40.0
 20
153.6999999999999
 30
0.0
 11
40.0
 21
151.4
 31
0.0
  0
LINE
  5
113
330
1E
100
AcDbEntity
  8
0
100
AcDbLine
 10
39.5
 20
153.3999999999999
 30
0.0
 11
39.5
 21
156.4999999999999
 31
0.0
  0
LINE
  5
114
330
1E
100
AcDbEntity
  8
0
100
AcDbLine
 10
39.5
 20
153.3999999999999
 30
0.0
 11
39.5
 21
151.0
 31
0.0
  0
LINE
  5
115
330
1E
100
AcDbEntity
  8
0
100
AcDbLine
 10
41.0
 20
152.4
 30
0.0
 11
41.0
 21
152.0
 31
0.0
  0
LINE
  5
116
330
1E
100
AcDbEntity
  8
0
100
AcDbLine
 10
41.0
 20
152.4
 30
0.0
 11
41.0
 21
153.6
 31
0.0
  0
LINE
  5
117
330
1E
100
AcDbEntity
  8
0
100
AcDbLine
 10
41.0
 20
153.6
 30
0.0
 11
41.0
 21
152.4
 31
0.0
  0
LINE
  5
118
330
1E
100
AcDbEntity
  8
0
100
AcDbLine
 10
41.0
 20
153.6
 30
0.0
 11
41.0
 21
155.4999999999999
 31
0.0
  0
LINE
  5
119
330
1E
100
AcDbEntity
  8
0
100
AcDbLine
 10
40.0
 20
156.6999999999999
 30
0.0
 11
40.0
 21
160.1999999999999
 31
0.0
  0
LINE
  5
11A
330
1E
100
AcDbEntity
  8
0
100
AcDbLine
 10
40.0
 20
156.6999999999999
 30
0.0
 11
40.0
 21
153.6999999999999
 31
0.0
  0
LINE
  5
11B
330
1E
100
AcDbEntity
  8
0
100
AcDbLine
 10
39.5
 20
156.4999999999999
 30
0.0
 11
39.5
 21
160.0999999999999
 31
0.0
  0
LINE
  5
11C
330
1E
100
AcDbEntity
  8
0
100
AcDbLine
 10
39.5
 20
156.4999999999999
 30
0.0
 11
39.5
 21
153.3999999999999
 31
0.0
  0
LINE
  5
11D
330
1E
100
AcDbEntity
  8
0
100
AcDbLine
 10
41.0
 20
155.4999999999999
 30
0.0
 11
41.0
 21
153.6
 31
0.0
  0
LINE
  5
11E
330
1E
100
AcDbEntity
  8
0
100
AcDbLine
 10
41.0
 20
155.4999999999999
 30
0.0
 11
41.0
 21
158.0
 31
0.0
  0
LINE
  5
11F
330
1E
100
AcDbEntity
  8
0
100
AcDbLine
 10
41.0
 20
154.0999999999999
 30
0.0
 11
41.0
 21
151.9
 31
0.0
  0
LINE
  5
120
330
1E
100
AcDbEntity
  8
0
100
AcDbLine
 10
41.0
 20
154.0999999999999
 30
0.0
 11
41.0
 21
157.0
 31
0.0
  0
LINE
  5
121
330
1E
100
AcDbEntity
  8
0
100
AcDbLine
 10
39.5
 20
164.0
 30
0.0
 11
39.5
 21
160.0999999999999
 31
0.0
  0
LINE
  5
122
330
1E
100
AcDbEntity
  8
0
100
AcDbLine
 10
39.5
 20
164.0
 30
0.0
 11
39.5
 21
167.9
 31
0.0
  0
LINE
  5
123
330
1E
100
AcDbEntity
  8
0
100
AcDbLine
 10
40.0
 20
164.0
 30
0.0
 11
40.0
 21
160.1999999999999
 31
0.0
  0
LINE
  5
124
330
1E
100
AcDbEntity
  8
0
100
AcDbLine
 10
40.0
 20
164.0
 30
0.0
 11
40.0
 21
167.8
 31
0.0
  0
LINE
  5
125
330
1E
100
AcDbEntity
  8
0
100
AcDbLine
 10
40.0
 20
160.1999999999999
 30
0.0
 11
40.0
 21
164.0
 31
0.0
  0
LINE
  5
126
330
1E
100
AcDbEntity
  8
0
100
AcDbLine
 10
40.0
 20
160.1999999999999
 30
0.0
 11
40.0
 21
156.6999999999999
 31
0.0
  0
LINE
  5
127
330
1E
100
AcDbEntity
  8
0
100
AcDbLine
 10
39.5
 20
160.0999999999999
 30
0.0
 11
39.5
 21
164.0
 31
0.0
  0
LINE
  5
128
330
1E
100
AcDbEntity
  8
0
100
AcDbLine
 10
39.5
 20
160.0999999999999
 30
0.0
 11
39.5
 21
156.4999999999999
 31
0.0
  0
LINE
  5
129
330
1E
100
AcDbEntity
  8
0
100
AcDbLine
 10
41.0
 20
158.0
 30
0.0
 11
41.0
 21
155.4999999999999
 31
0.0
  0
LINE
  5
12A
330
1E
100
AcDbEntity
  8
0
100
AcDbLine
 10
41.0
 20
158.0
 30
0.0
 11
41.0
 21
160.8999999999999
 31
0.0
  0
LINE
  5
12B
330
1E
100
AcDbEntity
  8
0
100
AcDbLine
 10
41.0
 20
160.8999999999999
 30
0.0
 11
41.0
 21
158.0
 31
0.0
  0
LINE
  5
12C
330
1E
100
AcDbEntity
  8
0
100
AcDbLine
 10
41.0
 20
160.8999999999999
 30
0.0
 11
41.0
 21
164.0
 31
0.0
  0
LINE
  5
12D
330
1E
100
AcDbEntity
  8
0
100
AcDbLine
 10
41.0
 20
157.0
 30
0.0
 11
41.0
 21
154.0999999999999
 31
0.0
  0
LINE
  5
12E
330
1E
100
AcDbEntity
  8
0
100
AcDbLine
 10
41.0
 20
157.0
 30
0.0
 11
41.0
 21
160.4
 31
0.0
  0
LINE
  5
12F
330
1E
100
AcDbEntity
  8
0
100
AcDbLine
 10
41.0
 20
160.4
 30
0.0
 11
41.0
 21
157.0
 31
0.0
  0
LINE
  5
130
330
1E
100
AcDbEntity
  8
0
100
AcDbLine
 10
41.0
 20
160.4
 30
0.0
 11
41.0
 21
164.0
 31
0.0
  0
LINE
  5
131
330
1E
100
AcDbEntity
  8
0
100
AcDbLine
 10
40.0
 20
167.8
 30
0.0
 11
40.0
 21
171.3
 31
0.0
  0
LINE
  5
132
330
1E
100
AcDbEntity
  8
0
100
AcDbLine
 10
40.0
 20
167.8
 30
0.0
 11
40.0
 21
164.0
 31
0.0
  0
LINE
  5
133
330
1E
100
AcDbEntity
  8
0
100
AcDbLine
 10
39.5
 20
167.9
 30
0.0
 11
39.5
 21
171.5
 31
0.0
  0
LINE
  5
134
330
1E
100
AcDbEntity
  8
0
100
AcDbLine
 10
39.5
 20
167.9
 30
0.0
 11
39.5
 21
164.0
 31
0.0
  0
LINE
  5
135
330
1E
100
AcDbEntity
  8
0
100
AcDbLine
 10
41.0
 20
170.0
 30
0.0
 11
41.0
 21
167.1
 31
0.0
  0
LINE
  5
136
330
1E
100
AcDbEntity
  8
0
100
AcDbLine
 10
41.0
 20
170.0
 30
0.0
 11
41.0
 21
172.5
 31
0.0
  0
LINE
  5
137
330
1E
100
AcDbEntity
  8
0
100
AcDbLine
 10
41.0
 20
167.1
 30
0.0
 11
41.0
 21
164.0
 31
0.0
  0
LINE
  5
138
330
1E
100
AcDbEntity
  8
0
100
AcDbLine
 10
41.0
 20
167.1
 30
0.0
 11
41.0
 21
170.0
 31
0.0
  0
LINE
  5
139
330
1E
100
AcDbEntity
  8
0
100
AcDbLine
 10
40.0
 20
174.3
 30
0.0
 11
40.0
 21
176.6
 31
0.0
  0
LINE
  5
13A
330
1E
100
AcDbEntity
  8
0
100
AcDbLine
 10
40.0
 20
174.3
 30
0.0
 11
40.0
 21
171.3
 31
0.0
  0
LINE
  5
13B
330
1E
100
AcDbEntity
  8
0
100
AcDbLine
 10
40.0
 20
171.3
 30
0.0
 11
40.0
 21
174.3
 31
0.0
  0
LINE
  5
13C
330
1E
100
AcDbEntity
  8
0
100
AcDbLine
 10
40.0
 20
171.3
 30
0.0
 11
40.0
 21
167.8
 31
0.0
  0
LINE
  5
13D
330
1E
100
AcDbEntity
  8
0
100
AcDbLine
 10
39.5
 20
171.5
 30
0.0
 11
39.5
 21
174.5999999999999
 31
0.0
  0
LINE
  5
13E
330
1E
100
AcDbEntity
  8
0
100
AcDbLine
 10
39.5
 20
171.5
 30
0.0
 11
39.5
 21
167.9
 31
0.0
  0
LINE
  5
13F
330
1E
100
AcDbEntity
  8
0
100
AcDbLine
 10
39.5
 20
174.5999999999999
 30
0.0
 11
39.5
 21
177.0
 31
0.0
  0
LINE
  5
140
330
1E
100
AcDbEntity
  8
0
100
AcDbLine
 10
39.5
 20
174.5999999999999
 30
0.0
 11
39.5
 21
171.5
 31
0.0
  0
LINE
  5
141
330
1E
100
AcDbEntity
  8
0
100
AcDbLine
 10
40.0
 20
176.0
 30
0.0
 11
41.0
 21
176.0
 31
0.0
  0
LINE
  5
142
330
1E
100
AcDbEntity
  8
0
100
AcDbLine
 10
41.0
 20
176.0
 30
0.0
 11
41.0
 21
175.6
 31
0.0
  0
LINE
  5
143
330
1E
100
AcDbEntity
  8
0
100
AcDbLine
 10
41.0
 20
176.0
 30
0.0
 11
41.0
 21
176.0999999999999
 31
0.0
  0
LINE
  5
144
330
1E
100
AcDbEntity
  8
0
100
AcDbLine
 10
41.0
 20
175.6
 30
0.0
 11
41.0
 21
174.3999999999999
 31
0.0
  0
LINE
  5
145
330
1E
100
AcDbEntity
  8
0
100
AcDbLine
 10
41.0
 20
175.6
 30
0.0
 11
41.0
 21
176.0
 31
0.0
  0
LINE
  5
146
330
1E
100
AcDbEntity
  8
0
100
AcDbLine
 10
41.0
 20
174.3999999999999
 30
0.0
 11
41.0
 21
172.5
 31
0.0
  0
LINE
  5
147
330
1E
100
AcDbEntity
  8
0
100
AcDbLine
 10
41.0
 20
174.3999999999999
 30
0.0
 11
41.0
 21
175.6
 31
0.0
  0
LINE
  5
148
330
1E
100
AcDbEntity
  8
0
100
AcDbLine
 10
41.0
 20
172.5
 30
0.0
 11
41.0
 21
170.0
 31
0.0
  0
LINE
  5
149
330
1E
100
AcDbEntity
  8
0
100
AcDbLine
 10
41.0
 20
172.5
 30
0.0
 11
41.0
 21
174.3999999999999
 31
0.0
  0
LINE
  5
14A
330
1E
100
AcDbEntity
  8
0
100
AcDbLine
 10
40.0
 20
178.0
 30
0.0
 11
40.0
 21
178.5
 31
0.0
  0
LINE
  5
14B
330
1E
100
AcDbEntity
  8
0
100
AcDbLine
 10
40.0
 20
178.0
 30
0.0
 11
40.0
 21
176.6
 31
0.0
  0
LINE
  5
14C
330
1E
100
AcDbEntity
  8
0
100
AcDbLine
 10
40.0
 20
176.6
 30
0.0
 11
40.0
 21
178.0
 31
0.0
  0
LINE
  5
14D
330
1E
100
AcDbEntity
  8
0
100
AcDbLine
 10
40.0
 20
176.6
 30
0.0
 11
40.0
 21
174.3
 31
0.0
  0
LINE
  5
14E
330
1E
100
AcDbEntity
  8
0
100
AcDbLine
 10
39.5
 20
177.0
 30
0.0
 11
39.5
 21
178.5
 31
0.0
  0
LINE
  5
14F
330
1E
100
AcDbEntity
  8
0
100
AcDbLine
 10
39.5
 20
177.0
 30
0.0
 11
39.5
 21
174.5999999999999
 31
0.0
  0
LINE
  5
150
330
1E
100
AcDbEntity
  8
0
100
AcDbLine
 10
39.5
 20
179.0
 30
0.0
 11
39.5
 21
178.5
 31
0.0
  0
LINE
  5
151
330
1E
100
AcDbEntity
  8
0
100
AcDbLine
 10
39.5
 20
179.0
 30
0.0
 11
40.0
 21
178.5
 31
0.0
  0
LINE
  5
152
330
1E
100
AcDbEntity
  8
0
100
AcDbLine
 10
40.0
 20
178.5
 30
0.0
 11
40.0
 21
178.0
 31
0.0
  0
LINE
  5
153
330
1E
100
AcDbEntity
  8
0
100
AcDbLine
 10
39.5
 20
178.5
 30
0.0
 11
39.5
 21
179.0
 31
0.0
  0
LINE
  5
154
330
1E
100
AcDbEntity
  8
0
100
AcDbLine
 10
39.5
 20
178.5
 30
0.0
 11
39.5
 21
177.0
 31
0.0
  0
LINE
  5
155
330
1E
100
AcDbEntity
  8
0
100
AcDbLine
 10
41.0
 20
178.0
 30
0.0
 11
41.0
 21
177.5
 31
0.0
  0
LINE
  5
156
330
1E
100
AcDbEntity
  8
0
100
AcDbLine
 10
41.0
 20
178.0
 30
0.0
 11
42.0
 21
179.0
 31
0.0
  0
LINE
  5
157
330
1E
100
AcDbEntity
  8
0
100
AcDbLine
 10
41.0
 20
177.5
 30
0.0
 11
41.0
 21
176.0999999999999
 31
0.0
  0
LINE
  5
158
330
1E
100
AcDbEntity
  8
0
100
AcDbLine
 10
41.0
 20
177.5
 30
0.0
 11
41.0
 21
178.0
 31
0.0
  0
LINE
  5
159
330
1E
100
AcDbEntity
  8
0
100
AcDbLine
 10
41.0
 20
176.0999999999999
 30
0.0
 11
41.0
 21
173.9
 31
0.0
  0
LINE
  5
15A
330
1E
100
AcDbEntity
  8
0
100
AcDbLine
 10
41.0
 20
176.0999999999999
 30
0.0
 11
41.0
 21
177.5
 31
0.0
  0
LINE
  5
15B
330
1E
100
AcDbEntity
  8
0
100
AcDbLine
 10
41.0
 20
176.0999999999999
 30
0.0
 11
41.0
 21
176.0
 31
0.0
  0
LINE
  5
15C
330
1E
100
AcDbEntity
  8
0
100
AcDbLine
 10
41.0
 20
173.9
 30
0.0
 11
41.0
 21
171.0
 31
0.0
  0
LINE
  5
15D
330
1E
100
AcDbEntity
  8
0
100
AcDbLine
 10
41.0
 20
173.9
 30
0.0
 11
41.0
 21
176.0999999999999
 31
0.0
  0
LINE
  5
15E
330
1E
100
AcDbEntity
  8
0
100
AcDbLine
 10
41.0
 20
171.0
 30
0.0
 11
41.0
 21
167.5999999999999
 31
0.0
  0
LINE
  5
15F
330
1E
100
AcDbEntity
  8
0
100
AcDbLine
 10
41.0
 20
171.0
 30
0.0
 11
41.0
 21
173.9
 31
0.0
  0
LINE
  5
160
330
1E
100
AcDbEntity
  8
0
100
AcDbLine
 10
41.0
 20
167.5999999999999
 30
0.0
 11
41.0
 21
164.0
 31
0.0
  0
LINE
  5
161
330
1E
100
AcDbEntity
  8
0
100
AcDbLine
 10
41.0
 20
167.5999999999999
 30
0.0
 11
41.0
 21
171.0
 31
0.0
  0
LINE
  5
162
330
1E
100
AcDbEntity
  8
0
100
AcDbLine
 10
41.0
 20
164.0
 30
0.0
 11
41.0
 21
160.4
 31
0.0
  0
LINE
  5
163
330
1E
100
AcDbEntity
  8
0
100
AcDbLine
 10
41.0
 20
164.0
 30
0.0
 11
41.0
 21
160.8999999999999
 31
0.0
  0
LINE
  5
164
330
1E
100
AcDbEntity
  8
0
100
AcDbLine
 10
41.0
 20
164.0
 30
0.0
 11
41.0
 21
167.5999999999999
 31
0.0
  0
LINE
  5
165
330
1E
100
AcDbEntity
  8
0
100
AcDbLine
 10
41.0
 20
164.0
 30
0.0
 11
41.0
 21
167.1
 31
0.0
  0
LINE
  5
166
330
1E
100
AcDbEntity
  8
0
100
AcDbLine
 10
41.0
 20
152.0
 30
0.0
 11
41.0
 21
151.9
 31
0.0
  0
LINE
  5
167
330
1E
100
AcDbEntity
  8
0
100
AcDbLine
 10
41.0
 20
152.0
 30
0.0
 11
41.0
 21
152.4
 31
0.0
  0
LINE
  5
168
330
1E
100
AcDbEntity
  8
0
100
AcDbLine
 10
41.0
 20
150.5
 30
0.0
 11
41.0
 21
151.9
 31
0.0
  0
LINE
  5
169
330
1E
100
AcDbEntity
  8
0
100
AcDbLine
 10
41.0
 20
150.5
 30
0.0
 11
41.0
 21
150.0
 31
0.0
  0
LINE
  5
16A
330
1E
100
AcDbEntity
  8
0
100
AcDbLine
 10
42.0
 20
149.5
 30
0.0
 11
42.0
 21
149.0
 31
0.0
  0
LINE
  5
16B
330
1E
100
AcDbEntity
  8
0
100
AcDbLine
 10
42.0
 20
149.5
 30
0.0
 11
42.0
 21
151.0
 31
0.0
  0
LINE
  5
16C
330
1E
100
AcDbEntity
  8
0
100
AcDbLine
 10
48.0
 20
149.5
 30
0.0
 11
48.0
 21
151.0
 31
0.0
  0
LINE
  5
16D
330
1E
100
AcDbEntity
  8
0
100
AcDbLine
 10
42.0
 20
151.0
 30
0.0
 11
42.0
 21
149.5
 31
0.0
  0
LINE
  5
16E
330
1E
100
AcDbEntity
  8
0
100
AcDbLine
 10
42.0
 20
151.0
 30
0.0
 11
42.0
 21
153.3999999999999
 31
0.0
  0
LINE
  5
16F
330
1E
100
AcDbEntity
  8
0
100
AcDbLine
 10
48.0
 20
151.0
 30
0.0
 11
48.0
 21
153.3999999999999
 31
0.0
  0
LINE
  5
170
330
1E
100
AcDbEntity
  8
0
100
AcDbLine
 10
42.0
 20
153.3999999999999
 30
0.0
 11
42.0
 21
151.0
 31
0.0
  0
LINE
  5
171
330
1E
100
AcDbEntity
  8
0
100
AcDbLine
 10
42.0
 20
153.3999999999999
 30
0.0
 11
42.0
 21
156.4999999999999
 31
0.0
  0
LINE
  5
172
330
1E
100
AcDbEntity
  8
0
100
AcDbLine
 10
48.0
 20
153.3999999999999
 30
0.0
 11
48.0
 21
156.4999999999999
 31
0.0
  0
LINE
  5
173
330
1E
100
AcDbEntity
  8
0
100
AcDbLine
 10
42.0
 20
156.4999999999999
 30
0.0
 11
42.0
 21
153.3999999999999
 31
0.0
  0
LINE
  5
174
330
1E
100
AcDbEntity
  8
0
100
AcDbLine
 10
42.0
 20
156.4999999999999
 30
0.0
 11
42.0
 21
160.0999999999999
 31
0.0
  0
LINE
  5
175
330
1E
100
AcDbEntity
  8
0
100
AcDbLine
 10
48.0
 20
156.4999999999999
 30
0.0
 11
48.0
 21
160.0999999999999
 31
0.0
  0
LINE
  5
176
330
1E
100
AcDbEntity
  8
0
100
AcDbLine
 10
48.0
 20
164.0
 30
0.0
 11
48.0
 21
167.9
 31
0.0
  0
LINE
  5
177
330
1E
100
AcDbEntity
  8
0
100
AcDbLine
 10
42.0
 20
160.0999999999999
 30
0.0
 11
42.0
 21
156.4999999999999
 31
0.0
  0
LINE
  5
178
330
1E
100
AcDbEntity
  8
0
100
AcDbLine
 10
42.0
 20
160.0999999999999
 30
0.0
 11
42.0
 21
164.0
 31
0.0
  0
LINE
  5
179
330
1E
100
AcDbEntity
  8
0
100
AcDbLine
 10
48.0
 20
160.0999999999999
 30
0.0
 11
48.0
 21
164.0
 31
0.0
  0
LINE
  5
17A
330
1E
100
AcDbEntity
  8
0
100
AcDbLine
 10
42.0
 20
179.0
 30
0.0
 11
42.0
 21
178.5
 31
0.0
  0
LINE
  5
17B
330
1E
100
AcDbEntity
  8
0
100
AcDbLine
 10
42.0
 20
179.0
 30
0.0
 11
48.0
 21
179.0
 31
0.0
  0
LINE
  5
17C
330
1E
100
AcDbEntity
  8
0
100
AcDbLine
 10
42.0
 20
178.5
 30
0.0
 11
42.0
 21
177.0
 31
0.0
  0
LINE
  5
17D
330
1E
100
AcDbEntity
  8
0
100
AcDbLine
 10
42.0
 20
178.5
 30
0.0
 11
42.0
 21
179.0
 31
0.0
  0
LINE
  5
17E
330
1E
100
AcDbEntity
  8
0
100
AcDbLine
 10
42.0
 20
177.0
 30
0.0
 11
42.0
 21
174.5999999999999
 31
0.0
  0
LINE
  5
17F
330
1E
100
AcDbEntity
  8
0
100
AcDbLine
 10
42.0
 20
177.0
 30
0.0
 11
42.0
 21
178.5
 31
0.0
  0
LINE
  5
180
330
1E
100
AcDbEntity
  8
0
100
AcDbLine
 10
42.0
 20
174.5999999999999
 30
0.0
 11
42.0
 21
171.5
 31
0.0
  0
LINE
  5
181
330
1E
100
AcDbEntity
  8
0
100
AcDbLine
 10
42.0
 20
174.5999999999999
 30
0.0
 11
42.0
 21
177.0
 31
0.0
  0
LINE
  5
182
330
1E
100
AcDbEntity
  8
0
100
AcDbLine
 10
42.0
 20
171.5
 30
0.0
 11
42.0
 21
167.9
 31
0.0
  0
LINE
  5
183
330
1E
100
AcDbEntity
  8
0
100
AcDbLine
 10
42.0
 20
171.5
 30
0.0
 11
42.0
 21
174.5999999999999
 31
0.0
  0
LINE
  5
184
330
1E
100
AcDbEntity
  8
0
100
AcDbLine
 10
48.0
 20
178.5
 30
0.0
 11
48.0
 21
179.0
 31
0.0
  0
LINE
  5
185
330
1E
100
AcDbEntity
  8
0
100
AcDbLine
 10
48.0
 20
177.0
 30
0.0
 11
48.0
 21
178.5
 31
0.0
  0
LINE
  5
186
330
1E
100
AcDbEntity
  8
0
100
AcDbLine
 10
48.0
 20
174.5999999999999
 30
0.0
 11
48.0
 21
177.0
 31
0.0
  0
LINE
  5
187
330
1E
100
AcDbEntity
  8
0
100
AcDbLine
 10
48.0
 20
171.5
 30
0.0
 11
48.0
 21
174.5999999999999
 31
0.0
  0
LINE
  5
188
330
1E
100
AcDbEntity
  8
0
100
AcDbLine
 10
48.0
 20
167.9
 30
0.0
 11
48.0
 21
171.5
 31
0.0
  0
LINE
  5
189
330
1E
100
AcDbEntity
  8
0
100
AcDbLine
 10
42.0
 20
167.9
 30
0.0
 11
42.0
 21
164.0
 31
0.0
  0
LINE
  5
18A
330
1E
100
AcDbEntity
  8
0
100
AcDbLine
 10
42.0
 20
167.9
 30
0.0
 11
42.0
 21
171.5
 31
0.0
  0
LINE
  5
18B
330
1E
100
AcDbEntity
  8
0
100
AcDbLine
 10
42.0
 20
164.0
 30
0.0
 11
42.0
 21
160.0999999999999
 31
0.0
  0
LINE
  5
18C
330
1E
100
AcDbEntity
  8
0
100
AcDbLine
 10
42.0
 20
164.0
 30
0.0
 11
42.0
 21
167.9
 31
0.0
  0
LINE
  5
18D
330
1E
100
AcDbEntity
  8
0
100
AcDbLine
 10
41.0
 20
151.9
 30
0.0
 11
41.0
 21
152.0
 31
0.0
  0
LINE
  5
18E
330
1E
100
AcDbEntity
  8
0
100
AcDbLine
 10
41.0
 20
151.9
 30
0.0
 11
41.0
 21
150.5
 31
0.0
  0
LINE
  5
18F
330
1E
100
AcDbEntity
  8
0
100
AcDbLine
 10
41.0
 20
151.9
 30
0.0
 11
41.0
 21
154.0999999999999
 31
0.0
  0
LINE
  5
190
330
1E
100
AcDbEntity
  8
0
100
AcDbLine
 10
42.0
 20
149.0
 30
0.0
 11
48.0
 21
149.0
 31
0.0
  0
LINE
  5
191
330
1E
100
AcDbEntity
  8
0
100
AcDbLine
 10
42.0
 20
149.0
 30
0.0
 11
42.0
 21
149.5
 31
0.0
  0
LINE
  5
192
330
1E
100
AcDbEntity
  8
0
100
AcDbLine
 10
48.0
 20
158.3
 30
0.0
 11
48.0
 21
148.2
 31
0.0
  0
LINE
  5
193
330
1E
100
AcDbEntity
  8
0
100
AcDbLine
 10
48.0
 20
137.7
 30
0.0
 11
48.0
 21
148.2
 31
0.0
  0
LINE
  5
194
330
1E
100
AcDbEntity
  8
0
100
AcDbLine
 10
48.0
 20
137.7
 30
0.0
 11
48.0
 21
127.0
 31
0.0
  0
LINE
  5
195
330
1E
100
AcDbEntity
  8
0
100
AcDbLine
 10
48.0
 20
148.2
 30
0.0
 11
48.0
 21
158.3
 31
0.0
  0
LINE
  5
196
330
1E
100
AcDbEntity
  8
0
100
AcDbLine
 10
48.0
 20
208.1999999999999
 30
0.0
 11
48.0
 21
209.0
 31
0.0
  0
LINE
  5
197
330
1E
100
AcDbEntity
  8
0
100
AcDbLine
 10
48.0
 20
208.1999999999999
 30
0.0
 11
48.0
 21
206.0
 31
0.0
  0
LINE
  5
198
330
1E
100
AcDbEntity
  8
0
100
AcDbLine
 10
48.0
 20
206.0
 30
0.0
 11
48.0
 21
208.1999999999999
 31
0.0
  0
LINE
  5
199
330
1E
100
AcDbEntity
  8
0
100
AcDbLine
 10
48.0
 20
206.0
 30
0.0
 11
48.0
 21
202.5999999999999
 31
0.0
  0
LINE
  5
19A
330
1E
100
AcDbEntity
  8
0
100
AcDbLine
 10
48.0
 20
202.5999999999999
 30
0.0
 11
48.0
 21
206.0
 31
0.0
  0
LINE
  5
19B
330
1E
100
AcDbEntity
  8
0
100
AcDbLine
 10
48.0
 20
202.5999999999999
 30
0.0
 11
48.0
 21
198.0
 31
0.0
  0
LINE
  5
19C
330
1E
100
AcDbEntity
  8
0
100
AcDbLine
 10
48.0
 20
198.0
 30
0.0
 11
48.0
 21
192.0
 31
0.0
  0
LINE
  5
19D
330
1E
100
AcDbEntity
  8
0
100
AcDbLine
 10
48.0
 20
198.0
 30
0.0
 11
48.0
 21
202.5999999999999
 31
0.0
  0
LINE
  5
19E
330
1E
100
AcDbEntity
  8
0
100
AcDbLine
 10
48.0
 20
192.0
 30
0.0
 11
48.0
 21
184.9
 31
0.0
  0
LINE
  5
19F
330
1E
100
AcDbEntity
  8
0
100
AcDbLine
 10
48.0
 20
192.0
 30
0.0
 11
48.0
 21
198.0
 31
0.0
  0
LINE
  5
1A0
330
1E
100
AcDbEntity
  8
0
100
AcDbLine
 10
48.0
 20
179.0
 30
0.0
 11
48.0
 21
184.9
 31
0.0
  0
LINE
  5
1A1
330
1E
100
AcDbEntity
  8
0
100
AcDbLine
 10
48.0
 20
184.9
 30
0.0
 11
48.0
 21
192.0
 31
0.0
  0
LINE
  5
1A2
330
1E
100
AcDbEntity
  8
0
100
AcDbLine
 10
48.0
 20
184.9
 30
0.0
 11
48.0
 21
179.0
 31
0.0
  0
LINE
  5
1A3
330
1E
100
AcDbEntity
  8
0
100
AcDbLine
 10
48.0
 20
209.0
 30
0.0
 11
48.5
 21
210.4
 31
0.0
  0
LINE
  5
1A4
330
1E
100
AcDbEntity
  8
0
100
AcDbLine
 10
48.0
 20
209.0
 30
0.0
 11
48.0
 21
208.1999999999999
 31
0.0
  0
LINE
  5
1A5
330
1E
100
AcDbEntity
  8
0
100
AcDbLine
 10
48.5
 20
210.4
 30
0.0
 11
49.6
 21
211.5
 31
0.0
  0
LINE
  5
1A6
330
1E
100
AcDbEntity
  8
0
100
AcDbLine
 10
49.6
 20
211.5
 30
0.0
 11
51.0
 21
212.0
 31
0.0
  0
LINE
  5
1A7
330
1E
100
AcDbEntity
  8
0
100
AcDbLine
 10
61.0
 20
115.9
 30
0.0
 11
61.0
 21
105.0999999999999
 31
0.0
  0
LINE
  5
1A8
330
1E
100
AcDbEntity
  8
0
100
AcDbLine
 10
61.0
 20
115.9
 30
0.0
 11
61.0
 21
127.0
 31
0.0
  0
LINE
  5
1A9
330
1E
100
AcDbEntity
  8
0
100
AcDbLine
 10
61.0
 20
105.0999999999999
 30
0.0
 11
61.0
 21
94.50000000000001
 31
0.0
  0
LINE
  5
1AA
330
1E
100
AcDbEntity
  8
0
100
AcDbLine
 10
61.0
 20
105.0999999999999
 30
0.0
 11
61.0
 21
115.9
 31
0.0
  0
LINE
  5
1AB
330
1E
100
AcDbEntity
  8
0
100
AcDbLine
 10
61.0
 20
94.50000000000001
 30
0.0
 11
61.0
 21
84.7
 31
0.0
  0
LINE
  5
1AC
330
1E
100
AcDbEntity
  8
0
100
AcDbLine
 10
61.0
 20
94.50000000000001
 30
0.0
 11
61.0
 21
105.0999999999999
 31
0.0
  0
LINE
  5
1AD
330
1E
100
AcDbEntity
  8
0
100
AcDbLine
 10
61.0
 20
84.7
 30
0.0
 11
61.0
 21
75.3
 31
0.0
  0
LINE
  5
1AE
330
1E
100
AcDbEntity
  8
0
100
AcDbLine
 10
61.0
 20
84.7
 30
0.0
 11
61.0
 21
94.50000000000001
 31
0.0
  0
LINE
  5
1AF
330
1E
100
AcDbEntity
  8
0
100
AcDbLine
 10
61.0
 20
75.3
 30
0.0
 11
61.0
 21
84.7
 31
0.0
  0
LINE
  5
1B0
330
1E
100
AcDbEntity
  8
0
100
AcDbLine
 10
61.0
 20
75.3
 30
0.0
 11
61.0
 21
67.0
 31
0.0
  0
LINE
  5
1B1
330
1E
100
AcDbEntity
  8
0
100
AcDbLine
 10
61.0
 20
127.0
 30
0.0
 11
61.0
 21
138.1
 31
0.0
  0
LINE
  5
1B2
330
1E
100
AcDbEntity
  8
0
100
AcDbLine
 10
61.0
 20
127.0
 30
0.0
 11
61.0
 21
115.9
 31
0.0
  0
LINE
  5
1B3
330
1E
100
AcDbEntity
  8
0
100
AcDbLine
 10
61.0
 20
187.0
 30
0.0
 11
61.0
 21
178.6999999999999
 31
0.0
  0
LINE
  5
1B4
330
1E
100
AcDbEntity
  8
0
100
AcDbLine
 10
61.0
 20
187.0
 30
0.0
 11
61.0
 21
194.2999999999999
 31
0.0
  0
LINE
  5
1B5
330
1E
100
AcDbEntity
  8
0
100
AcDbLine
 10
61.0
 20
178.6999999999999
 30
0.0
 11
61.0
 21
169.3
 31
0.0
  0
LINE
  5
1B6
330
1E
100
AcDbEntity
  8
0
100
AcDbLine
 10
61.0
 20
178.6999999999999
 30
0.0
 11
61.0
 21
187.0
 31
0.0
  0
LINE
  5
1B7
330
1E
100
AcDbEntity
  8
0
100
AcDbLine
 10
61.0
 20
169.3
 30
0.0
 11
61.0
 21
159.4999999999999
 31
0.0
  0
LINE
  5
1B8
330
1E
100
AcDbEntity
  8
0
100
AcDbLine
 10
61.0
 20
169.3
 30
0.0
 11
61.0
 21
178.6999999999999
 31
0.0
  0
LINE
  5
1B9
330
1E
100
AcDbEntity
  8
0
100
AcDbLine
 10
61.0
 20
159.4999999999999
 30
0.0
 11
61.0
 21
148.9
 31
0.0
  0
LINE
  5
1BA
330
1E
100
AcDbEntity
  8
0
100
AcDbLine
 10
61.0
 20
159.4999999999999
 30
0.0
 11
61.0
 21
169.3
 31
0.0
  0
LINE
  5
1BB
330
1E
100
AcDbEntity
  8
0
100
AcDbLine
 10
61.0
 20
148.9
 30
0.0
 11
61.0
 21
138.1
 31
0.0
  0
LINE
  5
1BC
330
1E
100
AcDbEntity
  8
0
100
AcDbLine
 10
61.0
 20
148.9
 30
0.0
 11
61.0
 21
159.4999999999999
 31
0.0
  0
LINE
  5
1BD
330
1E
100
AcDbEntity
  8
0
100
AcDbLine
 10
61.0
 20
138.1
 30
0.0
 11
61.0
 21
127.0
 31
0.0
  0
LINE
  5
1BE
330
1E
100
AcDbEntity
  8
0
100
AcDbLine
 10
61.0
 20
138.1
 30
0.0
 11
61.0
 21
148.9
 31
0.0
  0
LINE
  5
1BF
330
1E
100
AcDbEntity
  8
0
100
AcDbLine
 10
61.0
 20
200.5999999999999
 30
0.0
 11
61.0
 21
205.4
 31
0.0
  0
LINE
  5
1C0
330
1E
100
AcDbEntity
  8
0
100
AcDbLine
 10
61.0
 20
208.8999999999999
 30
0.0
 11
61.0
 21
205.4
 31
0.0
  0
LINE
  5
1C1
330
1E
100
AcDbEntity
  8
0
100
AcDbLine
 10
61.0
 20
208.8999999999999
 30
0.0
 11
61.0
 21
211.0999999999999
 31
0.0
  0
LINE
  5
1C2
330
1E
100
AcDbEntity
  8
0
100
AcDbLine
 10
61.0
 20
211.0999999999999
 30
0.0
 11
61.0
 21
208.8999999999999
 31
0.0
  0
LINE
  5
1C3
330
1E
100
AcDbEntity
  8
0
100
AcDbLine
 10
61.0
 20
211.0999999999999
 30
0.0
 11
61.0
 21
212.0
 31
0.0
  0
LINE
  5
1C4
330
1E
100
AcDbEntity
  8
0
100
AcDbLine
 10
61.0
 20
212.0
 30
0.0
 11
61.0
 21
211.0999999999999
 31
0.0
  0
LINE
  5
1C5
330
1E
100
AcDbEntity
  8
0
100
AcDbLine
 10
61.0
 20
205.4
 30
0.0
 11
61.0
 21
200.5999999999999
 31
0.0
  0
LINE
  5
1C6
330
1E
100
AcDbEntity
  8
0
100
AcDbLine
 10
61.0
 20
205.4
 30
0.0
 11
61.0
 21
208.8999999999999
 31
0.0
  0
LINE
  5
1C7
330
1E
100
AcDbEntity
  8
0
100
AcDbLine
 10
61.0
 20
194.2999999999999
 30
0.0
 11
61.0
 21
187.0
 31
0.0
  0
LINE
  5
1C8
330
1E
100
AcDbEntity
  8
0
100
AcDbLine
 10
61.0
 20
194.2999999999999
 30
0.0
 11
61.0
 21
200.5999999999999
 31
0.0
  0
LINE
  5
1C9
330
1E
100
AcDbEntity
  8
0
100
AcDbLine
 10
51.0
 20
212.0
 30
0.0
 11
61.0
 21
212.0
 31
0.0
  0
LINE
  5
1CA
330
1E
100
AcDbEntity
  8
0
100
AcDbLine
 10
33.95
 20
69.75
 30
0.0
 11
34.0
 21
69.0
 31
0.0
  0
LINE
  5
1CB
330
1E
100
AcDbEntity
  8
0
100
AcDbLine
 10
33.9236246559014
 20
70.1483775931553
 30
0.0
 11
33.95
 21
69.75
 31
0.0
  0
LINE
  5
1CC
330
1E
100
AcDbEntity
  8
0
100
AcDbLine
 10
33.9236246559014
 20
70.1483775931553
 30
0.0
 11
35.40699999999999
 21
70.0
 31
0.0
  0
ENDSEC
  0
SECTION
  2
OBJECTS
  0
DICTIONARY
  5
C
330
0
100
AcDbDictionary
  3
ACAD_GROUP
350
D
  3
ACAD_LAYOUT
350
19
  3
ACAD_MLINESTYLE
350
16
  3
ACAD_PLOTSETTINGS
350
18
  3
ACAD_PLOTSTYLENAME
350
E
  3
ACDBHEADERROUNDTRIPXREC
350
1F9
  3
ACDBVARIABLEDICTIONARY
350
1D1
  0
DICTIONARY
  5
21B
330
1E
100
AcDbDictionary
280
     1
  3
ACAD_LAYOUTSELFREF
360
21C
  0
DICTIONARY
  5
219
330
1A
100
AcDbDictionary
280
     1
  3
ACAD_LAYOUTSELFREF
360
21A
  0
DICTIONARY
  5
D
102
{ACAD_REACTORS
330
C
102
}
330
C
100
AcDbDictionary
  0
DICTIONARY
  5
19
102
{ACAD_REACTORS
330
C
102
}
330
C
100
AcDbDictionary
  0
DICTIONARY
  5
16
102
{ACAD_REACTORS
330
C
102
}
330
C
100
AcDbDictionary
  3
STANDARD
350
17
  0
DICTIONARY
  5
18
102
{ACAD_REACTORS
330
C
102
}
330
C
100
AcDbDictionary
  0
ACDBDICTIONARYWDFLT
  5
E
102
{ACAD_REACTORS
330
C
102
}
330
C
100
AcDbDictionary
281
     1
  3
Normal
350
F
100
AcDbDictionaryWithDefault
340
F
  0
DICTIONARY
  5
1F9
102
{ACAD_REACTORS
330
C
102
}
330
C
100
AcDbDictionary
  3
CEPSNTYPE
350
203
  3
FINGERPRINTGUID
350
204
  3
HYPERLINKBASE
350
1FC
  3
INSUNITS
350
202
  3
LAYOUTDICT
350
1FE
  3
LWETCUNION
350
201
  3
PLOTSETDICT
350
1FF
  3
PLOTSTYLNAMDICT
350
200
  3
PSVPSCALE
350
206
  3
PUCSBASE
350
209
  3
PUCSORGBACK
350
20F
  3
PUCSORGBOTTOM
350
20B
  3
PUCSORGFRONT
350
20E
  3
PUCSORGLEFT
350
20C
  3
PUCSORGRIGHT
350
20D
  3
PUCSORGTOP
350
20A
  3
PUCSORTHOREF
350
207
  3
PUCSORTHOVIEW
350
208
  3
STYLESHEET
350
1FD
  3
TSTACKALIGN
350
1FA
  3
TSTACKSIZE
350
1FB
  3
UCSBASE
350
212
  3
UCSORGBACK
350
218
  3
UCSORGBOTTOM
350
214
  3
UCSORGFRONT
350
217
  3
UCSORGLEFT
350
215
  3
UCSORGRIGHT
350
216
  3
UCSORGTOP
350
213
  3
UCSORTHOREF
350
210
  3
UCSORTHOVIEW
350
211
  3
VERSIONGUID
350
205
  0
DICTIONARY
  5
1D1
102
{ACAD_REACTORS
330
C
102
}
330
C
100
AcDbDictionary
  3
DIMASSOC
350
1D2
  0
XRECORD
  5
21C
102
{ACAD_REACTORS
330
21B
102
}
330
21B
100
AcDbXrecord
340
1E
  0
XRECORD
  5
21A
102
{ACAD_REACTORS
330
219
102
}
330
219
100
AcDbXrecord
340
1A
  0
MLINESTYLE
  5
17
102
{ACAD_REACTORS
330
16
102
}
330
16
100
AcDbMlineStyle
  2
STANDARD
 70
     0
  3

 62
   256
 51
90.0
 52
90.0
 71
     2
 49
0.5
 62
   256
  6
BYLAYER
 49
-0.5
 62
   256
  6
BYLAYER
  0
ACDBPLACEHOLDER
  5
F
102
{ACAD_REACTORS
330
E
102
}
330
E
100
AcDbPlaceHolder
280
     0
  0
XRECORD
  5
203
102
{ACAD_REACTORS
330
1F9
102
}
330
1F9
100
AcDbXrecord
 90
        0
  0
XRECORD
  5
204
102
{ACAD_REACTORS
330
1F9
102
}
330
1F9
100
AcDbXrecord
  1
{CF7099C8-CDB9-4BB3-90B2-BF271E36D24F}
  0
XRECORD
  5
1FC
102
{ACAD_REACTORS
330
1F9
102
}
330
1F9
100
AcDbXrecord
  1

  0
XRECORD
  5
202
102
{ACAD_REACTORS
330
1F9
102
}
330
1F9
100
AcDbXrecord
 90
        0
  0
XRECORD
  5
1FE
102
{ACAD_REACTORS
330
1F9
102
}
330
1F9
100
AcDbXrecord
340
19
  0
XRECORD
  5
201
102
{ACAD_REACTORS
330
1F9
102
}
330
1F9
100
AcDbXrecord
 90
    10781
  0
XRECORD
  5
1FF
102
{ACAD_REACTORS
330
1F9
102
}
330
1F9
100
AcDbXrecord
340
18
  0
XRECORD
  5
200
102
{ACAD_REACTORS
330
1F9
102
}
330
1F9
100
AcDbXrecord
340
E
  0
XRECORD
  5
206
102
{ACAD_REACTORS
330
1F9
102
}
330
1F9
100
AcDbXrecord
 40
0.0
  0
XRECORD
  5
209
102
{ACAD_REACTORS
330
1F9
102
}
330
1F9
100
AcDbXrecord
340
0
  0
XRECORD
  5
20F
102
{ACAD_REACTORS
330
1F9
102
}
330
1F9
100
AcDbXrecord
 10
0.0
 20
0.0
 30
0.0
  0
XRECORD
  5
20B
102
{ACAD_REACTORS
330
1F9
102
}
330
1F9
100
AcDbXrecord
 10
0.0
 20
0.0
 30
0.0
  0
XRECORD
  5
20E
102
{ACAD_REACTORS
330
1F9
102
}
330
1F9
100
AcDbXrecord
 10
0.0
 20
0.0
 30
0.0
  0
XRECORD
  5
20C
102
{ACAD_REACTORS
330
1F9
102
}
330
1F9
100
AcDbXrecord
 10
0.0
 20
0.0
 30
0.0
  0
XRECORD
  5
20D
102
{ACAD_REACTORS
330
1F9
102
}
330
1F9
100
AcDbXrecord
 10
0.0
 20
0.0
 30
0.0
  0
XRECORD
  5
20A
102
{ACAD_REACTORS
330
1F9
102
}
330
1F9
100
AcDbXrecord
 10
0.0
 20
0.0
 30
0.0
  0
XRECORD
  5
207
102
{ACAD_REACTORS
330
1F9
102
}
330
1F9
100
AcDbXrecord
340
0
  0
XRECORD
  5
208
102
{ACAD_REACTORS
330
1F9
102
}
330
1F9
100
AcDbXrecord
 70
     0
  0
XRECORD
  5
1FD
102
{ACAD_REACTORS
330
1F9
102
}
330
1F9
100
AcDbXrecord
  1

  0
XRECORD
  5
1FA
102
{ACAD_REACTORS
330
1F9
102
}
330
1F9
100
AcDbXrecord
 90
        1
  0
XRECORD
  5
1FB
102
{ACAD_REACTORS
330
1F9
102
}
330
1F9
100
AcDbXrecord
 90
       70
  0
XRECORD
  5
212
102
{ACAD_REACTORS
330
1F9
102
}
330
1F9
100
AcDbXrecord
340
0
  0
XRECORD
  5
218
102
{ACAD_REACTORS
330
1F9
102
}
330
1F9
100
AcDbXrecord
 10
0.0
 20
0.0
 30
0.0
  0
XRECORD
  5
214
102
{ACAD_REACTORS
330
1F9
102
}
330
1F9
100
AcDbXrecord
 10
0.0
 20
0.0
 30
0.0
  0
XRECORD
  5
217
102
{ACAD_REACTORS
330
1F9
102
}
330
1F9
100
AcDbXrecord
 10
0.0
 20
0.0
 30
0.0
  0
XRECORD
  5
215
102
{ACAD_REACTORS
330
1F9
102
}
330
1F9
100
AcDbXrecord
 10
0.0
 20
0.0
 30
0.0
  0
XRECORD
  5
216
102
{ACAD_REACTORS
330
1F9
102
}
330
1F9
100
AcDbXrecord
 10
0.0
 20
0.0
 30
0.0
  0
XRECORD
  5
213
102
{ACAD_REACTORS
330
1F9
102
}
330
1F9
100
AcDbXrecord
 10
0.0
 20
0.0
 30
0.0
  0
XRECORD
  5
210
102
{ACAD_REACTORS
330
1F9
102
}
330
1F9
100
AcDbXrecord
340
0
  0
XRECORD
  5
211
102
{ACAD_REACTORS
330
1F9
102
}
330
1F9
100
AcDbXrecord
 70
     1
  0
XRECORD
  5
205
102
{ACAD_REACTORS
330
1F9
102
}
330
1F9
100
AcDbXrecord
  1
{E88002A1-FE80-4DFD-B57E-9D95EDA53213}
  0
DICTIONARYVAR
  5
1D2
102
{ACAD_REACTORS
330
1D1
102
}
330
1D1
100
DictionaryVariables
280
     0
  1
1
  0
ENDSEC
  0
EOF
