  0
SECTION
  2
HEADER
  9
$ACADVER
  1
AC1014
  9
$ACADMAINTVER
 70
     9
  9
$DWGCODEPAGE
  3
ANSI_1252
  9
$INSBASE
 10
0.0
 20
0.0
 30
0.0
  9
$EXTMIN
 10
0.0000000000000012
 20
0.0000000000000031
 30
0.0
  9
$EXTMAX
 10
170.0
 20
212.0
 30
0.0
  9
$LIMMIN
 10
0.0
 20
0.0
  9
$LIMMAX
 10
12.0
 20
9.0
  9
$ORTHOMODE
 70
     0
  9
$REGENMODE
 70
     1
  9
$FILLMODE
 70
     1
  9
$QTEXTMODE
 70
     0
  9
$MIRRTEXT
 70
     1
  9
$DRAGMODE
 70
     2
  9
$LTSCALE
 40
1.0
  9
$OSMODE
 70
    37
  9
$ATTMODE
 70
     1
  9
$TEXTSIZE
 40
0.2
  9
$TRACEWID
 40
0.05
  9
$TEXTSTYLE
  7
STANDARD
  9
$CLAYER
  8
0
  9
$CELTYPE
  6
CONTINUOUS
  9
$CECOLOR
 62
   256
  9
$CELTSCALE
 40
1.0
  9
$DELOBJ
 70
     1
  9
$DISPSILH
 70
     0
  9
$DIMSCALE
 40
1.0
  9
$DIMASZ
 40
0.18
  9
$DIMEXO
 40
0.0625
  9
$DIMDLI
 40
0.38
  9
$DIMRND
 40
0.0
  9
$DIMDLE
 40
0.0
  9
$DIMEXE
 40
0.18
  9
$DIMTP
 40
0.0
  9
$DIMTM
 40
0.0
  9
$DIMTXT
 40
0.18
  9
$DIMCEN
 40
0.09
  9
$DIMTSZ
 40
0.0
  9
$DIMTOL
 70
     0
  9
$DIMLIM
 70
     0
  9
$DIMTIH
 70
     1
  9
$DIMTOH
 70
     1
  9
$DIMSE1
 70
     0
  9
$DIMSE2
 70
     0
  9
$DIMTAD
 70
     0
  9
$DIMZIN
 70
     0
  9
$DIMBLK
  1

  9
$DIMASO
 70
     1
  9
$DIMSHO
 70
     1
  9
$DIMPOST
  1

  9
$DIMAPOST
  1

  9
$DIMALT
 70
     0
  9
$DIMALTD
 70
     2
  9
$DIMALTF
 40
25.4
  9
$DIMLFAC
 40
1.0
  9
$DIMTOFL
 70
     0
  9
$DIMTVP
 40
0.0
  9
$DIMTIX
 70
     0
  9
$DIMSOXD
 70
     0
  9
$DIMSAH
 70
     0
  9
$DIMBLK1
  1

  9
$DIMBLK2
  1

  9
$DIMSTYLE
  2
STANDARD
  9
$DIMCLRD
 70
     0
  9
$DIMCLRE
 70
     0
  9
$DIMCLRT
 70
     0
  9
$DIMTFAC
 40
1.0
  9
$DIMGAP
 40
0.09
  9
$DIMJUST
 70
     0
  9
$DIMSD1
 70
     0
  9
$DIMSD2
 70
     0
  9
$DIMTOLJ
 70
     1
  9
$DIMTZIN
 70
     0
  9
$DIMALTZ
 70
     0
  9
$DIMALTTZ
 70
     0
  9
$DIMFIT
 70
     3
  9
$DIMUPT
 70
     0
  9
$DIMUNIT
 70
     2
  9
$DIMDEC
 70
     4
  9
$DIMTDEC
 70
     4
  9
$DIMALTU
 70
     2
  9
$DIMALTTD
 70
     2
  9
$DIMTXSTY
  7
STANDARD
  9
$DIMAUNIT
 70
     0
  9
$LUNITS
 70
     2
  9
$LUPREC
 70
     4
  9
$SKETCHINC
 40
0.1
  9
$FILLETRAD
 40
0.0
  9
$AUNITS
 70
     0
  9
$AUPREC
 70
     0
  9
$MENU
  1
.
  9
$ELEVATION
 40
0.0
  9
$PELEVATION
 40
0.0
  9
$THICKNESS
 40
0.0
  9
$LIMCHECK
 70
     0
  9
$BLIPMODE
 70
     0
  9
$CHAMFERA
 40
0.0
  9
$CHAMFERB
 40
0.0
  9
$CHAMFERC
 40
0.0
  9
$CHAMFERD
 40
0.0
  9
$SKPOLY
 70
     0
  9
$TDCREATE
 40
2454691.836745509
  9
$TDUPDATE
 40
2454691.838431713
  9
$TDINDWG
 40
0.0016863773
  9
$TDUSRTIMER
 40
0.0016863773
  9
$USRTIMER
 70
     1
  9
$ANGBASE
 50
0.0
  9
$ANGDIR
 70
     0
  9
$PDMODE
 70
     0
  9
$PDSIZE
 40
0.0
  9
$PLINEWID
 40
0.0
  9
$COORDS
 70
     1
  9
$SPLFRAME
 70
     0
  9
$SPLINETYPE
 70
     6
  9
$SPLINESEGS
 70
     8
  9
$ATTDIA
 70
     0
  9
$ATTREQ
 70
     1
  9
$HANDLING
 70
 22529
  9
$HANDSEED
  5
17B
  9
$SURFTAB1
 70
     6
  9
$SURFTAB2
 70
     6
  9
$SURFTYPE
 70
     6
  9
$SURFU
 70
     6
  9
$SURFV
 70
     6
  9
$UCSNAME
  2

  9
$UCSORG
 10
0.0
 20
0.0
 30
0.0
  9
$UCSXDIR
 10
1.0
 20
0.0
 30
0.0
  9
$UCSYDIR
 10
0.0
 20
1.0
 30
0.0
  9
$PUCSNAME
  2

  9
$PUCSORG
 10
0.0
 20
0.0
 30
0.0
  9
$PUCSXDIR
 10
1.0
 20
0.0
 30
0.0
  9
$PUCSYDIR
 10
0.0
 20
1.0
 30
0.0
  9
$USERI1
 70
     0
  9
$USERI2
 70
     0
  9
$USERI3
 70
     0
  9
$USERI4
 70
     0
  9
$USERI5
 70
     0
  9
$USERR1
 40
0.0
  9
$USERR2
 40
0.0
  9
$USERR3
 40
0.0
  9
$USERR4
 40
0.0
  9
$USERR5
 40
0.0
  9
$WORLDVIEW
 70
     1
  9
$SHADEDGE
 70
     3
  9
$SHADEDIF
 70
    70
  9
$TILEMODE
 70
     1
  9
$MAXACTVP
 70
    64
  9
$PINSBASE
 10
0.0
 20
0.0
 30
0.0
  9
$PLIMCHECK
 70
     0
  9
$PEXTMIN
 10
1.000000000000000E+20
 20
1.000000000000000E+20
 30
1.000000000000000E+20
  9
$PEXTMAX
 10
-1.000000000000000E+20
 20
-1.000000000000000E+20
 30
-1.000000000000000E+20
  9
$PLIMMIN
 10
0.0
 20
0.0
  9
$PLIMMAX
 10
12.0
 20
9.0
  9
$UNITMODE
 70
     0
  9
$VISRETAIN
 70
     1
  9
$PLINEGEN
 70
     0
  9
$PSLTSCALE
 70
     1
  9
$TREEDEPTH
 70
  3020
  9
$PICKSTYLE
 70
     1
  9
$CMLSTYLE
  2
STANDARD
  9
$CMLJUST
 70
     0
  9
$CMLSCALE
 40
1.0
  9
$PROXYGRAPHICS
 70
     1
  9
$MEASUREMENT
 70
     0
  0
ENDSEC
  0
SECTION
  2
CLASSES
  0
CLASS
  1
ACDBDICTIONARYWDFLT
  2
AcDbDictionaryWithDefault
  3
AutoCAD 2000
 90
        0
280
     0
281
     0
  0
CLASS
  1
ACDBPLACEHOLDER
  2
AcDbPlaceHolder
  3
AutoCAD 2000
 90
        0
280
     0
281
     0
  0
CLASS
  1
LAYOUT
  2
AcDbLayout
  3
AutoCAD 2000
 90
        0
280
     0
281
     0
  0
CLASS
  1
DICTIONARYVAR
  2
AcDbDictionaryVar
  3
AutoCAD 2000
 90
        0
280
     0
281
     0
  0
CLASS
  1
LONG_TRANSACTION
  2
AcDbLongTransaction
  3
AutoCAD 2000
 90
        0
280
     0
281
     0
  0
CLASS
  1
LWPOLYLINE
  2
AcDbPolyline
  3
AutoCAD 2000
 90
        0
280
     0
281
     1
  0
CLASS
  1
HATCH
  2
AcDbHatch
  3
AutoCAD 2000
 90
        0
280
     0
281
     1
  0
CLASS
  1
XRECORD
  2
AcDbXrecord
  3
AutoCAD 2000
 90
        0
280
     0
281
     0
  0
ENDSEC
  0
SECTION
  2
TABLES
  0
TABLE
  2
VPORT
  5
8
330
0
100
AcDbSymbolTable
 70
     3
  0
VPORT
  5
156
330
8
100
AcDbSymbolTableRecord
100
AcDbViewportTableRecord
  2
*ACTIVE
 70
     0
 10
0.0
 20
0.0
 11
1.0
 21
1.0
 12
85.0
 22
106.0
 13
0.0
 23
0.0
 14
1.0
 24
1.0
 15
0.0
 25
0.0
 16
0.0
 26
0.0
 36
1.0
 17
0.0
 27
0.0
 37
0.0
 40
213.6265984654731
 41
2.078104993597951
 42
50.0
 43
0.0
 44
0.0
 50
0.0
 51
0.0
 71
     0
 72
   100
 73
     1
 74
     3
 75
     0
 76
     0
 77
     0
 78
     0
  0
ENDTAB
  0
TABLE
  2
LTYPE
  5
5
330
0
100
AcDbSymbolTable
 70
     1
  0
LTYPE
  5
13
330
5
100
AcDbSymbolTableRecord
100
AcDbLinetypeTableRecord
  2
BYBLOCK
 70
     0
  3

 72
    65
 73
     0
 40
0.0
  0
LTYPE
  5
14
330
5
100
AcDbSymbolTableRecord
100
AcDbLinetypeTableRecord
  2
BYLAYER
 70
     0
  3

 72
    65
 73
     0
 40
0.0
  0
LTYPE
  5
15
330
5
100
AcDbSymbolTableRecord
100
AcDbLinetypeTableRecord
  2
CONTINUOUS
 70
     0
  3
Solid line
 72
    65
 73
     0
 40
0.0
  0
ENDTAB
  0
TABLE
  2
LAYER
  5
2
330
0
100
AcDbSymbolTable
 70
     1
  0
LAYER
  5
10
330
2
100
AcDbSymbolTableRecord
100
AcDbLayerTableRecord
  2
0
 70
     0
 62
     7
  6
CONTINUOUS
  0
ENDTAB
  0
TABLE
  2
STYLE
  5
3
330
0
100
AcDbSymbolTable
 70
     1
  0
STYLE
  5
11
330
3
100
AcDbSymbolTableRecord
100
AcDbTextStyleTableRecord
  2
STANDARD
 70
     0
 40
0.0
 41
1.0
 50
0.0
 71
     0
 42
0.2
  3
txt
  4

  0
ENDTAB
  0
TABLE
  2
VIEW
  5
6
330
0
100
AcDbSymbolTable
 70
     0
  0
ENDTAB
  0
TABLE
  2
UCS
  5
7
330
0
100
AcDbSymbolTable
 70
     0
  0
ENDTAB
  0
TABLE
  2
APPID
  5
9
330
0
100
AcDbSymbolTable
 70
     1
  0
APPID
  5
12
330
9
100
AcDbSymbolTableRecord
100
AcDbRegAppTableRecord
  2
ACAD
 70
     0
  0
ENDTAB
  0
TABLE
  2
DIMSTYLE
  5
A
330
0
100
AcDbSymbolTable
 70
     1
  0
DIMSTYLE
105
10E
330
A
100
AcDbSymbolTableRecord
100
AcDbDimStyleTableRecord
  2
STANDARD
 70
     0
  3

  4

  5

  6

  7

 40
1.0
 41
0.18
 42
0.0625
 43
0.38
 44
0.18
 45
0.0
 46
0.0
 47
0.0
 48
0.0
140
0.18
141
0.09
142
0.0
143
25.4
144
1.0
145
0.0
146
1.0
147
0.09
 71
     0
 72
     0
 73
     1
 74
     1
 75
     0
 76
     0
 77
     0
 78
     0
170
     0
171
     2
172
     0
173
     0
174
     0
175
     0
176
     0
177
     0
178
     0
270
     2
271
     4
272
     4
273
     2
274
     2
340
11
275
     0
280
     0
281
     0
282
     0
283
     1
284
     0
285
     0
286
     0
287
     3
288
     0
  0
ENDTAB
  0
TABLE
  2
BLOCK_RECORD
  5
1
330
0
100
AcDbSymbolTable
 70
     0
  0
BLOCK_RECORD
  5
1E
102
{ACAD_XDICTIONARY
360
179
102
}
330
1
100
AcDbSymbolTableRecord
100
AcDbBlockTableRecord
  2
*MODEL_SPACE
  0
BLOCK_RECORD
  5
1A
102
{ACAD_XDICTIONARY
360
177
102
}
330
1
100
AcDbSymbolTableRecord
100
AcDbBlockTableRecord
  2
*PAPER_SPACE
  0
ENDTAB
  0
ENDSEC
  0
SECTION
  2
BLOCKS
  0
BLOCK
  5
1F
330
1E
100
AcDbEntity
  8
0
100
AcDbBlockBegin
  2
*MODEL_SPACE
 70
     0
 10
0.0
 20
0.0
 30
0.0
  3
*MODEL_SPACE
  1

  0
ENDBLK
  5
20
330
1E
100
AcDbEntity
  8
0
100
AcDbBlockEnd
  0
BLOCK
  5
1B
330
1A
100
AcDbEntity
 67
     1
  8
0
100
AcDbBlockBegin
  2
*PAPER_SPACE
 70
     0
 10
0.0
 20
0.0
 30
0.0
  3
*PAPER_SPACE
  1

  0
ENDBLK
  5
1C
330
1A
100
AcDbEntity
 67
     1
  8
0
100
AcDbBlockEnd
  0
ENDSEC
  0
SECTION
  2
ENTITIES
  0
LINE
  5
22
330
1E
100
AcDbEntity
  8
0
100
AcDbLine
 10
0.0000000000000012
 20
127.0
 30
0.0
 11
0.900000000000001
 21
115.9
 31
0.0
  0
LINE
  5
23
330
1E
100
AcDbEntity
  8
0
100
AcDbLine
 10
0.900000000000001
 20
115.9
 30
0.0
 11
3.1
 21
105.0999999999999
 31
0.0
  0
LINE
  5
24
330
1E
100
AcDbEntity
  8
0
100
AcDbLine
 10
0.900000000000001
 20
115.9
 30
0.0
 11
3.1
 21
105.0999999999999
 31
0.0
  0
LINE
  5
25
330
1E
100
AcDbEntity
  8
0
100
AcDbLine
 10
33.3
 20
59.7
 30
0.0
 11
42.7
 21
53.39999999999999
 31
0.0
  0
LINE
  5
26
330
1E
100
AcDbEntity
  8
0
100
AcDbLine
 10
6.599999999999999
 20
94.50000000000001
 30
0.0
 11
11.4
 21
84.7
 31
0.0
  0
LINE
  5
27
330
1E
100
AcDbEntity
  8
0
100
AcDbLine
 10
17.7
 20
75.3
 30
0.0
 11
25.0
 21
67.0
 31
0.0
  0
LINE
  5
28
330
1E
100
AcDbEntity
  8
0
100
AcDbLine
 10
3.1
 20
105.0999999999999
 30
0.0
 11
6.599999999999999
 21
94.50000000000001
 31
0.0
  0
LINE
  5
29
330
1E
100
AcDbEntity
  8
0
100
AcDbLine
 10
25.0
 20
67.0
 30
0.0
 11
33.3
 21
59.7
 31
0.0
  0
LINE
  5
2A
330
1E
100
AcDbEntity
  8
0
100
AcDbLine
 10
0.900000000000001
 20
138.1
 30
0.0
 11
3.1
 21
148.9
 31
0.0
  0
LINE
  5
2B
330
1E
100
AcDbEntity
  8
0
100
AcDbLine
 10
0.9000000000000021
 20
138.1
 30
0.0
 11
3.1
 21
148.9
 31
0.0
  0
LINE
  5
2C
330
1E
100
AcDbEntity
  8
0
100
AcDbLine
 10
0.900000000000001
 20
138.1
 30
0.0
 11
3.1
 21
148.9
 31
0.0
  0
LINE
  5
2D
330
1E
100
AcDbEntity
  8
0
100
AcDbLine
 10
17.7
 20
178.6999999999999
 30
0.0
 11
25.0
 21
187.0
 31
0.0
  0
LINE
  5
2E
330
1E
100
AcDbEntity
  8
0
100
AcDbLine
 10
11.4
 20
169.3
 30
0.0
 11
17.7
 21
178.6999999999999
 31
0.0
  0
LINE
  5
2F
330
1E
100
AcDbEntity
  8
0
100
AcDbLine
 10
6.599999999999999
 20
159.4999999999999
 30
0.0
 11
11.4
 21
169.3
 31
0.0
  0
LINE
  5
30
330
1E
100
AcDbEntity
  8
0
100
AcDbLine
 10
3.1
 20
148.9
 30
0.0
 11
6.599999999999999
 21
159.4999999999999
 31
0.0
  0
LINE
  5
31
330
1E
100
AcDbEntity
  8
0
100
AcDbLine
 10
3.1
 20
148.9
 30
0.0
 11
6.599999999999999
 21
159.4999999999999
 31
0.0
  0
LINE
  5
32
330
1E
100
AcDbEntity
  8
0
100
AcDbLine
 10
0.0000000000000012
 20
127.0
 30
0.0
 11
0.900000000000001
 21
115.9
 31
0.0
  0
LINE
  5
33
330
1E
100
AcDbEntity
  8
0
100
AcDbLine
 10
25.0
 20
187.0
 30
0.0
 11
33.3
 21
194.2999999999999
 31
0.0
  0
LINE
  5
34
330
1E
100
AcDbEntity
  8
0
100
AcDbLine
 10
42.7
 20
53.39999999999999
 30
0.0
 11
52.5
 21
48.6
 31
0.0
  0
LINE
  5
35
330
1E
100
AcDbEntity
  8
0
100
AcDbLine
 10
33.3
 20
194.2999999999999
 30
0.0
 11
42.7
 21
200.5999999999999
 31
0.0
  0
LINE
  5
36
330
1E
100
AcDbEntity
  8
0
100
AcDbLine
 10
42.7
 20
200.5999999999999
 30
0.0
 11
52.5
 21
205.4
 31
0.0
  0
LINE
  5
37
330
1E
100
AcDbEntity
  8
0
100
AcDbLine
 10
52.5
 20
205.4
 30
0.0
 11
63.1
 21
208.8999999999999
 31
0.0
  0
LINE
  5
38
330
1E
100
AcDbEntity
  8
0
100
AcDbLine
 10
63.1
 20
208.8999999999999
 30
0.0
 11
73.9
 21
211.0999999999999
 31
0.0
  0
LINE
  5
39
330
1E
100
AcDbEntity
  8
0
100
AcDbLine
 10
73.9
 20
7.5
 30
0.0
 11
74.4866
 21
6.13403
 31
0.0
  0
LINE
  5
3A
330
1E
100
AcDbEntity
  8
0
100
AcDbLine
 10
74.4866
 20
6.13403
 30
0.0
 11
75.3559
 21
4.75768
 31
0.0
  0
LINE
  5
3B
330
1E
100
AcDbEntity
  8
0
100
AcDbLine
 10
82.6843
 20
6.433349999999999
 30
0.0
 11
83.40000000000001
 21
6.2
 31
0.0
  0
LINE
  5
3C
330
1E
100
AcDbEntity
  8
0
100
AcDbLine
 10
80.5
 20
0.900000000000003
 30
0.0
 11
81.90000000000001
 21
0.400000000000003
 31
0.0
  0
LINE
  5
3D
330
1E
100
AcDbEntity
  8
0
100
AcDbLine
 10
83.40000000000001
 20
6.2
 30
0.0
 11
84.19999999999999
 21
6.099999999999999
 31
0.0
  0
LINE
  5
3E
330
1E
100
AcDbEntity
  8
0
100
AcDbLine
 10
81.90000000000001
 20
0.400000000000003
 30
0.0
 11
83.49999999999999
 21
0.100000000000003
 31
0.0
  0
LINE
  5
3F
330
1E
100
AcDbEntity
  8
0
100
AcDbLine
 10
81.90000000000001
 20
0.400000000000003
 30
0.0
 11
83.49999999999999
 21
0.100000000000003
 31
0.0
  0
LINE
  5
40
330
1E
100
AcDbEntity
  8
0
100
AcDbLine
 10
85.0
 20
0.0000000000000031
 30
0.0
 11
86.5
 21
0.100000000000003
 31
0.0
  0
LINE
  5
41
330
1E
100
AcDbEntity
  8
0
100
AcDbLine
 10
85.0
 20
6.0
 30
0.0
 11
85.8
 21
6.099999999999999
 31
0.0
  0
LINE
  5
42
330
1E
100
AcDbEntity
  8
0
100
AcDbLine
 10
85.0
 20
0.0000000000000031
 30
0.0
 11
86.5
 21
0.100000000000003
 31
0.0
  0
LINE
  5
43
330
1E
100
AcDbEntity
  8
0
100
AcDbLine
 10
84.19999999999999
 20
6.099999999999999
 30
0.0
 11
85.0
 21
6.0
 31
0.0
  0
LINE
  5
44
330
1E
100
AcDbEntity
  8
0
100
AcDbLine
 10
83.49999999999999
 20
0.100000000000003
 30
0.0
 11
85.0
 21
0.0000000000000031
 31
0.0
  0
LINE
  5
45
330
1E
100
AcDbEntity
  8
0
100
AcDbLine
 10
83.49999999999999
 20
0.100000000000003
 30
0.0
 11
85.0
 21
0.0000000000000031
 31
0.0
  0
LINE
  5
46
330
1E
100
AcDbEntity
  8
0
100
AcDbLine
 10
81.98299999999999
 20
6.75668
 30
0.0
 11
82.6843
 21
6.433349999999999
 31
0.0
  0
LINE
  5
47
330
1E
100
AcDbEntity
  8
0
100
AcDbLine
 10
79.134
 20
1.486629999999999
 30
0.0
 11
80.5
 21
0.900000000000003
 31
0.0
  0
LINE
  5
48
330
1E
100
AcDbEntity
  8
0
100
AcDbLine
 10
81.3288
 20
7.22796
 30
0.0
 11
81.98299999999999
 21
6.75668
 31
0.0
  0
LINE
  5
49
330
1E
100
AcDbEntity
  8
0
100
AcDbLine
 10
77.7577
 20
2.355909999999999
 30
0.0
 11
79.134
 21
1.486629999999999
 31
0.0
  0
LINE
  5
4A
330
1E
100
AcDbEntity
  8
0
100
AcDbLine
 10
80.69920000000001
 20
7.674699999999999
 30
0.0
 11
81.3288
 21
7.22796
 31
0.0
  0
LINE
  5
4B
330
1E
100
AcDbEntity
  8
0
100
AcDbLine
 10
76.4638
 20
3.41104
 30
0.0
 11
77.7577
 21
2.355909999999999
 31
0.0
  0
LINE
  5
4C
330
1E
100
AcDbEntity
  8
0
100
AcDbLine
 10
79.4334
 20
9.684280000000001
 30
0.0
 11
79.7567
 21
8.982979999999999
 31
0.0
  0
LINE
  5
4D
330
1E
100
AcDbEntity
  8
0
100
AcDbLine
 10
79.7567
 20
8.982979999999999
 30
0.0
 11
80.22800000000001
 21
8.328839999999999
 31
0.0
  0
LINE
  5
4E
330
1E
100
AcDbEntity
  8
0
100
AcDbLine
 10
80.22800000000001
 20
8.328839999999999
 30
0.0
 11
80.69920000000001
 21
7.674699999999999
 31
0.0
  0
LINE
  5
4F
330
1E
100
AcDbEntity
  8
0
100
AcDbLine
 10
75.3559
 20
4.75768
 30
0.0
 11
76.4638
 21
3.41104
 31
0.0
  0
LINE
  5
50
330
1E
100
AcDbEntity
  8
0
100
AcDbLine
 10
79.2
 20
10.4
 30
0.0
 11
79.4334
 21
9.684280000000001
 31
0.0
  0
LINE
  5
51
330
1E
100
AcDbEntity
  8
0
100
AcDbLine
 10
73.4
 20
8.9
 30
0.0
 11
73.9
 21
7.5
 31
0.0
  0
LINE
  5
52
330
1E
100
AcDbEntity
  8
0
100
AcDbLine
 10
79.1
 20
11.19999999999999
 30
0.0
 11
79.2
 21
10.4
 31
0.0
  0
LINE
  5
53
330
1E
100
AcDbEntity
  8
0
100
AcDbLine
 10
73.09999999999999
 20
10.5
 30
0.0
 11
73.4
 21
8.9
 31
0.0
  0
LINE
  5
54
330
1E
100
AcDbEntity
  8
0
100
AcDbLine
 10
73.0
 20
12.0
 30
0.0
 11
73.09999999999999
 21
10.5
 31
0.0
  0
LINE
  5
55
330
1E
100
AcDbEntity
  8
0
100
AcDbLine
 10
73.0
 20
12.0
 30
0.0
 11
73.0
 21
73.3955344262295
 31
0.0
  0
LINE
  5
56
330
1E
100
AcDbEntity
  8
0
100
AcDbLine
 10
79.0
 20
42.48648648648649
 30
0.0
 11
85.0
 21
42.0
 31
0.0
  0
LINE
  5
57
330
1E
100
AcDbEntity
  8
0
100
AcDbLine
 10
85.0
 20
42.0
 30
0.0
 11
91.0
 21
42.48648648648649
 31
0.0
  0
LINE
  5
58
330
1E
100
AcDbEntity
  8
0
100
AcDbLine
 10
79.0
 20
12.0
 30
0.0
 11
79.0
 21
70.2228260869565
 31
0.0
  0
LINE
  5
59
330
1E
100
AcDbEntity
  8
0
100
AcDbLine
 10
79.0
 20
12.0
 30
0.0
 11
79.1
 21
11.19999999999999
 31
0.0
  0
LINE
  5
5A
330
1E
100
AcDbEntity
  8
0
100
AcDbLine
 10
85.0
 20
69.45
 30
0.0
 11
89.725
 21
70.2
 31
0.0
  0
LINE
  5
5B
330
1E
100
AcDbEntity
  8
0
100
AcDbLine
 10
80.27500000000001
 20
70.2
 30
0.0
 11
85.0
 21
69.45
 31
0.0
  0
LINE
  5
5C
330
1E
100
AcDbEntity
  8
0
100
AcDbLine
 10
80.12500000000001
 20
69.75
 30
0.0
 11
85.0
 21
69.0
 31
0.0
  0
LINE
  5
5D
330
1E
100
AcDbEntity
  8
0
100
AcDbLine
 10
86.5
 20
0.100000000000003
 30
0.0
 11
88.1
 21
0.400000000000003
 31
0.0
  0
LINE
  5
5E
330
1E
100
AcDbEntity
  8
0
100
AcDbLine
 10
87.31570000000001
 20
6.433349999999999
 30
0.0
 11
88.01700000000002
 21
6.75668
 31
0.0
  0
LINE
  5
5F
330
1E
100
AcDbEntity
  8
0
100
AcDbLine
 10
89.50000000000001
 20
0.900000000000003
 30
0.0
 11
90.866
 21
1.486629999999999
 31
0.0
  0
LINE
  5
60
330
1E
100
AcDbEntity
  8
0
100
AcDbLine
 10
88.01700000000002
 20
6.75668
 30
0.0
 11
88.67119999999999
 21
7.22796
 31
0.0
  0
LINE
  5
61
330
1E
100
AcDbEntity
  8
0
100
AcDbLine
 10
89.77200000000001
 20
8.328839999999999
 30
0.0
 11
90.2433
 21
8.982979999999999
 31
0.0
  0
LINE
  5
62
330
1E
100
AcDbEntity
  8
0
100
AcDbLine
 10
89.3008
 20
7.674699999999999
 30
0.0
 11
89.77200000000001
 21
8.328839999999999
 31
0.0
  0
LINE
  5
63
330
1E
100
AcDbEntity
  8
0
100
AcDbLine
 10
88.67119999999999
 20
7.22796
 30
0.0
 11
89.3008
 21
7.674699999999999
 31
0.0
  0
LINE
  5
64
330
1E
100
AcDbEntity
  8
0
100
AcDbLine
 10
86.6
 20
6.2
 30
0.0
 11
87.31570000000001
 21
6.433349999999999
 31
0.0
  0
LINE
  5
65
330
1E
100
AcDbEntity
  8
0
100
AcDbLine
 10
88.1
 20
0.400000000000003
 30
0.0
 11
89.50000000000001
 21
0.900000000000003
 31
0.0
  0
LINE
  5
66
330
1E
100
AcDbEntity
  8
0
100
AcDbLine
 10
85.8
 20
6.099999999999999
 30
0.0
 11
86.6
 21
6.2
 31
0.0
  0
LINE
  5
67
330
1E
100
AcDbEntity
  8
0
100
AcDbLine
 10
86.5
 20
0.100000000000003
 30
0.0
 11
88.1
 21
0.400000000000003
 31
0.0
  0
LINE
  5
68
330
1E
100
AcDbEntity
  8
0
100
AcDbLine
 10
90.866
 20
1.486629999999999
 30
0.0
 11
92.2423
 21
2.355909999999999
 31
0.0
  0
LINE
  5
69
330
1E
100
AcDbEntity
  8
0
100
AcDbLine
 10
90.56659999999999
 20
9.684280000000001
 30
0.0
 11
90.8
 21
10.4
 31
0.0
  0
LINE
  5
6A
330
1E
100
AcDbEntity
  8
0
100
AcDbLine
 10
90.8
 20
10.4
 30
0.0
 11
90.90000000000001
 21
11.19999999999999
 31
0.0
  0
LINE
  5
6B
330
1E
100
AcDbEntity
  8
0
100
AcDbLine
 10
90.90000000000001
 20
11.19999999999999
 30
0.0
 11
91.0
 21
12.0
 31
0.0
  0
LINE
  5
6C
330
1E
100
AcDbEntity
  8
0
100
AcDbLine
 10
90.2433
 20
8.982979999999999
 30
0.0
 11
90.56659999999999
 21
9.684280000000001
 31
0.0
  0
LINE
  5
6D
330
1E
100
AcDbEntity
  8
0
100
AcDbLine
 10
96.09999999999999
 20
7.5
 30
0.0
 11
96.6
 21
8.9
 31
0.0
  0
LINE
  5
6E
330
1E
100
AcDbEntity
  8
0
100
AcDbLine
 10
96.6
 20
8.9
 30
0.0
 11
96.90000000000001
 21
10.5
 31
0.0
  0
LINE
  5
6F
330
1E
100
AcDbEntity
  8
0
100
AcDbLine
 10
96.90000000000001
 20
10.5
 30
0.0
 11
97.0
 21
12.0
 31
0.0
  0
LINE
  5
70
330
1E
100
AcDbEntity
  8
0
100
AcDbLine
 10
95.51340000000001
 20
6.13403
 30
0.0
 11
96.09999999999999
 21
7.5
 31
0.0
  0
LINE
  5
71
330
1E
100
AcDbEntity
  8
0
100
AcDbLine
 10
94.64409999999999
 20
4.75768
 30
0.0
 11
95.51340000000001
 21
6.13403
 31
0.0
  0
LINE
  5
72
330
1E
100
AcDbEntity
  8
0
100
AcDbLine
 10
93.53619999999999
 20
3.41104
 30
0.0
 11
94.64409999999999
 21
4.75768
 31
0.0
  0
LINE
  5
73
330
1E
100
AcDbEntity
  8
0
100
AcDbLine
 10
92.2423
 20
2.355909999999999
 30
0.0
 11
93.53619999999999
 21
3.41104
 31
0.0
  0
LINE
  5
74
330
1E
100
AcDbEntity
  8
0
100
AcDbLine
 10
97.0
 20
12.0
 30
0.0
 11
97.0
 21
73.3955344262295
 31
0.0
  0
LINE
  5
75
330
1E
100
AcDbEntity
  8
0
100
AcDbLine
 10
136.6999999999999
 20
59.7
 30
0.0
 11
145.0
 21
67.0
 31
0.0
  0
LINE
  5
76
330
1E
100
AcDbEntity
  8
0
100
AcDbLine
 10
145.0
 20
67.0
 30
0.0
 11
152.3
 21
75.3
 31
0.0
  0
LINE
  5
77
330
1E
100
AcDbEntity
  8
0
100
AcDbLine
 10
91.0
 20
12.0
 30
0.0
 11
91.0
 21
70.2228260869565
 31
0.0
  0
LINE
  5
78
330
1E
100
AcDbEntity
  8
0
100
AcDbLine
 10
89.875
 20
69.75
 30
0.0
 11
91.0
 21
70.2228260869565
 31
0.0
  0
LINE
  5
79
330
1E
100
AcDbEntity
  8
0
100
AcDbLine
 10
89.725
 20
70.2
 30
0.0
 11
94.82499999999999
 21
72.3
 31
0.0
  0
LINE
  5
7A
330
1E
100
AcDbEntity
  8
0
100
AcDbLine
 10
89.875
 20
69.75
 30
0.0
 11
95.05
 21
71.92499999999999
 31
0.0
  0
LINE
  5
7B
330
1E
100
AcDbEntity
  8
0
100
AcDbLine
 10
85.0
 20
69.0
 30
0.0
 11
89.875
 21
69.75
 31
0.0
  0
LINE
  5
7C
330
1E
100
AcDbEntity
  8
0
100
AcDbLine
 10
85.0
 20
69.0
 30
0.0
 11
89.875
 21
69.75
 31
0.0
  0
LINE
  5
7D
330
1E
100
AcDbEntity
  8
0
100
AcDbLine
 10
91.0
 20
70.2228260869565
 30
0.0
 11
91.0
 21
12.0
 31
0.0
  0
LINE
  5
7E
330
1E
100
AcDbEntity
  8
0
100
AcDbLine
 10
79.0
 20
70.2228260869565
 30
0.0
 11
79.0
 21
12.0
 31
0.0
  0
LINE
  5
7F
330
1E
100
AcDbEntity
  8
0
100
AcDbLine
 10
94.82499999999999
 20
72.3
 30
0.0
 11
99.25
 21
75.75
 31
0.0
  0
LINE
  5
80
330
1E
100
AcDbEntity
  8
0
100
AcDbLine
 10
73.0
 20
73.3955344262295
 30
0.0
 11
73.0
 21
12.0
 31
0.0
  0
LINE
  5
81
330
1E
100
AcDbEntity
  8
0
100
AcDbLine
 10
76.1951
 20
76.2415
 30
0.0
 11
76.45109999999999
 21
76.2775
 31
0.0
  0
LINE
  5
82
330
1E
100
AcDbEntity
  8
0
100
AcDbLine
 10
76.45109999999999
 20
76.2775
 30
0.0
 11
76.6911
 21
76.3734
 31
0.0
  0
LINE
  5
83
330
1E
100
AcDbEntity
  8
0
100
AcDbLine
 10
75.9391
 20
76.2775
 30
0.0
 11
76.1951
 21
76.2415
 31
0.0
  0
LINE
  5
84
330
1E
100
AcDbEntity
  8
0
100
AcDbLine
 10
93.54890000000001
 20
76.2775
 30
0.0
 11
93.80489999999999
 21
76.2415
 31
0.0
  0
LINE
  5
85
330
1E
100
AcDbEntity
  8
0
100
AcDbLine
 10
93.80489999999999
 20
76.2415
 30
0.0
 11
94.0609
 21
76.2775
 31
0.0
  0
LINE
  5
86
330
1E
100
AcDbEntity
  8
0
100
AcDbLine
 10
76.6911
 20
76.3734
 30
0.0
 11
76.9031
 21
76.53310000000001
 31
0.0
  0
LINE
  5
87
330
1E
100
AcDbEntity
  8
0
100
AcDbLine
 10
76.9031
 20
76.53310000000001
 30
0.0
 11
77.06310000000001
 21
76.7449
 31
0.0
  0
LINE
  5
88
330
1E
100
AcDbEntity
  8
0
100
AcDbLine
 10
75.6991
 20
76.3734
 30
0.0
 11
75.9391
 21
76.2775
 31
0.0
  0
LINE
  5
89
330
1E
100
AcDbEntity
  8
0
100
AcDbLine
 10
75.48709999999999
 20
76.53310000000001
 30
0.0
 11
75.6991
 21
76.3734
 31
0.0
  0
LINE
  5
8A
330
1E
100
AcDbEntity
  8
0
100
AcDbLine
 10
93.3089
 20
76.3734
 30
0.0
 11
93.54890000000001
 21
76.2775
 31
0.0
  0
LINE
  5
8B
330
1E
100
AcDbEntity
  8
0
100
AcDbLine
 10
93.09690000000001
 20
76.53310000000001
 30
0.0
 11
93.3089
 21
76.3734
 31
0.0
  0
LINE
  5
8C
330
1E
100
AcDbEntity
  8
0
100
AcDbLine
 10
94.0609
 20
76.2775
 30
0.0
 11
94.30089999999999
 21
76.3734
 31
0.0
  0
LINE
  5
8D
330
1E
100
AcDbEntity
  8
0
100
AcDbLine
 10
94.30089999999999
 20
76.3734
 30
0.0
 11
94.5129
 21
76.53310000000001
 31
0.0
  0
LINE
  5
8E
330
1E
100
AcDbEntity
  8
0
100
AcDbLine
 10
77.06310000000001
 20
76.7449
 30
0.0
 11
77.1591
 21
76.9845
 31
0.0
  0
LINE
  5
8F
330
1E
100
AcDbEntity
  8
0
100
AcDbLine
 10
77.1591
 20
76.9845
 30
0.0
 11
77.19509999999999
 21
77.2402
 31
0.0
  0
LINE
  5
90
330
1E
100
AcDbEntity
  8
0
100
AcDbLine
 10
75.3271
 20
76.7449
 30
0.0
 11
75.48709999999999
 21
76.53310000000001
 31
0.0
  0
LINE
  5
91
330
1E
100
AcDbEntity
  8
0
100
AcDbLine
 10
75.23109999999999
 20
76.9845
 30
0.0
 11
75.3271
 21
76.7449
 31
0.0
  0
LINE
  5
92
330
1E
100
AcDbEntity
  8
0
100
AcDbLine
 10
92.93689999999999
 20
76.7449
 30
0.0
 11
93.09690000000001
 21
76.53310000000001
 31
0.0
  0
LINE
  5
93
330
1E
100
AcDbEntity
  8
0
100
AcDbLine
 10
92.8409
 20
76.9845
 30
0.0
 11
92.93689999999999
 21
76.7449
 31
0.0
  0
LINE
  5
94
330
1E
100
AcDbEntity
  8
0
100
AcDbLine
 10
94.5129
 20
76.53310000000001
 30
0.0
 11
94.6729
 21
76.7449
 31
0.0
  0
LINE
  5
95
330
1E
100
AcDbEntity
  8
0
100
AcDbLine
 10
94.6729
 20
76.7449
 30
0.0
 11
94.7689
 21
76.9845
 31
0.0
  0
LINE
  5
96
330
1E
100
AcDbEntity
  8
0
100
AcDbLine
 10
75.3271
 20
77.7355
 30
0.0
 11
75.48709999999999
 21
77.94719999999999
 31
0.0
  0
LINE
  5
97
330
1E
100
AcDbEntity
  8
0
100
AcDbLine
 10
75.23109999999999
 20
77.4958
 30
0.0
 11
75.3271
 21
77.7355
 31
0.0
  0
LINE
  5
98
330
1E
100
AcDbEntity
  8
0
100
AcDbLine
 10
75.6991
 20
78.107
 30
0.0
 11
75.9391
 21
78.20289999999999
 31
0.0
  0
LINE
  5
99
330
1E
100
AcDbEntity
  8
0
100
AcDbLine
 10
75.48709999999999
 20
77.94719999999999
 30
0.0
 11
75.6991
 21
78.107
 31
0.0
  0
LINE
  5
9A
330
1E
100
AcDbEntity
  8
0
100
AcDbLine
 10
75.9391
 20
78.20289999999999
 30
0.0
 11
76.1951
 21
78.23879999999999
 31
0.0
  0
LINE
  5
9B
330
1E
100
AcDbEntity
  8
0
100
AcDbLine
 10
76.1951
 20
78.23879999999999
 30
0.0
 11
76.45109999999999
 21
78.20289999999999
 31
0.0
  0
LINE
  5
9C
330
1E
100
AcDbEntity
  8
0
100
AcDbLine
 10
76.45109999999999
 20
78.20289999999999
 30
0.0
 11
76.6911
 21
78.107
 31
0.0
  0
LINE
  5
9D
330
1E
100
AcDbEntity
  8
0
100
AcDbLine
 10
76.6911
 20
78.107
 30
0.0
 11
76.9031
 21
77.94719999999999
 31
0.0
  0
LINE
  5
9E
330
1E
100
AcDbEntity
  8
0
100
AcDbLine
 10
76.9031
 20
77.94719999999999
 30
0.0
 11
77.06310000000001
 21
77.7355
 31
0.0
  0
LINE
  5
9F
330
1E
100
AcDbEntity
  8
0
100
AcDbLine
 10
77.06310000000001
 20
77.7355
 30
0.0
 11
77.1591
 21
77.4958
 31
0.0
  0
LINE
  5
A0
330
1E
100
AcDbEntity
  8
0
100
AcDbLine
 10
77.1591
 20
77.4958
 30
0.0
 11
77.19509999999999
 21
77.2402
 31
0.0
  0
LINE
  5
A1
330
1E
100
AcDbEntity
  8
0
100
AcDbLine
 10
75.1951
 20
77.2402
 30
0.0
 11
75.23109999999999
 21
76.9845
 31
0.0
  0
LINE
  5
A2
330
1E
100
AcDbEntity
  8
0
100
AcDbLine
 10
75.1951
 20
77.2402
 30
0.0
 11
75.23109999999999
 21
77.4958
 31
0.0
  0
LINE
  5
A3
330
1E
100
AcDbEntity
  8
0
100
AcDbLine
 10
94.7689
 20
77.4958
 30
0.0
 11
94.80490000000001
 21
77.2402
 31
0.0
  0
LINE
  5
A4
330
1E
100
AcDbEntity
  8
0
100
AcDbLine
 10
94.5129
 20
77.94719999999999
 30
0.0
 11
94.6729
 21
77.7355
 31
0.0
  0
LINE
  5
A5
330
1E
100
AcDbEntity
  8
0
100
AcDbLine
 10
94.6729
 20
77.7355
 30
0.0
 11
94.7689
 21
77.4958
 31
0.0
  0
LINE
  5
A6
330
1E
100
AcDbEntity
  8
0
100
AcDbLine
 10
94.0609
 20
78.20289999999999
 30
0.0
 11
94.30089999999999
 21
78.107
 31
0.0
  0
LINE
  5
A7
330
1E
100
AcDbEntity
  8
0
100
AcDbLine
 10
94.30089999999999
 20
78.107
 30
0.0
 11
94.5129
 21
77.94719999999999
 31
0.0
  0
LINE
  5
A8
330
1E
100
AcDbEntity
  8
0
100
AcDbLine
 10
93.80489999999999
 20
78.23879999999999
 30
0.0
 11
94.0609
 21
78.20289999999999
 31
0.0
  0
LINE
  5
A9
330
1E
100
AcDbEntity
  8
0
100
AcDbLine
 10
93.54890000000001
 20
78.20289999999999
 30
0.0
 11
93.80489999999999
 21
78.23879999999999
 31
0.0
  0
LINE
  5
AA
330
1E
100
AcDbEntity
  8
0
100
AcDbLine
 10
93.3089
 20
78.107
 30
0.0
 11
93.54890000000001
 21
78.20289999999999
 31
0.0
  0
LINE
  5
AB
330
1E
100
AcDbEntity
  8
0
100
AcDbLine
 10
93.09690000000001
 20
77.94719999999999
 30
0.0
 11
93.3089
 21
78.107
 31
0.0
  0
LINE
  5
AC
330
1E
100
AcDbEntity
  8
0
100
AcDbLine
 10
92.93689999999999
 20
77.7355
 30
0.0
 11
93.09690000000001
 21
77.94719999999999
 31
0.0
  0
LINE
  5
AD
330
1E
100
AcDbEntity
  8
0
100
AcDbLine
 10
92.8409
 20
77.4958
 30
0.0
 11
92.93689999999999
 21
77.7355
 31
0.0
  0
LINE
  5
AE
330
1E
100
AcDbEntity
  8
0
100
AcDbLine
 10
92.8049
 20
77.2402
 30
0.0
 11
92.8409
 21
76.9845
 31
0.0
  0
LINE
  5
AF
330
1E
100
AcDbEntity
  8
0
100
AcDbLine
 10
92.8049
 20
77.2402
 30
0.0
 11
92.8409
 21
77.4958
 31
0.0
  0
LINE
  5
B0
330
1E
100
AcDbEntity
  8
0
100
AcDbLine
 10
94.7689
 20
76.9845
 30
0.0
 11
94.80490000000001
 21
77.2402
 31
0.0
  0
LINE
  5
B1
330
1E
100
AcDbEntity
  8
0
100
AcDbLine
 10
99.25
 20
75.75
 30
0.0
 11
102.7
 21
80.175
 31
0.0
  0
LINE
  5
B2
330
1E
100
AcDbEntity
  8
0
100
AcDbLine
 10
97.0
 20
73.3955344262295
 30
0.0
 11
99.625
 21
75.37510000000001
 31
0.0
  0
LINE
  5
B3
330
1E
100
AcDbEntity
  8
0
100
AcDbLine
 10
97.0
 20
73.3955344262295
 30
0.0
 11
97.0
 21
12.0
 31
0.0
  0
LINE
  5
B4
330
1E
100
AcDbEntity
  8
0
100
AcDbLine
 10
103.075
 20
79.95
 30
0.0
 11
105.2499999999999
 21
85.1251
 31
0.0
  0
LINE
  5
B5
330
1E
100
AcDbEntity
  8
0
100
AcDbLine
 10
75.175
 20
72.3
 30
0.0
 11
80.27500000000001
 21
70.2
 31
0.0
  0
LINE
  5
B6
330
1E
100
AcDbEntity
  8
0
100
AcDbLine
 10
70.75
 20
75.75
 30
0.0
 11
75.175
 21
72.3
 31
0.0
  0
LINE
  5
B7
330
1E
100
AcDbEntity
  8
0
100
AcDbLine
 10
79.0
 20
70.2228260869565
 30
0.0
 11
80.12500000000001
 21
69.75
 31
0.0
  0
LINE
  5
B8
330
1E
100
AcDbEntity
  8
0
100
AcDbLine
 10
70.375
 20
75.37510000000001
 30
0.0
 11
73.0
 21
73.3955344262295
 31
0.0
  0
LINE
  5
B9
330
1E
100
AcDbEntity
  8
0
100
AcDbLine
 10
64.75
 20
94.875
 30
0.0
 11
66.92499999999999
 21
100.0499999999999
 31
0.0
  0
LINE
  5
BA
330
1E
100
AcDbEntity
  8
0
100
AcDbLine
 10
64.45
 20
90.0
 30
0.0
 11
65.2
 21
85.27500000000001
 31
0.0
  0
LINE
  5
BB
330
1E
100
AcDbEntity
  8
0
100
AcDbLine
 10
64.45
 20
90.0
 30
0.0
 11
65.2
 21
94.725
 31
0.0
  0
LINE
  5
BC
330
1E
100
AcDbEntity
  8
0
100
AcDbLine
 10
102.7
 20
80.175
 30
0.0
 11
104.8
 21
85.27500000000001
 31
0.0
  0
LINE
  5
BD
330
1E
100
AcDbEntity
  8
0
100
AcDbLine
 10
104.8
 20
85.27500000000001
 30
0.0
 11
105.5499999999999
 21
90.0
 31
0.0
  0
LINE
  5
BE
330
1E
100
AcDbEntity
  8
0
100
AcDbLine
 10
67.3
 20
80.175
 30
0.0
 11
70.75
 21
75.75
 31
0.0
  0
LINE
  5
BF
330
1E
100
AcDbEntity
  8
0
100
AcDbLine
 10
65.2
 20
94.725
 30
0.0
 11
67.3
 21
99.82500000000001
 31
0.0
  0
LINE
  5
C0
330
1E
100
AcDbEntity
  8
0
100
AcDbLine
 10
99.25
 20
104.2499999999999
 30
0.0
 11
102.7
 21
99.82500000000001
 31
0.0
  0
LINE
  5
C1
330
1E
100
AcDbEntity
  8
0
100
AcDbLine
 10
102.7
 20
99.82500000000001
 30
0.0
 11
104.8
 21
94.725
 31
0.0
  0
LINE
  5
C2
330
1E
100
AcDbEntity
  8
0
100
AcDbLine
 10
163.4
 20
94.50000000000001
 30
0.0
 11
166.9
 21
105.0999999999999
 31
0.0
  0
LINE
  5
C3
330
1E
100
AcDbEntity
  8
0
100
AcDbLine
 10
104.8
 20
94.725
 30
0.0
 11
105.5499999999999
 21
90.0
 31
0.0
  0
LINE
  5
C4
330
1E
100
AcDbEntity
  8
0
100
AcDbLine
 10
103.075
 20
100.0499999999999
 30
0.0
 11
105.2499999999999
 21
94.875
 31
0.0
  0
LINE
  5
C5
330
1E
100
AcDbEntity
  8
0
100
AcDbLine
 10
99.625
 20
104.627
 30
0.0
 11
103.075
 21
100.0499999999999
 31
0.0
  0
LINE
  5
C6
330
1E
100
AcDbEntity
  8
0
100
AcDbLine
 10
70.75
 20
104.2499999999999
 30
0.0
 11
75.175
 21
107.6999999999999
 31
0.0
  0
LINE
  5
C7
330
1E
100
AcDbEntity
  8
0
100
AcDbLine
 10
67.3
 20
99.82500000000001
 30
0.0
 11
70.75
 21
104.2499999999999
 31
0.0
  0
LINE
  5
C8
330
1E
100
AcDbEntity
  8
0
100
AcDbLine
 10
74.7
 20
153.6999999999999
 30
0.0
 11
77.7
 21
151.4
 31
0.0
  0
LINE
  5
C9
330
1E
100
AcDbEntity
  8
0
100
AcDbLine
 10
72.40000000000001
 20
156.6999999999999
 30
0.0
 11
74.7
 21
153.6999999999999
 31
0.0
  0
LINE
  5
CA
330
1E
100
AcDbEntity
  8
0
100
AcDbLine
 10
74.40000000000001
 20
153.3999999999999
 30
0.0
 11
77.5
 21
151.0
 31
0.0
  0
LINE
  5
CB
330
1E
100
AcDbEntity
  8
0
100
AcDbLine
 10
72.0
 20
156.4999999999999
 30
0.0
 11
74.40000000000001
 21
153.3999999999999
 31
0.0
  0
LINE
  5
CC
330
1E
100
AcDbEntity
  8
0
100
AcDbLine
 10
70.5
 20
164.0
 30
0.0
 11
71.0
 21
160.1999999999999
 31
0.0
  0
LINE
  5
CD
330
1E
100
AcDbEntity
  8
0
100
AcDbLine
 10
70.5
 20
164.0
 30
0.0
 11
71.0
 21
167.8
 31
0.0
  0
LINE
  5
CE
330
1E
100
AcDbEntity
  8
0
100
AcDbLine
 10
71.0
 20
167.8
 30
0.0
 11
72.40000000000001
 21
171.3
 31
0.0
  0
LINE
  5
CF
330
1E
100
AcDbEntity
  8
0
100
AcDbLine
 10
72.40000000000001
 20
171.3
 30
0.0
 11
74.7
 21
174.3
 31
0.0
  0
LINE
  5
D0
330
1E
100
AcDbEntity
  8
0
100
AcDbLine
 10
71.0
 20
160.1999999999999
 30
0.0
 11
72.40000000000001
 21
156.6999999999999
 31
0.0
  0
LINE
  5
D1
330
1E
100
AcDbEntity
  8
0
100
AcDbLine
 10
74.7
 20
174.3
 30
0.0
 11
77.7
 21
176.6
 31
0.0
  0
LINE
  5
D2
330
1E
100
AcDbEntity
  8
0
100
AcDbLine
 10
74.40000000000001
 20
174.5999999999999
 30
0.0
 11
77.5
 21
177.0
 31
0.0
  0
LINE
  5
D3
330
1E
100
AcDbEntity
  8
0
100
AcDbLine
 10
72.0
 20
171.5
 30
0.0
 11
74.40000000000001
 21
174.5999999999999
 31
0.0
  0
LINE
  5
D4
330
1E
100
AcDbEntity
  8
0
100
AcDbLine
 10
70.5
 20
167.9
 30
0.0
 11
72.0
 21
171.5
 31
0.0
  0
LINE
  5
D5
330
1E
100
AcDbEntity
  8
0
100
AcDbLine
 10
70.5
 20
160.0999999999999
 30
0.0
 11
72.0
 21
156.4999999999999
 31
0.0
  0
LINE
  5
D6
330
1E
100
AcDbEntity
  8
0
100
AcDbLine
 10
70.0
 20
164.0
 30
0.0
 11
70.5
 21
160.0999999999999
 31
0.0
  0
LINE
  5
D7
330
1E
100
AcDbEntity
  8
0
100
AcDbLine
 10
70.0
 20
164.0
 30
0.0
 11
70.5
 21
167.9
 31
0.0
  0
LINE
  5
D8
330
1E
100
AcDbEntity
  8
0
100
AcDbLine
 10
73.9
 20
211.0999999999999
 30
0.0
 11
85.0
 21
212.0
 31
0.0
  0
LINE
  5
D9
330
1E
100
AcDbEntity
  8
0
100
AcDbLine
 10
89.725
 20
109.8
 30
0.0
 11
94.82499999999999
 21
107.6999999999999
 31
0.0
  0
LINE
  5
DA
330
1E
100
AcDbEntity
  8
0
100
AcDbLine
 10
94.82499999999999
 20
107.6999999999999
 30
0.0
 11
99.25
 21
104.2499999999999
 31
0.0
  0
LINE
  5
DB
330
1E
100
AcDbEntity
  8
0
100
AcDbLine
 10
166.9
 20
105.0999999999999
 30
0.0
 11
169.1
 21
115.9
 31
0.0
  0
LINE
  5
DC
330
1E
100
AcDbEntity
  8
0
100
AcDbLine
 10
95.05
 20
108.076
 30
0.0
 11
99.625
 21
104.627
 31
0.0
  0
LINE
  5
DD
330
1E
100
AcDbEntity
  8
0
100
AcDbLine
 10
89.875
 20
110.2549999999999
 30
0.0
 11
95.05
 21
108.076
 31
0.0
  0
LINE
  5
DE
330
1E
100
AcDbEntity
  8
0
100
AcDbLine
 10
80.27500000000001
 20
109.8
 30
0.0
 11
85.0
 21
110.5499999999999
 31
0.0
  0
LINE
  5
DF
330
1E
100
AcDbEntity
  8
0
100
AcDbLine
 10
75.175
 20
107.6999999999999
 30
0.0
 11
80.27500000000001
 21
109.8
 31
0.0
  0
LINE
  5
E0
330
1E
100
AcDbEntity
  8
0
100
AcDbLine
 10
85.0
 20
149.0
 30
0.0
 11
88.9
 21
149.5
 31
0.0
  0
LINE
  5
E1
330
1E
100
AcDbEntity
  8
0
100
AcDbLine
 10
85.0
 20
149.5
 30
0.0
 11
88.8
 21
150.0
 31
0.0
  0
LINE
  5
E2
330
1E
100
AcDbEntity
  8
0
100
AcDbLine
 10
81.2
 20
150.0
 30
0.0
 11
85.0
 21
149.5
 31
0.0
  0
LINE
  5
E3
330
1E
100
AcDbEntity
  8
0
100
AcDbLine
 10
81.09999999999999
 20
149.5
 30
0.0
 11
85.0
 21
149.0
 31
0.0
  0
LINE
  5
E4
330
1E
100
AcDbEntity
  8
0
100
AcDbLine
 10
77.7
 20
176.6
 30
0.0
 11
81.2
 21
178.0
 31
0.0
  0
LINE
  5
E5
330
1E
100
AcDbEntity
  8
0
100
AcDbLine
 10
77.7
 20
151.4
 30
0.0
 11
81.2
 21
150.0
 31
0.0
  0
LINE
  5
E6
330
1E
100
AcDbEntity
  8
0
100
AcDbLine
 10
81.2
 20
178.0
 30
0.0
 11
85.0
 21
178.5
 31
0.0
  0
LINE
  5
E7
330
1E
100
AcDbEntity
  8
0
100
AcDbLine
 10
81.2
 20
178.0
 30
0.0
 11
85.0
 21
178.5
 31
0.0
  0
LINE
  5
E8
330
1E
100
AcDbEntity
  8
0
100
AcDbLine
 10
85.0
 20
178.5
 30
0.0
 11
88.8
 21
178.0
 31
0.0
  0
LINE
  5
E9
330
1E
100
AcDbEntity
  8
0
100
AcDbLine
 10
81.09999999999999
 20
178.5
 30
0.0
 11
85.0
 21
179.0
 31
0.0
  0
LINE
  5
EA
330
1E
100
AcDbEntity
  8
0
100
AcDbLine
 10
77.5
 20
177.0
 30
0.0
 11
81.09999999999999
 21
178.5
 31
0.0
  0
LINE
  5
EB
330
1E
100
AcDbEntity
  8
0
100
AcDbLine
 10
85.0
 20
179.0
 30
0.0
 11
88.9
 21
178.5
 31
0.0
  0
LINE
  5
EC
330
1E
100
AcDbEntity
  8
0
100
AcDbLine
 10
77.5
 20
151.0
 30
0.0
 11
81.09999999999999
 21
149.5
 31
0.0
  0
LINE
  5
ED
330
1E
100
AcDbEntity
  8
0
100
AcDbLine
 10
85.0
 20
212.0
 30
0.0
 11
96.09999999999999
 21
211.0999999999999
 31
0.0
  0
LINE
  5
EE
330
1E
100
AcDbEntity
  8
0
100
AcDbLine
 10
85.0
 20
110.5499999999999
 30
0.0
 11
89.725
 21
109.8
 31
0.0
  0
LINE
  5
EF
330
1E
100
AcDbEntity
  8
0
100
AcDbLine
 10
169.1
 20
115.9
 30
0.0
 11
170.0
 21
127.0
 31
0.0
  0
LINE
  5
F0
330
1E
100
AcDbEntity
  8
0
100
AcDbLine
 10
88.8
 20
150.0
 30
0.0
 11
92.3
 21
151.4
 31
0.0
  0
LINE
  5
F1
330
1E
100
AcDbEntity
  8
0
100
AcDbLine
 10
92.3
 20
151.4
 30
0.0
 11
95.29999999999999
 21
153.6999999999999
 31
0.0
  0
LINE
  5
F2
330
1E
100
AcDbEntity
  8
0
100
AcDbLine
 10
88.9
 20
149.5
 30
0.0
 11
92.5
 21
151.0
 31
0.0
  0
LINE
  5
F3
330
1E
100
AcDbEntity
  8
0
100
AcDbLine
 10
98.0
 20
156.4999999999999
 30
0.0
 11
99.50000000000001
 21
160.0999999999999
 31
0.0
  0
LINE
  5
F4
330
1E
100
AcDbEntity
  8
0
100
AcDbLine
 10
95.29999999999999
 20
153.6999999999999
 30
0.0
 11
97.59999999999999
 21
156.6999999999999
 31
0.0
  0
LINE
  5
F5
330
1E
100
AcDbEntity
  8
0
100
AcDbLine
 10
99.0
 20
167.8
 30
0.0
 11
99.50000000000001
 21
164.0
 31
0.0
  0
LINE
  5
F6
330
1E
100
AcDbEntity
  8
0
100
AcDbLine
 10
97.59999999999999
 20
156.6999999999999
 30
0.0
 11
99.0
 21
160.1999999999999
 31
0.0
  0
LINE
  5
F7
330
1E
100
AcDbEntity
  8
0
100
AcDbLine
 10
99.0
 20
160.1999999999999
 30
0.0
 11
99.50000000000001
 21
164.0
 31
0.0
  0
LINE
  5
F8
330
1E
100
AcDbEntity
  8
0
100
AcDbLine
 10
99.50000000000001
 20
167.9
 30
0.0
 11
100.0
 21
164.0
 31
0.0
  0
LINE
  5
F9
330
1E
100
AcDbEntity
  8
0
100
AcDbLine
 10
92.5
 20
151.0
 30
0.0
 11
95.6
 21
153.3999999999999
 31
0.0
  0
LINE
  5
FA
330
1E
100
AcDbEntity
  8
0
100
AcDbLine
 10
92.3
 20
176.6
 30
0.0
 11
95.29999999999999
 21
174.3
 31
0.0
  0
LINE
  5
FB
330
1E
100
AcDbEntity
  8
0
100
AcDbLine
 10
95.29999999999999
 20
174.3
 30
0.0
 11
97.59999999999999
 21
171.3
 31
0.0
  0
LINE
  5
FC
330
1E
100
AcDbEntity
  8
0
100
AcDbLine
 10
98.0
 20
171.5
 30
0.0
 11
99.50000000000001
 21
167.9
 31
0.0
  0
LINE
  5
FD
330
1E
100
AcDbEntity
  8
0
100
AcDbLine
 10
97.59999999999999
 20
171.3
 30
0.0
 11
99.0
 21
167.8
 31
0.0
  0
LINE
  5
FE
330
1E
100
AcDbEntity
  8
0
100
AcDbLine
 10
88.8
 20
178.0
 30
0.0
 11
92.3
 21
176.6
 31
0.0
  0
LINE
  5
FF
330
1E
100
AcDbEntity
  8
0
100
AcDbLine
 10
92.5
 20
177.0
 30
0.0
 11
95.6
 21
174.5999999999999
 31
0.0
  0
LINE
  5
100
330
1E
100
AcDbEntity
  8
0
100
AcDbLine
 10
117.5
 20
205.4
 30
0.0
 11
127.2999999999999
 21
200.5999999999999
 31
0.0
  0
LINE
  5
101
330
1E
100
AcDbEntity
  8
0
100
AcDbLine
 10
96.09999999999999
 20
211.0999999999999
 30
0.0
 11
106.9
 21
208.8999999999999
 31
0.0
  0
LINE
  5
102
330
1E
100
AcDbEntity
  8
0
100
AcDbLine
 10
145.0
 20
187.0
 30
0.0
 11
152.3
 21
178.6999999999999
 31
0.0
  0
LINE
  5
103
330
1E
100
AcDbEntity
  8
0
100
AcDbLine
 10
158.6
 20
169.3
 30
0.0
 11
163.4
 21
159.4999999999999
 31
0.0
  0
LINE
  5
104
330
1E
100
AcDbEntity
  8
0
100
AcDbLine
 10
166.9
 20
148.9
 30
0.0
 11
169.1
 21
138.1
 31
0.0
  0
LINE
  5
105
330
1E
100
AcDbEntity
  8
0
100
AcDbLine
 10
85.000000000023
 20
110.9999999999959
 30
0.0
 11
89.875
 21
110.2549999999999
 31
0.0
  0
LINE
  5
106
330
1E
100
AcDbEntity
  8
0
100
AcDbLine
 10
80.12500000000001
 20
110.2549999999999
 30
0.0
 11
84.99999999997699
 21
110.9999999999959
 31
0.0
  0
LINE
  5
107
330
1E
100
AcDbEntity
  8
0
100
AcDbLine
 10
74.95
 20
108.076
 30
0.0
 11
80.12500000000001
 21
110.2549999999999
 31
0.0
  0
LINE
  5
108
330
1E
100
AcDbEntity
  8
0
100
AcDbLine
 10
70.375
 20
104.627
 30
0.0
 11
74.95
 21
108.076
 31
0.0
  0
LINE
  5
109
330
1E
100
AcDbEntity
  8
0
100
AcDbLine
 10
66.92499999999999
 20
100.0499999999999
 30
0.0
 11
70.375
 21
104.627
 31
0.0
  0
LINE
  5
10A
330
1E
100
AcDbEntity
  8
0
100
AcDbLine
 10
65.2
 20
85.27500000000001
 30
0.0
 11
67.3
 21
80.175
 31
0.0
  0
LINE
  5
10B
330
1E
100
AcDbEntity
  8
0
100
AcDbLine
 10
64.75
 20
85.1251
 30
0.0
 11
66.92499999999999
 21
79.95
 31
0.0
  0
LINE
  5
10C
330
1E
100
AcDbEntity
  8
0
100
AcDbLine
 10
66.92499999999999
 20
79.95
 30
0.0
 11
70.375
 21
75.37510000000001
 31
0.0
  0
LINE
  5
10D
330
1E
100
AcDbEntity
  8
0
100
AcDbLine
 10
64.0
 20
90.0
 30
0.0
 11
64.75
 21
85.1251
 31
0.0
  0
LINE
  5
112
330
1E
100
AcDbEntity
  8
0
100
AcDbLine
 10
106.9
 20
208.8999999999999
 30
0.0
 11
117.5
 21
205.4
 31
0.0
  0
LINE
  5
113
330
1E
100
AcDbEntity
  8
0
100
AcDbLine
 10
127.2999999999999
 20
200.5999999999999
 30
0.0
 11
137.8953821858056
 21
193.2809442550902
 31
0.0
  0
LINE
  5
114
330
1E
100
AcDbEntity
  8
0
100
AcDbLine
 10
137.8953821858056
 20
193.2809442550902
 30
0.0
 11
145.0
 21
187.0
 31
0.0
  0
LINE
  5
115
330
1E
100
AcDbEntity
  8
0
100
AcDbLine
 10
152.3
 20
178.6999999999999
 30
0.0
 11
158.6
 21
169.3
 31
0.0
  0
LINE
  5
116
330
1E
100
AcDbEntity
  8
0
100
AcDbLine
 10
163.4
 20
159.4999999999999
 30
0.0
 11
166.9
 21
148.9
 31
0.0
  0
LINE
  5
117
330
1E
100
AcDbEntity
  8
0
100
AcDbLine
 10
169.1
 20
138.1
 30
0.0
 11
170.0
 21
127.0
 31
0.0
  0
LINE
  5
118
330
1E
100
AcDbEntity
  8
0
100
AcDbLine
 10
163.4
 20
94.50000000000001
 30
0.0
 11
157.5773847874804
 21
82.36994757842131
 31
0.0
  0
LINE
  5
119
330
1E
100
AcDbEntity
  8
0
100
AcDbLine
 10
157.5773847874804
 20
82.36994757842131
 30
0.0
 11
152.3
 21
75.3
 31
0.0
  0
LINE
  5
11A
330
1E
100
AcDbEntity
  8
0
100
AcDbLine
 10
136.6999999999999
 20
59.7
 30
0.0
 11
128.3277421039931
 21
53.95924936581287
 31
0.0
  0
LINE
  5
11B
330
1E
100
AcDbEntity
  8
0
100
AcDbLine
 10
128.3277421039931
 20
53.95924936581287
 30
0.0
 11
119.3068234266059
 21
49.04201306975142
 31
0.0
  0
LINE
  5
11C
330
1E
100
AcDbEntity
  8
0
100
AcDbLine
 10
119.3068234266059
 20
49.04201306975142
 30
0.0
 11
109.1924619403685
 21
45.21749584006181
 31
0.0
  0
LINE
  5
11D
330
1E
100
AcDbEntity
  8
0
100
AcDbLine
 10
109.1924619403685
 20
45.21749584006181
 30
0.0
 11
96.98319918089282
 21
42.83309348045634
 31
0.0
  0
LINE
  5
11E
330
1E
100
AcDbEntity
  8
0
100
AcDbLine
 10
11.4
 20
84.7
 30
0.0
 11
17.7
 21
75.3
 31
0.0
  0
LINE
  5
11F
330
1E
100
AcDbEntity
  8
0
100
AcDbLine
 10
52.5
 20
48.6
 30
0.0
 11
61.45223676551745
 21
45.6644229986353
 31
0.0
  0
LINE
  5
120
330
1E
100
AcDbEntity
  8
0
100
AcDbLine
 10
61.45223676551745
 20
45.6644229986353
 30
0.0
 11
69.40334750034003
 21
43.96174386928993
 31
0.0
  0
LINE
  5
121
330
1E
100
AcDbEntity
  8
0
100
AcDbLine
 10
69.40334750034003
 20
43.96174386928993
 30
0.0
 11
73.00941660303306
 21
43.32720337961734
 31
0.0
  0
LINE
  5
122
330
1E
100
AcDbEntity
  8
0
100
AcDbLine
 10
0.900000000000001
 20
138.1
 30
0.0
 11
0.0000000000000012
 21
127.0
 31
0.0
  0
LINE
  5
123
330
1E
100
AcDbEntity
  8
0
100
AcDbLine
 10
64.75
 20
94.875
 30
0.0
 11
64.0
 21
90.0
 31
0.0
  0
LINE
  5
124
330
1E
100
AcDbEntity
  8
0
100
AcDbLine
 10
73.0
 20
73.3955344262295
 30
0.0
 11
75.16370065869773
 21
71.81558268413374
 31
0.0
  0
LINE
  5
125
330
1E
100
AcDbEntity
  8
0
100
AcDbLine
 10
75.16370065869773
 20
71.81558268413374
 30
0.0
 11
77.9865849617504
 21
70.54102943998066
 31
0.0
  0
LINE
  5
126
330
1E
100
AcDbEntity
  8
0
100
AcDbLine
 10
77.9865849617504
 20
70.54102943998066
 30
0.0
 11
79.0
 21
70.2228260869565
 31
0.0
  0
LINE
  5
127
330
1E
100
AcDbEntity
  8
0
100
AcDbLine
 10
95.05
 20
71.92499999999999
 30
0.0
 11
97.0
 21
73.3955344262295
 31
0.0
  0
LINE
  5
128
330
1E
100
AcDbEntity
  8
0
100
AcDbLine
 10
99.625
 20
75.37510000000001
 30
0.0
 11
103.075
 21
79.95
 31
0.0
  0
LINE
  5
129
330
1E
100
AcDbEntity
  8
0
100
AcDbLine
 10
105.2499999999999
 20
85.1251
 30
0.0
 11
106.0581195896318
 21
89.90592719558589
 31
0.0
  0
LINE
  5
12A
330
1E
100
AcDbEntity
  8
0
100
AcDbLine
 10
106.0581195896318
 20
89.90592719558589
 30
0.0
 11
105.2499999999999
 21
94.875
 31
0.0
  0
LINE
  5
12B
330
1E
100
AcDbEntity
  8
0
100
AcDbLine
 10
88.9
 20
178.5
 30
0.0
 11
92.5
 21
177.0
 31
0.0
  0
LINE
  5
12C
330
1E
100
AcDbEntity
  8
0
100
AcDbLine
 10
95.6
 20
174.5999999999999
 30
0.0
 11
98.0
 21
171.5
 31
0.0
  0
LINE
  5
12D
330
1E
100
AcDbEntity
  8
0
100
AcDbLine
 10
100.0
 20
164.0
 30
0.0
 11
99.50000000000001
 21
160.0999999999999
 31
0.0
  0
LINE
  5
12E
330
1E
100
AcDbEntity
  8
0
100
AcDbLine
 10
95.6
 20
153.3999999999999
 30
0.0
 11
98.0
 21
156.4999999999999
 31
0.0
  0
ENDSEC
  0
SECTION
  2
OBJECTS
  0
DICTIONARY
  5
C
330
0
100
AcDbDictionary
  3
ACAD_GROUP
350
D
  3
ACAD_LAYOUT
350
19
  3
ACAD_MLINESTYLE
350
16
  3
ACAD_PLOTSETTINGS
350
18
  3
ACAD_PLOTSTYLENAME
350
E
  3
ACDBHEADERROUNDTRIPXREC
350
157
  3
ACDBVARIABLEDICTIONARY
350
12F
  0
DICTIONARY
  5
179
330
1E
100
AcDbDictionary
280
     1
  3
ACAD_LAYOUTSELFREF
360
17A
  0
DICTIONARY
  5
177
330
1A
100
AcDbDictionary
280
     1
  3
ACAD_LAYOUTSELFREF
360
178
  0
DICTIONARY
  5
D
102
{ACAD_REACTORS
330
C
102
}
330
C
100
AcDbDictionary
  0
DICTIONARY
  5
19
102
{ACAD_REACTORS
330
C
102
}
330
C
100
AcDbDictionary
  0
DICTIONARY
  5
16
102
{ACAD_REACTORS
330
C
102
}
330
C
100
AcDbDictionary
  3
STANDARD
350
17
  0
DICTIONARY
  5
18
102
{ACAD_REACTORS
330
C
102
}
330
C
100
AcDbDictionary
  0
ACDBDICTIONARYWDFLT
  5
E
102
{ACAD_REACTORS
330
C
102
}
330
C
100
AcDbDictionary
281
     1
  3
Normal
350
F
100
AcDbDictionaryWithDefault
340
F
  0
DICTIONARY
  5
157
102
{ACAD_REACTORS
330
C
102
}
330
C
100
AcDbDictionary
  3
CEPSNTYPE
350
161
  3
FINGERPRINTGUID
350
162
  3
HYPERLINKBASE
350
15A
  3
INSUNITS
350
160
  3
LAYOUTDICT
350
15C
  3
LWETCUNION
350
15F
  3
PLOTSETDICT
350
15D
  3
PLOTSTYLNAMDICT
350
15E
  3
PSVPSCALE
350
164
  3
PUCSBASE
350
167
  3
PUCSORGBACK
350
16D
  3
PUCSORGBOTTOM
350
169
  3
PUCSORGFRONT
350
16C
  3
PUCSORGLEFT
350
16A
  3
PUCSORGRIGHT
350
16B
  3
PUCSORGTOP
350
168
  3
PUCSORTHOREF
350
165
  3
PUCSORTHOVIEW
350
166
  3
STYLESHEET
350
15B
  3
TSTACKALIGN
350
158
  3
TSTACKSIZE
350
159
  3
UCSBASE
350
170
  3
UCSORGBACK
350
176
  3
UCSORGBOTTOM
350
172
  3
UCSORGFRONT
350
175
  3
UCSORGLEFT
350
173
  3
UCSORGRIGHT
350
174
  3
UCSORGTOP
350
171
  3
UCSORTHOREF
350
16E
  3
UCSORTHOVIEW
350
16F
  3
VERSIONGUID
350
163
  0
DICTIONARY
  5
12F
102
{ACAD_REACTORS
330
C
102
}
330
C
100
AcDbDictionary
  3
DIMASSOC
350
130
  0
XRECORD
  5
17A
102
{ACAD_REACTORS
330
179
102
}
330
179
100
AcDbXrecord
340
1E
  0
XRECORD
  5
178
102
{ACAD_REACTORS
330
177
102
}
330
177
100
AcDbXrecord
340
1A
  0
MLINESTYLE
  5
17
102
{ACAD_REACTORS
330
16
102
}
330
16
100
AcDbMlineStyle
  2
STANDARD
 70
     0
  3

 62
   256
 51
90.0
 52
90.0
 71
     2
 49
0.5
 62
   256
  6
BYLAYER
 49
-0.5
 62
   256
  6
BYLAYER
  0
ACDBPLACEHOLDER
  5
F
102
{ACAD_REACTORS
330
E
102
}
330
E
100
AcDbPlaceHolder
280
     0
  0
XRECORD
  5
161
102
{ACAD_REACTORS
330
157
102
}
330
157
100
AcDbXrecord
 90
        0
  0
XRECORD
  5
162
102
{ACAD_REACTORS
330
157
102
}
330
157
100
AcDbXrecord
  1
{468F064E-795E-43A5-8FD1-C7E6883EB8F9}
  0
XRECORD
  5
15A
102
{ACAD_REACTORS
330
157
102
}
330
157
100
AcDbXrecord
  1

  0
XRECORD
  5
160
102
{ACAD_REACTORS
330
157
102
}
330
157
100
AcDbXrecord
 90
        0
  0
XRECORD
  5
15C
102
{ACAD_REACTORS
330
157
102
}
330
157
100
AcDbXrecord
340
19
  0
XRECORD
  5
15F
102
{ACAD_REACTORS
330
157
102
}
330
157
100
AcDbXrecord
 90
    10781
  0
XRECORD
  5
15D
102
{ACAD_REACTORS
330
157
102
}
330
157
100
AcDbXrecord
340
18
  0
XRECORD
  5
15E
102
{ACAD_REACTORS
330
157
102
}
330
157
100
AcDbXrecord
340
E
  0
XRECORD
  5
164
102
{ACAD_REACTORS
330
157
102
}
330
157
100
AcDbXrecord
 40
0.0
  0
XRECORD
  5
167
102
{ACAD_REACTORS
330
157
102
}
330
157
100
AcDbXrecord
340
0
  0
XRECORD
  5
16D
102
{ACAD_REACTORS
330
157
102
}
330
157
100
AcDbXrecord
 10
0.0
 20
0.0
 30
0.0
  0
XRECORD
  5
169
102
{ACAD_REACTORS
330
157
102
}
330
157
100
AcDbXrecord
 10
0.0
 20
0.0
 30
0.0
  0
XRECORD
  5
16C
102
{ACAD_REACTORS
330
157
102
}
330
157
100
AcDbXrecord
 10
0.0
 20
0.0
 30
0.0
  0
XRECORD
  5
16A
102
{ACAD_REACTORS
330
157
102
}
330
157
100
AcDbXrecord
 10
0.0
 20
0.0
 30
0.0
  0
XRECORD
  5
16B
102
{ACAD_REACTORS
330
157
102
}
330
157
100
AcDbXrecord
 10
0.0
 20
0.0
 30
0.0
  0
XRECORD
  5
168
102
{ACAD_REACTORS
330
157
102
}
330
157
100
AcDbXrecord
 10
0.0
 20
0.0
 30
0.0
  0
XRECORD
  5
165
102
{ACAD_REACTORS
330
157
102
}
330
157
100
AcDbXrecord
340
0
  0
XRECORD
  5
166
102
{ACAD_REACTORS
330
157
102
}
330
157
100
AcDbXrecord
 70
     0
  0
XRECORD
  5
15B
102
{ACAD_REACTORS
330
157
102
}
330
157
100
AcDbXrecord
  1

  0
XRECORD
  5
158
102
{ACAD_REACTORS
330
157
102
}
330
157
100
AcDbXrecord
 90
        1
  0
XRECORD
  5
159
102
{ACAD_REACTORS
330
157
102
}
330
157
100
AcDbXrecord
 90
       70
  0
XRECORD
  5
170
102
{ACAD_REACTORS
330
157
102
}
330
157
100
AcDbXrecord
340
0
  0
XRECORD
  5
176
102
{ACAD_REACTORS
330
157
102
}
330
157
100
AcDbXrecord
 10
0.0
 20
0.0
 30
0.0
  0
XRECORD
  5
172
102
{ACAD_REACTORS
330
157
102
}
330
157
100
AcDbXrecord
 10
0.0
 20
0.0
 30
0.0
  0
XRECORD
  5
175
102
{ACAD_REACTORS
330
157
102
}
330
157
100
AcDbXrecord
 10
0.0
 20
0.0
 30
0.0
  0
XRECORD
  5
173
102
{ACAD_REACTORS
330
157
102
}
330
157
100
AcDbXrecord
 10
0.0
 20
0.0
 30
0.0
  0
XRECORD
  5
174
102
{ACAD_REACTORS
330
157
102
}
330
157
100
AcDbXrecord
 10
0.0
 20
0.0
 30
0.0
  0
XRECORD
  5
171
102
{ACAD_REACTORS
330
157
102
}
330
157
100
AcDbXrecord
 10
0.0
 20
0.0
 30
0.0
  0
XRECORD
  5
16E
102
{ACAD_REACTORS
330
157
102
}
330
157
100
AcDbXrecord
340
0
  0
XRECORD
  5
16F
102
{ACAD_REACTORS
330
157
102
}
330
157
100
AcDbXrecord
 70
     1
  0
XRECORD
  5
163
102
{ACAD_REACTORS
330
157
102
}
330
157
100
AcDbXrecord
  1
{4EFAF18F-F0E5-4264-B444-E2828AFF27CE}
  0
DICTIONARYVAR
  5
130
102
{ACAD_REACTORS
330
12F
102
}
330
12F
100
DictionaryVariables
280
     0
  1
1
  0
ENDSEC
  0
EOF
