  0
SECTION
  2
HEADER
  9
$ACADVER
  1
AC1015
  9
$ACADMAINTVER
 70
    13
  9
$DWGCODEPAGE
  3
ANSI_1252
  9
$INSBASE
 10
0.0
 20
0.0
 30
0.0
  9
$EXTMIN
 10
0.0000224999999984
 20
-0.0760000000000126
 30
0.0
  9
$EXTMAX
 10
190.9999774999999
 20
199.076
 30
0.0
  9
$LIMMIN
 10
0.0
 20
0.0
  9
$LIMMAX
 10
12.0
 20
9.0
  9
$ORTHOMODE
 70
     0
  9
$REGENMODE
 70
     1
  9
$FILLMODE
 70
     1
  9
$QTEXTMODE
 70
     0
  9
$MIRRTEXT
 70
     1
  9
$LTSCALE
 40
1.0
  9
$ATTMODE
 70
     1
  9
$TEXTSIZE
 40
0.2
  9
$TRACEWID
 40
0.05
  9
$TEXTSTYLE
  7
Standard
  9
$CLAYER
  8
0
  9
$CELTYPE
  6
Continuous
  9
$CECOLOR
 62
   256
  9
$CELTSCALE
 40
1.0
  9
$DISPSILH
 70
     0
  9
$DIMSCALE
 40
1.0
  9
$DIMASZ
 40
0.18
  9
$DIMEXO
 40
0.0625
  9
$DIMDLI
 40
0.38
  9
$DIMRND
 40
0.0
  9
$DIMDLE
 40
0.0
  9
$DIMEXE
 40
0.18
  9
$DIMTP
 40
0.0
  9
$DIMTM
 40
0.0
  9
$DIMTXT
 40
0.18
  9
$DIMCEN
 40
0.09
  9
$DIMTSZ
 40
0.0
  9
$DIMTOL
 70
     0
  9
$DIMLIM
 70
     0
  9
$DIMTIH
 70
     1
  9
$DIMTOH
 70
     1
  9
$DIMSE1
 70
     0
  9
$DIMSE2
 70
     0
  9
$DIMTAD
 70
     0
  9
$DIMZIN
 70
     0
  9
$DIMBLK
  1

  9
$DIMASO
 70
     1
  9
$DIMSHO
 70
     1
  9
$DIMPOST
  1

  9
$DIMAPOST
  1

  9
$DIMALT
 70
     0
  9
$DIMALTD
 70
     2
  9
$DIMALTF
 40
25.4
  9
$DIMLFAC
 40
1.0
  9
$DIMTOFL
 70
     0
  9
$DIMTVP
 40
0.0
  9
$DIMTIX
 70
     0
  9
$DIMSOXD
 70
     0
  9
$DIMSAH
 70
     0
  9
$DIMBLK1
  1

  9
$DIMBLK2
  1

  9
$DIMSTYLE
  2
Standard
  9
$DIMCLRD
 70
     0
  9
$DIMCLRE
 70
     0
  9
$DIMCLRT
 70
     0
  9
$DIMTFAC
 40
1.0
  9
$DIMGAP
 40
0.09
  9
$DIMJUST
 70
     0
  9
$DIMSD1
 70
     0
  9
$DIMSD2
 70
     0
  9
$DIMTOLJ
 70
     1
  9
$DIMTZIN
 70
     0
  9
$DIMALTZ
 70
     0
  9
$DIMALTTZ
 70
     0
  9
$DIMUPT
 70
     0
  9
$DIMDEC
 70
     4
  9
$DIMTDEC
 70
     4
  9
$DIMALTU
 70
     2
  9
$DIMALTTD
 70
     2
  9
$DIMTXSTY
  7
Standard
  9
$DIMAUNIT
 70
     0
  9
$DIMADEC
 70
     0
  9
$DIMALTRND
 40
0.0
  9
$DIMAZIN
 70
     0
  9
$DIMDSEP
 70
    46
  9
$DIMATFIT
 70
     3
  9
$DIMFRAC
 70
     0
  9
$DIMLDRBLK
  1

  9
$DIMLUNIT
 70
     2
  9
$DIMLWD
 70
    -2
  9
$DIMLWE
 70
    -2
  9
$DIMTMOVE
 70
     0
  9
$LUNITS
 70
     2
  9
$LUPREC
 70
     4
  9
$SKETCHINC
 40
0.1
  9
$FILLETRAD
 40
0.0
  9
$AUNITS
 70
     0
  9
$AUPREC
 70
     0
  9
$MENU
  1
.
  9
$ELEVATION
 40
0.0
  9
$PELEVATION
 40
0.0
  9
$THICKNESS
 40
0.0
  9
$LIMCHECK
 70
     0
  9
$CHAMFERA
 40
0.0
  9
$CHAMFERB
 40
0.0
  9
$CHAMFERC
 40
0.0
  9
$CHAMFERD
 40
0.0
  9
$SKPOLY
 70
     0
  9
$TDCREATE
 40
2454875.824495428
  9
$TDUCREATE
 40
2454875.782828761
  9
$TDUPDATE
 40
2454875.827363449
  9
$TDUUPDATE
 40
2454875.785696782
  9
$TDINDWG
 40
0.0028680208
  9
$TDUSRTIMER
 40
0.0028680208
  9
$USRTIMER
 70
     1
  9
$ANGBASE
 50
0.0
  9
$ANGDIR
 70
     0
  9
$PDMODE
 70
     0
  9
$PDSIZE
 40
0.0
  9
$PLINEWID
 40
0.0
  9
$SPLFRAME
 70
     0
  9
$SPLINETYPE
 70
     6
  9
$SPLINESEGS
 70
     8
  9
$HANDSEED
  5
1F6
  9
$SURFTAB1
 70
     6
  9
$SURFTAB2
 70
     6
  9
$SURFTYPE
 70
     6
  9
$SURFU
 70
     6
  9
$SURFV
 70
     6
  9
$UCSBASE
  2

  9
$UCSNAME
  2

  9
$UCSORG
 10
0.0
 20
0.0
 30
0.0
  9
$UCSXDIR
 10
1.0
 20
0.0
 30
0.0
  9
$UCSYDIR
 10
0.0
 20
1.0
 30
0.0
  9
$UCSORTHOREF
  2

  9
$UCSORTHOVIEW
 70
     1
  9
$UCSORGTOP
 10
0.0
 20
0.0
 30
0.0
  9
$UCSORGBOTTOM
 10
0.0
 20
0.0
 30
0.0
  9
$UCSORGLEFT
 10
0.0
 20
0.0
 30
0.0
  9
$UCSORGRIGHT
 10
0.0
 20
0.0
 30
0.0
  9
$UCSORGFRONT
 10
0.0
 20
0.0
 30
0.0
  9
$UCSORGBACK
 10
0.0
 20
0.0
 30
0.0
  9
$PUCSBASE
  2

  9
$PUCSNAME
  2

  9
$PUCSORG
 10
0.0
 20
0.0
 30
0.0
  9
$PUCSXDIR
 10
1.0
 20
0.0
 30
0.0
  9
$PUCSYDIR
 10
0.0
 20
1.0
 30
0.0
  9
$PUCSORTHOREF
  2

  9
$PUCSORTHOVIEW
 70
     0
  9
$PUCSORGTOP
 10
0.0
 20
0.0
 30
0.0
  9
$PUCSORGBOTTOM
 10
0.0
 20
0.0
 30
0.0
  9
$PUCSORGLEFT
 10
0.0
 20
0.0
 30
0.0
  9
$PUCSORGRIGHT
 10
0.0
 20
0.0
 30
0.0
  9
$PUCSORGFRONT
 10
0.0
 20
0.0
 30
0.0
  9
$PUCSORGBACK
 10
0.0
 20
0.0
 30
0.0
  9
$USERI1
 70
     0
  9
$USERI2
 70
     0
  9
$USERI3
 70
     0
  9
$USERI4
 70
     0
  9
$USERI5
 70
     0
  9
$USERR1
 40
0.0
  9
$USERR2
 40
0.0
  9
$USERR3
 40
0.0
  9
$USERR4
 40
0.0
  9
$USERR5
 40
0.0
  9
$WORLDVIEW
 70
     1
  9
$SHADEDGE
 70
     3
  9
$SHADEDIF
 70
    70
  9
$TILEMODE
 70
     1
  9
$MAXACTVP
 70
    64
  9
$PINSBASE
 10
0.0
 20
0.0
 30
0.0
  9
$PLIMCHECK
 70
     0
  9
$PEXTMIN
 10
1.000000000000000E+20
 20
1.000000000000000E+20
 30
1.000000000000000E+20
  9
$PEXTMAX
 10
-1.000000000000000E+20
 20
-1.000000000000000E+20
 30
-1.000000000000000E+20
  9
$PLIMMIN
 10
0.0
 20
0.0
  9
$PLIMMAX
 10
12.0
 20
9.0
  9
$UNITMODE
 70
     0
  9
$VISRETAIN
 70
     1
  9
$PLINEGEN
 70
     0
  9
$PSLTSCALE
 70
     1
  9
$TREEDEPTH
 70
  3020
  9
$CMLSTYLE
  2
Standard
  9
$CMLJUST
 70
     0
  9
$CMLSCALE
 40
1.0
  9
$PROXYGRAPHICS
 70
     1
  9
$MEASUREMENT
 70
     0
  9
$CELWEIGHT
370
    -1
  9
$ENDCAPS
280
     0
  9
$JOINSTYLE
280
     0
  9
$LWDISPLAY
290
     0
  9
$INSUNITS
 70
     0
  9
$HYPERLINKBASE
  1

  9
$STYLESHEET
  1

  9
$XEDIT
290
     1
  9
$CEPSNTYPE
380
     0
  9
$PSTYLEMODE
290
     1
  9
$FINGERPRINTGUID
  2
{7AF1E7C4-5902-48CD-BAB6-51F24F7BB241}
  9
$VERSIONGUID
  2
{3A1E7447-CC72-45EC-8755-759E5709F793}
  9
$EXTNAMES
290
     1
  9
$PSVPSCALE
 40
0.0
  9
$OLESTARTUP
290
     0
  0
ENDSEC
  0
SECTION
  2
CLASSES
  0
CLASS
  1
ACDBDICTIONARYWDFLT
  2
AcDbDictionaryWithDefault
  3
AutoCAD 2000
 90
        0
280
     0
281
     0
  0
CLASS
  1
ACDBPLACEHOLDER
  2
AcDbPlaceHolder
  3
AutoCAD 2000
 90
        0
280
     0
281
     0
  0
CLASS
  1
LAYOUT
  2
AcDbLayout
  3
AutoCAD 2000
 90
        0
280
     0
281
     0
  0
CLASS
  1
DICTIONARYVAR
  2
AcDbDictionaryVar
  3
AutoCAD 2000
 90
        0
280
     0
281
     0
  0
ENDSEC
  0
SECTION
  2
TABLES
  0
TABLE
  2
VPORT
  5
8
330
0
100
AcDbSymbolTable
 70
     2
  0
VPORT
  5
1F5
330
8
100
AcDbSymbolTableRecord
100
AcDbViewportTableRecord
  2
*Active
 70
     0
 10
0.0
 20
0.0
 11
1.0
 21
1.0
 12
95.5
 22
99.50000000000001
 13
0.0
 23
0.0
 14
1.0
 24
1.0
 15
0.0
 25
0.0
 16
0.0
 26
0.0
 36
1.0
 17
0.0
 27
0.0
 37
0.0
 40
200.4098021052631
 41
1.968387776606954
 42
50.0
 43
0.0
 44
0.0
 50
0.0
 51
0.0
 71
     0
 72
   100
 73
     1
 74
     3
 75
     0
 76
     0
 77
     0
 78
     0
281
     0
 65
     1
110
0.0
120
0.0
130
0.0
111
1.0
121
0.0
131
0.0
112
0.0
122
1.0
132
0.0
 79
     1
146
0.0
  0
ENDTAB
  0
TABLE
  2
LTYPE
  5
5
330
0
100
AcDbSymbolTable
 70
     1
  0
LTYPE
  5
13
330
5
100
AcDbSymbolTableRecord
100
AcDbLinetypeTableRecord
  2
ByBlock
 70
     0
  3

 72
    65
 73
     0
 40
0.0
  0
LTYPE
  5
14
330
5
100
AcDbSymbolTableRecord
100
AcDbLinetypeTableRecord
  2
ByLayer
 70
     0
  3

 72
    65
 73
     0
 40
0.0
  0
LTYPE
  5
15
330
5
100
AcDbSymbolTableRecord
100
AcDbLinetypeTableRecord
  2
Continuous
 70
     0
  3
Solid line
 72
    65
 73
     0
 40
0.0
  0
ENDTAB
  0
TABLE
  2
LAYER
  5
2
330
0
100
AcDbSymbolTable
 70
     1
  0
LAYER
  5
10
330
2
100
AcDbSymbolTableRecord
100
AcDbLayerTableRecord
  2
0
 70
     0
 62
     7
  6
Continuous
370
    -3
390
F
  0
ENDTAB
  0
TABLE
  2
STYLE
  5
3
330
0
100
AcDbSymbolTable
 70
     1
  0
STYLE
  5
11
330
3
100
AcDbSymbolTableRecord
100
AcDbTextStyleTableRecord
  2
Standard
 70
     0
 40
0.0
 41
1.0
 50
0.0
 71
     0
 42
0.2
  3
txt
  4

  0
ENDTAB
  0
TABLE
  2
VIEW
  5
6
330
0
100
AcDbSymbolTable
 70
     0
  0
ENDTAB
  0
TABLE
  2
UCS
  5
7
330
0
100
AcDbSymbolTable
 70
     0
  0
ENDTAB
  0
TABLE
  2
APPID
  5
9
330
0
100
AcDbSymbolTable
 70
     1
  0
APPID
  5
12
330
9
100
AcDbSymbolTableRecord
100
AcDbRegAppTableRecord
  2
ACAD
 70
     0
  0
ENDTAB
  0
TABLE
  2
DIMSTYLE
  5
A
330
0
100
AcDbSymbolTable
 70
     1
100
AcDbDimStyleTable
 71
     0
  0
DIMSTYLE
105
1E3
330
A
100
AcDbSymbolTableRecord
100
AcDbDimStyleTableRecord
  2
Standard
 70
     0
340
11
  0
ENDTAB
  0
TABLE
  2
BLOCK_RECORD
  5
1
330
0
100
AcDbSymbolTable
 70
     0
  0
BLOCK_RECORD
  5
1E
330
1
100
AcDbSymbolTableRecord
100
AcDbBlockTableRecord
  2
*Model_Space
340
21
  0
BLOCK_RECORD
  5
1A
330
1
100
AcDbSymbolTableRecord
100
AcDbBlockTableRecord
  2
*Paper_Space
340
1D
  0
ENDTAB
  0
ENDSEC
  0
SECTION
  2
BLOCKS
  0
BLOCK
  5
1F
330
1E
100
AcDbEntity
  8
0
100
AcDbBlockBegin
  2
*Model_Space
 70
     0
 10
0.0
 20
0.0
 30
0.0
  3
*Model_Space
  1

  0
ENDBLK
  5
20
330
1E
100
AcDbEntity
  8
0
100
AcDbBlockEnd
  0
BLOCK
  5
1B
330
1A
100
AcDbEntity
 67
     1
  8
0
100
AcDbBlockBegin
  2
*Paper_Space
 70
     0
 10
0.0
 20
0.0
 30
0.0
  3
*Paper_Space
  1

  0
ENDBLK
  5
1C
330
1A
100
AcDbEntity
 67
     1
  8
0
100
AcDbBlockEnd
  0
ENDSEC
  0
SECTION
  2
ENTITIES
  0
LINE
  5
22
330
1E
100
AcDbEntity
  8
0
100
AcDbLine
 10
2.813267499999999
 20
57.3279
 30
0.0
 11
4.966007499999999
 21
55.95839999999999
 31
0.0
  0
LINE
  5
23
330
1E
100
AcDbEntity
  8
0
100
AcDbLine
 10
5.2639775
 20
51.076
 30
0.0
 11
5.6599775
 21
51.076
 31
0.0
  0
LINE
  5
24
330
1E
100
AcDbEntity
  8
0
100
AcDbLine
 10
5.6599775
 20
51.076
 30
0.0
 11
6.715977499999999
 21
51.076
 31
0.0
  0
LINE
  5
25
330
1E
100
AcDbEntity
  8
0
100
AcDbLine
 10
4.999977499999999
 20
51.376
 30
0.0
 11
5.395977499999999
 21
51.376
 31
0.0
  0
LINE
  5
26
330
1E
100
AcDbEntity
  8
0
100
AcDbLine
 10
4.999977499999999
 20
51.376
 30
0.0
 11
5.2639775
 21
51.076
 31
0.0
  0
LINE
  5
27
330
1E
100
AcDbEntity
  8
0
100
AcDbLine
 10
4.999977499999999
 20
51.376
 30
0.0
 11
4.999977499999999
 21
55.97651344692329
 31
0.0
  0
LINE
  5
28
330
1E
100
AcDbEntity
  8
0
100
AcDbLine
 10
5.395977499999999
 20
51.376
 30
0.0
 11
6.451977499999999
 21
51.376
 31
0.0
  0
LINE
  5
29
330
1E
100
AcDbEntity
  8
0
100
AcDbLine
 10
6.715977499999999
 20
51.076
 30
0.0
 11
8.431977499999998
 21
51.076
 31
0.0
  0
LINE
  5
2A
330
1E
100
AcDbEntity
  8
0
100
AcDbLine
 10
8.431977499999998
 20
51.076
 30
0.0
 11
10.6759775
 21
51.076
 31
0.0
  0
LINE
  5
2B
330
1E
100
AcDbEntity
  8
0
100
AcDbLine
 10
6.451977499999999
 20
51.376
 30
0.0
 11
8.211977499999999
 21
51.376
 31
0.0
  0
LINE
  5
2C
330
1E
100
AcDbEntity
  8
0
100
AcDbLine
 10
8.211977499999999
 20
51.376
 30
0.0
 11
10.54397749999999
 21
51.376
 31
0.0
  0
LINE
  5
2D
330
1E
100
AcDbEntity
  8
0
100
AcDbLine
 10
26.7359775
 20
51.076
 30
0.0
 11
26.9999775
 21
51.376
 31
0.0
  0
LINE
  5
2E
330
1E
100
AcDbEntity
  8
0
100
AcDbLine
 10
26.3399775
 20
51.076
 30
0.0
 11
26.7359775
 21
51.076
 31
0.0
  0
LINE
  5
2F
330
1E
100
AcDbEntity
  8
0
100
AcDbLine
 10
25.28397749999999
 20
51.076
 30
0.0
 11
26.3399775
 21
51.076
 31
0.0
  0
LINE
  5
30
330
1E
100
AcDbEntity
  8
0
100
AcDbLine
 10
23.56797749999999
 20
51.076
 30
0.0
 11
25.28397749999999
 21
51.076
 31
0.0
  0
LINE
  5
31
330
1E
100
AcDbEntity
  8
0
100
AcDbLine
 10
21.32397749999999
 20
51.076
 30
0.0
 11
23.56797749999999
 21
51.076
 31
0.0
  0
LINE
  5
32
330
1E
100
AcDbEntity
  8
0
100
AcDbLine
 10
18.77197749999999
 20
51.076
 30
0.0
 11
21.32397749999999
 21
51.076
 31
0.0
  0
LINE
  5
33
330
1E
100
AcDbEntity
  8
0
100
AcDbLine
 10
15.99997749999999
 20
51.076
 30
0.0
 11
18.77197749999999
 21
51.076
 31
0.0
  0
LINE
  5
34
330
1E
100
AcDbEntity
  8
0
100
AcDbLine
 10
10.6759775
 20
51.076
 30
0.0
 11
13.2279775
 21
51.076
 31
0.0
  0
LINE
  5
35
330
1E
100
AcDbEntity
  8
0
100
AcDbLine
 10
26.6039775
 20
51.376
 30
0.0
 11
26.9999775
 21
51.376
 31
0.0
  0
LINE
  5
36
330
1E
100
AcDbEntity
  8
0
100
AcDbLine
 10
26.9999775
 20
51.376
 30
0.0
 11
26.9999775
 21
58.6417673281361
 31
0.0
  0
LINE
  5
37
330
1E
100
AcDbEntity
  8
0
100
AcDbLine
 10
25.5479775
 20
51.376
 30
0.0
 11
26.6039775
 21
51.376
 31
0.0
  0
LINE
  5
38
330
1E
100
AcDbEntity
  8
0
100
AcDbLine
 10
23.78797749999999
 20
51.376
 30
0.0
 11
25.5479775
 21
51.376
 31
0.0
  0
LINE
  5
39
330
1E
100
AcDbEntity
  8
0
100
AcDbLine
 10
21.45597749999999
 20
51.376
 30
0.0
 11
23.78797749999999
 21
51.376
 31
0.0
  0
LINE
  5
3A
330
1E
100
AcDbEntity
  8
0
100
AcDbLine
 10
18.8159775
 20
51.376
 30
0.0
 11
21.45597749999999
 21
51.376
 31
0.0
  0
LINE
  5
3B
330
1E
100
AcDbEntity
  8
0
100
AcDbLine
 10
15.99997749999999
 20
51.376
 30
0.0
 11
18.8159775
 21
51.376
 31
0.0
  0
LINE
  5
3C
330
1E
100
AcDbEntity
  8
0
100
AcDbLine
 10
13.2279775
 20
51.076
 30
0.0
 11
15.99997749999999
 21
51.076
 31
0.0
  0
LINE
  5
3D
330
1E
100
AcDbEntity
  8
0
100
AcDbLine
 10
10.54397749999999
 20
51.376
 30
0.0
 11
13.18397749999999
 21
51.376
 31
0.0
  0
LINE
  5
3E
330
1E
100
AcDbEntity
  8
0
100
AcDbLine
 10
26.9999775
 20
58.6417673281361
 30
0.0
 11
26.9999775
 21
51.376
 31
0.0
  0
LINE
  5
3F
330
1E
100
AcDbEntity
  8
0
100
AcDbLine
 10
4.999977499999999
 20
55.97651344692329
 30
0.0
 11
4.999977499999999
 21
51.376
 31
0.0
  0
LINE
  5
40
330
1E
100
AcDbEntity
  8
0
100
AcDbLine
 10
13.18397749999999
 20
51.376
 30
0.0
 11
15.99997749999999
 21
51.376
 31
0.0
  0
LINE
  5
42
330
1E
100
AcDbEntity
  8
0
100
AcDbLine
 10
0.0000224999999984
 20
61.1706
 30
0.0
 11
0.0902144999999984
 21
60.4144
 31
0.0
  0
LINE
  5
43
330
1E
100
AcDbEntity
  8
0
100
AcDbLine
 10
0.0000224999999984
 20
61.1706
 30
0.0
 11
0.456240499999998
 21
61.7804
 31
0.0
  0
LINE
  5
47
330
1E
100
AcDbEntity
  8
0
100
AcDbLine
 10
0.0000224999999984
 20
61.1706
 30
0.0
 11
0.0902144999999984
 21
60.4144
 31
0.0
  0
LINE
  5
48
330
1E
100
AcDbEntity
  8
0
100
AcDbLine
 10
0.0000224999999984
 20
61.1706
 30
0.0
 11
0.456240499999998
 21
61.7804
 31
0.0
  0
LINE
  5
4D
330
1E
100
AcDbEntity
  8
0
100
AcDbLine
 10
0.0902144999999984
 20
60.4144
 30
0.0
 11
0.5902144999999979
 21
59.5484
 31
0.0
  0
LINE
  5
50
330
1E
100
AcDbEntity
  8
0
100
AcDbLine
 10
0.5902144999999979
 20
59.5484
 30
0.0
 11
2.813267499999999
 21
57.3279
 31
0.0
  0
LINE
  5
55
330
1E
100
AcDbEntity
  8
0
100
AcDbLine
 10
0.5902144999999979
 20
59.5484
 30
0.0
 11
2.813267499999999
 21
57.3279
 31
0.0
  0
LINE
  5
6A
330
1E
100
AcDbEntity
  8
0
100
AcDbLine
 10
0.0902144999999984
 20
60.4144
 30
0.0
 11
0.5902144999999979
 21
59.5484
 31
0.0
  0
LINE
  5
74
330
1E
100
AcDbEntity
  8
0
100
AcDbLine
 10
78.1905775
 20
106.2273999999999
 30
0.0
 11
80.99627750000001
 21
108.4775999999999
 31
0.0
  0
LINE
  5
77
330
1E
100
AcDbEntity
  8
0
100
AcDbLine
 10
28.3747775
 20
59.424
 30
0.0
 11
84.20187750000001
 21
91.64810000000001
 31
0.0
  0
LINE
  5
78
330
1E
100
AcDbEntity
  8
0
100
AcDbLine
 10
84.3842775
 20
112.3905
 30
0.0
 11
85.76257750000001
 21
114.2076
 31
0.0
  0
LINE
  5
7C
330
1E
100
AcDbEntity
  8
0
100
AcDbLine
 10
87.4324775
 20
92.9413
 30
0.0
 11
90.37927749999999
 21
93.69190000000001
 31
0.0
  0
LINE
  5
7E
330
1E
100
AcDbEntity
  8
0
100
AcDbLine
 10
86.8913775
 20
116.3696
 30
0.0
 11
88.1848775
 21
119.8242
 31
0.0
  0
LINE
  5
7F
330
1E
100
AcDbEntity
  8
0
100
AcDbLine
 10
85.76257750000001
 20
114.2076
 30
0.0
 11
86.8913775
 21
116.3696
 31
0.0
  0
LINE
  5
80
330
1E
100
AcDbEntity
  8
0
100
AcDbLine
 10
88.1848775
 20
119.8242
 30
0.0
 11
88.72577750000001
 21
122.3858
 31
0.0
  0
LINE
  5
81
330
1E
100
AcDbEntity
  8
0
100
AcDbLine
 10
88.9999775
 20
124.587
 30
0.0
 11
88.9999775
 21
126.5719
 31
0.0
  0
LINE
  5
82
330
1E
100
AcDbEntity
  8
0
100
AcDbLine
 10
88.72577750000001
 20
122.3858
 30
0.0
 11
88.9999775
 21
124.587
 31
0.0
  0
LINE
  5
83
330
1E
100
AcDbEntity
  8
0
100
AcDbLine
 10
88.9999775
 20
126.5719
 30
0.0
 11
88.9999775
 21
124.587
 31
0.0
  0
LINE
  5
84
330
1E
100
AcDbEntity
  8
0
100
AcDbLine
 10
88.9999775
 20
126.5719
 30
0.0
 11
88.9999775
 21
128.376
 31
0.0
  0
LINE
  5
85
330
1E
100
AcDbEntity
  8
0
100
AcDbLine
 10
110.5499774999999
 20
91.126
 30
0.0
 11
111.9999774999999
 21
90.576
 31
0.0
  0
LINE
  5
86
330
1E
100
AcDbEntity
  8
0
100
AcDbLine
 10
111.9999774999999
 20
90.576
 30
0.0
 11
114.5439775
 21
90.576
 31
0.0
  0
LINE
  5
87
330
1E
100
AcDbEntity
  8
0
100
AcDbLine
 10
111.9999774999999
 20
90.576
 30
0.0
 11
113.5519774999999
 21
90.576
 31
0.0
  0
LINE
  5
89
330
1E
100
AcDbEntity
  8
0
100
AcDbLine
 10
113.5519774999999
 20
90.576
 30
0.0
 11
116.6719775
 21
90.576
 31
0.0
  0
LINE
  5
8A
330
1E
100
AcDbEntity
  8
0
100
AcDbLine
 10
114.5439775
 20
90.576
 30
0.0
 11
117.1839775
 21
90.576
 31
0.0
  0
LINE
  5
8D
330
1E
100
AcDbEntity
  8
0
100
AcDbLine
 10
119.9999774999999
 20
90.576
 30
0.0
 11
122.8159774999999
 21
90.576
 31
0.0
  0
LINE
  5
8E
330
1E
100
AcDbEntity
  8
0
100
AcDbLine
 10
119.9999774999999
 20
90.576
 30
0.0
 11
123.3279774999999
 21
90.576
 31
0.0
  0
LINE
  5
8F
330
1E
100
AcDbEntity
  8
0
100
AcDbLine
 10
116.6719775
 20
90.576
 30
0.0
 11
119.9999774999999
 21
90.576
 31
0.0
  0
LINE
  5
90
330
1E
100
AcDbEntity
  8
0
100
AcDbLine
 10
117.1839775
 20
90.576
 30
0.0
 11
119.9999774999999
 21
90.576
 31
0.0
  0
LINE
  5
96
330
1E
100
AcDbEntity
  8
0
100
AcDbLine
 10
109.9999774999999
 20
92.57600000000001
 30
0.0
 11
110.5499774999999
 21
91.126
 31
0.0
  0
LINE
  5
97
330
1E
100
AcDbEntity
  8
0
100
AcDbLine
 10
109.9999774999999
 20
92.57600000000001
 30
0.0
 11
109.9999774999999
 21
135.5759999999999
 31
0.0
  0
LINE
  5
9B
330
1E
100
AcDbEntity
  8
0
100
AcDbLine
 10
135.5719775
 20
89.92399999999999
 30
0.0
 11
136.5719775
 21
59.92399999999999
 31
0.0
  0
LINE
  5
9C
330
1E
100
AcDbEntity
  8
0
100
AcDbLine
 10
135.5719775
 20
89.92399999999999
 30
0.0
 11
135.9719774999999
 21
89.92399999999999
 31
0.0
  0
LINE
  5
9D
330
1E
100
AcDbEntity
  8
0
100
AcDbLine
 10
132.9999775
 20
90.576
 30
0.0
 11
132.9999775
 21
91.576
 31
0.0
  0
LINE
  5
9E
330
1E
100
AcDbEntity
  8
0
100
AcDbLine
 10
132.5319774999999
 20
90.576
 30
0.0
 11
132.9999775
 21
90.576
 31
0.0
  0
LINE
  5
9F
330
1E
100
AcDbEntity
  8
0
100
AcDbLine
 10
130.6039774999999
 20
90.576
 30
0.0
 11
130.9999775
 21
90.576
 31
0.0
  0
LINE
  5
A0
330
1E
100
AcDbEntity
  8
0
100
AcDbLine
 10
131.2839775
 20
90.576
 30
0.0
 11
132.5319774999999
 21
90.576
 31
0.0
  0
LINE
  5
A1
330
1E
100
AcDbEntity
  8
0
100
AcDbLine
 10
129.5479775
 20
90.576
 30
0.0
 11
130.6039774999999
 21
90.576
 31
0.0
  0
LINE
  5
A2
330
1E
100
AcDbEntity
  8
0
100
AcDbLine
 10
129.2039774999999
 20
90.576
 30
0.0
 11
131.2839775
 21
90.576
 31
0.0
  0
LINE
  5
A3
330
1E
100
AcDbEntity
  8
0
100
AcDbLine
 10
127.7879774999999
 20
90.576
 30
0.0
 11
129.5479775
 21
90.576
 31
0.0
  0
LINE
  5
A4
330
1E
100
AcDbEntity
  8
0
100
AcDbLine
 10
126.4479774999999
 20
90.576
 30
0.0
 11
129.2039774999999
 21
90.576
 31
0.0
  0
LINE
  5
A5
330
1E
100
AcDbEntity
  8
0
100
AcDbLine
 10
125.4559774999999
 20
90.576
 30
0.0
 11
127.7879774999999
 21
90.576
 31
0.0
  0
LINE
  5
A6
330
1E
100
AcDbEntity
  8
0
100
AcDbLine
 10
132.9999775
 20
91.576
 30
0.0
 11
132.9999775
 21
90.576
 31
0.0
  0
LINE
  5
A7
330
1E
100
AcDbEntity
  8
0
100
AcDbLine
 10
123.3279774999999
 20
90.576
 30
0.0
 11
126.4479774999999
 21
90.576
 31
0.0
  0
LINE
  5
A8
330
1E
100
AcDbEntity
  8
0
100
AcDbLine
 10
122.8159774999999
 20
90.576
 30
0.0
 11
125.4559774999999
 21
90.576
 31
0.0
  0
LINE
  5
A9
330
1E
100
AcDbEntity
  8
0
100
AcDbLine
 10
135.9719774999999
 20
89.92399999999999
 30
0.0
 11
137.0719774999999
 21
89.92399999999999
 31
0.0
  0
LINE
  5
AA
330
1E
100
AcDbEntity
  8
0
100
AcDbLine
 10
136.5719775
 20
59.92399999999999
 30
0.0
 11
136.9719774999999
 21
59.92399999999999
 31
0.0
  0
LINE
  5
AB
330
1E
100
AcDbEntity
  8
0
100
AcDbLine
 10
136.9719774999999
 20
59.92399999999999
 30
0.0
 11
137.9719774999999
 21
59.92399999999999
 31
0.0
  0
LINE
  5
AC
330
1E
100
AcDbEntity
  8
0
100
AcDbLine
 10
137.0719774999999
 20
89.92399999999999
 30
0.0
 11
138.9719774999999
 21
89.92399999999999
 31
0.0
  0
LINE
  5
AD
330
1E
100
AcDbEntity
  8
0
100
AcDbLine
 10
136.4679774999999
 20
90.28399999999999
 30
0.0
 11
137.5239775
 21
90.28399999999999
 31
0.0
  0
LINE
  5
AE
330
1E
100
AcDbEntity
  8
0
100
AcDbLine
 10
137.9719774999999
 20
59.92399999999999
 30
0.0
 11
139.6719775
 21
59.92399999999999
 31
0.0
  0
LINE
  5
AF
330
1E
100
AcDbEntity
  8
0
100
AcDbLine
 10
137.9719774999999
 20
59.92399999999999
 30
0.0
 11
139.5719775
 21
59.92399999999999
 31
0.0
  0
LINE
  5
B0
330
1E
100
AcDbEntity
  8
0
100
AcDbLine
 10
139.5719775
 20
59.92399999999999
 30
0.0
 11
139.5719775
 21
4.18579999999999
 31
0.0
  0
LINE
  5
B1
330
1E
100
AcDbEntity
  8
0
100
AcDbLine
 10
139.5719775
 20
59.92399999999999
 30
0.0
 11
139.8719774999999
 21
59.92399999999999
 31
0.0
  0
LINE
  5
B2
330
1E
100
AcDbEntity
  8
0
100
AcDbLine
 10
139.5719775
 20
4.18579999999999
 30
0.0
 11
139.8719774999999
 21
2.19919999999999
 31
0.0
  0
LINE
  5
B3
330
1E
100
AcDbEntity
  8
0
100
AcDbLine
 10
139.5719775
 20
4.18579999999999
 30
0.0
 11
139.5719775
 21
59.92399999999999
 31
0.0
  0
LINE
  5
B4
330
1E
100
AcDbEntity
  8
0
100
AcDbLine
 10
139.8719774999999
 20
59.92399999999999
 30
0.0
 11
140.5719775
 21
59.92399999999999
 31
0.0
  0
LINE
  5
B5
330
1E
100
AcDbEntity
  8
0
100
AcDbLine
 10
139.8719774999999
 20
2.19919999999999
 30
0.0
 11
140.5719775
 21
1.074699999999989
 31
0.0
  0
LINE
  5
B6
330
1E
100
AcDbEntity
  8
0
100
AcDbLine
 10
140.5719775
 20
59.92399999999999
 30
0.0
 11
141.7719774999999
 21
59.92399999999999
 31
0.0
  0
LINE
  5
B7
330
1E
100
AcDbEntity
  8
0
100
AcDbLine
 10
140.5719775
 20
1.074699999999989
 30
0.0
 11
141.7719774999999
 21
0.4000999999999881
 31
0.0
  0
LINE
  5
B8
330
1E
100
AcDbEntity
  8
0
100
AcDbLine
 10
139.6719775
 20
59.92399999999999
 30
0.0
 11
141.8719774999999
 21
59.92399999999999
 31
0.0
  0
LINE
  5
B9
330
1E
100
AcDbEntity
  8
0
100
AcDbLine
 10
138.9719774999999
 20
89.92399999999999
 30
0.0
 11
141.3719774999999
 21
89.92399999999999
 31
0.0
  0
LINE
  5
BA
330
1E
100
AcDbEntity
  8
0
100
AcDbLine
 10
141.3719774999999
 20
89.92399999999999
 30
0.0
 11
144.0719774999999
 21
89.92399999999999
 31
0.0
  0
LINE
  5
BB
330
1E
100
AcDbEntity
  8
0
100
AcDbLine
 10
137.5239775
 20
90.28399999999999
 30
0.0
 11
139.2839774999999
 21
90.28399999999999
 31
0.0
  0
LINE
  5
BC
330
1E
100
AcDbEntity
  8
0
100
AcDbLine
 10
139.2839774999999
 20
90.28399999999999
 30
0.0
 11
141.6159774999999
 21
90.28399999999999
 31
0.0
  0
LINE
  5
BD
330
1E
100
AcDbEntity
  8
0
100
AcDbLine
 10
141.7719774999999
 20
59.92399999999999
 30
0.0
 11
143.3719774999999
 21
59.92399999999999
 31
0.0
  0
LINE
  5
BE
330
1E
100
AcDbEntity
  8
0
100
AcDbLine
 10
141.7719774999999
 20
0.4000999999999881
 30
0.0
 11
143.3719774999999
 21
0.0251999999999884
 31
0.0
  0
LINE
  5
BF
330
1E
100
AcDbEntity
  8
0
100
AcDbLine
 10
143.3719774999999
 20
59.92399999999999
 30
0.0
 11
145.1719774999999
 21
59.92399999999999
 31
0.0
  0
LINE
  5
C0
330
1E
100
AcDbEntity
  8
0
100
AcDbLine
 10
143.3719774999999
 20
0.0251999999999884
 30
0.0
 11
145.1719774999999
 21
-0.0497000000000086
 31
0.0
  0
LINE
  5
C1
330
1E
100
AcDbEntity
  8
0
100
AcDbLine
 10
141.8719774999999
 20
59.92399999999999
 30
0.0
 11
144.3719774999999
 21
59.92399999999999
 31
0.0
  0
LINE
  5
C2
330
1E
100
AcDbEntity
  8
0
100
AcDbLine
 10
147.0719775
 20
-0.0760000000000126
 30
0.0
 11
148.9719774999999
 21
-0.0497000000000086
 31
0.0
  0
LINE
  5
C3
330
1E
100
AcDbEntity
  8
0
100
AcDbLine
 10
147.0719775
 20
59.92399999999999
 30
0.0
 11
149.7719775
 21
59.92399999999999
 31
0.0
  0
LINE
  5
C4
330
1E
100
AcDbEntity
  8
0
100
AcDbLine
 10
147.0719775
 20
59.92399999999999
 30
0.0
 11
148.9719774999999
 21
59.92399999999999
 31
0.0
  0
LINE
  5
C5
330
1E
100
AcDbEntity
  8
0
100
AcDbLine
 10
147.0719775
 20
89.92399999999999
 30
0.0
 11
150.0719775
 21
89.92399999999999
 31
0.0
  0
LINE
  5
C6
330
1E
100
AcDbEntity
  8
0
100
AcDbLine
 10
145.1719774999999
 20
59.92399999999999
 30
0.0
 11
147.0719775
 21
59.92399999999999
 31
0.0
  0
LINE
  5
C7
330
1E
100
AcDbEntity
  8
0
100
AcDbLine
 10
145.1719774999999
 20
-0.0497000000000086
 30
0.0
 11
147.0719775
 21
-0.0760000000000126
 31
0.0
  0
LINE
  5
C8
330
1E
100
AcDbEntity
  8
0
100
AcDbLine
 10
144.3719774999999
 20
59.92399999999999
 30
0.0
 11
147.0719775
 21
59.92399999999999
 31
0.0
  0
LINE
  5
C9
330
1E
100
AcDbEntity
  8
0
100
AcDbLine
 10
144.0719774999999
 20
89.92399999999999
 30
0.0
 11
147.0719775
 21
89.92399999999999
 31
0.0
  0
LINE
  5
CA
330
1E
100
AcDbEntity
  8
0
100
AcDbLine
 10
141.6159774999999
 20
90.28399999999999
 30
0.0
 11
144.2559775
 21
90.28399999999999
 31
0.0
  0
LINE
  5
CB
330
1E
100
AcDbEntity
  8
0
100
AcDbLine
 10
144.2559775
 20
90.28399999999999
 30
0.0
 11
147.0719775
 21
90.28399999999999
 31
0.0
  0
LINE
  5
CC
330
1E
100
AcDbEntity
  8
0
100
AcDbLine
 10
136.0719774999999
 20
90.28399999999999
 30
0.0
 11
136.3359774999999
 21
89.92399999999999
 31
0.0
  0
LINE
  5
CD
330
1E
100
AcDbEntity
  8
0
100
AcDbLine
 10
136.0719774999999
 20
90.28399999999999
 30
0.0
 11
136.0719774999999
 21
91.576
 31
0.0
  0
LINE
  5
CE
330
1E
100
AcDbEntity
  8
0
100
AcDbLine
 10
136.0719774999999
 20
90.28399999999999
 30
0.0
 11
136.4679774999999
 21
90.28399999999999
 31
0.0
  0
LINE
  5
CF
330
1E
100
AcDbEntity
  8
0
100
AcDbLine
 10
136.0719774999999
 20
91.576
 30
0.0
 11
136.0719774999999
 21
90.28399999999999
 31
0.0
  0
LINE
  5
D0
330
1E
100
AcDbEntity
  8
0
100
AcDbLine
 10
150.7719774999999
 20
59.92399999999999
 30
0.0
 11
152.3719774999999
 21
59.92399999999999
 31
0.0
  0
LINE
  5
D1
330
1E
100
AcDbEntity
  8
0
100
AcDbLine
 10
150.7719774999999
 20
0.0251999999999884
 30
0.0
 11
152.3719774999999
 21
0.4000999999999881
 31
0.0
  0
LINE
  5
D2
330
1E
100
AcDbEntity
  8
0
100
AcDbLine
 10
148.9719774999999
 20
59.92399999999999
 30
0.0
 11
150.7719774999999
 21
59.92399999999999
 31
0.0
  0
LINE
  5
D3
330
1E
100
AcDbEntity
  8
0
100
AcDbLine
 10
148.9719774999999
 20
-0.0497000000000086
 30
0.0
 11
150.7719774999999
 21
0.0251999999999884
 31
0.0
  0
LINE
  5
D4
330
1E
100
AcDbEntity
  8
0
100
AcDbLine
 10
152.3719774999999
 20
59.92399999999999
 30
0.0
 11
153.5719775
 21
59.92399999999999
 31
0.0
  0
LINE
  5
D5
330
1E
100
AcDbEntity
  8
0
100
AcDbLine
 10
152.3719774999999
 20
0.4000999999999881
 30
0.0
 11
153.5719775
 21
1.074699999999989
 31
0.0
  0
LINE
  5
D6
330
1E
100
AcDbEntity
  8
0
100
AcDbLine
 10
152.2719774999999
 20
59.92399999999999
 30
0.0
 11
154.4719774999999
 21
59.92399999999999
 31
0.0
  0
LINE
  5
D7
330
1E
100
AcDbEntity
  8
0
100
AcDbLine
 10
150.0719775
 20
89.92399999999999
 30
0.0
 11
152.7719775
 21
89.92399999999999
 31
0.0
  0
LINE
  5
D8
330
1E
100
AcDbEntity
  8
0
100
AcDbLine
 10
149.7719775
 20
59.92399999999999
 30
0.0
 11
152.2719774999999
 21
59.92399999999999
 31
0.0
  0
LINE
  5
D9
330
1E
100
AcDbEntity
  8
0
100
AcDbLine
 10
154.2719774999999
 20
59.92399999999999
 30
0.0
 11
154.5719775
 21
59.92399999999999
 31
0.0
  0
LINE
  5
DA
330
1E
100
AcDbEntity
  8
0
100
AcDbLine
 10
154.2719774999999
 20
2.19919999999999
 30
0.0
 11
154.5719775
 21
4.18579999999999
 31
0.0
  0
LINE
  5
DB
330
1E
100
AcDbEntity
  8
0
100
AcDbLine
 10
153.5719775
 20
59.92399999999999
 30
0.0
 11
154.2719774999999
 21
59.92399999999999
 31
0.0
  0
LINE
  5
DC
330
1E
100
AcDbEntity
  8
0
100
AcDbLine
 10
153.5719775
 20
1.074699999999989
 30
0.0
 11
154.2719774999999
 21
2.19919999999999
 31
0.0
  0
LINE
  5
DD
330
1E
100
AcDbEntity
  8
0
100
AcDbLine
 10
154.5719775
 20
4.18579999999999
 30
0.0
 11
154.5719775
 21
59.92399999999999
 31
0.0
  0
LINE
  5
DE
330
1E
100
AcDbEntity
  8
0
100
AcDbLine
 10
154.5719775
 20
59.92399999999999
 30
0.0
 11
156.1719775
 21
59.92399999999999
 31
0.0
  0
LINE
  5
DF
330
1E
100
AcDbEntity
  8
0
100
AcDbLine
 10
154.5719775
 20
59.92399999999999
 30
0.0
 11
154.5719775
 21
4.18579999999999
 31
0.0
  0
LINE
  5
E0
330
1E
100
AcDbEntity
  8
0
100
AcDbLine
 10
156.1719775
 20
59.92399999999999
 30
0.0
 11
157.1719775
 21
59.92399999999999
 31
0.0
  0
LINE
  5
E1
330
1E
100
AcDbEntity
  8
0
100
AcDbLine
 10
155.1719775
 20
89.92399999999999
 30
0.0
 11
157.0719775
 21
89.92399999999999
 31
0.0
  0
LINE
  5
E2
330
1E
100
AcDbEntity
  8
0
100
AcDbLine
 10
154.4719774999999
 20
59.92399999999999
 30
0.0
 11
156.1719775
 21
59.92399999999999
 31
0.0
  0
LINE
  5
E3
330
1E
100
AcDbEntity
  8
0
100
AcDbLine
 10
152.7719775
 20
89.92399999999999
 30
0.0
 11
155.1719775
 21
89.92399999999999
 31
0.0
  0
LINE
  5
E4
330
1E
100
AcDbEntity
  8
0
100
AcDbLine
 10
157.5719775
 20
59.92399999999999
 30
0.0
 11
158.5719775
 21
89.92399999999999
 31
0.0
  0
LINE
  5
E5
330
1E
100
AcDbEntity
  8
0
100
AcDbLine
 10
157.1719775
 20
59.92399999999999
 30
0.0
 11
157.5719775
 21
59.92399999999999
 31
0.0
  0
LINE
  5
E6
330
1E
100
AcDbEntity
  8
0
100
AcDbLine
 10
157.0719775
 20
89.92399999999999
 30
0.0
 11
158.1719775
 21
89.92399999999999
 31
0.0
  0
LINE
  5
E7
330
1E
100
AcDbEntity
  8
0
100
AcDbLine
 10
157.8079774999999
 20
89.92399999999999
 30
0.0
 11
158.0719775
 21
90.28399999999999
 31
0.0
  0
LINE
  5
E8
330
1E
100
AcDbEntity
  8
0
100
AcDbLine
 10
157.6759775
 20
90.28399999999999
 30
0.0
 11
158.0719775
 21
90.28399999999999
 31
0.0
  0
LINE
  5
E9
330
1E
100
AcDbEntity
  8
0
100
AcDbLine
 10
156.6199775
 20
90.28399999999999
 30
0.0
 11
157.6759775
 21
90.28399999999999
 31
0.0
  0
LINE
  5
EA
330
1E
100
AcDbEntity
  8
0
100
AcDbLine
 10
154.8599774999999
 20
90.28399999999999
 30
0.0
 11
156.6199775
 21
90.28399999999999
 31
0.0
  0
LINE
  5
EB
330
1E
100
AcDbEntity
  8
0
100
AcDbLine
 10
152.5279775
 20
90.28399999999999
 30
0.0
 11
154.8599774999999
 21
90.28399999999999
 31
0.0
  0
LINE
  5
EC
330
1E
100
AcDbEntity
  8
0
100
AcDbLine
 10
149.8879774999999
 20
90.28399999999999
 30
0.0
 11
152.5279775
 21
90.28399999999999
 31
0.0
  0
LINE
  5
ED
330
1E
100
AcDbEntity
  8
0
100
AcDbLine
 10
147.0719775
 20
90.28399999999999
 30
0.0
 11
149.8879774999999
 21
90.28399999999999
 31
0.0
  0
LINE
  5
EF
330
1E
100
AcDbEntity
  8
0
100
AcDbLine
 10
158.1719775
 20
89.92399999999999
 30
0.0
 11
158.5719775
 21
89.92399999999999
 31
0.0
  0
LINE
  5
F0
330
1E
100
AcDbEntity
  8
0
100
AcDbLine
 10
158.0719775
 20
90.28399999999999
 30
0.0
 11
158.0719775
 21
91.58587544141251
 31
0.0
  0
LINE
  5
F1
330
1E
100
AcDbEntity
  8
0
100
AcDbLine
 10
158.0719775
 20
91.58587544141251
 30
0.0
 11
158.0719775
 21
90.28399999999999
 31
0.0
  0
LINE
  5
F2
330
1E
100
AcDbEntity
  8
0
100
AcDbLine
 10
157.9999775
 20
91.576
 30
0.0
 11
160.4919774999999
 21
91.91779999999999
 31
0.0
  0
LINE
  5
F5
330
1E
100
AcDbEntity
  8
0
100
AcDbLine
 10
160.4919774999999
 20
91.91779999999999
 30
0.0
 11
162.4409775
 21
92.54000000000001
 31
0.0
  0
LINE
  5
F6
330
1E
100
AcDbEntity
  8
0
100
AcDbLine
 10
162.4409775
 20
92.54000000000001
 30
0.0
 11
163.6429775
 21
93.45269999999999
 31
0.0
  0
LINE
  5
F8
330
1E
100
AcDbEntity
  8
0
100
AcDbLine
 10
163.6429775
 20
93.45269999999999
 30
0.0
 11
165.3839774999999
 21
94.1994
 31
0.0
  0
LINE
  5
FA
330
1E
100
AcDbEntity
  8
0
100
AcDbLine
 10
93.06417749999999
 20
93.9769
 30
0.0
 11
94.9999775
 21
94.076
 31
0.0
  0
LINE
  5
FB
330
1E
100
AcDbEntity
  8
0
100
AcDbLine
 10
90.37927749999999
 20
93.69190000000001
 30
0.0
 11
93.06417749999999
 21
93.9769
 31
0.0
  0
LINE
  5
FC
330
1E
100
AcDbEntity
  8
0
100
AcDbLine
 10
176.9999775
 20
30.076
 30
0.0
 11
177.2999774999999
 21
29.37599999999999
 31
0.0
  0
LINE
  5
107
330
1E
100
AcDbEntity
  8
0
100
AcDbLine
 10
177.9999775
 20
29.076
 30
0.0
 11
190.9999774999999
 21
29.076
 31
0.0
  0
LINE
  5
11A
330
1E
100
AcDbEntity
  8
0
100
AcDbLine
 10
190.9999774999999
 20
34.976
 30
0.0
 11
190.9999774999999
 21
33.47599999999999
 31
0.0
  0
LINE
  5
11B
330
1E
100
AcDbEntity
  8
0
100
AcDbLine
 10
190.9999774999999
 20
34.976
 30
0.0
 11
190.9999774999999
 21
36.576
 31
0.0
  0
LINE
  5
11C
330
1E
100
AcDbEntity
  8
0
100
AcDbLine
 10
190.9999774999999
 20
36.576
 30
0.0
 11
190.9999774999999
 21
34.976
 31
0.0
  0
LINE
  5
11D
330
1E
100
AcDbEntity
  8
0
100
AcDbLine
 10
190.9999774999999
 20
36.576
 30
0.0
 11
190.9999774999999
 21
38.376
 31
0.0
  0
LINE
  5
11E
330
1E
100
AcDbEntity
  8
0
100
AcDbLine
 10
190.9999774999999
 20
38.376
 30
0.0
 11
190.9999774999999
 21
36.576
 31
0.0
  0
LINE
  5
11F
330
1E
100
AcDbEntity
  8
0
100
AcDbLine
 10
190.9999774999999
 20
38.376
 30
0.0
 11
190.9999774999999
 21
40.176
 31
0.0
  0
LINE
  5
120
330
1E
100
AcDbEntity
  8
0
100
AcDbLine
 10
190.9999774999999
 20
33.47599999999999
 30
0.0
 11
190.9999774999999
 21
32.176
 31
0.0
  0
LINE
  5
121
330
1E
100
AcDbEntity
  8
0
100
AcDbLine
 10
190.9999774999999
 20
33.47599999999999
 30
0.0
 11
190.9999774999999
 21
34.976
 31
0.0
  0
LINE
  5
122
330
1E
100
AcDbEntity
  8
0
100
AcDbLine
 10
190.9999774999999
 20
32.176
 30
0.0
 11
190.9999774999999
 21
31.076
 31
0.0
  0
LINE
  5
123
330
1E
100
AcDbEntity
  8
0
100
AcDbLine
 10
190.9999774999999
 20
32.176
 30
0.0
 11
190.9999774999999
 21
33.47599999999999
 31
0.0
  0
LINE
  5
124
330
1E
100
AcDbEntity
  8
0
100
AcDbLine
 10
190.9999774999999
 20
31.076
 30
0.0
 11
190.9999774999999
 21
30.276
 31
0.0
  0
LINE
  5
125
330
1E
100
AcDbEntity
  8
0
100
AcDbLine
 10
190.9999774999999
 20
31.076
 30
0.0
 11
190.9999774999999
 21
32.176
 31
0.0
  0
LINE
  5
126
330
1E
100
AcDbEntity
  8
0
100
AcDbLine
 10
190.9999774999999
 20
30.276
 30
0.0
 11
190.9999774999999
 21
29.576
 31
0.0
  0
LINE
  5
127
330
1E
100
AcDbEntity
  8
0
100
AcDbLine
 10
190.9999774999999
 20
30.276
 30
0.0
 11
190.9999774999999
 21
31.076
 31
0.0
  0
LINE
  5
128
330
1E
100
AcDbEntity
  8
0
100
AcDbLine
 10
190.9999774999999
 20
29.576
 30
0.0
 11
190.9999774999999
 21
29.27599999999999
 31
0.0
  0
LINE
  5
129
330
1E
100
AcDbEntity
  8
0
100
AcDbLine
 10
190.9999774999999
 20
29.576
 30
0.0
 11
190.9999774999999
 21
30.276
 31
0.0
  0
LINE
  5
12A
330
1E
100
AcDbEntity
  8
0
100
AcDbLine
 10
190.9999774999999
 20
29.27599999999999
 30
0.0
 11
190.9999774999999
 21
29.076
 31
0.0
  0
LINE
  5
12B
330
1E
100
AcDbEntity
  8
0
100
AcDbLine
 10
190.9999774999999
 20
29.27599999999999
 30
0.0
 11
190.9999774999999
 21
29.576
 31
0.0
  0
LINE
  5
12C
330
1E
100
AcDbEntity
  8
0
100
AcDbLine
 10
177.2999774999999
 20
29.37599999999999
 30
0.0
 11
177.9999775
 21
29.076
 31
0.0
  0
LINE
  5
12E
330
1E
100
AcDbEntity
  8
0
100
AcDbLine
 10
190.9999774999999
 20
29.076
 30
0.0
 11
190.9999774999999
 21
29.27599999999999
 31
0.0
  0
LINE
  5
132
330
1E
100
AcDbEntity
  8
0
100
AcDbLine
 10
176.9999775
 20
30.076
 30
0.0
 11
176.9999775
 21
114.0759999999999
 31
0.0
  0
LINE
  5
139
330
1E
100
AcDbEntity
  8
0
100
AcDbLine
 10
190.9999774999999
 20
40.176
 30
0.0
 11
190.9999774999999
 21
38.376
 31
0.0
  0
LINE
  5
13A
330
1E
100
AcDbEntity
  8
0
100
AcDbLine
 10
190.9999774999999
 20
40.176
 30
0.0
 11
190.9999774999999
 21
42.076
 31
0.0
  0
LINE
  5
13B
330
1E
100
AcDbEntity
  8
0
100
AcDbLine
 10
190.9999774999999
 20
42.076
 30
0.0
 11
190.9999774999999
 21
40.176
 31
0.0
  0
LINE
  5
13C
330
1E
100
AcDbEntity
  8
0
100
AcDbLine
 10
190.9999774999999
 20
42.076
 30
0.0
 11
190.9999774999999
 21
44.076
 31
0.0
  0
LINE
  5
13D
330
1E
100
AcDbEntity
  8
0
100
AcDbLine
 10
190.9999774999999
 20
44.076
 30
0.0
 11
190.9999774999999
 21
42.076
 31
0.0
  0
LINE
  5
13E
330
1E
100
AcDbEntity
  8
0
100
AcDbLine
 10
190.9999774999999
 20
44.076
 30
0.0
 11
190.9999774999999
 21
114.0759999999999
 31
0.0
  0
LINE
  5
148
330
1E
100
AcDbEntity
  8
0
100
AcDbLine
 10
165.3839774999999
 20
94.1994
 30
0.0
 11
166.9999774999999
 21
94.57600000000001
 31
0.0
  0
LINE
  5
149
330
1E
100
AcDbEntity
  8
0
100
AcDbLine
 10
176.9999775
 20
94.876
 30
0.0
 11
176.9999775
 21
95.576
 31
0.0
  0
LINE
  5
14B
330
1E
100
AcDbEntity
  8
0
100
AcDbLine
 10
176.9999775
 20
95.576
 30
0.0
 11
176.9999775
 21
135.5759999999999
 31
0.0
  0
LINE
  5
14C
330
1E
100
AcDbEntity
  8
0
100
AcDbLine
 10
166.9999774999999
 20
94.57600000000001
 30
0.0
 11
176.9999775
 21
94.57600000000001
 31
0.0
  0
LINE
  5
14D
330
1E
100
AcDbEntity
  8
0
100
AcDbLine
 10
176.9999775
 20
94.57600000000001
 30
0.0
 11
176.9999775
 21
94.876
 31
0.0
  0
LINE
  5
14E
330
1E
100
AcDbEntity
  8
0
100
AcDbLine
 10
176.9999775
 20
114.0759999999999
 30
0.0
 11
176.9999775
 21
184.0759999999999
 31
0.0
  0
LINE
  5
14F
330
1E
100
AcDbEntity
  8
0
100
AcDbLine
 10
176.9999775
 20
114.0759999999999
 30
0.0
 11
176.9999775
 21
30.076
 31
0.0
  0
LINE
  5
152
330
1E
100
AcDbEntity
  8
0
100
AcDbLine
 10
190.9999774999999
 20
114.0759999999999
 30
0.0
 11
190.9999774999999
 21
184.0759999999999
 31
0.0
  0
LINE
  5
153
330
1E
100
AcDbEntity
  8
0
100
AcDbLine
 10
190.9999774999999
 20
114.0759999999999
 30
0.0
 11
190.9999774999999
 21
44.076
 31
0.0
  0
LINE
  5
156
330
1E
100
AcDbEntity
  8
0
100
AcDbLine
 10
94.9999775
 20
94.076
 30
0.0
 11
109.9999774999999
 21
94.076
 31
0.0
  0
LINE
  5
157
330
1E
100
AcDbEntity
  8
0
100
AcDbLine
 10
88.9999775
 20
128.376
 30
0.0
 11
88.9999775
 21
126.5719
 31
0.0
  0
LINE
  5
158
330
1E
100
AcDbEntity
  8
0
100
AcDbLine
 10
88.9999775
 20
128.376
 30
0.0
 11
88.9999775
 21
130.0759999999999
 31
0.0
  0
LINE
  5
15B
330
1E
100
AcDbEntity
  8
0
100
AcDbLine
 10
88.9999775
 20
133.0759999999999
 30
0.0
 11
89.2999775
 21
133.776
 31
0.0
  0
LINE
  5
15C
330
1E
100
AcDbEntity
  8
0
100
AcDbLine
 10
88.9999775
 20
133.0759999999999
 30
0.0
 11
88.9999775
 21
132.896
 31
0.0
  0
LINE
  5
15D
330
1E
100
AcDbEntity
  8
0
100
AcDbLine
 10
88.9999775
 20
132.896
 30
0.0
 11
88.9999775
 21
132.733
 31
0.0
  0
LINE
  5
15E
330
1E
100
AcDbEntity
  8
0
100
AcDbLine
 10
88.9999775
 20
132.896
 30
0.0
 11
88.9999775
 21
133.0759999999999
 31
0.0
  0
LINE
  5
15F
330
1E
100
AcDbEntity
  8
0
100
AcDbLine
 10
88.9999775
 20
132.733
 30
0.0
 11
88.9999775
 21
132.4799999999999
 31
0.0
  0
LINE
  5
160
330
1E
100
AcDbEntity
  8
0
100
AcDbLine
 10
88.9999775
 20
132.733
 30
0.0
 11
88.9999775
 21
132.896
 31
0.0
  0
LINE
  5
161
330
1E
100
AcDbEntity
  8
0
100
AcDbLine
 10
88.9999775
 20
132.4799999999999
 30
0.0
 11
88.9999775
 21
132.0829999999999
 31
0.0
  0
LINE
  5
162
330
1E
100
AcDbEntity
  8
0
100
AcDbLine
 10
88.9999775
 20
132.4799999999999
 30
0.0
 11
88.9999775
 21
132.733
 31
0.0
  0
LINE
  5
170
330
1E
100
AcDbEntity
  8
0
100
AcDbLine
 10
88.9999775
 20
132.0829999999999
 30
0.0
 11
88.9999775
 21
131.276
 31
0.0
  0
LINE
  5
171
330
1E
100
AcDbEntity
  8
0
100
AcDbLine
 10
88.9999775
 20
132.0829999999999
 30
0.0
 11
88.9999775
 21
132.4799999999999
 31
0.0
  0
LINE
  5
172
330
1E
100
AcDbEntity
  8
0
100
AcDbLine
 10
88.9999775
 20
131.276
 30
0.0
 11
88.9999775
 21
130.0759999999999
 31
0.0
  0
LINE
  5
173
330
1E
100
AcDbEntity
  8
0
100
AcDbLine
 10
88.9999775
 20
131.276
 30
0.0
 11
88.9999775
 21
132.0829999999999
 31
0.0
  0
LINE
  5
174
330
1E
100
AcDbEntity
  8
0
100
AcDbLine
 10
109.9999774999999
 20
135.5759999999999
 30
0.0
 11
110.5499774999999
 21
137.026
 31
0.0
  0
LINE
  5
175
330
1E
100
AcDbEntity
  8
0
100
AcDbLine
 10
109.9999774999999
 20
135.5759999999999
 30
0.0
 11
109.9999774999999
 21
92.57600000000001
 31
0.0
  0
LINE
  5
17B
330
1E
100
AcDbEntity
  8
0
100
AcDbLine
 10
176.9999775
 20
136.276
 30
0.0
 11
176.9999775
 21
136.5759999999999
 31
0.0
  0
LINE
  5
17C
330
1E
100
AcDbEntity
  8
0
100
AcDbLine
 10
176.9999775
 20
135.5759999999999
 30
0.0
 11
176.9999775
 21
136.276
 31
0.0
  0
LINE
  5
17D
330
1E
100
AcDbEntity
  8
0
100
AcDbLine
 10
110.3792878448275
 20
136.5759999999999
 30
0.0
 11
112.1559774999999
 21
136.5759999999999
 31
0.0
  0
LINE
  5
17E
330
1E
100
AcDbEntity
  8
0
100
AcDbLine
 10
112.1559774999999
 20
136.5759999999999
 30
0.0
 11
113.7259774999999
 21
136.5759999999999
 31
0.0
  0
LINE
  5
17F
330
1E
100
AcDbEntity
  8
0
100
AcDbLine
 10
113.7259774999999
 20
136.5759999999999
 30
0.0
 11
115.8319775
 21
136.5759999999999
 31
0.0
  0
LINE
  5
180
330
1E
100
AcDbEntity
  8
0
100
AcDbLine
 10
115.8319775
 20
136.5759999999999
 30
0.0
 11
117.9669774999999
 21
136.5759999999999
 31
0.0
  0
LINE
  5
181
330
1E
100
AcDbEntity
  8
0
100
AcDbLine
 10
111.9999774999999
 20
137.5759999999999
 30
0.0
 11
113.5519774999999
 21
137.5759999999999
 31
0.0
  0
LINE
  5
182
330
1E
100
AcDbEntity
  8
0
100
AcDbLine
 10
113.5519774999999
 20
137.5759999999999
 30
0.0
 11
116.6719775
 21
137.5759999999999
 31
0.0
  0
LINE
  5
183
330
1E
100
AcDbEntity
  8
0
100
AcDbLine
 10
116.6719775
 20
137.5759999999999
 30
0.0
 11
119.9999774999999
 21
137.5759999999999
 31
0.0
  0
LINE
  5
184
330
1E
100
AcDbEntity
  8
0
100
AcDbLine
 10
119.9999774999999
 20
137.5759999999999
 30
0.0
 11
123.3279774999999
 21
137.5759999999999
 31
0.0
  0
LINE
  5
185
330
1E
100
AcDbEntity
  8
0
100
AcDbLine
 10
110.5499774999999
 20
137.026
 30
0.0
 11
111.9999774999999
 21
137.5759999999999
 31
0.0
  0
LINE
  5
186
330
1E
100
AcDbEntity
  8
0
100
AcDbLine
 10
117.9669774999999
 20
136.5759999999999
 30
0.0
 11
119.9999774999999
 21
136.5759999999999
 31
0.0
  0
LINE
  5
187
330
1E
100
AcDbEntity
  8
0
100
AcDbLine
 10
132.9999775
 20
136.5759999999999
 30
0.0
 11
132.9999775
 21
137.5759999999999
 31
0.0
  0
LINE
  5
188
330
1E
100
AcDbEntity
  8
0
100
AcDbLine
 10
132.5319774999999
 20
137.5759999999999
 30
0.0
 11
132.9999775
 21
137.5759999999999
 31
0.0
  0
LINE
  5
189
330
1E
100
AcDbEntity
  8
0
100
AcDbLine
 10
131.2839775
 20
137.5759999999999
 30
0.0
 11
132.5319774999999
 21
137.5759999999999
 31
0.0
  0
LINE
  5
18A
330
1E
100
AcDbEntity
  8
0
100
AcDbLine
 10
129.2039774999999
 20
137.5759999999999
 30
0.0
 11
131.2839775
 21
137.5759999999999
 31
0.0
  0
LINE
  5
18B
330
1E
100
AcDbEntity
  8
0
100
AcDbLine
 10
126.4479774999999
 20
137.5759999999999
 30
0.0
 11
129.2039774999999
 21
137.5759999999999
 31
0.0
  0
LINE
  5
18C
330
1E
100
AcDbEntity
  8
0
100
AcDbLine
 10
123.3279774999999
 20
137.5759999999999
 30
0.0
 11
126.4479774999999
 21
137.5759999999999
 31
0.0
  0
LINE
  5
18D
330
1E
100
AcDbEntity
  8
0
100
AcDbLine
 10
132.9999775
 20
137.5759999999999
 30
0.0
 11
132.9999775
 21
136.5759999999999
 31
0.0
  0
LINE
  5
18E
330
1E
100
AcDbEntity
  8
0
100
AcDbLine
 10
119.9999774999999
 20
136.5759999999999
 30
0.0
 11
176.9999775
 21
136.5759999999999
 31
0.0
  0
LINE
  5
190
330
1E
100
AcDbEntity
  8
0
100
AcDbLine
 10
176.9999775
 20
184.0759999999999
 30
0.0
 11
176.9999775
 21
114.0759999999999
 31
0.0
  0
LINE
  5
191
330
1E
100
AcDbEntity
  8
0
100
AcDbLine
 10
176.9999775
 20
184.0759999999999
 30
0.0
 11
176.9999775
 21
185.8759999999999
 31
0.0
  0
LINE
  5
192
330
1E
100
AcDbEntity
  8
0
100
AcDbLine
 10
176.9999775
 20
187.6759999999999
 30
0.0
 11
176.9999775
 21
185.8759999999999
 31
0.0
  0
LINE
  5
193
330
1E
100
AcDbEntity
  8
0
100
AcDbLine
 10
176.9999775
 20
187.6759999999999
 30
0.0
 11
176.9999775
 21
189.3759999999999
 31
0.0
  0
LINE
  5
194
330
1E
100
AcDbEntity
  8
0
100
AcDbLine
 10
176.9999775
 20
185.8759999999999
 30
0.0
 11
176.9999775
 21
184.0759999999999
 31
0.0
  0
LINE
  5
195
330
1E
100
AcDbEntity
  8
0
100
AcDbLine
 10
176.9999775
 20
185.8759999999999
 30
0.0
 11
176.9999775
 21
187.6759999999999
 31
0.0
  0
LINE
  5
196
330
1E
100
AcDbEntity
  8
0
100
AcDbLine
 10
176.9999775
 20
191.0759999999999
 30
0.0
 11
176.9999775
 21
189.3759999999999
 31
0.0
  0
LINE
  5
197
330
1E
100
AcDbEntity
  8
0
100
AcDbLine
 10
176.9999775
 20
191.0759999999999
 30
0.0
 11
176.9999775
 21
192.576
 31
0.0
  0
LINE
  5
198
330
1E
100
AcDbEntity
  8
0
100
AcDbLine
 10
176.9999775
 20
189.3759999999999
 30
0.0
 11
176.9999775
 21
187.6759999999999
 31
0.0
  0
LINE
  5
199
330
1E
100
AcDbEntity
  8
0
100
AcDbLine
 10
176.9999775
 20
189.3759999999999
 30
0.0
 11
176.9999775
 21
191.0759999999999
 31
0.0
  0
LINE
  5
19A
330
1E
100
AcDbEntity
  8
0
100
AcDbLine
 10
176.9999775
 20
193.9759999999999
 30
0.0
 11
176.9999775
 21
192.576
 31
0.0
  0
LINE
  5
19B
330
1E
100
AcDbEntity
  8
0
100
AcDbLine
 10
176.9999775
 20
193.9759999999999
 30
0.0
 11
176.9999775
 21
195.1759999999999
 31
0.0
  0
LINE
  5
19C
330
1E
100
AcDbEntity
  8
0
100
AcDbLine
 10
176.9999775
 20
192.576
 30
0.0
 11
176.9999775
 21
191.0759999999999
 31
0.0
  0
LINE
  5
19D
330
1E
100
AcDbEntity
  8
0
100
AcDbLine
 10
176.9999775
 20
192.576
 30
0.0
 11
176.9999775
 21
193.9759999999999
 31
0.0
  0
LINE
  5
19E
330
1E
100
AcDbEntity
  8
0
100
AcDbLine
 10
176.9999775
 20
195.1759999999999
 30
0.0
 11
176.9999775
 21
193.9759999999999
 31
0.0
  0
LINE
  5
19F
330
1E
100
AcDbEntity
  8
0
100
AcDbLine
 10
176.9999775
 20
195.1759999999999
 30
0.0
 11
176.9999775
 21
196.1759999999999
 31
0.0
  0
LINE
  5
1A0
330
1E
100
AcDbEntity
  8
0
100
AcDbLine
 10
176.9999775
 20
196.1759999999999
 30
0.0
 11
176.9999775
 21
195.1759999999999
 31
0.0
  0
LINE
  5
1A1
330
1E
100
AcDbEntity
  8
0
100
AcDbLine
 10
176.9999775
 20
196.1759999999999
 30
0.0
 11
176.9999775
 21
196.9759999999999
 31
0.0
  0
LINE
  5
1A4
330
1E
100
AcDbEntity
  8
0
100
AcDbLine
 10
176.9999775
 20
196.9759999999999
 30
0.0
 11
176.9999775
 21
196.1759999999999
 31
0.0
  0
LINE
  5
1A5
330
1E
100
AcDbEntity
  8
0
100
AcDbLine
 10
176.9999775
 20
196.9759999999999
 30
0.0
 11
176.9999775
 21
197.576
 31
0.0
  0
LINE
  5
1A6
330
1E
100
AcDbEntity
  8
0
100
AcDbLine
 10
176.9999775
 20
197.576
 30
0.0
 11
176.9999775
 21
196.9759999999999
 31
0.0
  0
LINE
  5
1A7
330
1E
100
AcDbEntity
  8
0
100
AcDbLine
 10
176.9999775
 20
197.576
 30
0.0
 11
176.9999775
 21
197.9759999999999
 31
0.0
  0
LINE
  5
1A8
330
1E
100
AcDbEntity
  8
0
100
AcDbLine
 10
176.9999775
 20
197.9759999999999
 30
0.0
 11
176.9999775
 21
197.576
 31
0.0
  0
LINE
  5
1A9
330
1E
100
AcDbEntity
  8
0
100
AcDbLine
 10
176.9999775
 20
197.9759999999999
 30
0.0
 11
176.9999775
 21
198.076
 31
0.0
  0
LINE
  5
1AA
330
1E
100
AcDbEntity
  8
0
100
AcDbLine
 10
176.9999775
 20
198.076
 30
0.0
 11
177.2999774999999
 21
198.7759999999999
 31
0.0
  0
LINE
  5
1AB
330
1E
100
AcDbEntity
  8
0
100
AcDbLine
 10
176.9999775
 20
198.076
 30
0.0
 11
176.9999775
 21
197.9759999999999
 31
0.0
  0
LINE
  5
1C2
330
1E
100
AcDbEntity
  8
0
100
AcDbLine
 10
190.9999774999999
 20
195.9759999999999
 30
0.0
 11
190.9999774999999
 21
194.6759999999999
 31
0.0
  0
LINE
  5
1C3
330
1E
100
AcDbEntity
  8
0
100
AcDbLine
 10
190.9999774999999
 20
195.9759999999999
 30
0.0
 11
190.9999774999999
 21
197.076
 31
0.0
  0
LINE
  5
1C4
330
1E
100
AcDbEntity
  8
0
100
AcDbLine
 10
190.9999774999999
 20
197.076
 30
0.0
 11
190.9999774999999
 21
195.9759999999999
 31
0.0
  0
LINE
  5
1C5
330
1E
100
AcDbEntity
  8
0
100
AcDbLine
 10
190.9999774999999
 20
197.076
 30
0.0
 11
190.9999774999999
 21
197.8759999999999
 31
0.0
  0
LINE
  5
1C6
330
1E
100
AcDbEntity
  8
0
100
AcDbLine
 10
190.9999774999999
 20
197.8759999999999
 30
0.0
 11
190.9999774999999
 21
197.076
 31
0.0
  0
LINE
  5
1C7
330
1E
100
AcDbEntity
  8
0
100
AcDbLine
 10
190.9999774999999
 20
197.8759999999999
 30
0.0
 11
190.9999774999999
 21
198.5759999999999
 31
0.0
  0
LINE
  5
1C8
330
1E
100
AcDbEntity
  8
0
100
AcDbLine
 10
190.9999774999999
 20
198.5759999999999
 30
0.0
 11
190.9999774999999
 21
197.8759999999999
 31
0.0
  0
LINE
  5
1C9
330
1E
100
AcDbEntity
  8
0
100
AcDbLine
 10
190.9999774999999
 20
198.5759999999999
 30
0.0
 11
190.9999774999999
 21
198.8759999999999
 31
0.0
  0
LINE
  5
1CA
330
1E
100
AcDbEntity
  8
0
100
AcDbLine
 10
177.9999775
 20
199.076
 30
0.0
 11
190.9999774999999
 21
199.076
 31
0.0
  0
LINE
  5
1CB
330
1E
100
AcDbEntity
  8
0
100
AcDbLine
 10
190.9999774999999
 20
198.8759999999999
 30
0.0
 11
190.9999774999999
 21
198.5759999999999
 31
0.0
  0
LINE
  5
1CC
330
1E
100
AcDbEntity
  8
0
100
AcDbLine
 10
190.9999774999999
 20
198.8759999999999
 30
0.0
 11
190.9999774999999
 21
199.076
 31
0.0
  0
LINE
  5
1CD
330
1E
100
AcDbEntity
  8
0
100
AcDbLine
 10
190.9999774999999
 20
199.076
 30
0.0
 11
190.9999774999999
 21
198.8759999999999
 31
0.0
  0
LINE
  5
1CE
330
1E
100
AcDbEntity
  8
0
100
AcDbLine
 10
190.9999774999999
 20
194.6759999999999
 30
0.0
 11
190.9999774999999
 21
193.1759999999999
 31
0.0
  0
LINE
  5
1CF
330
1E
100
AcDbEntity
  8
0
100
AcDbLine
 10
190.9999774999999
 20
194.6759999999999
 30
0.0
 11
190.9999774999999
 21
195.9759999999999
 31
0.0
  0
LINE
  5
1D0
330
1E
100
AcDbEntity
  8
0
100
AcDbLine
 10
190.9999774999999
 20
193.1759999999999
 30
0.0
 11
190.9999774999999
 21
191.5759999999999
 31
0.0
  0
LINE
  5
1D1
330
1E
100
AcDbEntity
  8
0
100
AcDbLine
 10
190.9999774999999
 20
193.1759999999999
 30
0.0
 11
190.9999774999999
 21
194.6759999999999
 31
0.0
  0
LINE
  5
1D2
330
1E
100
AcDbEntity
  8
0
100
AcDbLine
 10
190.9999774999999
 20
191.5759999999999
 30
0.0
 11
190.9999774999999
 21
189.7759999999999
 31
0.0
  0
LINE
  5
1D3
330
1E
100
AcDbEntity
  8
0
100
AcDbLine
 10
190.9999774999999
 20
191.5759999999999
 30
0.0
 11
190.9999774999999
 21
193.1759999999999
 31
0.0
  0
LINE
  5
1D4
330
1E
100
AcDbEntity
  8
0
100
AcDbLine
 10
190.9999774999999
 20
189.7759999999999
 30
0.0
 11
190.9999774999999
 21
187.976
 31
0.0
  0
LINE
  5
1D5
330
1E
100
AcDbEntity
  8
0
100
AcDbLine
 10
190.9999774999999
 20
189.7759999999999
 30
0.0
 11
190.9999774999999
 21
191.5759999999999
 31
0.0
  0
LINE
  5
1D6
330
1E
100
AcDbEntity
  8
0
100
AcDbLine
 10
190.9999774999999
 20
187.976
 30
0.0
 11
190.9999774999999
 21
186.0759999999999
 31
0.0
  0
LINE
  5
1D7
330
1E
100
AcDbEntity
  8
0
100
AcDbLine
 10
190.9999774999999
 20
187.976
 30
0.0
 11
190.9999774999999
 21
189.7759999999999
 31
0.0
  0
LINE
  5
1D8
330
1E
100
AcDbEntity
  8
0
100
AcDbLine
 10
190.9999774999999
 20
186.0759999999999
 30
0.0
 11
190.9999774999999
 21
184.0759999999999
 31
0.0
  0
LINE
  5
1D9
330
1E
100
AcDbEntity
  8
0
100
AcDbLine
 10
190.9999774999999
 20
186.0759999999999
 30
0.0
 11
190.9999774999999
 21
187.976
 31
0.0
  0
LINE
  5
1DA
330
1E
100
AcDbEntity
  8
0
100
AcDbLine
 10
190.9999774999999
 20
184.0759999999999
 30
0.0
 11
190.9999774999999
 21
114.0759999999999
 31
0.0
  0
LINE
  5
1DB
330
1E
100
AcDbEntity
  8
0
100
AcDbLine
 10
190.9999774999999
 20
184.0759999999999
 30
0.0
 11
190.9999774999999
 21
186.0759999999999
 31
0.0
  0
LINE
  5
1DC
330
1E
100
AcDbEntity
  8
0
100
AcDbLine
 10
177.2999774999999
 20
198.7759999999999
 30
0.0
 11
177.9999775
 21
199.076
 31
0.0
  0
LINE
  5
1DE
330
1E
100
AcDbEntity
  8
0
100
AcDbLine
 10
89.9999775
 20
134.0759999999999
 30
0.0
 11
109.9999774999999
 21
134.0759999999999
 31
0.0
  0
LINE
  5
1DF
330
1E
100
AcDbEntity
  8
0
100
AcDbLine
 10
89.2999775
 20
133.776
 30
0.0
 11
89.9999775
 21
134.0759999999999
 31
0.0
  0
LINE
  5
1E0
330
1E
100
AcDbEntity
  8
0
100
AcDbLine
 10
88.9999775
 20
130.0759999999999
 30
0.0
 11
88.9999775
 21
128.376
 31
0.0
  0
LINE
  5
1E1
330
1E
100
AcDbEntity
  8
0
100
AcDbLine
 10
88.9999775
 20
130.0759999999999
 30
0.0
 11
88.9999775
 21
131.276
 31
0.0
  0
LINE
  5
1E2
330
1E
100
AcDbEntity
  8
0
100
AcDbLine
 10
84.20187750000001
 20
91.64810000000001
 30
0.0
 11
87.4324775
 21
92.9413
 31
0.0
  0
LINE
  5
1E7
330
1E
100
AcDbEntity
  8
0
100
AcDbLine
 10
132.9999775
 20
91.576
 30
0.0
 11
136.0719774999999
 21
91.576
 31
0.0
  0
LINE
  5
1E8
330
1E
100
AcDbEntity
  8
0
100
AcDbLine
 10
136.0719774999999
 20
91.576
 30
0.0
 11
157.9999775
 21
91.576
 31
0.0
  0
LINE
  5
1E9
330
1E
100
AcDbEntity
  8
0
100
AcDbLine
 10
132.9999775
 20
91.576
 30
0.0
 11
110.3792878448275
 21
91.576
 31
0.0
  0
LINE
  5
1EA
330
1E
100
AcDbEntity
  8
0
100
AcDbLine
 10
84.3842775
 20
112.3905
 30
0.0
 11
80.99627750000001
 21
108.4775999999999
 31
0.0
  0
LINE
  5
1EB
330
1E
100
AcDbEntity
  8
0
100
AcDbLine
 10
28.3747775
 20
59.424
 30
0.0
 11
26.9999775
 21
58.6417673281361
 31
0.0
  0
LINE
  5
1EC
330
1E
100
AcDbEntity
  8
0
100
AcDbLine
 10
26.9999775
 20
58.6417673281361
 30
0.0
 11
24.16012992425419
 21
57.45656157318041
 31
0.0
  0
LINE
  5
1ED
330
1E
100
AcDbEntity
  8
0
100
AcDbLine
 10
24.16012992425419
 20
57.45656157318041
 30
0.0
 11
19.73921418418535
 21
56.50971300315138
 31
0.0
  0
LINE
  5
1EE
330
1E
100
AcDbEntity
  8
0
100
AcDbLine
 10
19.73921418418535
 20
56.50971300315138
 30
0.0
 11
14.60779345628964
 21
55.95738451509595
 31
0.0
  0
LINE
  5
1EF
330
1E
100
AcDbEntity
  8
0
100
AcDbLine
 10
14.60779345628964
 20
55.95738451509595
 30
0.0
 11
10.20563308014766
 21
55.7232387574681
 31
0.0
  0
LINE
  5
1F0
330
1E
100
AcDbEntity
  8
0
100
AcDbLine
 10
10.20563308014766
 20
55.7232387574681
 30
0.0
 11
6.647644102815434
 21
55.88059034704139
 31
0.0
  0
LINE
  5
1F1
330
1E
100
AcDbEntity
  8
0
100
AcDbLine
 10
6.647644102815434
 20
55.88059034704139
 30
0.0
 11
4.999977499999999
 21
55.97651344692329
 31
0.0
  0
LINE
  5
1F2
330
1E
100
AcDbEntity
  8
0
100
AcDbLine
 10
78.1905775
 20
106.2273999999999
 30
0.0
 11
0.456240499999998
 21
61.7804
 31
0.0
  0
ENDSEC
  0
SECTION
  2
OBJECTS
  0
DICTIONARY
  5
C
330
0
100
AcDbDictionary
281
     1
  3
ACAD_GROUP
350
D
  3
ACAD_LAYOUT
350
19
  3
ACAD_MLINESTYLE
350
16
  3
ACAD_PLOTSETTINGS
350
18
  3
ACAD_PLOTSTYLENAME
350
E
  3
AcDbVariableDictionary
350
1F3
  0
DICTIONARY
  5
D
102
{ACAD_REACTORS
330
C
102
}
330
C
100
AcDbDictionary
281
     1
  0
DICTIONARY
  5
19
102
{ACAD_REACTORS
330
C
102
}
330
C
100
AcDbDictionary
281
     1
  3
Layout1
350
1D
  3
Model
350
21
  0
DICTIONARY
  5
16
102
{ACAD_REACTORS
330
C
102
}
330
C
100
AcDbDictionary
281
     1
  3
Standard
350
17
  0
DICTIONARY
  5
18
102
{ACAD_REACTORS
330
C
102
}
330
C
100
AcDbDictionary
281
     1
  0
ACDBDICTIONARYWDFLT
  5
E
102
{ACAD_REACTORS
330
C
102
}
330
C
100
AcDbDictionary
281
     1
  3
Normal
350
F
100
AcDbDictionaryWithDefault
340
F
  0
DICTIONARY
  5
1F3
102
{ACAD_REACTORS
330
C
102
}
330
C
100
AcDbDictionary
281
     1
  3
DIMASSOC
350
1F4
  0
LAYOUT
  5
1D
102
{ACAD_REACTORS
330
19
102
}
330
19
100
AcDbPlotSettings
  1

  2
hp deskjet 980c series
  4

  6

 40
0.0
 41
0.0
 42
0.0
 43
0.0
 44
0.0
 45
0.0
 46
0.0
 47
0.0
 48
0.0
 49
0.0
140
0.0
141
0.0
142
1.0
143
1.0
 70
   688
 72
     0
 73
     0
 74
     5
  7

 75
    16
147
1.0
148
0.0
149
0.0
100
AcDbLayout
  1
Layout1
 70
     1
 71
     1
 10
0.0
 20
0.0
 11
12.0
 21
9.0
 12
0.0
 22
0.0
 32
0.0
 14
1.000000000000000E+20
 24
1.000000000000000E+20
 34
1.000000000000000E+20
 15
-1.000000000000000E+20
 25
-1.000000000000000E+20
 35
-1.000000000000000E+20
146
0.0
 13
0.0
 23
0.0
 33
0.0
 16
1.0
 26
0.0
 36
0.0
 17
0.0
 27
1.0
 37
0.0
 76
     0
330
1A
  0
LAYOUT
  5
21
102
{ACAD_REACTORS
330
19
102
}
330
19
100
AcDbPlotSettings
  1

  2
hp deskjet 980c series
  4

  6

 40
0.0
 41
0.0
 42
0.0
 43
0.0
 44
0.0
 45
0.0
 46
0.0
 47
0.0
 48
0.0
 49
0.0
140
0.0
141
0.0
142
1.0
143
1.0
 70
  1712
 72
     0
 73
     0
 74
     0
  7

 75
     0
147
1.0
148
0.0
149
0.0
100
AcDbLayout
  1
Model
 70
     1
 71
     0
 10
0.0
 20
0.0
 11
12.0
 21
9.0
 12
0.0
 22
0.0
 32
0.0
 14
0.0
 24
0.0
 34
0.0
 15
0.0
 25
0.0
 35
0.0
146
0.0
 13
0.0
 23
0.0
 33
0.0
 16
1.0
 26
0.0
 36
0.0
 17
0.0
 27
1.0
 37
0.0
 76
     0
330
1E
  0
MLINESTYLE
  5
17
102
{ACAD_REACTORS
330
16
102
}
330
16
100
AcDbMlineStyle
  2
STANDARD
 70
     0
  3

 62
   256
 51
90.0
 52
90.0
 71
     2
 49
0.5
 62
   256
  6
BYLAYER
 49
-0.5
 62
   256
  6
BYLAYER
  0
ACDBPLACEHOLDER
  5
F
102
{ACAD_REACTORS
330
E
102
}
330
E
  0
DICTIONARYVAR
  5
1F4
102
{ACAD_REACTORS
330
1F3
102
}
330
1F3
100
DictionaryVariables
280
     0
  1
1
  0
ENDSEC
  0
EOF
