  0
SECTION
  2
HEADER
  9
$ACADVER
  1
AC1015
  9
$ACADMAINTVER
 70
    13
  9
$DWGCODEPAGE
  3
ANSI_1252
  9
$INSBASE
 10
0.0
 20
0.0
 30
0.0
  9
$EXTMIN
 10
0.0442000000000111
 20
-0.0744999999998887
 30
0.0
  9
$EXTMAX
 10
237.9558
 20
739.0744999999999
 30
0.0
  9
$LIMMIN
 10
0.0
 20
0.0
  9
$LIMMAX
 10
12.0
 20
9.0
  9
$ORTHOMODE
 70
     0
  9
$REGENMODE
 70
     1
  9
$FILLMODE
 70
     1
  9
$QTEXTMODE
 70
     0
  9
$MIRRTEXT
 70
     1
  9
$LTSCALE
 40
1.0
  9
$ATTMODE
 70
     1
  9
$TEXTSIZE
 40
0.2
  9
$TRACEWID
 40
0.05
  9
$TEXTSTYLE
  7
Standard
  9
$CLAYER
  8
0
  9
$CELTYPE
  6
Continuous
  9
$CECOLOR
 62
   256
  9
$CELTSCALE
 40
1.0
  9
$DISPSILH
 70
     0
  9
$DIMSCALE
 40
1.0
  9
$DIMASZ
 40
0.18
  9
$DIMEXO
 40
0.0625
  9
$DIMDLI
 40
0.38
  9
$DIMRND
 40
0.0
  9
$DIMDLE
 40
0.0
  9
$DIMEXE
 40
0.18
  9
$DIMTP
 40
0.0
  9
$DIMTM
 40
0.0
  9
$DIMTXT
 40
0.18
  9
$DIMCEN
 40
0.09
  9
$DIMTSZ
 40
0.0
  9
$DIMTOL
 70
     0
  9
$DIMLIM
 70
     0
  9
$DIMTIH
 70
     1
  9
$DIMTOH
 70
     1
  9
$DIMSE1
 70
     0
  9
$DIMSE2
 70
     0
  9
$DIMTAD
 70
     0
  9
$DIMZIN
 70
     0
  9
$DIMBLK
  1

  9
$DIMASO
 70
     1
  9
$DIMSHO
 70
     1
  9
$DIMPOST
  1

  9
$DIMAPOST
  1

  9
$DIMALT
 70
     0
  9
$DIMALTD
 70
     2
  9
$DIMALTF
 40
25.4
  9
$DIMLFAC
 40
1.0
  9
$DIMTOFL
 70
     0
  9
$DIMTVP
 40
0.0
  9
$DIMTIX
 70
     0
  9
$DIMSOXD
 70
     0
  9
$DIMSAH
 70
     0
  9
$DIMBLK1
  1

  9
$DIMBLK2
  1

  9
$DIMSTYLE
  2
Standard
  9
$DIMCLRD
 70
     0
  9
$DIMCLRE
 70
     0
  9
$DIMCLRT
 70
     0
  9
$DIMTFAC
 40
1.0
  9
$DIMGAP
 40
0.09
  9
$DIMJUST
 70
     0
  9
$DIMSD1
 70
     0
  9
$DIMSD2
 70
     0
  9
$DIMTOLJ
 70
     1
  9
$DIMTZIN
 70
     0
  9
$DIMALTZ
 70
     0
  9
$DIMALTTZ
 70
     0
  9
$DIMUPT
 70
     0
  9
$DIMDEC
 70
     4
  9
$DIMTDEC
 70
     4
  9
$DIMALTU
 70
     2
  9
$DIMALTTD
 70
     2
  9
$DIMTXSTY
  7
Standard
  9
$DIMAUNIT
 70
     0
  9
$DIMADEC
 70
     0
  9
$DIMALTRND
 40
0.0
  9
$DIMAZIN
 70
     0
  9
$DIMDSEP
 70
    46
  9
$DIMATFIT
 70
     3
  9
$DIMFRAC
 70
     0
  9
$DIMLDRBLK
  1

  9
$DIMLUNIT
 70
     2
  9
$DIMLWD
 70
    -2
  9
$DIMLWE
 70
    -2
  9
$DIMTMOVE
 70
     0
  9
$LUNITS
 70
     2
  9
$LUPREC
 70
     4
  9
$SKETCHINC
 40
0.1
  9
$FILLETRAD
 40
0.0
  9
$AUNITS
 70
     0
  9
$AUPREC
 70
     0
  9
$MENU
  1
.
  9
$ELEVATION
 40
0.0
  9
$PELEVATION
 40
0.0
  9
$THICKNESS
 40
0.0
  9
$LIMCHECK
 70
     0
  9
$CHAMFERA
 40
0.0
  9
$CHAMFERB
 40
0.0
  9
$CHAMFERC
 40
0.0
  9
$CHAMFERD
 40
0.0
  9
$SKPOLY
 70
     0
  9
$TDCREATE
 40
2454994.926993993
  9
$TDUCREATE
 40
2454994.843660660
  9
$TDUPDATE
 40
2454994.931824178
  9
$TDUUPDATE
 40
2454994.848490844
  9
$TDINDWG
 40
0.0048301852
  9
$TDUSRTIMER
 40
0.0048301852
  9
$USRTIMER
 70
     1
  9
$ANGBASE
 50
0.0
  9
$ANGDIR
 70
     0
  9
$PDMODE
 70
     0
  9
$PDSIZE
 40
0.0
  9
$PLINEWID
 40
0.0
  9
$SPLFRAME
 70
     0
  9
$SPLINETYPE
 70
     6
  9
$SPLINESEGS
 70
     8
  9
$HANDSEED
  5
5E4
  9
$SURFTAB1
 70
     6
  9
$SURFTAB2
 70
     6
  9
$SURFTYPE
 70
     6
  9
$SURFU
 70
     6
  9
$SURFV
 70
     6
  9
$UCSBASE
  2

  9
$UCSNAME
  2

  9
$UCSORG
 10
0.0
 20
0.0
 30
0.0
  9
$UCSXDIR
 10
1.0
 20
0.0
 30
0.0
  9
$UCSYDIR
 10
0.0
 20
1.0
 30
0.0
  9
$UCSORTHOREF
  2

  9
$UCSORTHOVIEW
 70
     1
  9
$UCSORGTOP
 10
0.0
 20
0.0
 30
0.0
  9
$UCSORGBOTTOM
 10
0.0
 20
0.0
 30
0.0
  9
$UCSORGLEFT
 10
0.0
 20
0.0
 30
0.0
  9
$UCSORGRIGHT
 10
0.0
 20
0.0
 30
0.0
  9
$UCSORGFRONT
 10
0.0
 20
0.0
 30
0.0
  9
$UCSORGBACK
 10
0.0
 20
0.0
 30
0.0
  9
$PUCSBASE
  2

  9
$PUCSNAME
  2

  9
$PUCSORG
 10
0.0
 20
0.0
 30
0.0
  9
$PUCSXDIR
 10
1.0
 20
0.0
 30
0.0
  9
$PUCSYDIR
 10
0.0
 20
1.0
 30
0.0
  9
$PUCSORTHOREF
  2

  9
$PUCSORTHOVIEW
 70
     0
  9
$PUCSORGTOP
 10
0.0
 20
0.0
 30
0.0
  9
$PUCSORGBOTTOM
 10
0.0
 20
0.0
 30
0.0
  9
$PUCSORGLEFT
 10
0.0
 20
0.0
 30
0.0
  9
$PUCSORGRIGHT
 10
0.0
 20
0.0
 30
0.0
  9
$PUCSORGFRONT
 10
0.0
 20
0.0
 30
0.0
  9
$PUCSORGBACK
 10
0.0
 20
0.0
 30
0.0
  9
$USERI1
 70
     0
  9
$USERI2
 70
     0
  9
$USERI3
 70
     0
  9
$USERI4
 70
     0
  9
$USERI5
 70
     0
  9
$USERR1
 40
0.0
  9
$USERR2
 40
0.0
  9
$USERR3
 40
0.0
  9
$USERR4
 40
0.0
  9
$USERR5
 40
0.0
  9
$WORLDVIEW
 70
     1
  9
$SHADEDGE
 70
     3
  9
$SHADEDIF
 70
    70
  9
$TILEMODE
 70
     1
  9
$MAXACTVP
 70
    64
  9
$PINSBASE
 10
0.0
 20
0.0
 30
0.0
  9
$PLIMCHECK
 70
     0
  9
$PEXTMIN
 10
1.000000000000000E+20
 20
1.000000000000000E+20
 30
1.000000000000000E+20
  9
$PEXTMAX
 10
-1.000000000000000E+20
 20
-1.000000000000000E+20
 30
-1.000000000000000E+20
  9
$PLIMMIN
 10
0.0
 20
0.0
  9
$PLIMMAX
 10
12.0
 20
9.0
  9
$UNITMODE
 70
     0
  9
$VISRETAIN
 70
     1
  9
$PLINEGEN
 70
     0
  9
$PSLTSCALE
 70
     1
  9
$TREEDEPTH
 70
  3020
  9
$CMLSTYLE
  2
Standard
  9
$CMLJUST
 70
     0
  9
$CMLSCALE
 40
1.0
  9
$PROXYGRAPHICS
 70
     1
  9
$MEASUREMENT
 70
     0
  9
$CELWEIGHT
370
    -1
  9
$ENDCAPS
280
     0
  9
$JOINSTYLE
280
     0
  9
$LWDISPLAY
290
     0
  9
$INSUNITS
 70
     0
  9
$HYPERLINKBASE
  1

  9
$STYLESHEET
  1

  9
$XEDIT
290
     1
  9
$CEPSNTYPE
380
     0
  9
$PSTYLEMODE
290
     1
  9
$FINGERPRINTGUID
  2
{25AFDF84-2099-4732-A6EA-1A18A9856727}
  9
$VERSIONGUID
  2
{44492038-833C-4AF6-AEDE-ABA27D76A37A}
  9
$EXTNAMES
290
     1
  9
$PSVPSCALE
 40
0.0
  9
$OLESTARTUP
290
     0
  0
ENDSEC
  0
SECTION
  2
CLASSES
  0
CLASS
  1
ACDBDICTIONARYWDFLT
  2
AcDbDictionaryWithDefault
  3
AutoCAD 2000
 90
        0
280
     0
281
     0
  0
CLASS
  1
ACDBPLACEHOLDER
  2
AcDbPlaceHolder
  3
AutoCAD 2000
 90
        0
280
     0
281
     0
  0
CLASS
  1
LAYOUT
  2
AcDbLayout
  3
AutoCAD 2000
 90
        0
280
     0
281
     0
  0
CLASS
  1
DICTIONARYVAR
  2
AcDbDictionaryVar
  3
AutoCAD 2000
 90
        0
280
     0
281
     0
  0
ENDSEC
  0
SECTION
  2
TABLES
  0
TABLE
  2
VPORT
  5
8
330
0
100
AcDbSymbolTable
 70
     4
  0
VPORT
  5
5E3
330
8
100
AcDbSymbolTableRecord
100
AcDbViewportTableRecord
  2
*Active
 70
     0
 10
0.0
 20
0.0
 11
1.0
 21
1.0
 12
119.0
 22
369.5
 13
0.0
 23
0.0
 14
1.0
 24
1.0
 15
0.0
 25
0.0
 16
0.0
 26
0.0
 36
1.0
 17
0.0
 27
0.0
 37
0.0
 40
743.817309473684
 41
1.968387776606954
 42
50.0
 43
0.0
 44
0.0
 50
0.0
 51
0.0
 71
     0
 72
   100
 73
     1
 74
     3
 75
     0
 76
     0
 77
     0
 78
     0
281
     0
 65
     1
110
0.0
120
0.0
130
0.0
111
1.0
121
0.0
131
0.0
112
0.0
122
1.0
132
0.0
 79
     1
146
0.0
  0
ENDTAB
  0
TABLE
  2
LTYPE
  5
5
330
0
100
AcDbSymbolTable
 70
     1
  0
LTYPE
  5
13
330
5
100
AcDbSymbolTableRecord
100
AcDbLinetypeTableRecord
  2
ByBlock
 70
     0
  3

 72
    65
 73
     0
 40
0.0
  0
LTYPE
  5
14
330
5
100
AcDbSymbolTableRecord
100
AcDbLinetypeTableRecord
  2
ByLayer
 70
     0
  3

 72
    65
 73
     0
 40
0.0
  0
LTYPE
  5
15
330
5
100
AcDbSymbolTableRecord
100
AcDbLinetypeTableRecord
  2
Continuous
 70
     0
  3
Solid line
 72
    65
 73
     0
 40
0.0
  0
ENDTAB
  0
TABLE
  2
LAYER
  5
2
330
0
100
AcDbSymbolTable
 70
     1
  0
LAYER
  5
10
330
2
100
AcDbSymbolTableRecord
100
AcDbLayerTableRecord
  2
0
 70
     0
 62
     7
  6
Continuous
370
    -3
390
F
  0
ENDTAB
  0
TABLE
  2
STYLE
  5
3
330
0
100
AcDbSymbolTable
 70
     1
  0
STYLE
  5
11
330
3
100
AcDbSymbolTableRecord
100
AcDbTextStyleTableRecord
  2
Standard
 70
     0
 40
0.0
 41
1.0
 50
0.0
 71
     0
 42
0.2
  3
txt
  4

  0
ENDTAB
  0
TABLE
  2
VIEW
  5
6
330
0
100
AcDbSymbolTable
 70
     0
  0
ENDTAB
  0
TABLE
  2
UCS
  5
7
330
0
100
AcDbSymbolTable
 70
     0
  0
ENDTAB
  0
TABLE
  2
APPID
  5
9
330
0
100
AcDbSymbolTable
 70
     1
  0
APPID
  5
12
330
9
100
AcDbSymbolTableRecord
100
AcDbRegAppTableRecord
  2
ACAD
 70
     0
  0
ENDTAB
  0
TABLE
  2
DIMSTYLE
  5
A
330
0
100
AcDbSymbolTable
 70
     1
100
AcDbDimStyleTable
 71
     0
  0
DIMSTYLE
105
5CA
330
A
100
AcDbSymbolTableRecord
100
AcDbDimStyleTableRecord
  2
Standard
 70
     0
340
11
  0
ENDTAB
  0
TABLE
  2
BLOCK_RECORD
  5
1
330
0
100
AcDbSymbolTable
 70
     0
  0
BLOCK_RECORD
  5
1E
330
1
100
AcDbSymbolTableRecord
100
AcDbBlockTableRecord
  2
*Model_Space
340
21
  0
BLOCK_RECORD
  5
1A
330
1
100
AcDbSymbolTableRecord
100
AcDbBlockTableRecord
  2
*Paper_Space
340
1D
  0
ENDTAB
  0
ENDSEC
  0
SECTION
  2
BLOCKS
  0
BLOCK
  5
1F
330
1E
100
AcDbEntity
  8
0
100
AcDbBlockBegin
  2
*Model_Space
 70
     0
 10
0.0
 20
0.0
 30
0.0
  3
*Model_Space
  1

  0
ENDBLK
  5
20
330
1E
100
AcDbEntity
  8
0
100
AcDbBlockEnd
  0
BLOCK
  5
1B
330
1A
100
AcDbEntity
 67
     1
  8
0
100
AcDbBlockBegin
  2
*Paper_Space
 70
     0
 10
0.0
 20
0.0
 30
0.0
  3
*Paper_Space
  1

  0
ENDBLK
  5
1C
330
1A
100
AcDbEntity
 67
     1
  8
0
100
AcDbBlockEnd
  0
ENDSEC
  0
SECTION
  2
ENTITIES
  0
LINE
  5
22
330
1E
100
AcDbEntity
  8
0
100
AcDbLine
 10
0.139700000000011
 20
172.5014999999999
 30
0.0
 11
2.630296000000009
 21
192.3265
 31
0.0
  0
LINE
  5
23
330
1E
100
AcDbEntity
  8
0
100
AcDbLine
 10
0.0442000000000111
 20
152.5225
 30
0.0
 11
2.423096000000009
 21
128.9854999999999
 31
0.0
  0
LINE
  5
24
330
1E
100
AcDbEntity
  8
0
100
AcDbLine
 10
0.0442000000000111
 20
152.5225
 30
0.0
 11
0.139700000000011
 21
172.5014999999999
 31
0.0
  0
LINE
  5
26
330
1E
100
AcDbEntity
  8
0
100
AcDbLine
 10
2.630296000000009
 20
192.3265
 30
0.0
 11
8.035100000000008
 21
215.3605
 31
0.0
  0
LINE
  5
27
330
1E
100
AcDbEntity
  8
0
100
AcDbLine
 10
2.423096000000009
 20
128.9854999999999
 30
0.0
 11
7.370800000000009
 21
104.8824999999999
 31
0.0
  0
LINE
  5
28
330
1E
100
AcDbEntity
  8
0
100
AcDbLine
 10
3.864800000000009
 20
463.5745
 30
0.0
 11
4.964800000000009
 21
461.9744999999999
 31
0.0
  0
LINE
  5
2A
330
1E
100
AcDbEntity
  8
0
100
AcDbLine
 10
8.035100000000008
 20
215.3605
 30
0.0
 11
16.0603
 21
238.6245
 31
0.0
  0
LINE
  5
2B
330
1E
100
AcDbEntity
  8
0
100
AcDbLine
 10
16.0603
 20
238.6245
 30
0.0
 11
28.27009999999999
 21
261.5174999999999
 31
0.0
  0
LINE
  5
2C
330
1E
100
AcDbEntity
  8
0
100
AcDbLine
 10
16.1063
 20
171.4695
 30
0.0
 11
18.5451
 21
190.4985
 31
0.0
  0
LINE
  5
2D
330
1E
100
AcDbEntity
  8
0
100
AcDbLine
 10
16.0624
 20
152.2864999999999
 30
0.0
 11
18.3711
 21
130.7525
 31
0.0
  0
LINE
  5
2E
330
1E
100
AcDbEntity
  8
0
100
AcDbLine
 10
16.0624
 20
152.2864999999999
 30
0.0
 11
16.1063
 21
171.4695
 31
0.0
  0
LINE
  5
2F
330
1E
100
AcDbEntity
  8
0
100
AcDbLine
 10
7.370800000000009
 20
104.8824999999999
 30
0.0
 11
16.516
 21
80.60850000000021
 31
0.0
  0
LINE
  5
30
330
1E
100
AcDbEntity
  8
0
100
AcDbLine
 10
16.516
 20
80.60850000000021
 30
0.0
 11
27.1203
 21
58.7385000000002
 31
0.0
  0
LINE
  5
31
330
1E
100
AcDbEntity
  8
0
100
AcDbLine
 10
7.764800000000009
 20
459.1745
 30
0.0
 11
9.364800000000009
 21
458.0745
 31
0.0
  0
LINE
  5
33
330
1E
100
AcDbEntity
  8
0
100
AcDbLine
 10
6.264800000000009
 20
460.4745
 30
0.0
 11
7.764800000000009
 21
459.1745
 31
0.0
  0
LINE
  5
36
330
1E
100
AcDbEntity
  8
0
100
AcDbLine
 10
9.364800000000009
 20
458.0745
 30
0.0
 11
11.16479999999999
 21
457.2745
 31
0.0
  0
LINE
  5
37
330
1E
100
AcDbEntity
  8
0
100
AcDbLine
 10
11.16479999999999
 20
457.2745
 30
0.0
 11
12.9648
 21
456.5744999999999
 31
0.0
  0
LINE
  5
3B
330
1E
100
AcDbEntity
  8
0
100
AcDbLine
 10
12.9648
 20
456.5744999999999
 30
0.0
 11
14.8648
 21
456.2744999999999
 31
0.0
  0
LINE
  5
3C
330
1E
100
AcDbEntity
  8
0
100
AcDbLine
 10
14.8648
 20
456.2744999999999
 30
0.0
 11
16.86479999999999
 21
456.0744999999999
 31
0.0
  0
LINE
  5
3D
330
1E
100
AcDbEntity
  8
0
100
AcDbLine
 10
18.5451
 20
190.4985
 30
0.0
 11
23.62109999999999
 21
211.5545
 31
0.0
  0
LINE
  5
3E
330
1E
100
AcDbEntity
  8
0
100
AcDbLine
 10
18.3711
 20
130.7525
 30
0.0
 11
22.695
 21
109.3885
 31
0.0
  0
LINE
  5
3F
330
1E
100
AcDbEntity
  8
0
100
AcDbLine
 10
23.62109999999999
 20
211.5545
 30
0.0
 11
30.6736
 21
232.1845
 31
0.0
  0
LINE
  5
40
330
1E
100
AcDbEntity
  8
0
100
AcDbLine
 10
22.695
 20
109.3885
 30
0.0
 11
30.9046
 21
87.67350000000019
 31
0.0
  0
LINE
  5
42
330
1E
100
AcDbEntity
  8
0
100
AcDbLine
 10
16.86479999999999
 20
456.0744999999999
 30
0.0
 11
86.86480000000001
 21
456.0744999999999
 31
0.0
  0
LINE
  5
43
330
1E
100
AcDbEntity
  8
0
100
AcDbLine
 10
16.86479999999999
 20
456.0744999999999
 30
0.0
 11
86.86480000000001
 21
456.0744999999999
 31
0.0
  0
LINE
  5
45
330
1E
100
AcDbEntity
  8
0
100
AcDbLine
 10
4.964800000000009
 20
461.9744999999999
 30
0.0
 11
6.264800000000009
 21
460.4745
 31
0.0
  0
LINE
  5
47
330
1E
100
AcDbEntity
  8
0
100
AcDbLine
 10
3.064800000000009
 20
465.3744999999999
 30
0.0
 11
3.864800000000009
 21
463.5745
 31
0.0
  0
LINE
  5
48
330
1E
100
AcDbEntity
  8
0
100
AcDbLine
 10
2.36480000000001
 20
467.1745
 30
0.0
 11
3.064800000000009
 21
465.3744999999999
 31
0.0
  0
LINE
  5
4B
330
1E
100
AcDbEntity
  8
0
100
AcDbLine
 10
2.06480000000001
 20
469.0744999999999
 30
0.0
 11
2.36480000000001
 21
467.1745
 31
0.0
  0
LINE
  5
4C
330
1E
100
AcDbEntity
  8
0
100
AcDbLine
 10
1.86480000000001
 20
471.0745
 30
0.0
 11
1.86480000000001
 21
541.0744999999999
 31
0.0
  0
LINE
  5
4D
330
1E
100
AcDbEntity
  8
0
100
AcDbLine
 10
1.86480000000001
 20
471.0745
 30
0.0
 11
2.06480000000001
 21
469.0744999999999
 31
0.0
  0
LINE
  5
50
330
1E
100
AcDbEntity
  8
0
100
AcDbLine
 10
1.86480000000001
 20
541.0744999999999
 30
0.0
 11
1.86480000000001
 21
471.0745
 31
0.0
  0
LINE
  5
51
330
1E
100
AcDbEntity
  8
0
100
AcDbLine
 10
1.86480000000001
 20
541.0744999999999
 30
0.0
 11
1.86480000000001
 21
611.0744999999999
 31
0.0
  0
LINE
  5
5A
330
1E
100
AcDbEntity
  8
0
100
AcDbLine
 10
1.86480000000001
 20
611.0744999999999
 30
0.0
 11
1.86480000000001
 21
541.0744999999999
 31
0.0
  0
LINE
  5
5B
330
1E
100
AcDbEntity
  8
0
100
AcDbLine
 10
1.86480000000001
 20
611.0744999999999
 30
0.0
 11
2.06480000000001
 21
613.0744999999999
 31
0.0
  0
LINE
  5
61
330
1E
100
AcDbEntity
  8
0
100
AcDbLine
 10
2.36480000000001
 20
614.9745
 30
0.0
 11
3.064800000000009
 21
616.7745
 31
0.0
  0
LINE
  5
66
330
1E
100
AcDbEntity
  8
0
100
AcDbLine
 10
7.764800000000009
 20
622.9745
 30
0.0
 11
9.364800000000009
 21
624.0744999999999
 31
0.0
  0
LINE
  5
67
330
1E
100
AcDbEntity
  8
0
100
AcDbLine
 10
6.264800000000009
 20
621.6744999999999
 30
0.0
 11
7.764800000000009
 21
622.9745
 31
0.0
  0
LINE
  5
6A
330
1E
100
AcDbEntity
  8
0
100
AcDbLine
 10
9.364800000000009
 20
624.0744999999999
 30
0.0
 11
11.16479999999999
 21
624.8745
 31
0.0
  0
LINE
  5
6B
330
1E
100
AcDbEntity
  8
0
100
AcDbLine
 10
11.16479999999999
 20
624.8745
 30
0.0
 11
12.9648
 21
625.5744999999999
 31
0.0
  0
LINE
  5
6F
330
1E
100
AcDbEntity
  8
0
100
AcDbLine
 10
16.86479999999999
 20
626.0745
 30
0.0
 11
86.86480000000001
 21
626.0745
 31
0.0
  0
LINE
  5
71
330
1E
100
AcDbEntity
  8
0
100
AcDbLine
 10
14.8648
 20
625.8745
 30
0.0
 11
16.86479999999999
 21
626.0745
 31
0.0
  0
LINE
  5
72
330
1E
100
AcDbEntity
  8
0
100
AcDbLine
 10
16.86479999999999
 20
626.0745
 30
0.0
 11
86.86480000000001
 21
626.0745
 31
0.0
  0
LINE
  5
73
330
1E
100
AcDbEntity
  8
0
100
AcDbLine
 10
12.9648
 20
625.5744999999999
 30
0.0
 11
14.8648
 21
625.8745
 31
0.0
  0
LINE
  5
74
330
1E
100
AcDbEntity
  8
0
100
AcDbLine
 10
4.964800000000009
 20
620.1744999999999
 30
0.0
 11
6.264800000000009
 21
621.6744999999999
 31
0.0
  0
LINE
  5
75
330
1E
100
AcDbEntity
  8
0
100
AcDbLine
 10
3.864800000000009
 20
618.5744999999999
 30
0.0
 11
4.964800000000009
 21
620.1744999999999
 31
0.0
  0
LINE
  5
76
330
1E
100
AcDbEntity
  8
0
100
AcDbLine
 10
3.064800000000009
 20
616.7745
 30
0.0
 11
3.864800000000009
 21
618.5744999999999
 31
0.0
  0
LINE
  5
77
330
1E
100
AcDbEntity
  8
0
100
AcDbLine
 10
2.06480000000001
 20
613.0744999999999
 30
0.0
 11
2.36480000000001
 21
614.9745
 31
0.0
  0
LINE
  5
7C
330
1E
100
AcDbEntity
  8
0
100
AcDbLine
 10
23.8648
 20
498.5469
 30
0.0
 11
23.8748
 21
497.3969
 31
0.0
  0
LINE
  5
7F
330
1E
100
AcDbEntity
  8
0
100
AcDbLine
 10
24.0148
 20
494.0469
 30
0.0
 11
24.2924
 21
491.4718999999999
 31
0.0
  0
LINE
  5
80
330
1E
100
AcDbEntity
  8
0
100
AcDbLine
 10
23.8748
 20
497.3969
 30
0.0
 11
23.9148
 21
495.8469
 31
0.0
  0
LINE
  5
81
330
1E
100
AcDbEntity
  8
0
100
AcDbLine
 10
23.9148
 20
495.8469
 30
0.0
 11
24.0148
 21
494.0469
 31
0.0
  0
LINE
  5
82
330
1E
100
AcDbEntity
  8
0
100
AcDbLine
 10
28.27009999999999
 20
261.5174999999999
 30
0.0
 11
78.29559999999999
 21
356.5837999999999
 31
0.0
  0
LINE
  5
83
330
1E
100
AcDbEntity
  8
0
100
AcDbLine
 10
30.6736
 20
232.1845
 30
0.0
 11
41.6236
 21
252.6604999999999
 31
0.0
  0
LINE
  5
84
330
1E
100
AcDbEntity
  8
0
100
AcDbLine
 10
28.27009999999999
 20
261.5174999999999
 30
0.0
 11
78.29559999999999
 21
356.5837999999999
 31
0.0
  0
LINE
  5
85
330
1E
100
AcDbEntity
  8
0
100
AcDbLine
 10
30.9046
 20
87.67350000000019
 30
0.0
 11
39.96159999999999
 21
68.20150000000019
 31
0.0
  0
LINE
  5
86
330
1E
100
AcDbEntity
  8
0
100
AcDbLine
 10
27.1203
 20
58.7385000000002
 30
0.0
 11
41.9076
 21
41.0945000000002
 31
0.0
  0
LINE
  5
87
330
1E
100
AcDbEntity
  8
0
100
AcDbLine
 10
35.8648
 20
481.566696351119
 30
0.0
 11
35.8648
 21
478.3745
 31
0.0
  0
LINE
  5
88
330
1E
100
AcDbEntity
  8
0
100
AcDbLine
 10
36.5248
 20
478.0745
 30
0.0
 11
37.5808
 21
478.0745
 31
0.0
  0
LINE
  5
89
330
1E
100
AcDbEntity
  8
0
100
AcDbLine
 10
36.1288
 20
478.0745
 30
0.0
 11
36.5248
 21
478.0745
 31
0.0
  0
LINE
  5
8A
330
1E
100
AcDbEntity
  8
0
100
AcDbLine
 10
39.96159999999999
 20
68.20150000000019
 30
0.0
 11
52.9616
 21
52.3725000000001
 31
0.0
  0
LINE
  5
8B
330
1E
100
AcDbEntity
  8
0
100
AcDbLine
 10
39.29679999999999
 20
478.0745
 30
0.0
 11
41.54079999999999
 21
478.0745
 31
0.0
  0
LINE
  5
8C
330
1E
100
AcDbEntity
  8
0
100
AcDbLine
 10
37.5808
 20
478.0745
 30
0.0
 11
39.29679999999999
 21
478.0745
 31
0.0
  0
LINE
  5
8D
330
1E
100
AcDbEntity
  8
0
100
AcDbLine
 10
39.0768
 20
478.3745
 30
0.0
 11
41.4088
 21
478.3745
 31
0.0
  0
LINE
  5
8E
330
1E
100
AcDbEntity
  8
0
100
AcDbLine
 10
37.3168
 20
478.3745
 30
0.0
 11
39.0768
 21
478.3745
 31
0.0
  0
LINE
  5
8F
330
1E
100
AcDbEntity
  8
0
100
AcDbLine
 10
36.2608
 20
478.3745
 30
0.0
 11
37.3168
 21
478.3745
 31
0.0
  0
LINE
  5
90
330
1E
100
AcDbEntity
  8
0
100
AcDbLine
 10
35.8648
 20
478.3745
 30
0.0
 11
36.2608
 21
478.3745
 31
0.0
  0
LINE
  5
91
330
1E
100
AcDbEntity
  8
0
100
AcDbLine
 10
35.8648
 20
478.3745
 30
0.0
 11
36.1288
 21
478.0745
 31
0.0
  0
LINE
  5
92
330
1E
100
AcDbEntity
  8
0
100
AcDbLine
 10
35.8648
 20
478.3745
 30
0.0
 11
35.8648
 21
481.566696351119
 31
0.0
  0
LINE
  5
93
330
1E
100
AcDbEntity
  8
0
100
AcDbLine
 10
32.5516
 20
481.8761
 30
0.0
 11
34.3188
 21
481.6704999999999
 31
0.0
  0
LINE
  5
94
330
1E
100
AcDbEntity
  8
0
100
AcDbLine
 10
34.3188
 20
481.6704999999999
 30
0.0
 11
35.77129999999999
 21
481.5736999999999
 31
0.0
  0
LINE
  5
95
330
1E
100
AcDbEntity
  8
0
100
AcDbLine
 10
35.77129999999999
 20
481.5736999999999
 30
0.0
 11
36.2608
 21
481.5370338382099
 31
0.0
  0
LINE
  5
96
330
1E
100
AcDbEntity
  8
0
100
AcDbLine
 10
31.0265
 20
482.1422
 30
0.0
 11
32.5516
 21
481.8761
 31
0.0
  0
LINE
  5
97
330
1E
100
AcDbEntity
  8
0
100
AcDbLine
 10
27.7462
 20
483.2416999999999
 30
0.0
 11
29.0656
 21
482.7314999999999
 31
0.0
  0
LINE
  5
98
330
1E
100
AcDbEntity
  8
0
100
AcDbLine
 10
29.0656
 20
482.7314999999999
 30
0.0
 11
31.0265
 21
482.1422
 31
0.0
  0
LINE
  5
99
330
1E
100
AcDbEntity
  8
0
100
AcDbLine
 10
26.7128
 20
484.0161
 30
0.0
 11
27.7462
 21
483.2416999999999
 31
0.0
  0
LINE
  5
9B
330
1E
100
AcDbEntity
  8
0
100
AcDbLine
 10
26.4038786439408
 20
484.4145918573099
 30
0.0
 11
26.7128
 21
484.0161
 31
0.0
  0
LINE
  5
9C
330
1E
100
AcDbEntity
  8
0
100
AcDbLine
 10
41.6236
 20
252.6604999999999
 30
0.0
 11
90.6606
 21
346.3905
 31
0.0
  0
LINE
  5
9D
330
1E
100
AcDbEntity
  8
0
100
AcDbLine
 10
41.9076
 20
41.0945000000002
 30
0.0
 11
60.83359999999999
 21
22.3845000000002
 31
0.0
  0
LINE
  5
9E
330
1E
100
AcDbEntity
  8
0
100
AcDbLine
 10
44.09279999999999
 20
478.0745
 30
0.0
 11
46.8648
 21
478.0745
 31
0.0
  0
LINE
  5
9F
330
1E
100
AcDbEntity
  8
0
100
AcDbLine
 10
41.54079999999999
 20
478.0745
 30
0.0
 11
44.09279999999999
 21
478.0745
 31
0.0
  0
LINE
  5
A0
330
1E
100
AcDbEntity
  8
0
100
AcDbLine
 10
44.0488
 20
478.3745
 30
0.0
 11
46.8648
 21
478.3745
 31
0.0
  0
LINE
  5
A1
330
1E
100
AcDbEntity
  8
0
100
AcDbLine
 10
41.4088
 20
478.3745
 30
0.0
 11
44.0488
 21
478.3745
 31
0.0
  0
LINE
  5
A2
330
1E
100
AcDbEntity
  8
0
100
AcDbLine
 10
46.8648
 20
478.0745
 30
0.0
 11
49.6368
 21
478.0745
 31
0.0
  0
LINE
  5
A3
330
1E
100
AcDbEntity
  8
0
100
AcDbLine
 10
49.6368
 20
478.0745
 30
0.0
 11
52.1888
 21
478.0745
 31
0.0
  0
LINE
  5
A4
330
1E
100
AcDbEntity
  8
0
100
AcDbLine
 10
46.8648
 20
478.3745
 30
0.0
 11
49.6808
 21
478.3745
 31
0.0
  0
LINE
  5
A5
330
1E
100
AcDbEntity
  8
0
100
AcDbLine
 10
52.9616
 20
52.3725000000001
 30
0.0
 11
69.71659999999999
 21
35.70050000000009
 31
0.0
  0
LINE
  5
A6
330
1E
100
AcDbEntity
  8
0
100
AcDbLine
 10
52.1888
 20
478.0745
 30
0.0
 11
54.4328
 21
478.0745
 31
0.0
  0
LINE
  5
A7
330
1E
100
AcDbEntity
  8
0
100
AcDbLine
 10
54.4328
 20
478.0745
 30
0.0
 11
56.1488
 21
478.0745
 31
0.0
  0
LINE
  5
A8
330
1E
100
AcDbEntity
  8
0
100
AcDbLine
 10
49.6808
 20
478.3745
 30
0.0
 11
52.32079999999999
 21
478.3745
 31
0.0
  0
LINE
  5
A9
330
1E
100
AcDbEntity
  8
0
100
AcDbLine
 10
52.32079999999999
 20
478.3745
 30
0.0
 11
54.65279999999999
 21
478.3745
 31
0.0
  0
LINE
  5
AA
330
1E
100
AcDbEntity
  8
0
100
AcDbLine
 10
56.1488
 20
478.0745
 30
0.0
 11
57.2048
 21
478.0745
 31
0.0
  0
LINE
  5
AB
330
1E
100
AcDbEntity
  8
0
100
AcDbLine
 10
57.2048
 20
478.0745
 30
0.0
 11
57.6008
 21
478.0745
 31
0.0
  0
LINE
  5
AC
330
1E
100
AcDbEntity
  8
0
100
AcDbLine
 10
54.65279999999999
 20
478.3745
 30
0.0
 11
56.4128
 21
478.3745
 31
0.0
  0
LINE
  5
AD
330
1E
100
AcDbEntity
  8
0
100
AcDbLine
 10
56.4128
 20
478.3745
 30
0.0
 11
57.4688
 21
478.3745
 31
0.0
  0
LINE
  5
AE
330
1E
100
AcDbEntity
  8
0
100
AcDbLine
 10
78.29559999999999
 20
356.5837999999999
 30
0.0
 11
88.54359999999999
 21
375.5068
 31
0.0
  0
LINE
  5
AF
330
1E
100
AcDbEntity
  8
0
100
AcDbLine
 10
69.71659999999999
 20
35.70050000000009
 30
0.0
 11
86.6036
 21
25.7155000000002
 31
0.0
  0
LINE
  5
B0
330
1E
100
AcDbEntity
  8
0
100
AcDbLine
 10
60.83359999999999
 20
22.3845000000002
 30
0.0
 11
80.14560000000001
 21
11.1435000000002
 31
0.0
  0
LINE
  5
B1
330
1E
100
AcDbEntity
  8
0
100
AcDbLine
 10
97.9016
 20
397.6858
 30
0.0
 11
105.6667999999999
 21
421.5658
 31
0.0
  0
LINE
  5
B2
330
1E
100
AcDbEntity
  8
0
100
AcDbLine
 10
101.3535999999999
 20
365.9848
 30
0.0
 11
111.2557999999999
 21
388.8278
 31
0.0
  0
LINE
  5
B3
330
1E
100
AcDbEntity
  8
0
100
AcDbLine
 10
88.54359999999999
 20
375.5068
 30
0.0
 11
97.9016
 21
397.6858
 31
0.0
  0
LINE
  5
B4
330
1E
100
AcDbEntity
  8
0
100
AcDbLine
 10
90.6606
 20
346.3905
 30
0.0
 11
101.3535999999999
 21
365.9848
 31
0.0
  0
LINE
  5
B5
330
1E
100
AcDbEntity
  8
0
100
AcDbLine
 10
86.6036
 20
25.7155000000002
 30
0.0
 11
106.1678
 21
18.3555000000002
 31
0.0
  0
LINE
  5
B6
330
1E
100
AcDbEntity
  8
0
100
AcDbLine
 10
80.14560000000001
 20
11.1435000000002
 30
0.0
 11
102.3517999999999
 21
2.813500000000189
 31
0.0
  0
LINE
  5
B7
330
1E
100
AcDbEntity
  8
0
100
AcDbLine
 10
136.1907999999999
 20
2.7425000000002
 30
0.0
 11
158.3657999999999
 21
11.1755000000001
 31
0.0
  0
LINE
  5
B8
330
1E
100
AcDbEntity
  8
0
100
AcDbLine
 10
132.3197999999999
 20
18.3135000000002
 30
0.0
 11
151.8557999999999
 21
25.7645000000001
 31
0.0
  0
LINE
  5
B9
330
1E
100
AcDbEntity
  8
0
100
AcDbLine
 10
120.2338
 20
15.8465000000002
 30
0.0
 11
132.3197999999999
 21
18.3135000000002
 31
0.0
  0
LINE
  5
BA
330
1E
100
AcDbEntity
  8
0
100
AcDbLine
 10
119.1997999999999
 20
-0.0744999999998887
 30
0.0
 11
136.1907999999999
 21
2.7425000000002
 31
0.0
  0
LINE
  5
BB
330
1E
100
AcDbEntity
  8
0
100
AcDbLine
 10
105.6667999999999
 20
421.5658
 30
0.0
 11
111.8217999999999
 21
445.3508
 31
0.0
  0
LINE
  5
BC
330
1E
100
AcDbEntity
  8
0
100
AcDbLine
 10
128.3267999999999
 20
410.9458
 30
0.0
 11
133.6818
 21
386.8558
 31
0.0
  0
LINE
  5
BD
330
1E
100
AcDbEntity
  8
0
100
AcDbLine
 10
133.6818
 20
386.8558
 30
0.0
 11
140.5018
 21
361.8638
 31
0.0
  0
LINE
  5
BE
330
1E
100
AcDbEntity
  8
0
100
AcDbLine
 10
123.9857999999999
 20
445.1287999999999
 30
0.0
 11
128.3267999999999
 21
410.9458
 31
0.0
  0
LINE
  5
BF
330
1E
100
AcDbEntity
  8
0
100
AcDbLine
 10
111.8217999999999
 20
445.3508
 30
0.0
 11
116.1178
 21
466.7568
 31
0.0
  0
LINE
  5
C0
330
1E
100
AcDbEntity
  8
0
100
AcDbLine
 10
119.7027999999999
 20
413.9628
 30
0.0
 11
125.3065336370339
 21
434.728745193566
 31
0.0
  0
LINE
  5
C1
330
1E
100
AcDbEntity
  8
0
100
AcDbLine
 10
119.7027999999999
 20
413.9628
 30
0.0
 11
125.3065336370339
 21
434.728745193566
 31
0.0
  0
LINE
  5
C2
330
1E
100
AcDbEntity
  8
0
100
AcDbLine
 10
111.2557999999999
 20
388.8278
 30
0.0
 11
119.7027999999999
 21
413.9628
 31
0.0
  0
LINE
  5
C3
330
1E
100
AcDbEntity
  8
0
100
AcDbLine
 10
106.1678
 20
18.3555000000002
 30
0.0
 11
120.2338
 21
15.8465000000002
 31
0.0
  0
LINE
  5
C4
330
1E
100
AcDbEntity
  8
0
100
AcDbLine
 10
102.3517999999999
 20
2.813500000000189
 30
0.0
 11
119.1997999999999
 21
-0.0744999999998887
 31
0.0
  0
LINE
  5
C6
330
1E
100
AcDbEntity
  8
0
100
AcDbLine
 10
116.1178
 20
466.7568
 30
0.0
 11
118.589512726228
 21
486.9225
 31
0.0
  0
LINE
  5
C9
330
1E
100
AcDbEntity
  8
0
100
AcDbLine
 10
86.86480000000001
 20
456.0744999999999
 30
0.0
 11
113.973954311875
 21
456.0744999999999
 31
0.0
  0
LINE
  5
CA
330
1E
100
AcDbEntity
  8
0
100
AcDbLine
 10
139.9457999999999
 20
446.2197799999999
 30
0.0
 11
143.8968
 21
414.8188
 31
0.0
  0
LINE
  5
CB
330
1E
100
AcDbEntity
  8
0
100
AcDbLine
 10
143.8968
 20
414.8188
 30
0.0
 11
148.2718
 21
393.3668
 31
0.0
  0
LINE
  5
CC
330
1E
100
AcDbEntity
  8
0
100
AcDbLine
 10
148.2718
 20
393.3668
 30
0.0
 11
154.5107999999999
 21
369.5378
 31
0.0
  0
LINE
  5
CD
330
1E
100
AcDbEntity
  8
0
100
AcDbLine
 10
140.5018
 20
361.8638
 30
0.0
 11
149.0388
 21
336.6884999999999
 31
0.0
  0
LINE
  5
CE
330
1E
100
AcDbEntity
  8
0
100
AcDbLine
 10
154.5107999999999
 20
369.5378
 30
0.0
 11
162.3598
 21
345.6174999999999
 31
0.0
  0
LINE
  5
CF
330
1E
100
AcDbEntity
  8
0
100
AcDbLine
 10
149.0388
 20
336.6884999999999
 30
0.0
 11
159.0227999999999
 21
313.8174999999999
 31
0.0
  0
LINE
  5
D0
330
1E
100
AcDbEntity
  8
0
100
AcDbLine
 10
151.8557999999999
 20
25.7645000000001
 30
0.0
 11
168.7068
 21
35.83850000000029
 31
0.0
  0
LINE
  5
D1
330
1E
100
AcDbEntity
  8
0
100
AcDbLine
 10
162.3598
 20
345.6174999999999
 30
0.0
 11
171.7958
 21
323.4115
 31
0.0
  0
LINE
  5
D2
330
1E
100
AcDbEntity
  8
0
100
AcDbLine
 10
159.0227999999999
 20
313.8174999999999
 30
0.0
 11
169.7838
 21
294.2054999999999
 31
0.0
  0
LINE
  5
D3
330
1E
100
AcDbEntity
  8
0
100
AcDbLine
 10
184.3878
 20
272.6544999999999
 30
0.0
 11
196.0208
 21
253.5064999999999
 31
0.0
  0
LINE
  5
D4
330
1E
100
AcDbEntity
  8
0
100
AcDbLine
 10
169.7838
 20
294.2054999999999
 30
0.0
 11
184.3878
 21
272.6544999999999
 31
0.0
  0
LINE
  5
D5
330
1E
100
AcDbEntity
  8
0
100
AcDbLine
 10
171.7958
 20
323.4115
 30
0.0
 11
182.1118
 21
304.4725
 31
0.0
  0
LINE
  5
D6
330
1E
100
AcDbEntity
  8
0
100
AcDbLine
 10
182.1118
 20
304.4725
 30
0.0
 11
195.8558
 21
283.7625
 31
0.0
  0
LINE
  5
D7
330
1E
100
AcDbEntity
  8
0
100
AcDbLine
 10
196.0208
 20
253.5064999999999
 30
0.0
 11
207.0438
 21
233.0124999999999
 31
0.0
  0
LINE
  5
D8
330
1E
100
AcDbEntity
  8
0
100
AcDbLine
 10
195.8558
 20
283.7625
 30
0.0
 11
209.3418
 21
262.4365
 31
0.0
  0
LINE
  5
D9
330
1E
100
AcDbEntity
  8
0
100
AcDbLine
 10
207.0438
 20
233.0124999999999
 30
0.0
 11
214.1688
 21
212.3514999999999
 31
0.0
  0
LINE
  5
DA
330
1E
100
AcDbEntity
  8
0
100
AcDbLine
 10
214.1688
 20
212.3514999999999
 30
0.0
 11
219.3197999999999
 21
191.2535
 31
0.0
  0
LINE
  5
DB
330
1E
100
AcDbEntity
  8
0
100
AcDbLine
 10
209.3418
 20
262.4365
 30
0.0
 11
221.6318
 21
239.5235
 31
0.0
  0
LINE
  5
DC
330
1E
100
AcDbEntity
  8
0
100
AcDbLine
 10
219.3197999999999
 20
191.2535
 30
0.0
 11
221.8258
 21
172.1815
 31
0.0
  0
LINE
  5
DD
330
1E
100
AcDbEntity
  8
0
100
AcDbLine
 10
221.8258
 20
172.1815
 30
0.0
 11
221.9397999999999
 21
152.9445
 31
0.0
  0
LINE
  5
DE
330
1E
100
AcDbEntity
  8
0
100
AcDbLine
 10
235.2268
 20
193.1445
 30
0.0
 11
237.7888
 21
173.2725
 31
0.0
  0
LINE
  5
DF
330
1E
100
AcDbEntity
  8
0
100
AcDbLine
 10
229.7408
 20
216.2234999999999
 30
0.0
 11
235.2268
 21
193.1445
 31
0.0
  0
LINE
  5
E0
330
1E
100
AcDbEntity
  8
0
100
AcDbLine
 10
221.6318
 20
239.5235
 30
0.0
 11
229.7408
 21
216.2234999999999
 31
0.0
  0
LINE
  5
E1
330
1E
100
AcDbEntity
  8
0
100
AcDbLine
 10
237.7888
 20
173.2725
 30
0.0
 11
237.9558
 21
153.2384999999999
 31
0.0
  0
LINE
  5
E2
330
1E
100
AcDbEntity
  8
0
100
AcDbLine
 10
219.7067999999999
 20
131.3425
 30
0.0
 11
221.9397999999999
 21
152.9445
 31
0.0
  0
LINE
  5
E3
330
1E
100
AcDbEntity
  8
0
100
AcDbLine
 10
235.6618
 20
129.6275
 30
0.0
 11
237.9558
 21
153.2384999999999
 31
0.0
  0
LINE
  5
E4
330
1E
100
AcDbEntity
  8
0
100
AcDbLine
 10
215.4598
 20
109.9015
 30
0.0
 11
219.7067999999999
 21
131.3425
 31
0.0
  0
LINE
  5
E5
330
1E
100
AcDbEntity
  8
0
100
AcDbLine
 10
230.7997999999999
 20
105.4394999999999
 30
0.0
 11
235.6618
 21
129.6275
 31
0.0
  0
LINE
  5
E6
330
1E
100
AcDbEntity
  8
0
100
AcDbLine
 10
207.3288
 20
88.0975000000002
 30
0.0
 11
215.4598
 21
109.9015
 31
0.0
  0
LINE
  5
E7
330
1E
100
AcDbEntity
  8
0
100
AcDbLine
 10
221.7418
 20
81.0645000000002
 30
0.0
 11
230.7997999999999
 21
105.4394999999999
 31
0.0
  0
LINE
  5
E8
330
1E
100
AcDbEntity
  8
0
100
AcDbLine
 10
198.3428
 20
68.53850000000029
 30
0.0
 11
207.3288
 21
88.0975000000002
 31
0.0
  0
LINE
  5
E9
330
1E
100
AcDbEntity
  8
0
100
AcDbLine
 10
211.2168
 20
59.0955000000002
 30
0.0
 11
221.7418
 21
81.0645000000002
 31
0.0
  0
LINE
  5
EA
330
1E
100
AcDbEntity
  8
0
100
AcDbLine
 10
185.3997999999999
 20
52.6175000000001
 30
0.0
 11
198.3428
 21
68.53850000000029
 31
0.0
  0
LINE
  5
EB
330
1E
100
AcDbEntity
  8
0
100
AcDbLine
 10
196.4947999999999
 20
41.34850000000029
 30
0.0
 11
211.2168
 21
59.0955000000002
 31
0.0
  0
LINE
  5
EC
330
1E
100
AcDbEntity
  8
0
100
AcDbLine
 10
168.7068
 20
35.83850000000029
 30
0.0
 11
185.3997999999999
 21
52.6175000000001
 31
0.0
  0
LINE
  5
ED
330
1E
100
AcDbEntity
  8
0
100
AcDbLine
 10
177.6357999999999
 20
22.5175000000001
 30
0.0
 11
196.4947999999999
 21
41.34850000000029
 31
0.0
  0
LINE
  5
EE
330
1E
100
AcDbEntity
  8
0
100
AcDbLine
 10
158.3657999999999
 20
11.1755000000001
 30
0.0
 11
177.6357999999999
 21
22.5175000000001
 31
0.0
  0
LINE
  5
F4
330
1E
100
AcDbEntity
  8
0
100
AcDbLine
 10
167.4647999999999
 20
460.4745
 30
0.0
 11
168.7648
 21
461.9744999999999
 31
0.0
  0
LINE
  5
F9
330
1E
100
AcDbEntity
  8
0
100
AcDbLine
 10
171.8647999999999
 20
471.0745
 30
0.0
 11
171.8647999999999
 21
541.0744999999999
 31
0.0
  0
LINE
  5
FA
330
1E
100
AcDbEntity
  8
0
100
AcDbLine
 10
169.8648
 20
463.5745
 30
0.0
 11
170.6648
 21
465.3744999999999
 31
0.0
  0
LINE
  5
FF
330
1E
100
AcDbEntity
  8
0
100
AcDbLine
 10
160.7648
 20
456.5744999999999
 30
0.0
 11
162.5647999999999
 21
457.2745
 31
0.0
  0
LINE
  5
100
330
1E
100
AcDbEntity
  8
0
100
AcDbLine
 10
158.8648
 20
456.2744999999999
 30
0.0
 11
160.7648
 21
456.5744999999999
 31
0.0
  0
LINE
  5
101
330
1E
100
AcDbEntity
  8
0
100
AcDbLine
 10
156.8648
 20
456.0744999999999
 30
0.0
 11
158.8648
 21
456.2744999999999
 31
0.0
  0
LINE
  5
102
330
1E
100
AcDbEntity
  8
0
100
AcDbLine
 10
139.273177778697
 20
456.0744999999999
 30
0.0
 11
156.8648
 21
456.0744999999999
 31
0.0
  0
LINE
  5
103
330
1E
100
AcDbEntity
  8
0
100
AcDbLine
 10
57.6008
 20
478.0745
 30
0.0
 11
57.8648
 21
478.3745
 31
0.0
  0
LINE
  5
104
330
1E
100
AcDbEntity
  8
0
100
AcDbLine
 10
57.4688
 20
478.3745
 30
0.0
 11
57.8648
 21
478.3745
 31
0.0
  0
LINE
  5
109
330
1E
100
AcDbEntity
  8
0
100
AcDbLine
 10
57.5983056559922
 20
481.546734502838
 30
0.0
 11
57.9583
 21
481.5736999999999
 31
0.0
  0
LINE
  5
10A
330
1E
100
AcDbEntity
  8
0
100
AcDbLine
 10
57.9583
 20
481.5736999999999
 30
0.0
 11
59.4108
 21
481.6704999999999
 31
0.0
  0
LINE
  5
10B
330
1E
100
AcDbEntity
  8
0
100
AcDbLine
 10
59.4108
 20
481.6704999999999
 30
0.0
 11
61.178
 21
481.8761
 31
0.0
  0
LINE
  5
10C
330
1E
100
AcDbEntity
  8
0
100
AcDbLine
 10
65.9834
 20
483.2416999999999
 30
0.0
 11
67.0168
 21
484.0161
 31
0.0
  0
LINE
  5
10D
330
1E
100
AcDbEntity
  8
0
100
AcDbLine
 10
68.0532
 20
485.353
 30
0.0
 11
68.75119999999999
 21
486.9563
 31
0.0
  0
LINE
  5
10E
330
1E
100
AcDbEntity
  8
0
100
AcDbLine
 10
67.0168
 20
484.0161
 30
0.0
 11
67.3257213560592
 21
484.4145918573099
 31
0.0
  0
LINE
  5
10F
330
1E
100
AcDbEntity
  8
0
100
AcDbLine
 10
64.664
 20
482.7314999999999
 30
0.0
 11
65.9834
 21
483.2416999999999
 31
0.0
  0
LINE
  5
110
330
1E
100
AcDbEntity
  8
0
100
AcDbLine
 10
62.7031
 20
482.1422
 30
0.0
 11
64.664
 21
482.7314999999999
 31
0.0
  0
LINE
  5
111
330
1E
100
AcDbEntity
  8
0
100
AcDbLine
 10
61.178
 20
481.8761
 30
0.0
 11
62.7031
 21
482.1422
 31
0.0
  0
LINE
  5
112
330
1E
100
AcDbEntity
  8
0
100
AcDbLine
 10
57.8648
 20
481.566696351119
 30
0.0
 11
57.8648
 21
478.3745
 31
0.0
  0
LINE
  5
113
330
1E
100
AcDbEntity
  8
0
100
AcDbLine
 10
57.8648
 20
478.3745
 30
0.0
 11
57.8648
 21
481.566696351119
 31
0.0
  0
LINE
  5
115
330
1E
100
AcDbEntity
  8
0
100
AcDbLine
 10
24.2924
 20
491.4718999999999
 30
0.0
 11
24.4733
 21
489.9816
 31
0.0
  0
LINE
  5
116
330
1E
100
AcDbEntity
  8
0
100
AcDbLine
 10
24.7507
 20
488.0911
 30
0.0
 11
24.9784
 21
486.9563
 31
0.0
  0
LINE
  5
117
330
1E
100
AcDbEntity
  8
0
100
AcDbLine
 10
24.9784
 20
486.9563
 30
0.0
 11
25.6764
 21
485.353
 31
0.0
  0
LINE
  5
118
330
1E
100
AcDbEntity
  8
0
100
AcDbLine
 10
24.4733
 20
489.9816
 30
0.0
 11
24.7507
 21
488.0911
 31
0.0
  0
LINE
  5
11B
330
1E
100
AcDbEntity
  8
0
100
AcDbLine
 10
24.3409
 20
495.5534
 30
0.0
 11
24.5148
 21
494.1691
 31
0.0
  0
LINE
  5
11C
330
1E
100
AcDbEntity
  8
0
100
AcDbLine
 10
24.5148
 20
494.1691
 30
0.0
 11
24.7648
 21
493.0190999999999
 31
0.0
  0
LINE
  5
11D
330
1E
100
AcDbEntity
  8
0
100
AcDbLine
 10
24.7648
 20
493.0190999999999
 30
0.0
 11
25.1648
 21
491.9691
 31
0.0
  0
LINE
  5
11E
330
1E
100
AcDbEntity
  8
0
100
AcDbLine
 10
25.1648
 20
491.9691
 30
0.0
 11
25.9648
 21
491.0191
 31
0.0
  0
LINE
  5
11F
330
1E
100
AcDbEntity
  8
0
100
AcDbLine
 10
46.8648
 20
488.1691
 30
0.0
 11
49.1634
 21
488.2087
 31
0.0
  0
LINE
  5
120
330
1E
100
AcDbEntity
  8
0
100
AcDbLine
 10
119.4647999999999
 20
486.9225
 30
0.0
 11
121.132728780461
 21
486.9225
 31
0.0
  0
LINE
  5
121
330
1E
100
AcDbEntity
  8
0
100
AcDbLine
 10
117.7648
 20
486.9225
 30
0.0
 11
119.4647999999999
 21
486.9225
 31
0.0
  0
LINE
  5
122
330
1E
100
AcDbEntity
  8
0
100
AcDbLine
 10
117.7648
 20
486.9225
 30
0.0
 11
118.589512726228
 21
486.9225
 31
0.0
  0
LINE
  5
123
330
1E
100
AcDbEntity
  8
0
100
AcDbLine
 10
116.7648
 20
486.9225
 30
0.0
 11
117.7648
 21
486.9225
 31
0.0
  0
LINE
  5
124
330
1E
100
AcDbEntity
  8
0
100
AcDbLine
 10
116.3648
 20
486.9225
 30
0.0
 11
116.7648
 21
486.9225
 31
0.0
  0
LINE
  5
125
330
1E
100
AcDbEntity
  8
0
100
AcDbLine
 10
137.167684138822
 20
486.9225
 30
0.0
 11
137.3647999999999
 21
486.9225
 31
0.0
  0
LINE
  5
126
330
1E
100
AcDbEntity
  8
0
100
AcDbLine
 10
137.3647999999999
 20
486.9225
 30
0.0
 11
138.3647999999999
 21
516.9224999999999
 31
0.0
  0
LINE
  5
127
330
1E
100
AcDbEntity
  8
0
100
AcDbLine
 10
68.9789
 20
488.0911
 30
0.0
 11
69.25629999999999
 21
489.9816
 31
0.0
  0
LINE
  5
128
330
1E
100
AcDbEntity
  8
0
100
AcDbLine
 10
68.75119999999999
 20
486.9563
 30
0.0
 11
68.9789
 21
488.0911
 31
0.0
  0
LINE
  5
129
330
1E
100
AcDbEntity
  8
0
100
AcDbLine
 10
49.1634
 20
488.2087
 30
0.0
 11
52.31889999999999
 21
488.2833999999999
 31
0.0
  0
LINE
  5
12A
330
1E
100
AcDbEntity
  8
0
100
AcDbLine
 10
52.31889999999999
 20
488.2833999999999
 30
0.0
 11
55.9367
 21
488.4600999999999
 31
0.0
  0
LINE
  5
12B
330
1E
100
AcDbEntity
  8
0
100
AcDbLine
 10
44.5662
 20
488.2087
 30
0.0
 11
46.8648
 21
488.1691
 31
0.0
  0
LINE
  5
12C
330
1E
100
AcDbEntity
  8
0
100
AcDbLine
 10
55.9367
 20
488.4600999999999
 30
0.0
 11
58.72489999999999
 21
488.6776
 31
0.0
  0
LINE
  5
12D
330
1E
100
AcDbEntity
  8
0
100
AcDbLine
 10
58.72489999999999
 20
488.6776
 30
0.0
 11
60.9963
 21
488.9085999999999
 31
0.0
  0
LINE
  5
12E
330
1E
100
AcDbEntity
  8
0
100
AcDbLine
 10
41.4107
 20
488.2833999999999
 30
0.0
 11
44.5662
 21
488.2087
 31
0.0
  0
LINE
  5
12F
330
1E
100
AcDbEntity
  8
0
100
AcDbLine
 10
37.7929
 20
488.4600999999999
 30
0.0
 11
41.4107
 21
488.2833999999999
 31
0.0
  0
LINE
  5
130
330
1E
100
AcDbEntity
  8
0
100
AcDbLine
 10
60.9963
 20
488.9085999999999
 30
0.0
 11
62.96479999999999
 21
489.1691
 31
0.0
  0
LINE
  5
131
330
1E
100
AcDbEntity
  8
0
100
AcDbLine
 10
62.96479999999999
 20
489.1691
 30
0.0
 11
64.8648
 21
489.5691
 31
0.0
  0
LINE
  5
132
330
1E
100
AcDbEntity
  8
0
100
AcDbLine
 10
35.00469999999999
 20
488.6776
 30
0.0
 11
37.7929
 21
488.4600999999999
 31
0.0
  0
LINE
  5
133
330
1E
100
AcDbEntity
  8
0
100
AcDbLine
 10
32.7333
 20
488.9085999999999
 30
0.0
 11
35.00469999999999
 21
488.6776
 31
0.0
  0
LINE
  5
134
330
1E
100
AcDbEntity
  8
0
100
AcDbLine
 10
69.25629999999999
 20
489.9816
 30
0.0
 11
69.4372
 21
491.4718999999999
 31
0.0
  0
LINE
  5
135
330
1E
100
AcDbEntity
  8
0
100
AcDbLine
 10
66.56480000000001
 20
490.1691
 30
0.0
 11
67.76479999999999
 21
491.0191
 31
0.0
  0
LINE
  5
136
330
1E
100
AcDbEntity
  8
0
100
AcDbLine
 10
64.8648
 20
489.5691
 30
0.0
 11
66.56480000000001
 21
490.1691
 31
0.0
  0
LINE
  5
137
330
1E
100
AcDbEntity
  8
0
100
AcDbLine
 10
30.7648
 20
489.1691
 30
0.0
 11
32.7333
 21
488.9085999999999
 31
0.0
  0
LINE
  5
138
330
1E
100
AcDbEntity
  8
0
100
AcDbLine
 10
28.8648
 20
489.5691
 30
0.0
 11
30.7648
 21
489.1691
 31
0.0
  0
LINE
  5
139
330
1E
100
AcDbEntity
  8
0
100
AcDbLine
 10
69.4372
 20
491.4718999999999
 30
0.0
 11
69.71479999999999
 21
494.0469
 31
0.0
  0
LINE
  5
13A
330
1E
100
AcDbEntity
  8
0
100
AcDbLine
 10
69.71479999999999
 20
494.0469
 30
0.0
 11
69.81480000000001
 21
495.8469
 31
0.0
  0
LINE
  5
13C
330
1E
100
AcDbEntity
  8
0
100
AcDbLine
 10
69.3887
 20
495.5534
 30
0.0
 11
69.4789
 21
497.3307
 31
0.0
  0
LINE
  5
13D
330
1E
100
AcDbEntity
  8
0
100
AcDbLine
 10
69.21479999999999
 20
494.1691
 30
0.0
 11
69.3887
 21
495.5534
 31
0.0
  0
LINE
  5
13E
330
1E
100
AcDbEntity
  8
0
100
AcDbLine
 10
68.9648
 20
493.0190999999999
 30
0.0
 11
69.21479999999999
 21
494.1691
 31
0.0
  0
LINE
  5
13F
330
1E
100
AcDbEntity
  8
0
100
AcDbLine
 10
68.56480000000001
 20
491.9691
 30
0.0
 11
68.9648
 21
493.0190999999999
 31
0.0
  0
LINE
  5
140
330
1E
100
AcDbEntity
  8
0
100
AcDbLine
 10
67.76479999999999
 20
491.0191
 30
0.0
 11
68.56480000000001
 21
491.9691
 31
0.0
  0
LINE
  5
141
330
1E
100
AcDbEntity
  8
0
100
AcDbLine
 10
69.81480000000001
 20
495.8469
 30
0.0
 11
69.85479999999999
 21
497.3969
 31
0.0
  0
LINE
  5
143
330
1E
100
AcDbEntity
  8
0
100
AcDbLine
 10
69.85479999999999
 20
497.3969
 30
0.0
 11
69.8648
 21
498.5469
 31
0.0
  0
LINE
  5
144
330
1E
100
AcDbEntity
  8
0
100
AcDbLine
 10
69.85661659336739
 20
498.471808237252
 30
0.0
 11
69.8648
 21
498.5469
 31
0.0
  0
LINE
  5
148
330
1E
100
AcDbEntity
  8
0
100
AcDbLine
 10
112.3407999999999
 20
518.8744999999999
 30
0.0
 11
112.8808
 21
518.8744999999999
 31
0.0
  0
LINE
  5
149
330
1E
100
AcDbEntity
  8
0
100
AcDbLine
 10
112.1647999999999
 20
518.8744999999999
 30
0.0
 11
112.3407999999999
 21
518.8744999999999
 31
0.0
  0
LINE
  5
14A
330
1E
100
AcDbEntity
  8
0
100
AcDbLine
 10
115.7648
 20
516.9224999999999
 30
0.0
 11
116.8648
 21
516.9224999999999
 31
0.0
  0
LINE
  5
14B
330
1E
100
AcDbEntity
  8
0
100
AcDbLine
 10
115.3648
 20
516.9224999999999
 30
0.0
 11
116.3648
 21
486.9225
 31
0.0
  0
LINE
  5
14C
330
1E
100
AcDbEntity
  8
0
100
AcDbLine
 10
115.3648
 20
516.9224999999999
 30
0.0
 11
115.7648
 21
516.9224999999999
 31
0.0
  0
LINE
  5
14D
330
1E
100
AcDbEntity
  8
0
100
AcDbLine
 10
118.7648
 20
516.9224999999999
 30
0.0
 11
119.084761345509
 21
516.9224999999999
 31
0.0
  0
LINE
  5
14E
330
1E
100
AcDbEntity
  8
0
100
AcDbLine
 10
116.8648
 20
516.9224999999999
 30
0.0
 11
118.7648
 21
516.9224999999999
 31
0.0
  0
LINE
  5
14F
330
1E
100
AcDbEntity
  8
0
100
AcDbLine
 10
135.120069732822
 20
516.9224999999999
 30
0.0
 11
136.8648
 21
516.9224999999999
 31
0.0
  0
LINE
  5
150
330
1E
100
AcDbEntity
  8
0
100
AcDbLine
 10
136.8648
 20
516.9224999999999
 30
0.0
 11
137.9647999999999
 21
516.9224999999999
 31
0.0
  0
LINE
  5
151
330
1E
100
AcDbEntity
  8
0
100
AcDbLine
 10
135.09549835995
 20
517.2825
 30
0.0
 11
136.4128
 21
517.2825
 31
0.0
  0
LINE
  5
152
330
1E
100
AcDbEntity
  8
0
100
AcDbLine
 10
136.4128
 20
517.2825
 30
0.0
 11
137.4687999999999
 21
517.2825
 31
0.0
  0
LINE
  5
153
330
1E
100
AcDbEntity
  8
0
100
AcDbLine
 10
137.4687999999999
 20
517.2825
 30
0.0
 11
137.8648
 21
517.2825
 31
0.0
  0
LINE
  5
154
330
1E
100
AcDbEntity
  8
0
100
AcDbLine
 10
117.3167999999999
 20
517.2825
 30
0.0
 11
119.060185736289
 21
517.2825
 31
0.0
  0
LINE
  5
155
330
1E
100
AcDbEntity
  8
0
100
AcDbLine
 10
116.2608
 20
517.2825
 30
0.0
 11
117.3167999999999
 21
517.2825
 31
0.0
  0
LINE
  5
156
330
1E
100
AcDbEntity
  8
0
100
AcDbLine
 10
115.5807999999999
 20
517.5744999999999
 30
0.0
 11
115.8648
 21
517.5744999999999
 31
0.0
  0
LINE
  5
157
330
1E
100
AcDbEntity
  8
0
100
AcDbLine
 10
115.5807999999999
 20
517.5744999999999
 30
0.0
 11
117.6607999999999
 21
517.5744999999999
 31
0.0
  0
LINE
  5
158
330
1E
100
AcDbEntity
  8
0
100
AcDbLine
 10
114.3328
 20
517.5744999999999
 30
0.0
 11
115.5807999999999
 21
517.5744999999999
 31
0.0
  0
LINE
  5
159
330
1E
100
AcDbEntity
  8
0
100
AcDbLine
 10
113.8648
 20
517.5744999999999
 30
0.0
 11
113.8648
 21
518.5744999999999
 31
0.0
  0
LINE
  5
15A
330
1E
100
AcDbEntity
  8
0
100
AcDbLine
 10
113.8648
 20
517.5744999999999
 30
0.0
 11
114.3328
 21
517.5744999999999
 31
0.0
  0
LINE
  5
15B
330
1E
100
AcDbEntity
  8
0
100
AcDbLine
 10
135.8648
 20
517.5744999999999
 30
0.0
 11
135.8648
 21
518.1245
 31
0.0
  0
LINE
  5
15C
330
1E
100
AcDbEntity
  8
0
100
AcDbLine
 10
135.8648
 20
517.5744999999999
 30
0.0
 11
136.4128
 21
517.5744999999999
 31
0.0
  0
LINE
  5
15D
330
1E
100
AcDbEntity
  8
0
100
AcDbLine
 10
135.8648
 20
517.5744999999999
 30
0.0
 11
135.8648
 21
564.5744999999999
 31
0.0
  0
LINE
  5
15E
330
1E
100
AcDbEntity
  8
0
100
AcDbLine
 10
136.0688
 20
517.5744999999999
 30
0.0
 11
138.1488
 21
517.5744999999999
 31
0.0
  0
LINE
  5
15F
330
1E
100
AcDbEntity
  8
0
100
AcDbLine
 10
135.0755682463979
 20
517.5744999999999
 30
0.0
 11
136.4128
 21
517.5744999999999
 31
0.0
  0
LINE
  5
160
330
1E
100
AcDbEntity
  8
0
100
AcDbLine
 10
135.0755682463979
 20
517.5744999999999
 30
0.0
 11
136.0688
 21
517.5744999999999
 31
0.0
  0
LINE
  5
161
330
1E
100
AcDbEntity
  8
0
100
AcDbLine
 10
136.4128
 20
517.5744999999999
 30
0.0
 11
137.4687999999999
 21
517.5744999999999
 31
0.0
  0
LINE
  5
162
330
1E
100
AcDbEntity
  8
0
100
AcDbLine
 10
137.4687999999999
 20
517.5744999999999
 30
0.0
 11
137.8648
 21
517.5744999999999
 31
0.0
  0
LINE
  5
163
330
1E
100
AcDbEntity
  8
0
100
AcDbLine
 10
117.8648
 20
517.5744999999999
 30
0.0
 11
117.8648
 21
518.1245
 31
0.0
  0
LINE
  5
164
330
1E
100
AcDbEntity
  8
0
100
AcDbLine
 10
117.6607999999999
 20
517.5744999999999
 30
0.0
 11
119.0402521865889
 21
517.5744999999999
 31
0.0
  0
LINE
  5
165
330
1E
100
AcDbEntity
  8
0
100
AcDbLine
 10
117.3167999999999
 20
517.5744999999999
 30
0.0
 11
117.8648
 21
517.5744999999999
 31
0.0
  0
LINE
  5
166
330
1E
100
AcDbEntity
  8
0
100
AcDbLine
 10
117.3167999999999
 20
517.5744999999999
 30
0.0
 11
119.0402521865889
 21
517.5744999999999
 31
0.0
  0
LINE
  5
167
330
1E
100
AcDbEntity
  8
0
100
AcDbLine
 10
116.2608
 20
517.5744999999999
 30
0.0
 11
117.3167999999999
 21
517.5744999999999
 31
0.0
  0
LINE
  5
168
330
1E
100
AcDbEntity
  8
0
100
AcDbLine
 10
115.8648
 20
517.5744999999999
 30
0.0
 11
115.8648
 21
517.2825
 31
0.0
  0
LINE
  5
169
330
1E
100
AcDbEntity
  8
0
100
AcDbLine
 10
115.8648
 20
517.5744999999999
 30
0.0
 11
116.2608
 21
517.5744999999999
 31
0.0
  0
LINE
  5
16A
330
1E
100
AcDbEntity
  8
0
100
AcDbLine
 10
115.8648
 20
517.5744999999999
 30
0.0
 11
115.8648
 21
518.1245
 31
0.0
  0
LINE
  5
16B
330
1E
100
AcDbEntity
  8
0
100
AcDbLine
 10
115.8648
 20
517.2825
 30
0.0
 11
115.8648
 21
517.5744999999999
 31
0.0
  0
LINE
  5
16C
330
1E
100
AcDbEntity
  8
0
100
AcDbLine
 10
115.8648
 20
517.2825
 30
0.0
 11
116.1288
 21
516.9224999999999
 31
0.0
  0
LINE
  5
16D
330
1E
100
AcDbEntity
  8
0
100
AcDbLine
 10
115.8648
 20
517.2825
 30
0.0
 11
116.2608
 21
517.2825
 31
0.0
  0
LINE
  5
16E
330
1E
100
AcDbEntity
  8
0
100
AcDbLine
 10
137.9647999999999
 20
516.9224999999999
 30
0.0
 11
138.3647999999999
 21
516.9224999999999
 31
0.0
  0
LINE
  5
16F
330
1E
100
AcDbEntity
  8
0
100
AcDbLine
 10
138.1488
 20
517.5744999999999
 30
0.0
 11
139.3968
 21
517.5744999999999
 31
0.0
  0
LINE
  5
170
330
1E
100
AcDbEntity
  8
0
100
AcDbLine
 10
139.8648
 20
517.5744999999999
 30
0.0
 11
139.8648
 21
518.5744999999999
 31
0.0
  0
LINE
  5
171
330
1E
100
AcDbEntity
  8
0
100
AcDbLine
 10
139.3968
 20
517.5744999999999
 30
0.0
 11
139.8648
 21
517.5744999999999
 31
0.0
  0
LINE
  5
172
330
1E
100
AcDbEntity
  8
0
100
AcDbLine
 10
137.8648
 20
517.2825
 30
0.0
 11
137.8648
 21
517.5744999999999
 31
0.0
  0
LINE
  5
173
330
1E
100
AcDbEntity
  8
0
100
AcDbLine
 10
137.6007999999999
 20
516.9224999999999
 30
0.0
 11
137.8648
 21
517.2825
 31
0.0
  0
LINE
  5
174
330
1E
100
AcDbEntity
  8
0
100
AcDbLine
 10
135.8648
 20
518.1245
 30
0.0
 11
137.8648
 21
518.1245
 31
0.0
  0
LINE
  5
175
330
1E
100
AcDbEntity
  8
0
100
AcDbLine
 10
135.8648
 20
518.1245
 30
0.0
 11
135.8648
 21
519.5744999999999
 31
0.0
  0
LINE
  5
176
330
1E
100
AcDbEntity
  8
0
100
AcDbLine
 10
135.8648
 20
518.1245
 30
0.0
 11
135.8648
 21
517.5744999999999
 31
0.0
  0
LINE
  5
177
330
1E
100
AcDbEntity
  8
0
100
AcDbLine
 10
137.8648
 20
518.1245
 30
0.0
 11
137.8648
 21
517.5744999999999
 31
0.0
  0
LINE
  5
178
330
1E
100
AcDbEntity
  8
0
100
AcDbLine
 10
137.8648
 20
518.1245
 30
0.0
 11
137.8648
 21
519.5744999999999
 31
0.0
  0
LINE
  5
179
330
1E
100
AcDbEntity
  8
0
100
AcDbLine
 10
115.8648
 20
518.1245
 30
0.0
 11
117.8648
 21
518.1245
 31
0.0
  0
LINE
  5
17A
330
1E
100
AcDbEntity
  8
0
100
AcDbLine
 10
115.8648
 20
518.1245
 30
0.0
 11
115.8648
 21
519.5744999999999
 31
0.0
  0
LINE
  5
17B
330
1E
100
AcDbEntity
  8
0
100
AcDbLine
 10
115.8648
 20
518.1245
 30
0.0
 11
115.8648
 21
517.5744999999999
 31
0.0
  0
LINE
  5
17C
330
1E
100
AcDbEntity
  8
0
100
AcDbLine
 10
117.8648
 20
518.1245
 30
0.0
 11
117.8648
 21
517.5744999999999
 31
0.0
  0
LINE
  5
17D
330
1E
100
AcDbEntity
  8
0
100
AcDbLine
 10
117.8648
 20
518.1245
 30
0.0
 11
117.8648
 21
519.5744999999999
 31
0.0
  0
LINE
  5
17E
330
1E
100
AcDbEntity
  8
0
100
AcDbLine
 10
113.8648
 20
518.5744999999999
 30
0.0
 11
113.8648
 21
517.5744999999999
 31
0.0
  0
LINE
  5
17F
330
1E
100
AcDbEntity
  8
0
100
AcDbLine
 10
137.8648
 20
517.5744999999999
 30
0.0
 11
137.8648
 21
517.2825
 31
0.0
  0
LINE
  5
180
330
1E
100
AcDbEntity
  8
0
100
AcDbLine
 10
137.8648
 20
517.5744999999999
 30
0.0
 11
138.1488
 21
517.5744999999999
 31
0.0
  0
LINE
  5
181
330
1E
100
AcDbEntity
  8
0
100
AcDbLine
 10
137.8648
 20
517.5744999999999
 30
0.0
 11
137.8648
 21
518.1245
 31
0.0
  0
LINE
  5
182
330
1E
100
AcDbEntity
  8
0
100
AcDbLine
 10
140.7087999999999
 20
518.5744999999999
 30
0.0
 11
140.8648
 21
518.5744999999999
 31
0.0
  0
LINE
  5
183
330
1E
100
AcDbEntity
  8
0
100
AcDbLine
 10
139.9337999999999
 20
518.8744999999999
 30
0.0
 11
140.8488
 21
518.8744999999999
 31
0.0
  0
LINE
  5
184
330
1E
100
AcDbEntity
  8
0
100
AcDbLine
 10
140.8488
 20
518.8744999999999
 30
0.0
 11
141.3888
 21
518.8744999999999
 31
0.0
  0
LINE
  5
185
330
1E
100
AcDbEntity
  8
0
100
AcDbLine
 10
141.3888
 20
518.8744999999999
 30
0.0
 11
141.5648
 21
518.8744999999999
 31
0.0
  0
LINE
  5
186
330
1E
100
AcDbEntity
  8
0
100
AcDbLine
 10
138.6947999999999
 20
518.8744999999999
 30
0.0
 11
139.9337999999999
 21
518.8744999999999
 31
0.0
  0
LINE
  5
187
330
1E
100
AcDbEntity
  8
0
100
AcDbLine
 10
137.8648
 20
518.8744999999999
 30
0.0
 11
138.6947999999999
 21
518.8744999999999
 31
0.0
  0
LINE
  5
188
330
1E
100
AcDbEntity
  8
0
100
AcDbLine
 10
139.8648
 20
518.5744999999999
 30
0.0
 11
140.8648
 21
518.5744999999999
 31
0.0
  0
LINE
  5
189
330
1E
100
AcDbEntity
  8
0
100
AcDbLine
 10
139.8648
 20
518.5744999999999
 30
0.0
 11
139.8648
 21
517.5744999999999
 31
0.0
  0
LINE
  5
18A
330
1E
100
AcDbEntity
  8
0
100
AcDbLine
 10
112.8808
 20
518.8744999999999
 30
0.0
 11
113.7958
 21
518.8744999999999
 31
0.0
  0
LINE
  5
18B
330
1E
100
AcDbEntity
  8
0
100
AcDbLine
 10
113.7958
 20
518.8744999999999
 30
0.0
 11
115.0348
 21
518.8744999999999
 31
0.0
  0
LINE
  5
18C
330
1E
100
AcDbEntity
  8
0
100
AcDbLine
 10
112.8648
 20
518.5744999999999
 30
0.0
 11
113.8648
 21
518.5744999999999
 31
0.0
  0
LINE
  5
18D
330
1E
100
AcDbEntity
  8
0
100
AcDbLine
 10
112.8648
 20
518.5744999999999
 30
0.0
 11
113.0217999999999
 21
518.5744999999999
 31
0.0
  0
LINE
  5
18E
330
1E
100
AcDbEntity
  8
0
100
AcDbLine
 10
115.8648
 20
519.5744999999999
 30
0.0
 11
115.8648
 21
562.5744999999999
 31
0.0
  0
LINE
  5
18F
330
1E
100
AcDbEntity
  8
0
100
AcDbLine
 10
115.8648
 20
519.5744999999999
 30
0.0
 11
115.8648
 21
518.1245
 31
0.0
  0
LINE
  5
190
330
1E
100
AcDbEntity
  8
0
100
AcDbLine
 10
135.8648
 20
519.5744999999999
 30
0.0
 11
135.8648
 21
562.5744999999999
 31
0.0
  0
LINE
  5
191
330
1E
100
AcDbEntity
  8
0
100
AcDbLine
 10
135.8648
 20
519.5744999999999
 30
0.0
 11
135.8648
 21
518.1245
 31
0.0
  0
LINE
  5
192
330
1E
100
AcDbEntity
  8
0
100
AcDbLine
 10
137.8648
 20
519.5744999999999
 30
0.0
 11
137.8648
 21
518.1245
 31
0.0
  0
LINE
  5
193
330
1E
100
AcDbEntity
  8
0
100
AcDbLine
 10
137.8648
 20
519.5744999999999
 30
0.0
 11
137.8648
 21
562.5744999999999
 31
0.0
  0
LINE
  5
194
330
1E
100
AcDbEntity
  8
0
100
AcDbLine
 10
117.8648
 20
519.5744999999999
 30
0.0
 11
117.8648
 21
518.1245
 31
0.0
  0
LINE
  5
195
330
1E
100
AcDbEntity
  8
0
100
AcDbLine
 10
117.8648
 20
519.5744999999999
 30
0.0
 11
117.8648
 21
562.5744999999999
 31
0.0
  0
LINE
  5
196
330
1E
100
AcDbEntity
  8
0
100
AcDbLine
 10
141.8648
 20
519.5744999999999
 30
0.0
 11
141.8648
 21
562.5744999999999
 31
0.0
  0
LINE
  5
197
330
1E
100
AcDbEntity
  8
0
100
AcDbLine
 10
111.8648
 20
519.5744999999999
 30
0.0
 11
112.1647999999999
 21
518.8744999999999
 31
0.0
  0
LINE
  5
198
330
1E
100
AcDbEntity
  8
0
100
AcDbLine
 10
111.8648
 20
519.5744999999999
 30
0.0
 11
111.8648
 21
562.5744999999999
 31
0.0
  0
LINE
  5
199
330
1E
100
AcDbEntity
  8
0
100
AcDbLine
 10
115.0348
 20
518.8744999999999
 30
0.0
 11
115.8648
 21
518.8744999999999
 31
0.0
  0
LINE
  5
19A
330
1E
100
AcDbEntity
  8
0
100
AcDbLine
 10
69.8648
 20
499.4129
 30
0.0
 11
69.8648
 21
498.5469
 31
0.0
  0
LINE
  5
19B
330
1E
100
AcDbEntity
  8
0
100
AcDbLine
 10
69.8648
 20
498.5469
 30
0.0
 11
69.8648
 21
499.4129
 31
0.0
  0
LINE
  5
19C
330
1E
100
AcDbEntity
  8
0
100
AcDbLine
 10
69.8566166203871
 20
498.4718113445089
 30
0.0
 11
69.8648
 21
498.5469
 31
0.0
  0
LINE
  5
19D
330
1E
100
AcDbEntity
  8
0
100
AcDbLine
 10
27.1648
 20
490.1691
 30
0.0
 11
28.8648
 21
489.5691
 31
0.0
  0
LINE
  5
19E
330
1E
100
AcDbEntity
  8
0
100
AcDbLine
 10
25.9648
 20
491.0191
 30
0.0
 11
27.1648
 21
490.1691
 31
0.0
  0
LINE
  5
1AC
330
1E
100
AcDbEntity
  8
0
100
AcDbLine
 10
24.4648
 20
552.3744999999999
 30
0.0
 11
24.8648
 21
554.4745
 31
0.0
  0
LINE
  5
1AE
330
1E
100
AcDbEntity
  8
0
100
AcDbLine
 10
24.8648
 20
554.4745
 30
0.0
 11
25.6648
 21
556.3744999999999
 31
0.0
  0
LINE
  5
1B4
330
1E
100
AcDbEntity
  8
0
100
AcDbLine
 10
117.924246465702
 20
533.9224999999999
 30
0.0
 11
123.9857999999999
 21
445.1287999999999
 31
0.0
  0
LINE
  5
1B5
330
1E
100
AcDbEntity
  8
0
100
AcDbLine
 10
124.1648
 20
533.9224999999999
 30
0.0
 11
126.8647999999999
 21
533.9224999999999
 31
0.0
  0
LINE
  5
1B6
330
1E
100
AcDbEntity
  8
0
100
AcDbLine
 10
121.6647999999999
 20
533.9224999999999
 30
0.0
 11
124.1648
 21
533.9224999999999
 31
0.0
  0
LINE
  5
1B7
330
1E
100
AcDbEntity
  8
0
100
AcDbLine
 10
119.4647999999999
 20
533.9224999999999
 30
0.0
 11
121.6647999999999
 21
533.9224999999999
 31
0.0
  0
LINE
  5
1B8
330
1E
100
AcDbEntity
  8
0
100
AcDbLine
 10
117.8648
 20
533.9224999999999
 30
0.0
 11
119.4647999999999
 21
533.9224999999999
 31
0.0
  0
LINE
  5
1B9
330
1E
100
AcDbEntity
  8
0
100
AcDbLine
 10
117.8648
 20
533.9224999999999
 30
0.0
 11
117.924246465702
 21
533.9224999999999
 31
0.0
  0
LINE
  5
1BA
330
1E
100
AcDbEntity
  8
0
100
AcDbLine
 10
126.8647999999999
 20
533.9224999999999
 30
0.0
 11
129.5647999999999
 21
533.9224999999999
 31
0.0
  0
LINE
  5
1BB
330
1E
100
AcDbEntity
  8
0
100
AcDbLine
 10
129.5647999999999
 20
533.9224999999999
 30
0.0
 11
132.0648
 21
533.9224999999999
 31
0.0
  0
LINE
  5
1BC
330
1E
100
AcDbEntity
  8
0
100
AcDbLine
 10
133.959754902756
 20
533.9224999999999
 30
0.0
 11
134.2648
 21
533.9224999999999
 31
0.0
  0
LINE
  5
1BD
330
1E
100
AcDbEntity
  8
0
100
AcDbLine
 10
133.959754902756
 20
533.9224999999999
 30
0.0
 11
139.9457999999999
 21
446.2197799999999
 31
0.0
  0
LINE
  5
1BE
330
1E
100
AcDbEntity
  8
0
100
AcDbLine
 10
132.0648
 20
533.9224999999999
 30
0.0
 11
134.2648
 21
533.9224999999999
 31
0.0
  0
LINE
  5
1BF
330
1E
100
AcDbEntity
  8
0
100
AcDbLine
 10
134.2648
 20
533.9224999999999
 30
0.0
 11
135.8648
 21
533.9224999999999
 31
0.0
  0
LINE
  5
1C2
330
1E
100
AcDbEntity
  8
0
100
AcDbLine
 10
171.8647999999999
 20
541.0744999999999
 30
0.0
 11
171.8647999999999
 21
611.0744999999999
 31
0.0
  0
LINE
  5
1C3
330
1E
100
AcDbEntity
  8
0
100
AcDbLine
 10
171.8647999999999
 20
541.0744999999999
 30
0.0
 11
171.8647999999999
 21
471.0745
 31
0.0
  0
LINE
  5
1CC
330
1E
100
AcDbEntity
  8
0
100
AcDbLine
 10
68.8648
 20
554.4745
 30
0.0
 11
69.26479999999999
 21
552.3744999999999
 31
0.0
  0
LINE
  5
1D0
330
1E
100
AcDbEntity
  8
0
100
AcDbLine
 10
68.0648
 20
556.3744999999999
 30
0.0
 11
68.8648
 21
554.4745
 31
0.0
  0
LINE
  5
1D2
330
1E
100
AcDbEntity
  8
0
100
AcDbLine
 10
66.8648
 20
558.0744999999999
 30
0.0
 11
68.0648
 21
556.3744999999999
 31
0.0
  0
LINE
  5
1D5
330
1E
100
AcDbEntity
  8
0
100
AcDbLine
 10
65.1648
 20
559.2744999999999
 30
0.0
 11
66.8648
 21
558.0744999999999
 31
0.0
  0
LINE
  5
1D7
330
1E
100
AcDbEntity
  8
0
100
AcDbLine
 10
63.2648
 20
560.0744999999999
 30
0.0
 11
65.1648
 21
559.2744999999999
 31
0.0
  0
LINE
  5
1DA
330
1E
100
AcDbEntity
  8
0
100
AcDbLine
 10
61.1648
 20
560.4745
 30
0.0
 11
63.2648
 21
560.0744999999999
 31
0.0
  0
LINE
  5
1DD
330
1E
100
AcDbEntity
  8
0
100
AcDbLine
 10
58.8648
 20
560.7245
 30
0.0
 11
61.1648
 21
560.4745
 31
0.0
  0
LINE
  5
1DE
330
1E
100
AcDbEntity
  8
0
100
AcDbLine
 10
46.8648
 20
561.0744999999999
 30
0.0
 11
49.16479999999999
 21
561.0644999999999
 31
0.0
  0
LINE
  5
1DF
330
1E
100
AcDbEntity
  8
0
100
AcDbLine
 10
49.16479999999999
 20
561.0644999999999
 30
0.0
 11
52.2648
 21
561.0244999999999
 31
0.0
  0
LINE
  5
1E0
330
1E
100
AcDbEntity
  8
0
100
AcDbLine
 10
52.2648
 20
561.0244999999999
 30
0.0
 11
55.8648
 21
560.9244999999999
 31
0.0
  0
LINE
  5
1E1
330
1E
100
AcDbEntity
  8
0
100
AcDbLine
 10
111.8648
 20
562.5744999999999
 30
0.0
 11
112.1647999999999
 21
563.2744999999999
 31
0.0
  0
LINE
  5
1E2
330
1E
100
AcDbEntity
  8
0
100
AcDbLine
 10
111.8648
 20
562.5744999999999
 30
0.0
 11
111.8648
 21
519.5744999999999
 31
0.0
  0
LINE
  5
1E3
330
1E
100
AcDbEntity
  8
0
100
AcDbLine
 10
111.8648
 20
562.5744999999999
 30
0.0
 11
111.8648
 21
522.5744999999999
 31
0.0
  0
LINE
  5
1E4
330
1E
100
AcDbEntity
  8
0
100
AcDbLine
 10
112.1647999999999
 20
563.2744999999999
 30
0.0
 11
112.8648
 21
563.5744999999999
 31
0.0
  0
LINE
  5
1E5
330
1E
100
AcDbEntity
  8
0
100
AcDbLine
 10
112.1647999999999
 20
563.2744999999999
 30
0.0
 11
112.3407999999999
 21
563.2744999999999
 31
0.0
  0
LINE
  5
1E6
330
1E
100
AcDbEntity
  8
0
100
AcDbLine
 10
113.8648
 20
563.5744999999999
 30
0.0
 11
113.8648
 21
564.5744999999999
 31
0.0
  0
LINE
  5
1E7
330
1E
100
AcDbEntity
  8
0
100
AcDbLine
 10
135.8648
 20
562.5744999999999
 30
0.0
 11
135.8648
 21
519.5744999999999
 31
0.0
  0
LINE
  5
1E8
330
1E
100
AcDbEntity
  8
0
100
AcDbLine
 10
135.8648
 20
562.5744999999999
 30
0.0
 11
135.8648
 21
564.0245
 31
0.0
  0
LINE
  5
1E9
330
1E
100
AcDbEntity
  8
0
100
AcDbLine
 10
137.8648
 20
562.5744999999999
 30
0.0
 11
137.8648
 21
519.5744999999999
 31
0.0
  0
LINE
  5
1EA
330
1E
100
AcDbEntity
  8
0
100
AcDbLine
 10
137.8648
 20
562.5744999999999
 30
0.0
 11
137.8648
 21
564.0245
 31
0.0
  0
LINE
  5
1EB
330
1E
100
AcDbEntity
  8
0
100
AcDbLine
 10
117.8648
 20
562.5744999999999
 30
0.0
 11
117.8648
 21
519.5744999999999
 31
0.0
  0
LINE
  5
1EC
330
1E
100
AcDbEntity
  8
0
100
AcDbLine
 10
117.8648
 20
562.5744999999999
 30
0.0
 11
117.8648
 21
564.0245
 31
0.0
  0
LINE
  5
1ED
330
1E
100
AcDbEntity
  8
0
100
AcDbLine
 10
115.8648
 20
562.5744999999999
 30
0.0
 11
115.8648
 21
564.0245
 31
0.0
  0
LINE
  5
1EE
330
1E
100
AcDbEntity
  8
0
100
AcDbLine
 10
115.8648
 20
562.5744999999999
 30
0.0
 11
115.8648
 21
519.5744999999999
 31
0.0
  0
LINE
  5
1EF
330
1E
100
AcDbEntity
  8
0
100
AcDbLine
 10
139.9337999999999
 20
563.2744999999999
 30
0.0
 11
140.8488
 21
563.2744999999999
 31
0.0
  0
LINE
  5
1F0
330
1E
100
AcDbEntity
  8
0
100
AcDbLine
 10
140.8488
 20
563.2744999999999
 30
0.0
 11
141.3888
 21
563.2744999999999
 31
0.0
  0
LINE
  5
1F1
330
1E
100
AcDbEntity
  8
0
100
AcDbLine
 10
141.3888
 20
563.2744999999999
 30
0.0
 11
141.5648
 21
563.2744999999999
 31
0.0
  0
LINE
  5
1F2
330
1E
100
AcDbEntity
  8
0
100
AcDbLine
 10
138.6947999999999
 20
563.2744999999999
 30
0.0
 11
139.9337999999999
 21
563.2744999999999
 31
0.0
  0
LINE
  5
1F3
330
1E
100
AcDbEntity
  8
0
100
AcDbLine
 10
137.8648
 20
563.2744999999999
 30
0.0
 11
138.6947999999999
 21
563.2744999999999
 31
0.0
  0
LINE
  5
1F4
330
1E
100
AcDbEntity
  8
0
100
AcDbLine
 10
139.8648
 20
563.5744999999999
 30
0.0
 11
139.8648
 21
564.5744999999999
 31
0.0
  0
LINE
  5
1F5
330
1E
100
AcDbEntity
  8
0
100
AcDbLine
 10
138.1448
 20
563.5744999999999
 30
0.0
 11
139.3848
 21
563.5744999999999
 31
0.0
  0
LINE
  5
1F6
330
1E
100
AcDbEntity
  8
0
100
AcDbLine
 10
137.8648
 20
563.5744999999999
 30
0.0
 11
138.1448
 21
563.5744999999999
 31
0.0
  0
LINE
  5
1F7
330
1E
100
AcDbEntity
  8
0
100
AcDbLine
 10
140.7087999999999
 20
563.5744999999999
 30
0.0
 11
140.8648
 21
563.5744999999999
 31
0.0
  0
LINE
  5
1F8
330
1E
100
AcDbEntity
  8
0
100
AcDbLine
 10
140.8648
 20
563.5744999999999
 30
0.0
 11
141.5648
 21
563.2744999999999
 31
0.0
  0
LINE
  5
1F9
330
1E
100
AcDbEntity
  8
0
100
AcDbLine
 10
141.5648
 20
563.2744999999999
 30
0.0
 11
141.8648
 21
562.5744999999999
 31
0.0
  0
LINE
  5
1FA
330
1E
100
AcDbEntity
  8
0
100
AcDbLine
 10
141.8648
 20
562.5744999999999
 30
0.0
 11
141.8648
 21
519.5744999999999
 31
0.0
  0
LINE
  5
1FB
330
1E
100
AcDbEntity
  8
0
100
AcDbLine
 10
115.5847999999999
 20
563.5744999999999
 30
0.0
 11
115.8648
 21
563.5744999999999
 31
0.0
  0
LINE
  5
1FC
330
1E
100
AcDbEntity
  8
0
100
AcDbLine
 10
115.0348
 20
563.2744999999999
 30
0.0
 11
115.8648
 21
563.2744999999999
 31
0.0
  0
LINE
  5
1FD
330
1E
100
AcDbEntity
  8
0
100
AcDbLine
 10
114.3448
 20
563.5744999999999
 30
0.0
 11
115.5847999999999
 21
563.5744999999999
 31
0.0
  0
LINE
  5
1FE
330
1E
100
AcDbEntity
  8
0
100
AcDbLine
 10
113.7958
 20
563.2744999999999
 30
0.0
 11
115.0348
 21
563.2744999999999
 31
0.0
  0
LINE
  5
1FF
330
1E
100
AcDbEntity
  8
0
100
AcDbLine
 10
113.5278
 20
563.5744999999999
 30
0.0
 11
114.3448
 21
563.5744999999999
 31
0.0
  0
LINE
  5
200
330
1E
100
AcDbEntity
  8
0
100
AcDbLine
 10
112.8808
 20
563.2744999999999
 30
0.0
 11
113.7958
 21
563.2744999999999
 31
0.0
  0
LINE
  5
201
330
1E
100
AcDbEntity
  8
0
100
AcDbLine
 10
114.3328
 20
564.5744999999999
 30
0.0
 11
115.5807999999999
 21
564.5744999999999
 31
0.0
  0
LINE
  5
202
330
1E
100
AcDbEntity
  8
0
100
AcDbLine
 10
113.8648
 20
564.5744999999999
 30
0.0
 11
114.3328
 21
564.5744999999999
 31
0.0
  0
LINE
  5
203
330
1E
100
AcDbEntity
  8
0
100
AcDbLine
 10
113.8648
 20
564.5744999999999
 30
0.0
 11
113.8648
 21
563.5744999999999
 31
0.0
  0
LINE
  5
204
330
1E
100
AcDbEntity
  8
0
100
AcDbLine
 10
115.8648
 20
564.0245
 30
0.0
 11
115.8648
 21
564.5744999999999
 31
0.0
  0
LINE
  5
205
330
1E
100
AcDbEntity
  8
0
100
AcDbLine
 10
115.8648
 20
564.0245
 30
0.0
 11
117.8648
 21
564.0245
 31
0.0
  0
LINE
  5
206
330
1E
100
AcDbEntity
  8
0
100
AcDbLine
 10
115.8648
 20
564.0245
 30
0.0
 11
115.8648
 21
562.5744999999999
 31
0.0
  0
LINE
  5
207
330
1E
100
AcDbEntity
  8
0
100
AcDbLine
 10
117.8648
 20
564.0245
 30
0.0
 11
117.8648
 21
562.5744999999999
 31
0.0
  0
LINE
  5
208
330
1E
100
AcDbEntity
  8
0
100
AcDbLine
 10
117.8648
 20
564.0245
 30
0.0
 11
117.8648
 21
564.5744999999999
 31
0.0
  0
LINE
  5
209
330
1E
100
AcDbEntity
  8
0
100
AcDbLine
 10
117.8648
 20
564.5744999999999
 30
0.0
 11
117.8648
 21
564.0245
 31
0.0
  0
LINE
  5
20A
330
1E
100
AcDbEntity
  8
0
100
AcDbLine
 10
115.8648
 20
564.5744999999999
 30
0.0
 11
117.8648
 21
564.5744999999999
 31
0.0
  0
LINE
  5
20B
330
1E
100
AcDbEntity
  8
0
100
AcDbLine
 10
115.8648
 20
564.5744999999999
 30
0.0
 11
115.8648
 21
564.0245
 31
0.0
  0
LINE
  5
20C
330
1E
100
AcDbEntity
  8
0
100
AcDbLine
 10
115.5807999999999
 20
564.5744999999999
 30
0.0
 11
115.8648
 21
564.5744999999999
 31
0.0
  0
LINE
  5
20D
330
1E
100
AcDbEntity
  8
0
100
AcDbLine
 10
117.8648
 20
563.9225
 30
0.0
 11
118.7648
 21
563.9225
 31
0.0
  0
LINE
  5
20E
330
1E
100
AcDbEntity
  8
0
100
AcDbLine
 10
116.2348
 20
565.0744999999999
 30
0.0
 11
118.1348
 21
565.0744999999999
 31
0.0
  0
LINE
  5
20F
330
1E
100
AcDbEntity
  8
0
100
AcDbLine
 10
115.0348
 20
565.0744999999999
 30
0.0
 11
116.2348
 21
565.0744999999999
 31
0.0
  0
LINE
  5
210
330
1E
100
AcDbEntity
  8
0
100
AcDbLine
 10
114.6347999999999
 20
565.0744999999999
 30
0.0
 11
115.0348
 21
565.0744999999999
 31
0.0
  0
LINE
  5
211
330
1E
100
AcDbEntity
  8
0
100
AcDbLine
 10
114.6347999999999
 20
565.0744999999999
 30
0.0
 11
115.1348
 21
564.5744999999999
 31
0.0
  0
LINE
  5
212
330
1E
100
AcDbEntity
  8
0
100
AcDbLine
 10
114.6347999999999
 20
565.0744999999999
 30
0.0
 11
114.6347999999999
 21
718.5744999999999
 31
0.0
  0
LINE
  5
213
330
1E
100
AcDbEntity
  8
0
100
AcDbLine
 10
118.7648
 20
563.9225
 30
0.0
 11
121.1648
 21
563.9225
 31
0.0
  0
LINE
  5
214
330
1E
100
AcDbEntity
  8
0
100
AcDbLine
 10
118.8347999999999
 20
564.0744999999999
 30
0.0
 11
121.1348
 21
564.0744999999999
 31
0.0
  0
LINE
  5
215
330
1E
100
AcDbEntity
  8
0
100
AcDbLine
 10
123.8647999999999
 20
563.9225
 30
0.0
 11
126.8647999999999
 21
563.9225
 31
0.0
  0
LINE
  5
216
330
1E
100
AcDbEntity
  8
0
100
AcDbLine
 10
121.1648
 20
563.9225
 30
0.0
 11
123.8647999999999
 21
563.9225
 31
0.0
  0
LINE
  5
217
330
1E
100
AcDbEntity
  8
0
100
AcDbLine
 10
121.1348
 20
564.0744999999999
 30
0.0
 11
123.8348
 21
564.0744999999999
 31
0.0
  0
LINE
  5
218
330
1E
100
AcDbEntity
  8
0
100
AcDbLine
 10
123.8348
 20
564.0744999999999
 30
0.0
 11
126.6348
 21
564.0744999999999
 31
0.0
  0
LINE
  5
219
330
1E
100
AcDbEntity
  8
0
100
AcDbLine
 10
119.5348
 20
564.0744999999999
 30
0.0
 11
121.6347999999999
 21
564.0744999999999
 31
0.0
  0
LINE
  5
21A
330
1E
100
AcDbEntity
  8
0
100
AcDbLine
 10
121.6347999999999
 20
564.0744999999999
 30
0.0
 11
124.0348
 21
564.0744999999999
 31
0.0
  0
LINE
  5
21B
330
1E
100
AcDbEntity
  8
0
100
AcDbLine
 10
126.8647999999999
 20
563.9225
 30
0.0
 11
129.8648
 21
563.9225
 31
0.0
  0
LINE
  5
21C
330
1E
100
AcDbEntity
  8
0
100
AcDbLine
 10
129.8648
 20
563.9225
 30
0.0
 11
132.5647999999999
 21
563.9225
 31
0.0
  0
LINE
  5
21D
330
1E
100
AcDbEntity
  8
0
100
AcDbLine
 10
132.5647999999999
 20
563.9225
 30
0.0
 11
134.9647999999999
 21
563.9225
 31
0.0
  0
LINE
  5
21E
330
1E
100
AcDbEntity
  8
0
100
AcDbLine
 10
134.9647999999999
 20
563.9225
 30
0.0
 11
135.8648
 21
563.9225
 31
0.0
  0
LINE
  5
21F
330
1E
100
AcDbEntity
  8
0
100
AcDbLine
 10
134.4347999999999
 20
564.0744999999999
 30
0.0
 11
135.8648
 21
564.0744999999999
 31
0.0
  0
LINE
  5
220
330
1E
100
AcDbEntity
  8
0
100
AcDbLine
 10
133.7348
 20
564.0744999999999
 30
0.0
 11
135.3347999999999
 21
564.0744999999999
 31
0.0
  0
LINE
  5
221
330
1E
100
AcDbEntity
  8
0
100
AcDbLine
 10
135.8648
 20
564.0245
 30
0.0
 11
135.8648
 21
562.5744999999999
 31
0.0
  0
LINE
  5
222
330
1E
100
AcDbEntity
  8
0
100
AcDbLine
 10
135.8648
 20
564.0245
 30
0.0
 11
135.8648
 21
564.5744999999999
 31
0.0
  0
LINE
  5
223
330
1E
100
AcDbEntity
  8
0
100
AcDbLine
 10
135.8648
 20
564.0245
 30
0.0
 11
137.8648
 21
564.0245
 31
0.0
  0
LINE
  5
224
330
1E
100
AcDbEntity
  8
0
100
AcDbLine
 10
137.8648
 20
564.0245
 30
0.0
 11
137.8648
 21
564.5744999999999
 31
0.0
  0
LINE
  5
225
330
1E
100
AcDbEntity
  8
0
100
AcDbLine
 10
137.8648
 20
564.0245
 30
0.0
 11
137.8648
 21
562.5744999999999
 31
0.0
  0
LINE
  5
226
330
1E
100
AcDbEntity
  8
0
100
AcDbLine
 10
135.3347999999999
 20
564.0744999999999
 30
0.0
 11
135.8648
 21
564.0744999999999
 31
0.0
  0
LINE
  5
227
330
1E
100
AcDbEntity
  8
0
100
AcDbLine
 10
132.1348
 20
564.0744999999999
 30
0.0
 11
134.4347999999999
 21
564.0744999999999
 31
0.0
  0
LINE
  5
228
330
1E
100
AcDbEntity
  8
0
100
AcDbLine
 10
129.4348
 20
564.0744999999999
 30
0.0
 11
132.1348
 21
564.0744999999999
 31
0.0
  0
LINE
  5
229
330
1E
100
AcDbEntity
  8
0
100
AcDbLine
 10
131.6348
 20
564.0744999999999
 30
0.0
 11
133.7348
 21
564.0744999999999
 31
0.0
  0
LINE
  5
22A
330
1E
100
AcDbEntity
  8
0
100
AcDbLine
 10
129.2348
 20
564.0744999999999
 30
0.0
 11
131.6348
 21
564.0744999999999
 31
0.0
  0
LINE
  5
22B
330
1E
100
AcDbEntity
  8
0
100
AcDbLine
 10
126.6348
 20
564.0744999999999
 30
0.0
 11
129.2348
 21
564.0744999999999
 31
0.0
  0
LINE
  5
22C
330
1E
100
AcDbEntity
  8
0
100
AcDbLine
 10
126.6348
 20
564.0744999999999
 30
0.0
 11
129.4348
 21
564.0744999999999
 31
0.0
  0
LINE
  5
22D
330
1E
100
AcDbEntity
  8
0
100
AcDbLine
 10
124.0348
 20
564.0744999999999
 30
0.0
 11
126.6348
 21
564.0744999999999
 31
0.0
  0
LINE
  5
22E
330
1E
100
AcDbEntity
  8
0
100
AcDbLine
 10
118.1348
 20
565.0744999999999
 30
0.0
 11
120.6347999999999
 21
565.0744999999999
 31
0.0
  0
LINE
  5
22F
330
1E
100
AcDbEntity
  8
0
100
AcDbLine
 10
120.6347999999999
 20
565.0744999999999
 30
0.0
 11
123.5348
 21
565.0744999999999
 31
0.0
  0
LINE
  5
230
330
1E
100
AcDbEntity
  8
0
100
AcDbLine
 10
137.8648
 20
564.5744999999999
 30
0.0
 11
138.1488
 21
564.5744999999999
 31
0.0
  0
LINE
  5
231
330
1E
100
AcDbEntity
  8
0
100
AcDbLine
 10
137.8648
 20
564.5744999999999
 30
0.0
 11
137.8648
 21
564.0245
 31
0.0
  0
LINE
  5
232
330
1E
100
AcDbEntity
  8
0
100
AcDbLine
 10
138.1488
 20
564.5744999999999
 30
0.0
 11
139.3968
 21
564.5744999999999
 31
0.0
  0
LINE
  5
233
330
1E
100
AcDbEntity
  8
0
100
AcDbLine
 10
135.8648
 20
564.5744999999999
 30
0.0
 11
135.8648
 21
517.5744999999999
 31
0.0
  0
LINE
  5
234
330
1E
100
AcDbEntity
  8
0
100
AcDbLine
 10
135.8648
 20
564.5744999999999
 30
0.0
 11
135.8648
 21
564.0245
 31
0.0
  0
LINE
  5
235
330
1E
100
AcDbEntity
  8
0
100
AcDbLine
 10
135.8648
 20
564.5744999999999
 30
0.0
 11
137.8648
 21
564.5744999999999
 31
0.0
  0
LINE
  5
236
330
1E
100
AcDbEntity
  8
0
100
AcDbLine
 10
135.1348
 20
565.0744999999999
 30
0.0
 11
137.0347999999999
 21
565.0744999999999
 31
0.0
  0
LINE
  5
237
330
1E
100
AcDbEntity
  8
0
100
AcDbLine
 10
137.0347999999999
 20
565.0744999999999
 30
0.0
 11
138.2348
 21
565.0744999999999
 31
0.0
  0
LINE
  5
238
330
1E
100
AcDbEntity
  8
0
100
AcDbLine
 10
138.1348
 20
564.5744999999999
 30
0.0
 11
138.6348
 21
565.0744999999999
 31
0.0
  0
LINE
  5
239
330
1E
100
AcDbEntity
  8
0
100
AcDbLine
 10
139.3968
 20
564.5744999999999
 30
0.0
 11
139.8648
 21
564.5744999999999
 31
0.0
  0
LINE
  5
23A
330
1E
100
AcDbEntity
  8
0
100
AcDbLine
 10
139.8648
 20
564.5744999999999
 30
0.0
 11
139.8648
 21
563.5744999999999
 31
0.0
  0
LINE
  5
23B
330
1E
100
AcDbEntity
  8
0
100
AcDbLine
 10
138.6348
 20
565.0744999999999
 30
0.0
 11
138.6348
 21
718.5744999999999
 31
0.0
  0
LINE
  5
23C
330
1E
100
AcDbEntity
  8
0
100
AcDbLine
 10
138.2348
 20
565.0744999999999
 30
0.0
 11
138.6348
 21
565.0744999999999
 31
0.0
  0
LINE
  5
23D
330
1E
100
AcDbEntity
  8
0
100
AcDbLine
 10
132.6348
 20
565.0744999999999
 30
0.0
 11
135.1348
 21
565.0744999999999
 31
0.0
  0
LINE
  5
23E
330
1E
100
AcDbEntity
  8
0
100
AcDbLine
 10
129.7348
 20
565.0744999999999
 30
0.0
 11
132.6348
 21
565.0744999999999
 31
0.0
  0
LINE
  5
23F
330
1E
100
AcDbEntity
  8
0
100
AcDbLine
 10
126.6348
 20
565.0744999999999
 30
0.0
 11
129.7348
 21
565.0744999999999
 31
0.0
  0
LINE
  5
240
330
1E
100
AcDbEntity
  8
0
100
AcDbLine
 10
123.5348
 20
565.0744999999999
 30
0.0
 11
126.6348
 21
565.0744999999999
 31
0.0
  0
LINE
  5
241
330
1E
100
AcDbEntity
  8
0
100
AcDbLine
 10
117.9348
 20
564.0744999999999
 30
0.0
 11
119.5348
 21
564.0744999999999
 31
0.0
  0
LINE
  5
242
330
1E
100
AcDbEntity
  8
0
100
AcDbLine
 10
117.8648
 20
564.0744999999999
 30
0.0
 11
117.9348
 21
564.0744999999999
 31
0.0
  0
LINE
  5
243
330
1E
100
AcDbEntity
  8
0
100
AcDbLine
 10
117.8648
 20
564.0744999999999
 30
0.0
 11
118.8347999999999
 21
564.0744999999999
 31
0.0
  0
LINE
  5
244
330
1E
100
AcDbEntity
  8
0
100
AcDbLine
 10
112.8648
 20
563.5744999999999
 30
0.0
 11
113.0217999999999
 21
563.5744999999999
 31
0.0
  0
LINE
  5
245
330
1E
100
AcDbEntity
  8
0
100
AcDbLine
 10
112.3407999999999
 20
563.2744999999999
 30
0.0
 11
112.8808
 21
563.2744999999999
 31
0.0
  0
LINE
  5
24A
330
1E
100
AcDbEntity
  8
0
100
AcDbLine
 10
171.3648
 20
614.9745
 30
0.0
 11
171.6648
 21
613.0744999999999
 31
0.0
  0
LINE
  5
24B
330
1E
100
AcDbEntity
  8
0
100
AcDbLine
 10
171.6648
 20
613.0744999999999
 30
0.0
 11
171.8647999999999
 21
611.0744999999999
 31
0.0
  0
LINE
  5
24C
330
1E
100
AcDbEntity
  8
0
100
AcDbLine
 10
171.8647999999999
 20
611.0744999999999
 30
0.0
 11
171.8647999999999
 21
541.0744999999999
 31
0.0
  0
LINE
  5
254
330
1E
100
AcDbEntity
  8
0
100
AcDbLine
 10
156.8648
 20
626.0745
 30
0.0
 11
158.8648
 21
625.8745
 31
0.0
  0
LINE
  5
255
330
1E
100
AcDbEntity
  8
0
100
AcDbLine
 10
138.6348
 20
626.0745
 30
0.0
 11
156.8648
 21
626.0745
 31
0.0
  0
LINE
  5
256
330
1E
100
AcDbEntity
  8
0
100
AcDbLine
 10
114.6347999999999
 20
738.5745
 30
0.0
 11
114.6347999999999
 21
719.5744999999999
 31
0.0
  0
LINE
  5
257
330
1E
100
AcDbEntity
  8
0
100
AcDbLine
 10
114.6347999999999
 20
738.5745
 30
0.0
 11
115.0348
 21
738.5745
 31
0.0
  0
LINE
  5
258
330
1E
100
AcDbEntity
  8
0
100
AcDbLine
 10
114.6347999999999
 20
738.5745
 30
0.0
 11
115.1348
 21
739.0744999999999
 31
0.0
  0
LINE
  5
259
330
1E
100
AcDbEntity
  8
0
100
AcDbLine
 10
114.6347999999999
 20
719.5744999999999
 30
0.0
 11
115.0348
 21
719.5744999999999
 31
0.0
  0
LINE
  5
25A
330
1E
100
AcDbEntity
  8
0
100
AcDbLine
 10
114.6347999999999
 20
719.5744999999999
 30
0.0
 11
115.6347999999999
 21
719.0744999999999
 31
0.0
  0
LINE
  5
25B
330
1E
100
AcDbEntity
  8
0
100
AcDbLine
 10
114.6347999999999
 20
719.5744999999999
 30
0.0
 11
114.6347999999999
 21
738.5745
 31
0.0
  0
LINE
  5
25C
330
1E
100
AcDbEntity
  8
0
100
AcDbLine
 10
117.4468
 20
702.9745
 30
0.0
 11
117.7578
 21
703.4745
 31
0.0
  0
LINE
  5
25D
330
1E
100
AcDbEntity
  8
0
100
AcDbLine
 10
117.4468
 20
702.9745
 30
0.0
 11
117.4468
 21
701.9745
 31
0.0
  0
LINE
  5
25E
330
1E
100
AcDbEntity
  8
0
100
AcDbLine
 10
117.4468
 20
708.7744999999999
 30
0.0
 11
117.4468
 21
709.7744999999999
 31
0.0
  0
LINE
  5
25F
330
1E
100
AcDbEntity
  8
0
100
AcDbLine
 10
117.4468
 20
708.7744999999999
 30
0.0
 11
117.7578
 21
708.2745
 31
0.0
  0
LINE
  5
260
330
1E
100
AcDbEntity
  8
0
100
AcDbLine
 10
117.4468
 20
715.5744999999999
 30
0.0
 11
117.4468
 21
716.5744999999999
 31
0.0
  0
LINE
  5
261
330
1E
100
AcDbEntity
  8
0
100
AcDbLine
 10
117.4468
 20
715.5744999999999
 30
0.0
 11
117.7578
 21
715.0744999999999
 31
0.0
  0
LINE
  5
262
330
1E
100
AcDbEntity
  8
0
100
AcDbLine
 10
117.4468
 20
716.5744999999999
 30
0.0
 11
117.4468
 21
715.5744999999999
 31
0.0
  0
LINE
  5
263
330
1E
100
AcDbEntity
  8
0
100
AcDbLine
 10
117.4468
 20
716.5744999999999
 30
0.0
 11
117.7578
 21
717.0744999999999
 31
0.0
  0
LINE
  5
264
330
1E
100
AcDbEntity
  8
0
100
AcDbLine
 10
117.4468
 20
709.7744999999999
 30
0.0
 11
117.4468
 21
708.7744999999999
 31
0.0
  0
LINE
  5
265
330
1E
100
AcDbEntity
  8
0
100
AcDbLine
 10
117.4468
 20
709.7744999999999
 30
0.0
 11
117.7578
 21
710.2744999999999
 31
0.0
  0
LINE
  5
266
330
1E
100
AcDbEntity
  8
0
100
AcDbLine
 10
117.4468
 20
701.9745
 30
0.0
 11
117.7578
 21
701.4745
 31
0.0
  0
LINE
  5
267
330
1E
100
AcDbEntity
  8
0
100
AcDbLine
 10
117.4468
 20
701.9745
 30
0.0
 11
117.4468
 21
702.9745
 31
0.0
  0
LINE
  5
268
330
1E
100
AcDbEntity
  8
0
100
AcDbLine
 10
117.4468
 20
695.1744999999999
 30
0.0
 11
117.4468
 21
696.1744999999999
 31
0.0
  0
LINE
  5
269
330
1E
100
AcDbEntity
  8
0
100
AcDbLine
 10
117.4468
 20
695.1744999999999
 30
0.0
 11
117.7578
 21
694.6744999999999
 31
0.0
  0
LINE
  5
26A
330
1E
100
AcDbEntity
  8
0
100
AcDbLine
 10
117.4468
 20
696.1744999999999
 30
0.0
 11
117.7578
 21
696.6744999999999
 31
0.0
  0
LINE
  5
26B
330
1E
100
AcDbEntity
  8
0
100
AcDbLine
 10
117.4468
 20
696.1744999999999
 30
0.0
 11
117.4468
 21
695.1744999999999
 31
0.0
  0
LINE
  5
26C
330
1E
100
AcDbEntity
  8
0
100
AcDbLine
 10
117.4468
 20
689.3745
 30
0.0
 11
117.4468
 21
688.3745
 31
0.0
  0
LINE
  5
26D
330
1E
100
AcDbEntity
  8
0
100
AcDbLine
 10
117.4468
 20
689.3745
 30
0.0
 11
117.7578
 21
689.8744999999999
 31
0.0
  0
LINE
  5
26E
330
1E
100
AcDbEntity
  8
0
100
AcDbLine
 10
117.4468
 20
688.3745
 30
0.0
 11
117.7578
 21
687.8745
 31
0.0
  0
LINE
  5
26F
330
1E
100
AcDbEntity
  8
0
100
AcDbLine
 10
117.4468
 20
688.3745
 30
0.0
 11
117.4468
 21
689.3745
 31
0.0
  0
LINE
  5
270
330
1E
100
AcDbEntity
  8
0
100
AcDbLine
 10
117.4468
 20
682.5744999999999
 30
0.0
 11
117.4468
 21
681.5744999999999
 31
0.0
  0
LINE
  5
271
330
1E
100
AcDbEntity
  8
0
100
AcDbLine
 10
117.4468
 20
682.5744999999999
 30
0.0
 11
117.7578
 21
683.0744999999999
 31
0.0
  0
LINE
  5
272
330
1E
100
AcDbEntity
  8
0
100
AcDbLine
 10
117.4468
 20
681.5744999999999
 30
0.0
 11
117.7578
 21
681.0744999999999
 31
0.0
  0
LINE
  5
273
330
1E
100
AcDbEntity
  8
0
100
AcDbLine
 10
117.4468
 20
681.5744999999999
 30
0.0
 11
117.4468
 21
682.5744999999999
 31
0.0
  0
LINE
  5
274
330
1E
100
AcDbEntity
  8
0
100
AcDbLine
 10
117.4468
 20
674.7745
 30
0.0
 11
117.4468
 21
675.7744999999999
 31
0.0
  0
LINE
  5
275
330
1E
100
AcDbEntity
  8
0
100
AcDbLine
 10
117.4468
 20
674.7745
 30
0.0
 11
117.7578
 21
674.2745
 31
0.0
  0
LINE
  5
276
330
1E
100
AcDbEntity
  8
0
100
AcDbLine
 10
117.4468
 20
675.7744999999999
 30
0.0
 11
117.7578
 21
676.2744999999999
 31
0.0
  0
LINE
  5
277
330
1E
100
AcDbEntity
  8
0
100
AcDbLine
 10
117.4468
 20
675.7744999999999
 30
0.0
 11
117.4468
 21
674.7745
 31
0.0
  0
LINE
  5
278
330
1E
100
AcDbEntity
  8
0
100
AcDbLine
 10
117.4468
 20
668.9745
 30
0.0
 11
117.4468
 21
667.9745
 31
0.0
  0
LINE
  5
279
330
1E
100
AcDbEntity
  8
0
100
AcDbLine
 10
117.4468
 20
668.9745
 30
0.0
 11
117.7578
 21
669.4745
 31
0.0
  0
LINE
  5
27A
330
1E
100
AcDbEntity
  8
0
100
AcDbLine
 10
117.4468
 20
667.9745
 30
0.0
 11
117.7578
 21
667.4745
 31
0.0
  0
LINE
  5
27B
330
1E
100
AcDbEntity
  8
0
100
AcDbLine
 10
117.4468
 20
667.9745
 30
0.0
 11
117.4468
 21
668.9745
 31
0.0
  0
LINE
  5
27C
330
1E
100
AcDbEntity
  8
0
100
AcDbLine
 10
117.4468
 20
661.1744999999999
 30
0.0
 11
117.4468
 21
662.1744999999999
 31
0.0
  0
LINE
  5
27D
330
1E
100
AcDbEntity
  8
0
100
AcDbLine
 10
117.4468
 20
661.1744999999999
 30
0.0
 11
117.7578
 21
660.6745
 31
0.0
  0
LINE
  5
27E
330
1E
100
AcDbEntity
  8
0
100
AcDbLine
 10
117.4468
 20
662.1744999999999
 30
0.0
 11
117.7578
 21
662.6744999999999
 31
0.0
  0
LINE
  5
27F
330
1E
100
AcDbEntity
  8
0
100
AcDbLine
 10
117.4468
 20
662.1744999999999
 30
0.0
 11
117.4468
 21
661.1744999999999
 31
0.0
  0
LINE
  5
280
330
1E
100
AcDbEntity
  8
0
100
AcDbLine
 10
117.4468
 20
654.3745
 30
0.0
 11
117.4468
 21
655.3745
 31
0.0
  0
LINE
  5
281
330
1E
100
AcDbEntity
  8
0
100
AcDbLine
 10
117.4468
 20
654.3745
 30
0.0
 11
117.7578
 21
653.8745
 31
0.0
  0
LINE
  5
282
330
1E
100
AcDbEntity
  8
0
100
AcDbLine
 10
117.4468
 20
655.3745
 30
0.0
 11
117.7578
 21
655.8745
 31
0.0
  0
LINE
  5
283
330
1E
100
AcDbEntity
  8
0
100
AcDbLine
 10
117.4468
 20
655.3745
 30
0.0
 11
117.4468
 21
654.3745
 31
0.0
  0
LINE
  5
284
330
1E
100
AcDbEntity
  8
0
100
AcDbLine
 10
117.4468
 20
648.5744999999999
 30
0.0
 11
117.4468
 21
647.5744999999999
 31
0.0
  0
LINE
  5
285
330
1E
100
AcDbEntity
  8
0
100
AcDbLine
 10
117.4468
 20
648.5744999999999
 30
0.0
 11
117.7578
 21
649.0744999999999
 31
0.0
  0
LINE
  5
286
330
1E
100
AcDbEntity
  8
0
100
AcDbLine
 10
118.3798
 20
649.0744999999999
 30
0.0
 11
118.6908
 21
648.5744999999999
 31
0.0
  0
LINE
  5
287
330
1E
100
AcDbEntity
  8
0
100
AcDbLine
 10
118.3798
 20
649.0744999999999
 30
0.0
 11
118.9698
 21
649.0744999999999
 31
0.0
  0
LINE
  5
288
330
1E
100
AcDbEntity
  8
0
100
AcDbLine
 10
117.7578
 20
653.8745
 30
0.0
 11
118.3798
 21
653.8745
 31
0.0
  0
LINE
  5
289
330
1E
100
AcDbEntity
  8
0
100
AcDbLine
 10
117.7578
 20
653.8745
 30
0.0
 11
118.1348
 21
653.8745
 31
0.0
  0
LINE
  5
28A
330
1E
100
AcDbEntity
  8
0
100
AcDbLine
 10
118.3798
 20
653.8745
 30
0.0
 11
118.9698
 21
653.8745
 31
0.0
  0
LINE
  5
28B
330
1E
100
AcDbEntity
  8
0
100
AcDbLine
 10
118.3798
 20
653.8745
 30
0.0
 11
118.6908
 21
654.3745
 31
0.0
  0
LINE
  5
28C
330
1E
100
AcDbEntity
  8
0
100
AcDbLine
 10
117.7578
 20
660.6745
 30
0.0
 11
118.3798
 21
660.6745
 31
0.0
  0
LINE
  5
28D
330
1E
100
AcDbEntity
  8
0
100
AcDbLine
 10
117.7578
 20
660.6745
 30
0.0
 11
118.1348
 21
660.6745
 31
0.0
  0
LINE
  5
28E
330
1E
100
AcDbEntity
  8
0
100
AcDbLine
 10
118.3798
 20
660.6745
 30
0.0
 11
118.9698
 21
660.6745
 31
0.0
  0
LINE
  5
28F
330
1E
100
AcDbEntity
  8
0
100
AcDbLine
 10
118.3798
 20
660.6745
 30
0.0
 11
118.6908
 21
661.1744999999999
 31
0.0
  0
LINE
  5
290
330
1E
100
AcDbEntity
  8
0
100
AcDbLine
 10
117.7578
 20
703.4745
 30
0.0
 11
118.3798
 21
703.4745
 31
0.0
  0
LINE
  5
291
330
1E
100
AcDbEntity
  8
0
100
AcDbLine
 10
117.7578
 20
715.0744999999999
 30
0.0
 11
118.3798
 21
715.0744999999999
 31
0.0
  0
LINE
  5
292
330
1E
100
AcDbEntity
  8
0
100
AcDbLine
 10
117.7578
 20
715.0744999999999
 30
0.0
 11
118.1348
 21
715.0744999999999
 31
0.0
  0
LINE
  5
293
330
1E
100
AcDbEntity
  8
0
100
AcDbLine
 10
117.7578
 20
717.0744999999999
 30
0.0
 11
118.3798
 21
717.0744999999999
 31
0.0
  0
LINE
  5
294
330
1E
100
AcDbEntity
  8
0
100
AcDbLine
 10
117.7578
 20
710.2744999999999
 30
0.0
 11
118.3798
 21
710.2744999999999
 31
0.0
  0
LINE
  5
295
330
1E
100
AcDbEntity
  8
0
100
AcDbLine
 10
117.7578
 20
708.2745
 30
0.0
 11
118.3798
 21
708.2745
 31
0.0
  0
LINE
  5
296
330
1E
100
AcDbEntity
  8
0
100
AcDbLine
 10
117.7578
 20
708.2745
 30
0.0
 11
118.1348
 21
708.2745
 31
0.0
  0
LINE
  5
297
330
1E
100
AcDbEntity
  8
0
100
AcDbLine
 10
117.7578
 20
701.4745
 30
0.0
 11
118.1348
 21
701.4745
 31
0.0
  0
LINE
  5
298
330
1E
100
AcDbEntity
  8
0
100
AcDbLine
 10
117.7578
 20
701.4745
 30
0.0
 11
118.3798
 21
701.4745
 31
0.0
  0
LINE
  5
299
330
1E
100
AcDbEntity
  8
0
100
AcDbLine
 10
117.7578
 20
694.6744999999999
 30
0.0
 11
118.3798
 21
694.6744999999999
 31
0.0
  0
LINE
  5
29A
330
1E
100
AcDbEntity
  8
0
100
AcDbLine
 10
117.7578
 20
694.6744999999999
 30
0.0
 11
118.1348
 21
694.6744999999999
 31
0.0
  0
LINE
  5
29B
330
1E
100
AcDbEntity
  8
0
100
AcDbLine
 10
117.7578
 20
696.6744999999999
 30
0.0
 11
118.3798
 21
696.6744999999999
 31
0.0
  0
LINE
  5
29C
330
1E
100
AcDbEntity
  8
0
100
AcDbLine
 10
117.7578
 20
689.8744999999999
 30
0.0
 11
118.3798
 21
689.8744999999999
 31
0.0
  0
LINE
  5
29D
330
1E
100
AcDbEntity
  8
0
100
AcDbLine
 10
117.7578
 20
687.8745
 30
0.0
 11
118.3798
 21
687.8745
 31
0.0
  0
LINE
  5
29E
330
1E
100
AcDbEntity
  8
0
100
AcDbLine
 10
117.7578
 20
687.8745
 30
0.0
 11
118.1348
 21
687.8745
 31
0.0
  0
LINE
  5
29F
330
1E
100
AcDbEntity
  8
0
100
AcDbLine
 10
117.7578
 20
683.0744999999999
 30
0.0
 11
118.3798
 21
683.0744999999999
 31
0.0
  0
LINE
  5
2A0
330
1E
100
AcDbEntity
  8
0
100
AcDbLine
 10
117.7578
 20
681.0744999999999
 30
0.0
 11
118.3798
 21
681.0744999999999
 31
0.0
  0
LINE
  5
2A1
330
1E
100
AcDbEntity
  8
0
100
AcDbLine
 10
117.7578
 20
681.0744999999999
 30
0.0
 11
118.1348
 21
681.0744999999999
 31
0.0
  0
LINE
  5
2A2
330
1E
100
AcDbEntity
  8
0
100
AcDbLine
 10
117.7578
 20
674.2745
 30
0.0
 11
118.3798
 21
674.2745
 31
0.0
  0
LINE
  5
2A3
330
1E
100
AcDbEntity
  8
0
100
AcDbLine
 10
117.7578
 20
674.2745
 30
0.0
 11
118.1348
 21
674.2745
 31
0.0
  0
LINE
  5
2A4
330
1E
100
AcDbEntity
  8
0
100
AcDbLine
 10
117.7578
 20
676.2744999999999
 30
0.0
 11
118.3798
 21
676.2744999999999
 31
0.0
  0
LINE
  5
2A5
330
1E
100
AcDbEntity
  8
0
100
AcDbLine
 10
117.7578
 20
669.4745
 30
0.0
 11
118.3798
 21
669.4745
 31
0.0
  0
LINE
  5
2A6
330
1E
100
AcDbEntity
  8
0
100
AcDbLine
 10
118.3798
 20
674.2745
 30
0.0
 11
118.8562983713359
 21
674.2745
 31
0.0
  0
LINE
  5
2A7
330
1E
100
AcDbEntity
  8
0
100
AcDbLine
 10
118.3798
 20
674.2745
 30
0.0
 11
118.6908
 21
674.7745
 31
0.0
  0
LINE
  5
2A9
330
1E
100
AcDbEntity
  8
0
100
AcDbLine
 10
118.3798
 20
703.4745
 30
0.0
 11
118.6908
 21
702.9745
 31
0.0
  0
LINE
  5
2AA
330
1E
100
AcDbEntity
  8
0
100
AcDbLine
 10
118.3798
 20
715.0744999999999
 30
0.0
 11
118.6908
 21
715.5744999999999
 31
0.0
  0
LINE
  5
2AC
330
1E
100
AcDbEntity
  8
0
100
AcDbLine
 10
118.3798
 20
717.0744999999999
 30
0.0
 11
118.6908
 21
716.5744999999999
 31
0.0
  0
LINE
  5
2AE
330
1E
100
AcDbEntity
  8
0
100
AcDbLine
 10
118.3798
 20
710.2744999999999
 30
0.0
 11
118.6908
 21
709.7744999999999
 31
0.0
  0
LINE
  5
2B0
330
1E
100
AcDbEntity
  8
0
100
AcDbLine
 10
118.3798
 20
708.2745
 30
0.0
 11
118.6908
 21
708.7744999999999
 31
0.0
  0
LINE
  5
2B2
330
1E
100
AcDbEntity
  8
0
100
AcDbLine
 10
118.3798
 20
701.4745
 30
0.0
 11
118.6908
 21
701.9745
 31
0.0
  0
LINE
  5
2B5
330
1E
100
AcDbEntity
  8
0
100
AcDbLine
 10
118.3798
 20
694.6744999999999
 30
0.0
 11
118.6908
 21
695.1744999999999
 31
0.0
  0
LINE
  5
2B6
330
1E
100
AcDbEntity
  8
0
100
AcDbLine
 10
118.3798
 20
696.6744999999999
 30
0.0
 11
118.6908
 21
696.1744999999999
 31
0.0
  0
LINE
  5
2B8
330
1E
100
AcDbEntity
  8
0
100
AcDbLine
 10
118.3798
 20
689.8744999999999
 30
0.0
 11
118.6022267100979
 21
689.8744999999999
 31
0.0
  0
LINE
  5
2B9
330
1E
100
AcDbEntity
  8
0
100
AcDbLine
 10
118.3798
 20
689.8744999999999
 30
0.0
 11
118.6908
 21
689.3745
 31
0.0
  0
LINE
  5
2BA
330
1E
100
AcDbEntity
  8
0
100
AcDbLine
 10
118.3798
 20
687.8745
 30
0.0
 11
118.6908
 21
688.3745
 31
0.0
  0
LINE
  5
2BB
330
1E
100
AcDbEntity
  8
0
100
AcDbLine
 10
118.3798
 20
687.8745
 30
0.0
 11
118.6347999999999
 21
687.8745
 31
0.0
  0
LINE
  5
2BC
330
1E
100
AcDbEntity
  8
0
100
AcDbLine
 10
118.3798
 20
683.0744999999999
 30
0.0
 11
118.7129758957659
 21
683.0744999999999
 31
0.0
  0
LINE
  5
2BD
330
1E
100
AcDbEntity
  8
0
100
AcDbLine
 10
118.3798
 20
683.0744999999999
 30
0.0
 11
118.6908
 21
682.5744999999999
 31
0.0
  0
LINE
  5
2BE
330
1E
100
AcDbEntity
  8
0
100
AcDbLine
 10
118.3798
 20
681.0744999999999
 30
0.0
 11
118.6908
 21
681.5744999999999
 31
0.0
  0
LINE
  5
2BF
330
1E
100
AcDbEntity
  8
0
100
AcDbLine
 10
118.3798
 20
681.0744999999999
 30
0.0
 11
118.7455491856679
 21
681.0744999999999
 31
0.0
  0
LINE
  5
2C0
330
1E
100
AcDbEntity
  8
0
100
AcDbLine
 10
118.3798
 20
676.2744999999999
 30
0.0
 11
118.6908
 21
675.7744999999999
 31
0.0
  0
LINE
  5
2C1
330
1E
100
AcDbEntity
  8
0
100
AcDbLine
 10
118.3798
 20
676.2744999999999
 30
0.0
 11
118.8237250814329
 21
676.2744999999999
 31
0.0
  0
LINE
  5
2C2
330
1E
100
AcDbEntity
  8
0
100
AcDbLine
 10
118.3798
 20
669.4745
 30
0.0
 11
118.9344742671009
 21
669.4745
 31
0.0
  0
LINE
  5
2C3
330
1E
100
AcDbEntity
  8
0
100
AcDbLine
 10
118.3798
 20
669.4745
 30
0.0
 11
118.6908
 21
668.9745
 31
0.0
  0
LINE
  5
2C4
330
1E
100
AcDbEntity
  8
0
100
AcDbLine
 10
118.3798
 20
667.4745
 30
0.0
 11
118.6908
 21
667.9745
 31
0.0
  0
LINE
  5
2C5
330
1E
100
AcDbEntity
  8
0
100
AcDbLine
 10
118.3798
 20
667.4745
 30
0.0
 11
118.967047557003
 21
667.4745
 31
0.0
  0
LINE
  5
2C6
330
1E
100
AcDbEntity
  8
0
100
AcDbLine
 10
117.7578
 20
667.4745
 30
0.0
 11
118.3798
 21
667.4745
 31
0.0
  0
LINE
  5
2C7
330
1E
100
AcDbEntity
  8
0
100
AcDbLine
 10
117.7578
 20
667.4745
 30
0.0
 11
118.1348
 21
667.4745
 31
0.0
  0
LINE
  5
2C8
330
1E
100
AcDbEntity
  8
0
100
AcDbLine
 10
117.7578
 20
662.6744999999999
 30
0.0
 11
118.3798
 21
662.6744999999999
 31
0.0
  0
LINE
  5
2C9
330
1E
100
AcDbEntity
  8
0
100
AcDbLine
 10
118.3798
 20
662.6744999999999
 30
0.0
 11
118.6908
 21
662.1744999999999
 31
0.0
  0
LINE
  5
2CA
330
1E
100
AcDbEntity
  8
0
100
AcDbLine
 10
118.3798
 20
662.6744999999999
 30
0.0
 11
118.9698
 21
662.6744999999999
 31
0.0
  0
LINE
  5
2CB
330
1E
100
AcDbEntity
  8
0
100
AcDbLine
 10
117.7578
 20
655.8745
 30
0.0
 11
118.3798
 21
655.8745
 31
0.0
  0
LINE
  5
2CC
330
1E
100
AcDbEntity
  8
0
100
AcDbLine
 10
118.3798
 20
655.8745
 30
0.0
 11
118.6908
 21
655.3745
 31
0.0
  0
LINE
  5
2CD
330
1E
100
AcDbEntity
  8
0
100
AcDbLine
 10
118.3798
 20
655.8745
 30
0.0
 11
118.9698
 21
655.8745
 31
0.0
  0
LINE
  5
2CE
330
1E
100
AcDbEntity
  8
0
100
AcDbLine
 10
117.7578
 20
649.0744999999999
 30
0.0
 11
118.3798
 21
649.0744999999999
 31
0.0
  0
LINE
  5
2CF
330
1E
100
AcDbEntity
  8
0
100
AcDbLine
 10
117.4468
 20
647.5744999999999
 30
0.0
 11
117.7578
 21
647.0744999999999
 31
0.0
  0
LINE
  5
2D0
330
1E
100
AcDbEntity
  8
0
100
AcDbLine
 10
117.4468
 20
647.5744999999999
 30
0.0
 11
117.4468
 21
648.5744999999999
 31
0.0
  0
LINE
  5
2D1
330
1E
100
AcDbEntity
  8
0
100
AcDbLine
 10
117.7578
 20
647.0744999999999
 30
0.0
 11
118.3798
 21
647.0744999999999
 31
0.0
  0
LINE
  5
2D2
330
1E
100
AcDbEntity
  8
0
100
AcDbLine
 10
117.7578
 20
647.0744999999999
 30
0.0
 11
118.1348
 21
647.0744999999999
 31
0.0
  0
LINE
  5
2D4
330
1E
100
AcDbEntity
  8
0
100
AcDbLine
 10
118.6908
 20
654.3745
 30
0.0
 11
118.6908
 21
655.3745
 31
0.0
  0
LINE
  5
2D6
330
1E
100
AcDbEntity
  8
0
100
AcDbLine
 10
118.6908
 20
702.9745
 30
0.0
 11
118.6908
 21
701.9745
 31
0.0
  0
LINE
  5
2D7
330
1E
100
AcDbEntity
  8
0
100
AcDbLine
 10
118.6908
 20
708.7744999999999
 30
0.0
 11
118.6908
 21
709.7744999999999
 31
0.0
  0
LINE
  5
2D9
330
1E
100
AcDbEntity
  8
0
100
AcDbLine
 10
118.6908
 20
715.5744999999999
 30
0.0
 11
118.6908
 21
716.5744999999999
 31
0.0
  0
LINE
  5
2DB
330
1E
100
AcDbEntity
  8
0
100
AcDbLine
 10
118.6908
 20
716.5744999999999
 30
0.0
 11
118.6908
 21
715.5744999999999
 31
0.0
  0
LINE
  5
2DE
330
1E
100
AcDbEntity
  8
0
100
AcDbLine
 10
118.6908
 20
709.7744999999999
 30
0.0
 11
118.6908
 21
708.7744999999999
 31
0.0
  0
LINE
  5
2E0
330
1E
100
AcDbEntity
  8
0
100
AcDbLine
 10
118.6908
 20
701.9745
 30
0.0
 11
118.6908
 21
702.9745
 31
0.0
  0
LINE
  5
2E2
330
1E
100
AcDbEntity
  8
0
100
AcDbLine
 10
118.6908
 20
695.1744999999999
 30
0.0
 11
118.6908
 21
696.1744999999999
 31
0.0
  0
LINE
  5
2E4
330
1E
100
AcDbEntity
  8
0
100
AcDbLine
 10
118.6908
 20
696.1744999999999
 30
0.0
 11
118.6908
 21
695.1744999999999
 31
0.0
  0
LINE
  5
2E6
330
1E
100
AcDbEntity
  8
0
100
AcDbLine
 10
118.6908
 20
689.3745
 30
0.0
 11
118.6908
 21
688.3745
 31
0.0
  0
LINE
  5
2E8
330
1E
100
AcDbEntity
  8
0
100
AcDbLine
 10
118.6908
 20
688.3745
 30
0.0
 11
118.6908
 21
689.3745
 31
0.0
  0
LINE
  5
2EA
330
1E
100
AcDbEntity
  8
0
100
AcDbLine
 10
118.6908
 20
682.5744999999999
 30
0.0
 11
118.6908
 21
681.5744999999999
 31
0.0
  0
LINE
  5
2EC
330
1E
100
AcDbEntity
  8
0
100
AcDbLine
 10
118.6908
 20
681.5744999999999
 30
0.0
 11
118.6908
 21
682.5744999999999
 31
0.0
  0
LINE
  5
2EE
330
1E
100
AcDbEntity
  8
0
100
AcDbLine
 10
118.6908
 20
674.7745
 30
0.0
 11
118.6908
 21
675.7744999999999
 31
0.0
  0
LINE
  5
2F0
330
1E
100
AcDbEntity
  8
0
100
AcDbLine
 10
118.6908
 20
675.7744999999999
 30
0.0
 11
118.6908
 21
674.7745
 31
0.0
  0
LINE
  5
2F2
330
1E
100
AcDbEntity
  8
0
100
AcDbLine
 10
118.6908
 20
668.9745
 30
0.0
 11
118.6908
 21
667.9745
 31
0.0
  0
LINE
  5
2F4
330
1E
100
AcDbEntity
  8
0
100
AcDbLine
 10
118.6908
 20
667.9745
 30
0.0
 11
118.6908
 21
668.9745
 31
0.0
  0
LINE
  5
2F6
330
1E
100
AcDbEntity
  8
0
100
AcDbLine
 10
118.6908
 20
661.1744999999999
 30
0.0
 11
118.6908
 21
662.1744999999999
 31
0.0
  0
LINE
  5
2F8
330
1E
100
AcDbEntity
  8
0
100
AcDbLine
 10
118.6908
 20
662.1744999999999
 30
0.0
 11
118.6908
 21
661.1744999999999
 31
0.0
  0
LINE
  5
2FA
330
1E
100
AcDbEntity
  8
0
100
AcDbLine
 10
118.6908
 20
655.3745
 30
0.0
 11
118.6908
 21
654.3745
 31
0.0
  0
LINE
  5
2FC
330
1E
100
AcDbEntity
  8
0
100
AcDbLine
 10
118.6908
 20
648.5744999999999
 30
0.0
 11
118.6908
 21
647.5744999999999
 31
0.0
  0
LINE
  5
2FD
330
1E
100
AcDbEntity
  8
0
100
AcDbLine
 10
118.6908
 20
647.5744999999999
 30
0.0
 11
118.6908
 21
648.5744999999999
 31
0.0
  0
LINE
  5
2FF
330
1E
100
AcDbEntity
  8
0
100
AcDbLine
 10
118.3798
 20
647.0744999999999
 30
0.0
 11
118.6908
 21
647.5744999999999
 31
0.0
  0
LINE
  5
300
330
1E
100
AcDbEntity
  8
0
100
AcDbLine
 10
118.3798
 20
647.0744999999999
 30
0.0
 11
118.9698
 21
647.0744999999999
 31
0.0
  0
LINE
  5
301
330
1E
100
AcDbEntity
  8
0
100
AcDbLine
 10
118.1348
 20
718.5744999999999
 30
0.0
 11
120.6347999999999
 21
718.5744999999999
 31
0.0
  0
LINE
  5
302
330
1E
100
AcDbEntity
  8
0
100
AcDbLine
 10
121.3467999999999
 20
647.0744999999999
 30
0.0
 11
122.1457999999999
 21
647.0744999999999
 31
0.0
  0
LINE
  5
303
330
1E
100
AcDbEntity
  8
0
100
AcDbLine
 10
121.3467999999999
 20
647.0744999999999
 30
0.0
 11
121.6577999999999
 21
647.0744999999999
 31
0.0
  0
LINE
  5
304
330
1E
100
AcDbEntity
  8
0
100
AcDbLine
 10
122.5457999999999
 20
647.5744999999999
 30
0.0
 11
122.5457999999999
 21
648.5744999999999
 31
0.0
  0
LINE
  5
306
330
1E
100
AcDbEntity
  8
0
100
AcDbLine
 10
120.9478
 20
647.5744999999999
 30
0.0
 11
121.3467999999999
 21
647.0744999999999
 31
0.0
  0
LINE
  5
307
330
1E
100
AcDbEntity
  8
0
100
AcDbLine
 10
120.9478
 20
647.5744999999999
 30
0.0
 11
120.9478
 21
648.5744999999999
 31
0.0
  0
LINE
  5
308
330
1E
100
AcDbEntity
  8
0
100
AcDbLine
 10
122.1457999999999
 20
647.0744999999999
 30
0.0
 11
122.5457999999999
 21
647.5744999999999
 31
0.0
  0
LINE
  5
309
330
1E
100
AcDbEntity
  8
0
100
AcDbLine
 10
122.1457999999999
 20
647.0744999999999
 30
0.0
 11
122.4568
 21
647.0744999999999
 31
0.0
  0
LINE
  5
30A
330
1E
100
AcDbEntity
  8
0
100
AcDbLine
 10
127.4917999999999
 20
647.5744999999999
 30
0.0
 11
127.4917999999999
 21
648.5744999999999
 31
0.0
  0
LINE
  5
30B
330
1E
100
AcDbEntity
  8
0
100
AcDbLine
 10
127.0637999999999
 20
647.0744999999999
 30
0.0
 11
127.4917999999999
 21
647.5744999999999
 31
0.0
  0
LINE
  5
30C
330
1E
100
AcDbEntity
  8
0
100
AcDbLine
 10
126.2057999999999
 20
647.0744999999999
 30
0.0
 11
127.0637999999999
 21
647.0744999999999
 31
0.0
  0
LINE
  5
30E
330
1E
100
AcDbEntity
  8
0
100
AcDbLine
 10
122.5457999999999
 20
648.5744999999999
 30
0.0
 11
122.5457999999999
 21
647.5744999999999
 31
0.0
  0
LINE
  5
30F
330
1E
100
AcDbEntity
  8
0
100
AcDbLine
 10
120.9478
 20
648.5744999999999
 30
0.0
 11
120.9478
 21
647.5744999999999
 31
0.0
  0
LINE
  5
310
330
1E
100
AcDbEntity
  8
0
100
AcDbLine
 10
120.9478
 20
648.5744999999999
 30
0.0
 11
121.3467999999999
 21
649.0744999999999
 31
0.0
  0
LINE
  5
311
330
1E
100
AcDbEntity
  8
0
100
AcDbLine
 10
122.1457999999999
 20
649.0744999999999
 30
0.0
 11
122.5457999999999
 21
648.5744999999999
 31
0.0
  0
LINE
  5
312
330
1E
100
AcDbEntity
  8
0
100
AcDbLine
 10
122.1457999999999
 20
649.0744999999999
 30
0.0
 11
122.4568
 21
649.0744999999999
 31
0.0
  0
LINE
  5
313
330
1E
100
AcDbEntity
  8
0
100
AcDbLine
 10
121.3467999999999
 20
649.0744999999999
 30
0.0
 11
122.1457999999999
 21
649.0744999999999
 31
0.0
  0
LINE
  5
314
330
1E
100
AcDbEntity
  8
0
100
AcDbLine
 10
125.7778
 20
648.5744999999999
 30
0.0
 11
126.2057999999999
 21
649.0744999999999
 31
0.0
  0
LINE
  5
315
330
1E
100
AcDbEntity
  8
0
100
AcDbLine
 10
125.7778
 20
648.5744999999999
 30
0.0
 11
125.7778
 21
647.5744999999999
 31
0.0
  0
LINE
  5
316
330
1E
100
AcDbEntity
  8
0
100
AcDbLine
 10
126.2057999999999
 20
649.0744999999999
 30
0.0
 11
127.0637999999999
 21
649.0744999999999
 31
0.0
  0
LINE
  5
317
330
1E
100
AcDbEntity
  8
0
100
AcDbLine
 10
120.9478
 20
654.3745
 30
0.0
 11
121.3467999999999
 21
653.8745
 31
0.0
  0
LINE
  5
318
330
1E
100
AcDbEntity
  8
0
100
AcDbLine
 10
120.9478
 20
654.3745
 30
0.0
 11
120.9478
 21
655.3745
 31
0.0
  0
LINE
  5
319
330
1E
100
AcDbEntity
  8
0
100
AcDbLine
 10
122.1457999999999
 20
653.8745
 30
0.0
 11
122.4568
 21
653.8745
 31
0.0
  0
LINE
  5
31A
330
1E
100
AcDbEntity
  8
0
100
AcDbLine
 10
122.1457999999999
 20
653.8745
 30
0.0
 11
122.5457999999999
 21
654.3745
 31
0.0
  0
LINE
  5
31B
330
1E
100
AcDbEntity
  8
0
100
AcDbLine
 10
121.3467999999999
 20
653.8745
 30
0.0
 11
121.6577999999999
 21
653.8745
 31
0.0
  0
LINE
  5
31C
330
1E
100
AcDbEntity
  8
0
100
AcDbLine
 10
121.3467999999999
 20
653.8745
 30
0.0
 11
122.1457999999999
 21
653.8745
 31
0.0
  0
LINE
  5
31D
330
1E
100
AcDbEntity
  8
0
100
AcDbLine
 10
120.9478
 20
655.3745
 30
0.0
 11
121.3467999999999
 21
655.8745
 31
0.0
  0
LINE
  5
31E
330
1E
100
AcDbEntity
  8
0
100
AcDbLine
 10
120.9478
 20
655.3745
 30
0.0
 11
120.9478
 21
654.3745
 31
0.0
  0
LINE
  5
31F
330
1E
100
AcDbEntity
  8
0
100
AcDbLine
 10
120.9478
 20
661.1744999999999
 30
0.0
 11
121.3467999999999
 21
660.6745
 31
0.0
  0
LINE
  5
320
330
1E
100
AcDbEntity
  8
0
100
AcDbLine
 10
120.9478
 20
661.1744999999999
 30
0.0
 11
120.9478
 21
662.1744999999999
 31
0.0
  0
LINE
  5
321
330
1E
100
AcDbEntity
  8
0
100
AcDbLine
 10
122.1457999999999
 20
660.6745
 30
0.0
 11
122.4568
 21
660.6745
 31
0.0
  0
LINE
  5
322
330
1E
100
AcDbEntity
  8
0
100
AcDbLine
 10
122.1457999999999
 20
660.6745
 30
0.0
 11
122.5457999999999
 21
661.1744999999999
 31
0.0
  0
LINE
  5
323
330
1E
100
AcDbEntity
  8
0
100
AcDbLine
 10
121.3467999999999
 20
660.6745
 30
0.0
 11
121.6577999999999
 21
660.6745
 31
0.0
  0
LINE
  5
324
330
1E
100
AcDbEntity
  8
0
100
AcDbLine
 10
121.3467999999999
 20
660.6745
 30
0.0
 11
122.1457999999999
 21
660.6745
 31
0.0
  0
LINE
  5
325
330
1E
100
AcDbEntity
  8
0
100
AcDbLine
 10
120.9478
 20
662.1744999999999
 30
0.0
 11
121.3467999999999
 21
662.6744999999999
 31
0.0
  0
LINE
  5
326
330
1E
100
AcDbEntity
  8
0
100
AcDbLine
 10
120.9478
 20
662.1744999999999
 30
0.0
 11
120.9478
 21
661.1744999999999
 31
0.0
  0
LINE
  5
327
330
1E
100
AcDbEntity
  8
0
100
AcDbLine
 10
120.9478
 20
702.9745
 30
0.0
 11
120.9478
 21
701.9745
 31
0.0
  0
LINE
  5
328
330
1E
100
AcDbEntity
  8
0
100
AcDbLine
 10
120.9478
 20
702.9745
 30
0.0
 11
121.3467999999999
 21
703.4745
 31
0.0
  0
LINE
  5
329
330
1E
100
AcDbEntity
  8
0
100
AcDbLine
 10
120.9478
 20
716.5744999999999
 30
0.0
 11
121.3467999999999
 21
717.0744999999999
 31
0.0
  0
LINE
  5
32A
330
1E
100
AcDbEntity
  8
0
100
AcDbLine
 10
120.9478
 20
716.5744999999999
 30
0.0
 11
120.9478
 21
715.5744999999999
 31
0.0
  0
LINE
  5
32B
330
1E
100
AcDbEntity
  8
0
100
AcDbLine
 10
120.9478
 20
715.5744999999999
 30
0.0
 11
120.9478
 21
716.5744999999999
 31
0.0
  0
LINE
  5
32C
330
1E
100
AcDbEntity
  8
0
100
AcDbLine
 10
120.9478
 20
715.5744999999999
 30
0.0
 11
121.3467999999999
 21
715.0744999999999
 31
0.0
  0
LINE
  5
32D
330
1E
100
AcDbEntity
  8
0
100
AcDbLine
 10
120.9478
 20
709.7744999999999
 30
0.0
 11
120.9478
 21
708.7744999999999
 31
0.0
  0
LINE
  5
32E
330
1E
100
AcDbEntity
  8
0
100
AcDbLine
 10
120.9478
 20
709.7744999999999
 30
0.0
 11
121.3467999999999
 21
710.2744999999999
 31
0.0
  0
LINE
  5
32F
330
1E
100
AcDbEntity
  8
0
100
AcDbLine
 10
120.9478
 20
708.7744999999999
 30
0.0
 11
121.3467999999999
 21
708.2745
 31
0.0
  0
LINE
  5
330
330
1E
100
AcDbEntity
  8
0
100
AcDbLine
 10
120.9478
 20
708.7744999999999
 30
0.0
 11
120.9478
 21
709.7744999999999
 31
0.0
  0
LINE
  5
331
330
1E
100
AcDbEntity
  8
0
100
AcDbLine
 10
120.9478
 20
701.9745
 30
0.0
 11
121.3467999999999
 21
701.4745
 31
0.0
  0
LINE
  5
332
330
1E
100
AcDbEntity
  8
0
100
AcDbLine
 10
120.9478
 20
701.9745
 30
0.0
 11
120.9478
 21
702.9745
 31
0.0
  0
LINE
  5
333
330
1E
100
AcDbEntity
  8
0
100
AcDbLine
 10
120.9478
 20
695.1744999999999
 30
0.0
 11
121.3467999999999
 21
694.6744999999999
 31
0.0
  0
LINE
  5
334
330
1E
100
AcDbEntity
  8
0
100
AcDbLine
 10
120.9478
 20
695.1744999999999
 30
0.0
 11
120.9478
 21
696.1744999999999
 31
0.0
  0
LINE
  5
335
330
1E
100
AcDbEntity
  8
0
100
AcDbLine
 10
120.9478
 20
696.1744999999999
 30
0.0
 11
121.3467999999999
 21
696.6744999999999
 31
0.0
  0
LINE
  5
336
330
1E
100
AcDbEntity
  8
0
100
AcDbLine
 10
120.9478
 20
696.1744999999999
 30
0.0
 11
120.9478
 21
695.1744999999999
 31
0.0
  0
LINE
  5
337
330
1E
100
AcDbEntity
  8
0
100
AcDbLine
 10
120.9478
 20
689.3745
 30
0.0
 11
121.3467999999999
 21
689.8744999999999
 31
0.0
  0
LINE
  5
338
330
1E
100
AcDbEntity
  8
0
100
AcDbLine
 10
120.9478
 20
689.3745
 30
0.0
 11
120.9478
 21
688.3745
 31
0.0
  0
LINE
  5
339
330
1E
100
AcDbEntity
  8
0
100
AcDbLine
 10
120.9478
 20
688.3745
 30
0.0
 11
120.9478
 21
689.3745
 31
0.0
  0
LINE
  5
33A
330
1E
100
AcDbEntity
  8
0
100
AcDbLine
 10
120.9478
 20
688.3745
 30
0.0
 11
121.3467999999999
 21
687.8745
 31
0.0
  0
LINE
  5
33B
330
1E
100
AcDbEntity
  8
0
100
AcDbLine
 10
120.9478
 20
682.5744999999999
 30
0.0
 11
121.3467999999999
 21
683.0744999999999
 31
0.0
  0
LINE
  5
33C
330
1E
100
AcDbEntity
  8
0
100
AcDbLine
 10
120.9478
 20
682.5744999999999
 30
0.0
 11
120.9478
 21
681.5744999999999
 31
0.0
  0
LINE
  5
33D
330
1E
100
AcDbEntity
  8
0
100
AcDbLine
 10
120.9478
 20
681.5744999999999
 30
0.0
 11
120.9478
 21
682.5744999999999
 31
0.0
  0
LINE
  5
33E
330
1E
100
AcDbEntity
  8
0
100
AcDbLine
 10
120.9478
 20
681.5744999999999
 30
0.0
 11
121.3467999999999
 21
681.0744999999999
 31
0.0
  0
LINE
  5
33F
330
1E
100
AcDbEntity
  8
0
100
AcDbLine
 10
120.9478
 20
674.7745
 30
0.0
 11
121.3467999999999
 21
674.2745
 31
0.0
  0
LINE
  5
340
330
1E
100
AcDbEntity
  8
0
100
AcDbLine
 10
120.9478
 20
674.7745
 30
0.0
 11
120.9478
 21
675.7744999999999
 31
0.0
  0
LINE
  5
341
330
1E
100
AcDbEntity
  8
0
100
AcDbLine
 10
120.9478
 20
675.7744999999999
 30
0.0
 11
121.3467999999999
 21
676.2744999999999
 31
0.0
  0
LINE
  5
342
330
1E
100
AcDbEntity
  8
0
100
AcDbLine
 10
120.9478
 20
675.7744999999999
 30
0.0
 11
120.9478
 21
674.7745
 31
0.0
  0
LINE
  5
343
330
1E
100
AcDbEntity
  8
0
100
AcDbLine
 10
120.9478
 20
668.9745
 30
0.0
 11
121.3467999999999
 21
669.4745
 31
0.0
  0
LINE
  5
344
330
1E
100
AcDbEntity
  8
0
100
AcDbLine
 10
120.9478
 20
668.9745
 30
0.0
 11
120.9478
 21
667.9745
 31
0.0
  0
LINE
  5
345
330
1E
100
AcDbEntity
  8
0
100
AcDbLine
 10
121.3467999999999
 20
667.4745
 30
0.0
 11
122.1457999999999
 21
667.4745
 31
0.0
  0
LINE
  5
346
330
1E
100
AcDbEntity
  8
0
100
AcDbLine
 10
121.3467999999999
 20
667.4745
 30
0.0
 11
121.6002071661239
 21
667.4745
 31
0.0
  0
LINE
  5
347
330
1E
100
AcDbEntity
  8
0
100
AcDbLine
 10
122.1457999999999
 20
667.4745
 30
0.0
 11
122.5457999999999
 21
667.9745
 31
0.0
  0
LINE
  5
348
330
1E
100
AcDbEntity
  8
0
100
AcDbLine
 10
122.1457999999999
 20
667.4745
 30
0.0
 11
122.4568
 21
667.4745
 31
0.0
  0
LINE
  5
349
330
1E
100
AcDbEntity
  8
0
100
AcDbLine
 10
122.1457999999999
 20
669.4745
 30
0.0
 11
122.5457999999999
 21
668.9745
 31
0.0
  0
LINE
  5
34A
330
1E
100
AcDbEntity
  8
0
100
AcDbLine
 10
122.1457999999999
 20
669.4745
 30
0.0
 11
122.4568
 21
669.4745
 31
0.0
  0
LINE
  5
34B
330
1E
100
AcDbEntity
  8
0
100
AcDbLine
 10
122.1457999999999
 20
674.2745
 30
0.0
 11
122.4568
 21
674.2745
 31
0.0
  0
LINE
  5
34C
330
1E
100
AcDbEntity
  8
0
100
AcDbLine
 10
122.1457999999999
 20
674.2745
 30
0.0
 11
122.5457999999999
 21
674.7745
 31
0.0
  0
LINE
  5
34D
330
1E
100
AcDbEntity
  8
0
100
AcDbLine
 10
121.3467999999999
 20
674.2745
 30
0.0
 11
121.6577999999999
 21
674.2745
 31
0.0
  0
LINE
  5
34E
330
1E
100
AcDbEntity
  8
0
100
AcDbLine
 10
121.3467999999999
 20
674.2745
 30
0.0
 11
122.1457999999999
 21
674.2745
 31
0.0
  0
LINE
  5
34F
330
1E
100
AcDbEntity
  8
0
100
AcDbLine
 10
121.3467999999999
 20
703.4745
 30
0.0
 11
122.1457999999999
 21
703.4745
 31
0.0
  0
LINE
  5
350
330
1E
100
AcDbEntity
  8
0
100
AcDbLine
 10
121.3467999999999
 20
715.0744999999999
 30
0.0
 11
122.1457999999999
 21
715.0744999999999
 31
0.0
  0
LINE
  5
351
330
1E
100
AcDbEntity
  8
0
100
AcDbLine
 10
121.3467999999999
 20
715.0744999999999
 30
0.0
 11
121.6577999999999
 21
715.0744999999999
 31
0.0
  0
LINE
  5
352
330
1E
100
AcDbEntity
  8
0
100
AcDbLine
 10
121.3467999999999
 20
717.0744999999999
 30
0.0
 11
122.1457999999999
 21
717.0744999999999
 31
0.0
  0
LINE
  5
353
330
1E
100
AcDbEntity
  8
0
100
AcDbLine
 10
121.3467999999999
 20
710.2744999999999
 30
0.0
 11
122.1457999999999
 21
710.2744999999999
 31
0.0
  0
LINE
  5
354
330
1E
100
AcDbEntity
  8
0
100
AcDbLine
 10
121.3467999999999
 20
708.2745
 30
0.0
 11
122.1457999999999
 21
708.2745
 31
0.0
  0
LINE
  5
355
330
1E
100
AcDbEntity
  8
0
100
AcDbLine
 10
121.3467999999999
 20
708.2745
 30
0.0
 11
121.6577999999999
 21
708.2745
 31
0.0
  0
LINE
  5
356
330
1E
100
AcDbEntity
  8
0
100
AcDbLine
 10
121.3467999999999
 20
701.4745
 30
0.0
 11
122.1457999999999
 21
701.4745
 31
0.0
  0
LINE
  5
357
330
1E
100
AcDbEntity
  8
0
100
AcDbLine
 10
121.3467999999999
 20
701.4745
 30
0.0
 11
121.6577999999999
 21
701.4745
 31
0.0
  0
LINE
  5
358
330
1E
100
AcDbEntity
  8
0
100
AcDbLine
 10
121.3467999999999
 20
694.6744999999999
 30
0.0
 11
121.6577999999999
 21
694.6744999999999
 31
0.0
  0
LINE
  5
359
330
1E
100
AcDbEntity
  8
0
100
AcDbLine
 10
121.3467999999999
 20
694.6744999999999
 30
0.0
 11
122.1457999999999
 21
694.6744999999999
 31
0.0
  0
LINE
  5
35A
330
1E
100
AcDbEntity
  8
0
100
AcDbLine
 10
121.3467999999999
 20
696.6744999999999
 30
0.0
 11
122.1457999999999
 21
696.6744999999999
 31
0.0
  0
LINE
  5
35B
330
1E
100
AcDbEntity
  8
0
100
AcDbLine
 10
121.3467999999999
 20
687.8745
 30
0.0
 11
122.1457999999999
 21
687.8745
 31
0.0
  0
LINE
  5
35C
330
1E
100
AcDbEntity
  8
0
100
AcDbLine
 10
121.3467999999999
 20
687.8745
 30
0.0
 11
121.6577999999999
 21
687.8745
 31
0.0
  0
LINE
  5
35D
330
1E
100
AcDbEntity
  8
0
100
AcDbLine
 10
121.3467999999999
 20
689.8744999999999
 30
0.0
 11
122.1457999999999
 21
689.8744999999999
 31
0.0
  0
LINE
  5
35E
330
1E
100
AcDbEntity
  8
0
100
AcDbLine
 10
121.3467999999999
 20
681.0744999999999
 30
0.0
 11
122.1457999999999
 21
681.0744999999999
 31
0.0
  0
LINE
  5
35F
330
1E
100
AcDbEntity
  8
0
100
AcDbLine
 10
121.3467999999999
 20
681.0744999999999
 30
0.0
 11
121.6577999999999
 21
681.0744999999999
 31
0.0
  0
LINE
  5
360
330
1E
100
AcDbEntity
  8
0
100
AcDbLine
 10
122.1457999999999
 20
681.0744999999999
 30
0.0
 11
122.5457999999999
 21
681.5744999999999
 31
0.0
  0
LINE
  5
361
330
1E
100
AcDbEntity
  8
0
100
AcDbLine
 10
122.1457999999999
 20
681.0744999999999
 30
0.0
 11
122.4568
 21
681.0744999999999
 31
0.0
  0
LINE
  5
362
330
1E
100
AcDbEntity
  8
0
100
AcDbLine
 10
122.1457999999999
 20
703.4745
 30
0.0
 11
122.5457999999999
 21
702.9745
 31
0.0
  0
LINE
  5
363
330
1E
100
AcDbEntity
  8
0
100
AcDbLine
 10
122.1457999999999
 20
703.4745
 30
0.0
 11
122.4568
 21
703.4745
 31
0.0
  0
LINE
  5
364
330
1E
100
AcDbEntity
  8
0
100
AcDbLine
 10
122.1457999999999
 20
715.0744999999999
 30
0.0
 11
122.5457999999999
 21
715.5744999999999
 31
0.0
  0
LINE
  5
365
330
1E
100
AcDbEntity
  8
0
100
AcDbLine
 10
122.1457999999999
 20
715.0744999999999
 30
0.0
 11
122.4568
 21
715.0744999999999
 31
0.0
  0
LINE
  5
366
330
1E
100
AcDbEntity
  8
0
100
AcDbLine
 10
122.1457999999999
 20
717.0744999999999
 30
0.0
 11
122.5457999999999
 21
716.5744999999999
 31
0.0
  0
LINE
  5
367
330
1E
100
AcDbEntity
  8
0
100
AcDbLine
 10
122.1457999999999
 20
717.0744999999999
 30
0.0
 11
122.4568
 21
717.0744999999999
 31
0.0
  0
LINE
  5
368
330
1E
100
AcDbEntity
  8
0
100
AcDbLine
 10
122.1457999999999
 20
710.2744999999999
 30
0.0
 11
122.5457999999999
 21
709.7744999999999
 31
0.0
  0
LINE
  5
369
330
1E
100
AcDbEntity
  8
0
100
AcDbLine
 10
122.1457999999999
 20
710.2744999999999
 30
0.0
 11
122.4568
 21
710.2744999999999
 31
0.0
  0
LINE
  5
36A
330
1E
100
AcDbEntity
  8
0
100
AcDbLine
 10
122.1457999999999
 20
708.2745
 30
0.0
 11
122.5457999999999
 21
708.7744999999999
 31
0.0
  0
LINE
  5
36B
330
1E
100
AcDbEntity
  8
0
100
AcDbLine
 10
122.1457999999999
 20
708.2745
 30
0.0
 11
122.4568
 21
708.2745
 31
0.0
  0
LINE
  5
36C
330
1E
100
AcDbEntity
  8
0
100
AcDbLine
 10
122.1457999999999
 20
701.4745
 30
0.0
 11
122.5457999999999
 21
701.9745
 31
0.0
  0
LINE
  5
36D
330
1E
100
AcDbEntity
  8
0
100
AcDbLine
 10
122.1457999999999
 20
701.4745
 30
0.0
 11
122.4568
 21
701.4745
 31
0.0
  0
LINE
  5
36E
330
1E
100
AcDbEntity
  8
0
100
AcDbLine
 10
122.1457999999999
 20
694.6744999999999
 30
0.0
 11
122.4568
 21
694.6744999999999
 31
0.0
  0
LINE
  5
36F
330
1E
100
AcDbEntity
  8
0
100
AcDbLine
 10
122.1457999999999
 20
694.6744999999999
 30
0.0
 11
122.5457999999999
 21
695.1744999999999
 31
0.0
  0
LINE
  5
370
330
1E
100
AcDbEntity
  8
0
100
AcDbLine
 10
122.1457999999999
 20
696.6744999999999
 30
0.0
 11
122.5457999999999
 21
696.1744999999999
 31
0.0
  0
LINE
  5
371
330
1E
100
AcDbEntity
  8
0
100
AcDbLine
 10
122.1457999999999
 20
696.6744999999999
 30
0.0
 11
122.4568
 21
696.6744999999999
 31
0.0
  0
LINE
  5
372
330
1E
100
AcDbEntity
  8
0
100
AcDbLine
 10
122.1457999999999
 20
687.8745
 30
0.0
 11
122.5457999999999
 21
688.3745
 31
0.0
  0
LINE
  5
373
330
1E
100
AcDbEntity
  8
0
100
AcDbLine
 10
122.1457999999999
 20
687.8745
 30
0.0
 11
122.4568
 21
687.8745
 31
0.0
  0
LINE
  5
374
330
1E
100
AcDbEntity
  8
0
100
AcDbLine
 10
122.1457999999999
 20
689.8744999999999
 30
0.0
 11
122.5457999999999
 21
689.3745
 31
0.0
  0
LINE
  5
375
330
1E
100
AcDbEntity
  8
0
100
AcDbLine
 10
122.1457999999999
 20
689.8744999999999
 30
0.0
 11
122.4568
 21
689.8744999999999
 31
0.0
  0
LINE
  5
376
330
1E
100
AcDbEntity
  8
0
100
AcDbLine
 10
122.1457999999999
 20
683.0744999999999
 30
0.0
 11
122.5457999999999
 21
682.5744999999999
 31
0.0
  0
LINE
  5
377
330
1E
100
AcDbEntity
  8
0
100
AcDbLine
 10
122.1457999999999
 20
683.0744999999999
 30
0.0
 11
122.4568
 21
683.0744999999999
 31
0.0
  0
LINE
  5
378
330
1E
100
AcDbEntity
  8
0
100
AcDbLine
 10
121.3467999999999
 20
683.0744999999999
 30
0.0
 11
122.1457999999999
 21
683.0744999999999
 31
0.0
  0
LINE
  5
379
330
1E
100
AcDbEntity
  8
0
100
AcDbLine
 10
121.3467999999999
 20
676.2744999999999
 30
0.0
 11
122.1457999999999
 21
676.2744999999999
 31
0.0
  0
LINE
  5
37A
330
1E
100
AcDbEntity
  8
0
100
AcDbLine
 10
122.1457999999999
 20
676.2744999999999
 30
0.0
 11
122.5457999999999
 21
675.7744999999999
 31
0.0
  0
LINE
  5
37B
330
1E
100
AcDbEntity
  8
0
100
AcDbLine
 10
122.1457999999999
 20
676.2744999999999
 30
0.0
 11
122.4568
 21
676.2744999999999
 31
0.0
  0
LINE
  5
37C
330
1E
100
AcDbEntity
  8
0
100
AcDbLine
 10
121.3467999999999
 20
669.4745
 30
0.0
 11
122.1457999999999
 21
669.4745
 31
0.0
  0
LINE
  5
37D
330
1E
100
AcDbEntity
  8
0
100
AcDbLine
 10
120.9478
 20
667.9745
 30
0.0
 11
120.9478
 21
668.9745
 31
0.0
  0
LINE
  5
37E
330
1E
100
AcDbEntity
  8
0
100
AcDbLine
 10
120.9478
 20
667.9745
 30
0.0
 11
121.3467999999999
 21
667.4745
 31
0.0
  0
LINE
  5
37F
330
1E
100
AcDbEntity
  8
0
100
AcDbLine
 10
121.3467999999999
 20
662.6744999999999
 30
0.0
 11
122.1457999999999
 21
662.6744999999999
 31
0.0
  0
LINE
  5
380
330
1E
100
AcDbEntity
  8
0
100
AcDbLine
 10
122.1457999999999
 20
662.6744999999999
 30
0.0
 11
122.5457999999999
 21
662.1744999999999
 31
0.0
  0
LINE
  5
381
330
1E
100
AcDbEntity
  8
0
100
AcDbLine
 10
122.1457999999999
 20
662.6744999999999
 30
0.0
 11
122.4568
 21
662.6744999999999
 31
0.0
  0
LINE
  5
382
330
1E
100
AcDbEntity
  8
0
100
AcDbLine
 10
121.3467999999999
 20
655.8745
 30
0.0
 11
122.1457999999999
 21
655.8745
 31
0.0
  0
LINE
  5
383
330
1E
100
AcDbEntity
  8
0
100
AcDbLine
 10
125.7778
 20
654.3745
 30
0.0
 11
126.2057999999999
 21
653.8745
 31
0.0
  0
LINE
  5
384
330
1E
100
AcDbEntity
  8
0
100
AcDbLine
 10
125.7778
 20
654.3745
 30
0.0
 11
125.7778
 21
655.3745
 31
0.0
  0
LINE
  5
385
330
1E
100
AcDbEntity
  8
0
100
AcDbLine
 10
126.2057999999999
 20
653.8745
 30
0.0
 11
127.0637999999999
 21
653.8745
 31
0.0
  0
LINE
  5
386
330
1E
100
AcDbEntity
  8
0
100
AcDbLine
 10
127.4917999999999
 20
654.3745
 30
0.0
 11
127.4917999999999
 21
655.3745
 31
0.0
  0
LINE
  5
387
330
1E
100
AcDbEntity
  8
0
100
AcDbLine
 10
127.4917999999999
 20
655.3745
 30
0.0
 11
127.4917999999999
 21
654.3745
 31
0.0
  0
LINE
  5
388
330
1E
100
AcDbEntity
  8
0
100
AcDbLine
 10
127.0637999999999
 20
653.8745
 30
0.0
 11
127.4917999999999
 21
654.3745
 31
0.0
  0
LINE
  5
389
330
1E
100
AcDbEntity
  8
0
100
AcDbLine
 10
125.7778
 20
655.3745
 30
0.0
 11
126.2057999999999
 21
655.8745
 31
0.0
  0
LINE
  5
38A
330
1E
100
AcDbEntity
  8
0
100
AcDbLine
 10
125.7778
 20
655.3745
 30
0.0
 11
125.7778
 21
654.3745
 31
0.0
  0
LINE
  5
38C
330
1E
100
AcDbEntity
  8
0
100
AcDbLine
 10
122.5457999999999
 20
654.3745
 30
0.0
 11
122.5457999999999
 21
655.3745
 31
0.0
  0
LINE
  5
38D
330
1E
100
AcDbEntity
  8
0
100
AcDbLine
 10
125.7778
 20
661.1744999999999
 30
0.0
 11
126.2057999999999
 21
660.6745
 31
0.0
  0
LINE
  5
38E
330
1E
100
AcDbEntity
  8
0
100
AcDbLine
 10
125.7778
 20
661.1744999999999
 30
0.0
 11
125.7778
 21
662.1744999999999
 31
0.0
  0
LINE
  5
38F
330
1E
100
AcDbEntity
  8
0
100
AcDbLine
 10
126.2057999999999
 20
660.6745
 30
0.0
 11
127.0637999999999
 21
660.6745
 31
0.0
  0
LINE
  5
390
330
1E
100
AcDbEntity
  8
0
100
AcDbLine
 10
125.7778
 20
662.1744999999999
 30
0.0
 11
126.2057999999999
 21
662.6744999999999
 31
0.0
  0
LINE
  5
391
330
1E
100
AcDbEntity
  8
0
100
AcDbLine
 10
125.7778
 20
662.1744999999999
 30
0.0
 11
125.7778
 21
661.1744999999999
 31
0.0
  0
LINE
  5
393
330
1E
100
AcDbEntity
  8
0
100
AcDbLine
 10
122.5457999999999
 20
661.1744999999999
 30
0.0
 11
122.5457999999999
 21
662.1744999999999
 31
0.0
  0
LINE
  5
394
330
1E
100
AcDbEntity
  8
0
100
AcDbLine
 10
126.2057999999999
 20
667.4745
 30
0.0
 11
127.0637999999999
 21
667.4745
 31
0.0
  0
LINE
  5
395
330
1E
100
AcDbEntity
  8
0
100
AcDbLine
 10
125.7778
 20
667.9745
 30
0.0
 11
125.7778
 21
668.9745
 31
0.0
  0
LINE
  5
396
330
1E
100
AcDbEntity
  8
0
100
AcDbLine
 10
125.7778
 20
667.9745
 30
0.0
 11
126.2057999999999
 21
667.4745
 31
0.0
  0
LINE
  5
397
330
1E
100
AcDbEntity
  8
0
100
AcDbLine
 10
125.7778
 20
668.9745
 30
0.0
 11
126.2057999999999
 21
669.4745
 31
0.0
  0
LINE
  5
398
330
1E
100
AcDbEntity
  8
0
100
AcDbLine
 10
125.7778
 20
668.9745
 30
0.0
 11
125.7778
 21
667.9745
 31
0.0
  0
LINE
  5
399
330
1E
100
AcDbEntity
  8
0
100
AcDbLine
 10
122.5457999999999
 20
667.9745
 30
0.0
 11
122.5457999999999
 21
668.9745
 31
0.0
  0
LINE
  5
39B
330
1E
100
AcDbEntity
  8
0
100
AcDbLine
 10
125.7778
 20
674.7745
 30
0.0
 11
126.2057999999999
 21
674.2745
 31
0.0
  0
LINE
  5
39C
330
1E
100
AcDbEntity
  8
0
100
AcDbLine
 10
125.7778
 20
674.7745
 30
0.0
 11
125.7778
 21
675.7744999999999
 31
0.0
  0
LINE
  5
39D
330
1E
100
AcDbEntity
  8
0
100
AcDbLine
 10
126.2057999999999
 20
674.2745
 30
0.0
 11
127.0637999999999
 21
674.2745
 31
0.0
  0
LINE
  5
39E
330
1E
100
AcDbEntity
  8
0
100
AcDbLine
 10
125.7778
 20
675.7744999999999
 30
0.0
 11
126.2057999999999
 21
676.2744999999999
 31
0.0
  0
LINE
  5
39F
330
1E
100
AcDbEntity
  8
0
100
AcDbLine
 10
125.7778
 20
675.7744999999999
 30
0.0
 11
125.7778
 21
674.7745
 31
0.0
  0
LINE
  5
3A1
330
1E
100
AcDbEntity
  8
0
100
AcDbLine
 10
122.5457999999999
 20
674.7745
 30
0.0
 11
122.5457999999999
 21
675.7744999999999
 31
0.0
  0
LINE
  5
3A2
330
1E
100
AcDbEntity
  8
0
100
AcDbLine
 10
126.2057999999999
 20
681.0744999999999
 30
0.0
 11
127.0637999999999
 21
681.0744999999999
 31
0.0
  0
LINE
  5
3A3
330
1E
100
AcDbEntity
  8
0
100
AcDbLine
 10
125.7778
 20
681.5744999999999
 30
0.0
 11
125.7778
 21
682.5744999999999
 31
0.0
  0
LINE
  5
3A4
330
1E
100
AcDbEntity
  8
0
100
AcDbLine
 10
125.7778
 20
681.5744999999999
 30
0.0
 11
126.2057999999999
 21
681.0744999999999
 31
0.0
  0
LINE
  5
3A5
330
1E
100
AcDbEntity
  8
0
100
AcDbLine
 10
125.7778
 20
682.5744999999999
 30
0.0
 11
126.2057999999999
 21
683.0744999999999
 31
0.0
  0
LINE
  5
3A6
330
1E
100
AcDbEntity
  8
0
100
AcDbLine
 10
125.7778
 20
682.5744999999999
 30
0.0
 11
125.7778
 21
681.5744999999999
 31
0.0
  0
LINE
  5
3A7
330
1E
100
AcDbEntity
  8
0
100
AcDbLine
 10
122.5457999999999
 20
681.5744999999999
 30
0.0
 11
122.5457999999999
 21
682.5744999999999
 31
0.0
  0
LINE
  5
3A9
330
1E
100
AcDbEntity
  8
0
100
AcDbLine
 10
126.2057999999999
 20
687.8745
 30
0.0
 11
127.0637999999999
 21
687.8745
 31
0.0
  0
LINE
  5
3AA
330
1E
100
AcDbEntity
  8
0
100
AcDbLine
 10
125.7778
 20
688.3745
 30
0.0
 11
125.7778
 21
689.3745
 31
0.0
  0
LINE
  5
3AB
330
1E
100
AcDbEntity
  8
0
100
AcDbLine
 10
125.7778
 20
688.3745
 30
0.0
 11
126.2057999999999
 21
687.8745
 31
0.0
  0
LINE
  5
3AC
330
1E
100
AcDbEntity
  8
0
100
AcDbLine
 10
125.7778
 20
689.3745
 30
0.0
 11
126.2057999999999
 21
689.8744999999999
 31
0.0
  0
LINE
  5
3AD
330
1E
100
AcDbEntity
  8
0
100
AcDbLine
 10
125.7778
 20
689.3745
 30
0.0
 11
125.7778
 21
688.3745
 31
0.0
  0
LINE
  5
3AE
330
1E
100
AcDbEntity
  8
0
100
AcDbLine
 10
122.5457999999999
 20
688.3745
 30
0.0
 11
122.5457999999999
 21
689.3745
 31
0.0
  0
LINE
  5
3B0
330
1E
100
AcDbEntity
  8
0
100
AcDbLine
 10
125.7778
 20
695.1744999999999
 30
0.0
 11
126.2057999999999
 21
694.6744999999999
 31
0.0
  0
LINE
  5
3B1
330
1E
100
AcDbEntity
  8
0
100
AcDbLine
 10
125.7778
 20
695.1744999999999
 30
0.0
 11
125.7778
 21
696.1744999999999
 31
0.0
  0
LINE
  5
3B2
330
1E
100
AcDbEntity
  8
0
100
AcDbLine
 10
126.2057999999999
 20
694.6744999999999
 30
0.0
 11
127.0637999999999
 21
694.6744999999999
 31
0.0
  0
LINE
  5
3B3
330
1E
100
AcDbEntity
  8
0
100
AcDbLine
 10
125.7778
 20
696.1744999999999
 30
0.0
 11
126.2057999999999
 21
696.6744999999999
 31
0.0
  0
LINE
  5
3B4
330
1E
100
AcDbEntity
  8
0
100
AcDbLine
 10
125.7778
 20
696.1744999999999
 30
0.0
 11
125.7778
 21
695.1744999999999
 31
0.0
  0
LINE
  5
3B6
330
1E
100
AcDbEntity
  8
0
100
AcDbLine
 10
122.5457999999999
 20
695.1744999999999
 30
0.0
 11
122.5457999999999
 21
696.1744999999999
 31
0.0
  0
LINE
  5
3B8
330
1E
100
AcDbEntity
  8
0
100
AcDbLine
 10
122.5457999999999
 20
701.9745
 30
0.0
 11
122.5457999999999
 21
702.9745
 31
0.0
  0
LINE
  5
3B9
330
1E
100
AcDbEntity
  8
0
100
AcDbLine
 10
126.2057999999999
 20
701.4745
 30
0.0
 11
127.0637999999999
 21
701.4745
 31
0.0
  0
LINE
  5
3BA
330
1E
100
AcDbEntity
  8
0
100
AcDbLine
 10
122.5457999999999
 20
702.9745
 30
0.0
 11
122.5457999999999
 21
701.9745
 31
0.0
  0
LINE
  5
3BC
330
1E
100
AcDbEntity
  8
0
100
AcDbLine
 10
125.7778
 20
702.9745
 30
0.0
 11
126.2057999999999
 21
703.4745
 31
0.0
  0
LINE
  5
3BD
330
1E
100
AcDbEntity
  8
0
100
AcDbLine
 10
125.7778
 20
702.9745
 30
0.0
 11
125.7778
 21
701.9745
 31
0.0
  0
LINE
  5
3BE
330
1E
100
AcDbEntity
  8
0
100
AcDbLine
 10
126.2057999999999
 20
703.4745
 30
0.0
 11
127.0637999999999
 21
703.4745
 31
0.0
  0
LINE
  5
3BF
330
1E
100
AcDbEntity
  8
0
100
AcDbLine
 10
122.5457999999999
 20
708.7744999999999
 30
0.0
 11
122.5457999999999
 21
709.7744999999999
 31
0.0
  0
LINE
  5
3C1
330
1E
100
AcDbEntity
  8
0
100
AcDbLine
 10
122.5457999999999
 20
715.5744999999999
 30
0.0
 11
122.5457999999999
 21
716.5744999999999
 31
0.0
  0
LINE
  5
3C3
330
1E
100
AcDbEntity
  8
0
100
AcDbLine
 10
122.5457999999999
 20
716.5744999999999
 30
0.0
 11
122.5457999999999
 21
715.5744999999999
 31
0.0
  0
LINE
  5
3C5
330
1E
100
AcDbEntity
  8
0
100
AcDbLine
 10
125.7778
 20
715.5744999999999
 30
0.0
 11
125.7778
 21
716.5744999999999
 31
0.0
  0
LINE
  5
3C6
330
1E
100
AcDbEntity
  8
0
100
AcDbLine
 10
125.7778
 20
715.5744999999999
 30
0.0
 11
126.2057999999999
 21
715.0744999999999
 31
0.0
  0
LINE
  5
3C7
330
1E
100
AcDbEntity
  8
0
100
AcDbLine
 10
125.7778
 20
716.5744999999999
 30
0.0
 11
126.2057999999999
 21
717.0744999999999
 31
0.0
  0
LINE
  5
3C8
330
1E
100
AcDbEntity
  8
0
100
AcDbLine
 10
125.7778
 20
716.5744999999999
 30
0.0
 11
125.7778
 21
715.5744999999999
 31
0.0
  0
LINE
  5
3CA
330
1E
100
AcDbEntity
  8
0
100
AcDbLine
 10
122.5457999999999
 20
709.7744999999999
 30
0.0
 11
122.5457999999999
 21
708.7744999999999
 31
0.0
  0
LINE
  5
3CB
330
1E
100
AcDbEntity
  8
0
100
AcDbLine
 10
126.2057999999999
 20
715.0744999999999
 30
0.0
 11
127.0637999999999
 21
715.0744999999999
 31
0.0
  0
LINE
  5
3CC
330
1E
100
AcDbEntity
  8
0
100
AcDbLine
 10
126.2057999999999
 20
717.0744999999999
 30
0.0
 11
127.0637999999999
 21
717.0744999999999
 31
0.0
  0
LINE
  5
3CD
330
1E
100
AcDbEntity
  8
0
100
AcDbLine
 10
126.2057999999999
 20
710.2744999999999
 30
0.0
 11
127.0637999999999
 21
710.2744999999999
 31
0.0
  0
LINE
  5
3CE
330
1E
100
AcDbEntity
  8
0
100
AcDbLine
 10
125.7778
 20
709.7744999999999
 30
0.0
 11
125.7778
 21
708.7744999999999
 31
0.0
  0
LINE
  5
3CF
330
1E
100
AcDbEntity
  8
0
100
AcDbLine
 10
125.7778
 20
709.7744999999999
 30
0.0
 11
126.2057999999999
 21
710.2744999999999
 31
0.0
  0
LINE
  5
3D0
330
1E
100
AcDbEntity
  8
0
100
AcDbLine
 10
125.7778
 20
708.7744999999999
 30
0.0
 11
126.2057999999999
 21
708.2745
 31
0.0
  0
LINE
  5
3D1
330
1E
100
AcDbEntity
  8
0
100
AcDbLine
 10
125.7778
 20
708.7744999999999
 30
0.0
 11
125.7778
 21
709.7744999999999
 31
0.0
  0
LINE
  5
3D2
330
1E
100
AcDbEntity
  8
0
100
AcDbLine
 10
126.2057999999999
 20
708.2745
 30
0.0
 11
127.0637999999999
 21
708.2745
 31
0.0
  0
LINE
  5
3D3
330
1E
100
AcDbEntity
  8
0
100
AcDbLine
 10
125.7778
 20
701.9745
 30
0.0
 11
126.2057999999999
 21
701.4745
 31
0.0
  0
LINE
  5
3D4
330
1E
100
AcDbEntity
  8
0
100
AcDbLine
 10
125.7778
 20
701.9745
 30
0.0
 11
125.7778
 21
702.9745
 31
0.0
  0
LINE
  5
3D5
330
1E
100
AcDbEntity
  8
0
100
AcDbLine
 10
126.2057999999999
 20
696.6744999999999
 30
0.0
 11
127.0637999999999
 21
696.6744999999999
 31
0.0
  0
LINE
  5
3D7
330
1E
100
AcDbEntity
  8
0
100
AcDbLine
 10
122.5457999999999
 20
696.1744999999999
 30
0.0
 11
122.5457999999999
 21
695.1744999999999
 31
0.0
  0
LINE
  5
3D8
330
1E
100
AcDbEntity
  8
0
100
AcDbLine
 10
126.2057999999999
 20
689.8744999999999
 30
0.0
 11
127.0637999999999
 21
689.8744999999999
 31
0.0
  0
LINE
  5
3D9
330
1E
100
AcDbEntity
  8
0
100
AcDbLine
 10
122.5457999999999
 20
689.3745
 30
0.0
 11
122.5457999999999
 21
688.3745
 31
0.0
  0
LINE
  5
3DB
330
1E
100
AcDbEntity
  8
0
100
AcDbLine
 10
126.2057999999999
 20
683.0744999999999
 30
0.0
 11
127.0637999999999
 21
683.0744999999999
 31
0.0
  0
LINE
  5
3DC
330
1E
100
AcDbEntity
  8
0
100
AcDbLine
 10
122.5457999999999
 20
682.5744999999999
 30
0.0
 11
122.5457999999999
 21
681.5744999999999
 31
0.0
  0
LINE
  5
3DE
330
1E
100
AcDbEntity
  8
0
100
AcDbLine
 10
126.2057999999999
 20
676.2744999999999
 30
0.0
 11
127.0637999999999
 21
676.2744999999999
 31
0.0
  0
LINE
  5
3E0
330
1E
100
AcDbEntity
  8
0
100
AcDbLine
 10
122.5457999999999
 20
675.7744999999999
 30
0.0
 11
122.5457999999999
 21
674.7745
 31
0.0
  0
LINE
  5
3E1
330
1E
100
AcDbEntity
  8
0
100
AcDbLine
 10
126.2057999999999
 20
669.4745
 30
0.0
 11
127.0637999999999
 21
669.4745
 31
0.0
  0
LINE
  5
3E2
330
1E
100
AcDbEntity
  8
0
100
AcDbLine
 10
122.5457999999999
 20
668.9745
 30
0.0
 11
122.5457999999999
 21
667.9745
 31
0.0
  0
LINE
  5
3E4
330
1E
100
AcDbEntity
  8
0
100
AcDbLine
 10
126.2057999999999
 20
662.6744999999999
 30
0.0
 11
127.0637999999999
 21
662.6744999999999
 31
0.0
  0
LINE
  5
3E6
330
1E
100
AcDbEntity
  8
0
100
AcDbLine
 10
122.5457999999999
 20
662.1744999999999
 30
0.0
 11
122.5457999999999
 21
661.1744999999999
 31
0.0
  0
LINE
  5
3E7
330
1E
100
AcDbEntity
  8
0
100
AcDbLine
 10
127.0637999999999
 20
703.4745
 30
0.0
 11
127.4917999999999
 21
702.9745
 31
0.0
  0
LINE
  5
3E8
330
1E
100
AcDbEntity
  8
0
100
AcDbLine
 10
127.0637999999999
 20
715.0744999999999
 30
0.0
 11
127.4917999999999
 21
715.5744999999999
 31
0.0
  0
LINE
  5
3E9
330
1E
100
AcDbEntity
  8
0
100
AcDbLine
 10
127.0637999999999
 20
717.0744999999999
 30
0.0
 11
127.4917999999999
 21
716.5744999999999
 31
0.0
  0
LINE
  5
3EA
330
1E
100
AcDbEntity
  8
0
100
AcDbLine
 10
127.0637999999999
 20
710.2744999999999
 30
0.0
 11
127.4917999999999
 21
709.7744999999999
 31
0.0
  0
LINE
  5
3EB
330
1E
100
AcDbEntity
  8
0
100
AcDbLine
 10
127.0637999999999
 20
708.2745
 30
0.0
 11
127.4917999999999
 21
708.7744999999999
 31
0.0
  0
LINE
  5
3EC
330
1E
100
AcDbEntity
  8
0
100
AcDbLine
 10
127.0637999999999
 20
701.4745
 30
0.0
 11
127.4917999999999
 21
701.9745
 31
0.0
  0
LINE
  5
3ED
330
1E
100
AcDbEntity
  8
0
100
AcDbLine
 10
127.0637999999999
 20
694.6744999999999
 30
0.0
 11
127.4917999999999
 21
695.1744999999999
 31
0.0
  0
LINE
  5
3EE
330
1E
100
AcDbEntity
  8
0
100
AcDbLine
 10
127.0637999999999
 20
696.6744999999999
 30
0.0
 11
127.4917999999999
 21
696.1744999999999
 31
0.0
  0
LINE
  5
3EF
330
1E
100
AcDbEntity
  8
0
100
AcDbLine
 10
127.0637999999999
 20
687.8745
 30
0.0
 11
127.4917999999999
 21
688.3745
 31
0.0
  0
LINE
  5
3F0
330
1E
100
AcDbEntity
  8
0
100
AcDbLine
 10
127.0637999999999
 20
689.8744999999999
 30
0.0
 11
127.4917999999999
 21
689.3745
 31
0.0
  0
LINE
  5
3F1
330
1E
100
AcDbEntity
  8
0
100
AcDbLine
 10
127.0637999999999
 20
681.0744999999999
 30
0.0
 11
127.4917999999999
 21
681.5744999999999
 31
0.0
  0
LINE
  5
3F2
330
1E
100
AcDbEntity
  8
0
100
AcDbLine
 10
127.0637999999999
 20
683.0744999999999
 30
0.0
 11
127.4917999999999
 21
682.5744999999999
 31
0.0
  0
LINE
  5
3F3
330
1E
100
AcDbEntity
  8
0
100
AcDbLine
 10
127.0637999999999
 20
674.2745
 30
0.0
 11
127.4917999999999
 21
674.7745
 31
0.0
  0
LINE
  5
3F4
330
1E
100
AcDbEntity
  8
0
100
AcDbLine
 10
127.0637999999999
 20
676.2744999999999
 30
0.0
 11
127.4917999999999
 21
675.7744999999999
 31
0.0
  0
LINE
  5
3F5
330
1E
100
AcDbEntity
  8
0
100
AcDbLine
 10
127.0637999999999
 20
667.4745
 30
0.0
 11
127.4917999999999
 21
667.9745
 31
0.0
  0
LINE
  5
3F6
330
1E
100
AcDbEntity
  8
0
100
AcDbLine
 10
127.0637999999999
 20
669.4745
 30
0.0
 11
127.4917999999999
 21
668.9745
 31
0.0
  0
LINE
  5
3F7
330
1E
100
AcDbEntity
  8
0
100
AcDbLine
 10
127.0637999999999
 20
660.6745
 30
0.0
 11
127.4917999999999
 21
661.1744999999999
 31
0.0
  0
LINE
  5
3F8
330
1E
100
AcDbEntity
  8
0
100
AcDbLine
 10
127.4917999999999
 20
661.1744999999999
 30
0.0
 11
127.4917999999999
 21
662.1744999999999
 31
0.0
  0
LINE
  5
3F9
330
1E
100
AcDbEntity
  8
0
100
AcDbLine
 10
127.4917999999999
 20
701.9745
 30
0.0
 11
127.4917999999999
 21
702.9745
 31
0.0
  0
LINE
  5
3FA
330
1E
100
AcDbEntity
  8
0
100
AcDbLine
 10
127.4917999999999
 20
702.9745
 30
0.0
 11
127.4917999999999
 21
701.9745
 31
0.0
  0
LINE
  5
3FB
330
1E
100
AcDbEntity
  8
0
100
AcDbLine
 10
127.4917999999999
 20
716.5744999999999
 30
0.0
 11
127.4917999999999
 21
715.5744999999999
 31
0.0
  0
LINE
  5
3FC
330
1E
100
AcDbEntity
  8
0
100
AcDbLine
 10
127.4917999999999
 20
715.5744999999999
 30
0.0
 11
127.4917999999999
 21
716.5744999999999
 31
0.0
  0
LINE
  5
3FD
330
1E
100
AcDbEntity
  8
0
100
AcDbLine
 10
127.4917999999999
 20
708.7744999999999
 30
0.0
 11
127.4917999999999
 21
709.7744999999999
 31
0.0
  0
LINE
  5
3FE
330
1E
100
AcDbEntity
  8
0
100
AcDbLine
 10
127.4917999999999
 20
709.7744999999999
 30
0.0
 11
127.4917999999999
 21
708.7744999999999
 31
0.0
  0
LINE
  5
3FF
330
1E
100
AcDbEntity
  8
0
100
AcDbLine
 10
127.4917999999999
 20
695.1744999999999
 30
0.0
 11
127.4917999999999
 21
696.1744999999999
 31
0.0
  0
LINE
  5
400
330
1E
100
AcDbEntity
  8
0
100
AcDbLine
 10
127.4917999999999
 20
696.1744999999999
 30
0.0
 11
127.4917999999999
 21
695.1744999999999
 31
0.0
  0
LINE
  5
401
330
1E
100
AcDbEntity
  8
0
100
AcDbLine
 10
127.4917999999999
 20
689.3745
 30
0.0
 11
127.4917999999999
 21
688.3745
 31
0.0
  0
LINE
  5
402
330
1E
100
AcDbEntity
  8
0
100
AcDbLine
 10
127.4917999999999
 20
688.3745
 30
0.0
 11
127.4917999999999
 21
689.3745
 31
0.0
  0
LINE
  5
403
330
1E
100
AcDbEntity
  8
0
100
AcDbLine
 10
127.4917999999999
 20
682.5744999999999
 30
0.0
 11
127.4917999999999
 21
681.5744999999999
 31
0.0
  0
LINE
  5
404
330
1E
100
AcDbEntity
  8
0
100
AcDbLine
 10
127.4917999999999
 20
681.5744999999999
 30
0.0
 11
127.4917999999999
 21
682.5744999999999
 31
0.0
  0
LINE
  5
405
330
1E
100
AcDbEntity
  8
0
100
AcDbLine
 10
127.4917999999999
 20
674.7745
 30
0.0
 11
127.4917999999999
 21
675.7744999999999
 31
0.0
  0
LINE
  5
406
330
1E
100
AcDbEntity
  8
0
100
AcDbLine
 10
127.4917999999999
 20
675.7744999999999
 30
0.0
 11
127.4917999999999
 21
674.7745
 31
0.0
  0
LINE
  5
407
330
1E
100
AcDbEntity
  8
0
100
AcDbLine
 10
127.4917999999999
 20
668.9745
 30
0.0
 11
127.4917999999999
 21
667.9745
 31
0.0
  0
LINE
  5
408
330
1E
100
AcDbEntity
  8
0
100
AcDbLine
 10
127.4917999999999
 20
667.9745
 30
0.0
 11
127.4917999999999
 21
668.9745
 31
0.0
  0
LINE
  5
409
330
1E
100
AcDbEntity
  8
0
100
AcDbLine
 10
127.4917999999999
 20
662.1744999999999
 30
0.0
 11
127.4917999999999
 21
661.1744999999999
 31
0.0
  0
LINE
  5
40A
330
1E
100
AcDbEntity
  8
0
100
AcDbLine
 10
127.0637999999999
 20
662.6744999999999
 30
0.0
 11
127.4917999999999
 21
662.1744999999999
 31
0.0
  0
LINE
  5
40B
330
1E
100
AcDbEntity
  8
0
100
AcDbLine
 10
127.0637999999999
 20
655.8745
 30
0.0
 11
127.4917999999999
 21
655.3745
 31
0.0
  0
LINE
  5
40C
330
1E
100
AcDbEntity
  8
0
100
AcDbLine
 10
126.2057999999999
 20
655.8745
 30
0.0
 11
127.0637999999999
 21
655.8745
 31
0.0
  0
LINE
  5
40E
330
1E
100
AcDbEntity
  8
0
100
AcDbLine
 10
122.5457999999999
 20
655.3745
 30
0.0
 11
122.5457999999999
 21
654.3745
 31
0.0
  0
LINE
  5
40F
330
1E
100
AcDbEntity
  8
0
100
AcDbLine
 10
122.1457999999999
 20
655.8745
 30
0.0
 11
122.5457999999999
 21
655.3745
 31
0.0
  0
LINE
  5
410
330
1E
100
AcDbEntity
  8
0
100
AcDbLine
 10
122.1457999999999
 20
655.8745
 30
0.0
 11
122.4568
 21
655.8745
 31
0.0
  0
LINE
  5
411
330
1E
100
AcDbEntity
  8
0
100
AcDbLine
 10
127.0637999999999
 20
649.0744999999999
 30
0.0
 11
127.4917999999999
 21
648.5744999999999
 31
0.0
  0
LINE
  5
412
330
1E
100
AcDbEntity
  8
0
100
AcDbLine
 10
127.4917999999999
 20
648.5744999999999
 30
0.0
 11
127.4917999999999
 21
647.5744999999999
 31
0.0
  0
LINE
  5
413
330
1E
100
AcDbEntity
  8
0
100
AcDbLine
 10
125.7778
 20
647.5744999999999
 30
0.0
 11
126.2057999999999
 21
647.0744999999999
 31
0.0
  0
LINE
  5
414
330
1E
100
AcDbEntity
  8
0
100
AcDbLine
 10
125.7778
 20
647.5744999999999
 30
0.0
 11
125.7778
 21
648.5744999999999
 31
0.0
  0
LINE
  5
415
330
1E
100
AcDbEntity
  8
0
100
AcDbLine
 10
130.8128
 20
647.0744999999999
 30
0.0
 11
131.1237999999999
 21
647.0744999999999
 31
0.0
  0
LINE
  5
417
330
1E
100
AcDbEntity
  8
0
100
AcDbLine
 10
135.1348
 20
647.0744999999999
 30
0.0
 11
135.5118
 21
647.0744999999999
 31
0.0
  0
LINE
  5
418
330
1E
100
AcDbEntity
  8
0
100
AcDbLine
 10
134.2998
 20
647.0744999999999
 30
0.0
 11
134.8898
 21
647.0744999999999
 31
0.0
  0
LINE
  5
419
330
1E
100
AcDbEntity
  8
0
100
AcDbLine
 10
134.8898
 20
647.0744999999999
 30
0.0
 11
135.5118
 21
647.0744999999999
 31
0.0
  0
LINE
  5
41A
330
1E
100
AcDbEntity
  8
0
100
AcDbLine
 10
131.6117999999999
 20
647.0744999999999
 30
0.0
 11
131.9228
 21
647.0744999999999
 31
0.0
  0
LINE
  5
41C
330
1E
100
AcDbEntity
  8
0
100
AcDbLine
 10
134.5787999999999
 20
647.5744999999999
 30
0.0
 11
134.8898
 21
647.0744999999999
 31
0.0
  0
LINE
  5
41D
330
1E
100
AcDbEntity
  8
0
100
AcDbLine
 10
134.5787999999999
 20
647.5744999999999
 30
0.0
 11
134.5787999999999
 21
648.5744999999999
 31
0.0
  0
LINE
  5
41E
330
1E
100
AcDbEntity
  8
0
100
AcDbLine
 10
132.3218
 20
647.5744999999999
 30
0.0
 11
132.3218
 21
648.5744999999999
 31
0.0
  0
LINE
  5
41F
330
1E
100
AcDbEntity
  8
0
100
AcDbLine
 10
131.9228
 20
647.0744999999999
 30
0.0
 11
132.3218
 21
647.5744999999999
 31
0.0
  0
LINE
  5
420
330
1E
100
AcDbEntity
  8
0
100
AcDbLine
 10
131.1237999999999
 20
647.0744999999999
 30
0.0
 11
131.9228
 21
647.0744999999999
 31
0.0
  0
LINE
  5
422
330
1E
100
AcDbEntity
  8
0
100
AcDbLine
 10
130.8128
 20
649.0744999999999
 30
0.0
 11
131.1237999999999
 21
649.0744999999999
 31
0.0
  0
LINE
  5
423
330
1E
100
AcDbEntity
  8
0
100
AcDbLine
 10
130.7238
 20
648.5744999999999
 30
0.0
 11
131.1237999999999
 21
649.0744999999999
 31
0.0
  0
LINE
  5
424
330
1E
100
AcDbEntity
  8
0
100
AcDbLine
 10
130.7238
 20
648.5744999999999
 30
0.0
 11
130.7238
 21
647.5744999999999
 31
0.0
  0
LINE
  5
425
330
1E
100
AcDbEntity
  8
0
100
AcDbLine
 10
131.1237999999999
 20
649.0744999999999
 30
0.0
 11
131.9228
 21
649.0744999999999
 31
0.0
  0
LINE
  5
427
330
1E
100
AcDbEntity
  8
0
100
AcDbLine
 10
130.7238
 20
654.3745
 30
0.0
 11
131.1237999999999
 21
653.8745
 31
0.0
  0
LINE
  5
428
330
1E
100
AcDbEntity
  8
0
100
AcDbLine
 10
130.7238
 20
654.3745
 30
0.0
 11
130.7238
 21
655.3745
 31
0.0
  0
LINE
  5
42A
330
1E
100
AcDbEntity
  8
0
100
AcDbLine
 10
130.7238
 20
655.3745
 30
0.0
 11
131.1237999999999
 21
655.8745
 31
0.0
  0
LINE
  5
42B
330
1E
100
AcDbEntity
  8
0
100
AcDbLine
 10
130.7238
 20
655.3745
 30
0.0
 11
130.7238
 21
654.3745
 31
0.0
  0
LINE
  5
42C
330
1E
100
AcDbEntity
  8
0
100
AcDbLine
 10
131.1237999999999
 20
653.8745
 30
0.0
 11
131.9228
 21
653.8745
 31
0.0
  0
LINE
  5
42D
330
1E
100
AcDbEntity
  8
0
100
AcDbLine
 10
130.957145276873
 20
653.8745
 30
0.0
 11
131.1237999999999
 21
653.8745
 31
0.0
  0
LINE
  5
42F
330
1E
100
AcDbEntity
  8
0
100
AcDbLine
 10
130.7238
 20
661.1744999999999
 30
0.0
 11
131.1237999999999
 21
660.6745
 31
0.0
  0
LINE
  5
430
330
1E
100
AcDbEntity
  8
0
100
AcDbLine
 10
130.7238
 20
661.1744999999999
 30
0.0
 11
130.7238
 21
662.1744999999999
 31
0.0
  0
LINE
  5
432
330
1E
100
AcDbEntity
  8
0
100
AcDbLine
 10
130.7238
 20
662.1744999999999
 30
0.0
 11
131.1237999999999
 21
662.6744999999999
 31
0.0
  0
LINE
  5
433
330
1E
100
AcDbEntity
  8
0
100
AcDbLine
 10
130.7238
 20
662.1744999999999
 30
0.0
 11
130.7238
 21
661.1744999999999
 31
0.0
  0
LINE
  5
434
330
1E
100
AcDbEntity
  8
0
100
AcDbLine
 10
131.1237999999999
 20
660.6745
 30
0.0
 11
131.9228
 21
660.6745
 31
0.0
  0
LINE
  5
435
330
1E
100
AcDbEntity
  8
0
100
AcDbLine
 10
130.828676221498
 20
660.6745
 30
0.0
 11
131.1237999999999
 21
660.6745
 31
0.0
  0
LINE
  5
436
330
1E
100
AcDbEntity
  8
0
100
AcDbLine
 10
130.8128
 20
667.4745
 30
0.0
 11
131.1237999999999
 21
667.4745
 31
0.0
  0
LINE
  5
439
330
1E
100
AcDbEntity
  8
0
100
AcDbLine
 10
130.7238
 20
667.9745
 30
0.0
 11
130.7238
 21
668.9745
 31
0.0
  0
LINE
  5
43A
330
1E
100
AcDbEntity
  8
0
100
AcDbLine
 10
130.7238
 20
667.9745
 30
0.0
 11
131.1237999999999
 21
667.4745
 31
0.0
  0
LINE
  5
43B
330
1E
100
AcDbEntity
  8
0
100
AcDbLine
 10
130.7238
 20
674.7745
 30
0.0
 11
131.1237999999999
 21
674.2745
 31
0.0
  0
LINE
  5
43C
330
1E
100
AcDbEntity
  8
0
100
AcDbLine
 10
130.7238
 20
674.7745
 30
0.0
 11
130.7238
 21
675.7744999999999
 31
0.0
  0
LINE
  5
44A
330
1E
100
AcDbEntity
  8
0
100
AcDbLine
 10
130.7238
 20
681.5744999999999
 30
0.0
 11
130.7238
 21
682.5744999999999
 31
0.0
  0
LINE
  5
44B
330
1E
100
AcDbEntity
  8
0
100
AcDbLine
 10
130.7238
 20
681.5744999999999
 30
0.0
 11
131.1237999999999
 21
681.0744999999999
 31
0.0
  0
LINE
  5
44C
330
1E
100
AcDbEntity
  8
0
100
AcDbLine
 10
130.7238
 20
702.9745
 30
0.0
 11
131.1237999999999
 21
703.4745
 31
0.0
  0
LINE
  5
44D
330
1E
100
AcDbEntity
  8
0
100
AcDbLine
 10
130.7238
 20
702.9745
 30
0.0
 11
130.7238
 21
701.9745
 31
0.0
  0
LINE
  5
44E
330
1E
100
AcDbEntity
  8
0
100
AcDbLine
 10
130.7238
 20
715.5744999999999
 30
0.0
 11
130.7238
 21
716.5744999999999
 31
0.0
  0
LINE
  5
44F
330
1E
100
AcDbEntity
  8
0
100
AcDbLine
 10
130.7238
 20
715.5744999999999
 30
0.0
 11
131.1237999999999
 21
715.0744999999999
 31
0.0
  0
LINE
  5
450
330
1E
100
AcDbEntity
  8
0
100
AcDbLine
 10
130.7238
 20
716.5744999999999
 30
0.0
 11
131.1237999999999
 21
717.0744999999999
 31
0.0
  0
LINE
  5
451
330
1E
100
AcDbEntity
  8
0
100
AcDbLine
 10
130.7238
 20
716.5744999999999
 30
0.0
 11
130.7238
 21
715.5744999999999
 31
0.0
  0
LINE
  5
452
330
1E
100
AcDbEntity
  8
0
100
AcDbLine
 10
130.7238
 20
709.7744999999999
 30
0.0
 11
130.7238
 21
708.7744999999999
 31
0.0
  0
LINE
  5
453
330
1E
100
AcDbEntity
  8
0
100
AcDbLine
 10
130.7238
 20
709.7744999999999
 30
0.0
 11
131.1237999999999
 21
710.2744999999999
 31
0.0
  0
LINE
  5
454
330
1E
100
AcDbEntity
  8
0
100
AcDbLine
 10
130.7238
 20
708.7744999999999
 30
0.0
 11
131.1237999999999
 21
708.2745
 31
0.0
  0
LINE
  5
455
330
1E
100
AcDbEntity
  8
0
100
AcDbLine
 10
130.7238
 20
708.7744999999999
 30
0.0
 11
130.7238
 21
709.7744999999999
 31
0.0
  0
LINE
  5
456
330
1E
100
AcDbEntity
  8
0
100
AcDbLine
 10
130.7238
 20
701.9745
 30
0.0
 11
131.1237999999999
 21
701.4745
 31
0.0
  0
LINE
  5
457
330
1E
100
AcDbEntity
  8
0
100
AcDbLine
 10
130.7238
 20
701.9745
 30
0.0
 11
130.7238
 21
702.9745
 31
0.0
  0
LINE
  5
458
330
1E
100
AcDbEntity
  8
0
100
AcDbLine
 10
130.7238
 20
695.1744999999999
 30
0.0
 11
131.1237999999999
 21
694.6744999999999
 31
0.0
  0
LINE
  5
459
330
1E
100
AcDbEntity
  8
0
100
AcDbLine
 10
130.7238
 20
695.1744999999999
 30
0.0
 11
130.7238
 21
696.1744999999999
 31
0.0
  0
LINE
  5
45A
330
1E
100
AcDbEntity
  8
0
100
AcDbLine
 10
130.7238
 20
696.1744999999999
 30
0.0
 11
131.1237999999999
 21
696.6744999999999
 31
0.0
  0
LINE
  5
45B
330
1E
100
AcDbEntity
  8
0
100
AcDbLine
 10
130.7238
 20
696.1744999999999
 30
0.0
 11
130.7238
 21
695.1744999999999
 31
0.0
  0
LINE
  5
45C
330
1E
100
AcDbEntity
  8
0
100
AcDbLine
 10
130.7238
 20
688.3745
 30
0.0
 11
130.7238
 21
689.3745
 31
0.0
  0
LINE
  5
45D
330
1E
100
AcDbEntity
  8
0
100
AcDbLine
 10
130.7238
 20
688.3745
 30
0.0
 11
131.1237999999999
 21
687.8745
 31
0.0
  0
LINE
  5
45E
330
1E
100
AcDbEntity
  8
0
100
AcDbLine
 10
130.7238
 20
689.3745
 30
0.0
 11
131.1237999999999
 21
689.8744999999999
 31
0.0
  0
LINE
  5
45F
330
1E
100
AcDbEntity
  8
0
100
AcDbLine
 10
130.7238
 20
689.3745
 30
0.0
 11
130.7238
 21
688.3745
 31
0.0
  0
LINE
  5
460
330
1E
100
AcDbEntity
  8
0
100
AcDbLine
 10
130.7238
 20
682.5744999999999
 30
0.0
 11
131.1237999999999
 21
683.0744999999999
 31
0.0
  0
LINE
  5
461
330
1E
100
AcDbEntity
  8
0
100
AcDbLine
 10
130.7238
 20
682.5744999999999
 30
0.0
 11
130.7238
 21
681.5744999999999
 31
0.0
  0
LINE
  5
463
330
1E
100
AcDbEntity
  8
0
100
AcDbLine
 10
130.8128
 20
694.6744999999999
 30
0.0
 11
131.1237999999999
 21
694.6744999999999
 31
0.0
  0
LINE
  5
464
330
1E
100
AcDbEntity
  8
0
100
AcDbLine
 10
130.8128
 20
717.0744999999999
 30
0.0
 11
131.1237999999999
 21
717.0744999999999
 31
0.0
  0
LINE
  5
465
330
1E
100
AcDbEntity
  8
0
100
AcDbLine
 10
130.8128
 20
715.0744999999999
 30
0.0
 11
131.1237999999999
 21
715.0744999999999
 31
0.0
  0
LINE
  5
466
330
1E
100
AcDbEntity
  8
0
100
AcDbLine
 10
130.8128
 20
710.2744999999999
 30
0.0
 11
131.1237999999999
 21
710.2744999999999
 31
0.0
  0
LINE
  5
467
330
1E
100
AcDbEntity
  8
0
100
AcDbLine
 10
130.8128
 20
708.2745
 30
0.0
 11
131.1237999999999
 21
708.2745
 31
0.0
  0
LINE
  5
468
330
1E
100
AcDbEntity
  8
0
100
AcDbLine
 10
130.8128
 20
703.4745
 30
0.0
 11
131.1237999999999
 21
703.4745
 31
0.0
  0
LINE
  5
469
330
1E
100
AcDbEntity
  8
0
100
AcDbLine
 10
130.8128
 20
701.4745
 30
0.0
 11
131.1237999999999
 21
701.4745
 31
0.0
  0
LINE
  5
46A
330
1E
100
AcDbEntity
  8
0
100
AcDbLine
 10
130.8128
 20
696.6744999999999
 30
0.0
 11
131.1237999999999
 21
696.6744999999999
 31
0.0
  0
LINE
  5
46B
330
1E
100
AcDbEntity
  8
0
100
AcDbLine
 10
130.8128
 20
689.8744999999999
 30
0.0
 11
131.1237999999999
 21
689.8744999999999
 31
0.0
  0
LINE
  5
46C
330
1E
100
AcDbEntity
  8
0
100
AcDbLine
 10
130.8128
 20
687.8745
 30
0.0
 11
131.1237999999999
 21
687.8745
 31
0.0
  0
LINE
  5
46D
330
1E
100
AcDbEntity
  8
0
100
AcDbLine
 10
130.8128
 20
683.0744999999999
 30
0.0
 11
131.1237999999999
 21
683.0744999999999
 31
0.0
  0
LINE
  5
46E
330
1E
100
AcDbEntity
  8
0
100
AcDbLine
 10
130.8128
 20
681.0744999999999
 30
0.0
 11
131.1237999999999
 21
681.0744999999999
 31
0.0
  0
LINE
  5
46F
330
1E
100
AcDbEntity
  8
0
100
AcDbLine
 10
130.7238
 20
675.7744999999999
 30
0.0
 11
131.1237999999999
 21
676.2744999999999
 31
0.0
  0
LINE
  5
470
330
1E
100
AcDbEntity
  8
0
100
AcDbLine
 10
130.7238
 20
675.7744999999999
 30
0.0
 11
130.7238
 21
674.7745
 31
0.0
  0
LINE
  5
471
330
1E
100
AcDbEntity
  8
0
100
AcDbLine
 10
130.8128
 20
674.2745
 30
0.0
 11
131.1237999999999
 21
674.2745
 31
0.0
  0
LINE
  5
472
330
1E
100
AcDbEntity
  8
0
100
AcDbLine
 10
130.8128
 20
676.2744999999999
 30
0.0
 11
131.1237999999999
 21
676.2744999999999
 31
0.0
  0
LINE
  5
473
330
1E
100
AcDbEntity
  8
0
100
AcDbLine
 10
130.7238
 20
668.9745
 30
0.0
 11
131.1237999999999
 21
669.4745
 31
0.0
  0
LINE
  5
474
330
1E
100
AcDbEntity
  8
0
100
AcDbLine
 10
130.7238
 20
668.9745
 30
0.0
 11
130.7238
 21
667.9745
 31
0.0
  0
LINE
  5
475
330
1E
100
AcDbEntity
  8
0
100
AcDbLine
 10
131.1237999999999
 20
674.2745
 30
0.0
 11
131.9228
 21
674.2745
 31
0.0
  0
LINE
  5
476
330
1E
100
AcDbEntity
  8
0
100
AcDbLine
 10
131.1237999999999
 20
703.4745
 30
0.0
 11
131.9228
 21
703.4745
 31
0.0
  0
LINE
  5
477
330
1E
100
AcDbEntity
  8
0
100
AcDbLine
 10
131.1237999999999
 20
715.0744999999999
 30
0.0
 11
131.9228
 21
715.0744999999999
 31
0.0
  0
LINE
  5
478
330
1E
100
AcDbEntity
  8
0
100
AcDbLine
 10
131.1237999999999
 20
717.0744999999999
 30
0.0
 11
131.9228
 21
717.0744999999999
 31
0.0
  0
LINE
  5
479
330
1E
100
AcDbEntity
  8
0
100
AcDbLine
 10
131.1237999999999
 20
710.2744999999999
 30
0.0
 11
131.9228
 21
710.2744999999999
 31
0.0
  0
LINE
  5
47A
330
1E
100
AcDbEntity
  8
0
100
AcDbLine
 10
131.1237999999999
 20
708.2745
 30
0.0
 11
131.9228
 21
708.2745
 31
0.0
  0
LINE
  5
47B
330
1E
100
AcDbEntity
  8
0
100
AcDbLine
 10
131.1237999999999
 20
701.4745
 30
0.0
 11
131.9228
 21
701.4745
 31
0.0
  0
LINE
  5
47C
330
1E
100
AcDbEntity
  8
0
100
AcDbLine
 10
131.1237999999999
 20
694.6744999999999
 30
0.0
 11
131.9228
 21
694.6744999999999
 31
0.0
  0
LINE
  5
47D
330
1E
100
AcDbEntity
  8
0
100
AcDbLine
 10
131.1237999999999
 20
696.6744999999999
 30
0.0
 11
131.9228
 21
696.6744999999999
 31
0.0
  0
LINE
  5
47E
330
1E
100
AcDbEntity
  8
0
100
AcDbLine
 10
131.1237999999999
 20
687.8745
 30
0.0
 11
131.9228
 21
687.8745
 31
0.0
  0
LINE
  5
47F
330
1E
100
AcDbEntity
  8
0
100
AcDbLine
 10
131.1237999999999
 20
689.8744999999999
 30
0.0
 11
131.9228
 21
689.8744999999999
 31
0.0
  0
LINE
  5
480
330
1E
100
AcDbEntity
  8
0
100
AcDbLine
 10
131.1237999999999
 20
681.0744999999999
 30
0.0
 11
131.9228
 21
681.0744999999999
 31
0.0
  0
LINE
  5
481
330
1E
100
AcDbEntity
  8
0
100
AcDbLine
 10
131.1237999999999
 20
683.0744999999999
 30
0.0
 11
131.9228
 21
683.0744999999999
 31
0.0
  0
LINE
  5
482
330
1E
100
AcDbEntity
  8
0
100
AcDbLine
 10
131.1237999999999
 20
676.2744999999999
 30
0.0
 11
131.9228
 21
676.2744999999999
 31
0.0
  0
LINE
  5
483
330
1E
100
AcDbEntity
  8
0
100
AcDbLine
 10
130.8128
 20
669.4745
 30
0.0
 11
131.1237999999999
 21
669.4745
 31
0.0
  0
LINE
  5
484
330
1E
100
AcDbEntity
  8
0
100
AcDbLine
 10
131.1237999999999
 20
667.4745
 30
0.0
 11
131.9228
 21
667.4745
 31
0.0
  0
LINE
  5
485
330
1E
100
AcDbEntity
  8
0
100
AcDbLine
 10
131.1237999999999
 20
669.4745
 30
0.0
 11
131.9228
 21
669.4745
 31
0.0
  0
LINE
  5
486
330
1E
100
AcDbEntity
  8
0
100
AcDbLine
 10
130.8128
 20
662.6744999999999
 30
0.0
 11
131.1237999999999
 21
662.6744999999999
 31
0.0
  0
LINE
  5
487
330
1E
100
AcDbEntity
  8
0
100
AcDbLine
 10
131.1237999999999
 20
662.6744999999999
 30
0.0
 11
131.9228
 21
662.6744999999999
 31
0.0
  0
LINE
  5
488
330
1E
100
AcDbEntity
  8
0
100
AcDbLine
 10
130.9193602605859
 20
655.8745
 30
0.0
 11
131.1237999999999
 21
655.8745
 31
0.0
  0
LINE
  5
489
330
1E
100
AcDbEntity
  8
0
100
AcDbLine
 10
132.3218
 20
655.3745
 30
0.0
 11
132.3218
 21
654.3745
 31
0.0
  0
LINE
  5
48A
330
1E
100
AcDbEntity
  8
0
100
AcDbLine
 10
132.3218
 20
654.3745
 30
0.0
 11
132.3218
 21
655.3745
 31
0.0
  0
LINE
  5
48B
330
1E
100
AcDbEntity
  8
0
100
AcDbLine
 10
131.9228
 20
653.8745
 30
0.0
 11
132.3218
 21
654.3745
 31
0.0
  0
LINE
  5
48C
330
1E
100
AcDbEntity
  8
0
100
AcDbLine
 10
131.6117999999999
 20
653.8745
 30
0.0
 11
131.9228
 21
653.8745
 31
0.0
  0
LINE
  5
48D
330
1E
100
AcDbEntity
  8
0
100
AcDbLine
 10
131.9228
 20
660.6745
 30
0.0
 11
132.3218
 21
661.1744999999999
 31
0.0
  0
LINE
  5
48E
330
1E
100
AcDbEntity
  8
0
100
AcDbLine
 10
131.6117999999999
 20
667.4745
 30
0.0
 11
131.9228
 21
667.4745
 31
0.0
  0
LINE
  5
48F
330
1E
100
AcDbEntity
  8
0
100
AcDbLine
 10
131.9228
 20
674.2745
 30
0.0
 11
132.3218
 21
674.7745
 31
0.0
  0
LINE
  5
490
330
1E
100
AcDbEntity
  8
0
100
AcDbLine
 10
131.6117999999999
 20
681.0744999999999
 30
0.0
 11
131.9228
 21
681.0744999999999
 31
0.0
  0
LINE
  5
491
330
1E
100
AcDbEntity
  8
0
100
AcDbLine
 10
131.6117999999999
 20
687.8745
 30
0.0
 11
131.9228
 21
687.8745
 31
0.0
  0
LINE
  5
492
330
1E
100
AcDbEntity
  8
0
100
AcDbLine
 10
131.9228
 20
694.6744999999999
 30
0.0
 11
132.3218
 21
695.1744999999999
 31
0.0
  0
LINE
  5
493
330
1E
100
AcDbEntity
  8
0
100
AcDbLine
 10
131.6117999999999
 20
715.0744999999999
 30
0.0
 11
131.9228
 21
715.0744999999999
 31
0.0
  0
LINE
  5
494
330
1E
100
AcDbEntity
  8
0
100
AcDbLine
 10
131.9228
 20
715.0744999999999
 30
0.0
 11
132.3218
 21
715.5744999999999
 31
0.0
  0
LINE
  5
495
330
1E
100
AcDbEntity
  8
0
100
AcDbLine
 10
131.9228
 20
717.0744999999999
 30
0.0
 11
132.3218
 21
716.5744999999999
 31
0.0
  0
LINE
  5
496
330
1E
100
AcDbEntity
  8
0
100
AcDbLine
 10
131.9228
 20
710.2744999999999
 30
0.0
 11
132.3218
 21
709.7744999999999
 31
0.0
  0
LINE
  5
497
330
1E
100
AcDbEntity
  8
0
100
AcDbLine
 10
131.6117999999999
 20
708.2745
 30
0.0
 11
131.9228
 21
708.2745
 31
0.0
  0
LINE
  5
498
330
1E
100
AcDbEntity
  8
0
100
AcDbLine
 10
131.9228
 20
703.4745
 30
0.0
 11
132.3218
 21
702.9745
 31
0.0
  0
LINE
  5
499
330
1E
100
AcDbEntity
  8
0
100
AcDbLine
 10
131.9228
 20
708.2745
 30
0.0
 11
132.3218
 21
708.7744999999999
 31
0.0
  0
LINE
  5
49A
330
1E
100
AcDbEntity
  8
0
100
AcDbLine
 10
131.6117999999999
 20
701.4745
 30
0.0
 11
131.9228
 21
701.4745
 31
0.0
  0
LINE
  5
49B
330
1E
100
AcDbEntity
  8
0
100
AcDbLine
 10
131.9228
 20
701.4745
 30
0.0
 11
132.3218
 21
701.9745
 31
0.0
  0
LINE
  5
49C
330
1E
100
AcDbEntity
  8
0
100
AcDbLine
 10
131.6117999999999
 20
694.6744999999999
 30
0.0
 11
131.9228
 21
694.6744999999999
 31
0.0
  0
LINE
  5
49D
330
1E
100
AcDbEntity
  8
0
100
AcDbLine
 10
131.9228
 20
696.6744999999999
 30
0.0
 11
132.3218
 21
696.1744999999999
 31
0.0
  0
LINE
  5
49E
330
1E
100
AcDbEntity
  8
0
100
AcDbLine
 10
131.9228
 20
687.8745
 30
0.0
 11
132.3218
 21
688.3745
 31
0.0
  0
LINE
  5
49F
330
1E
100
AcDbEntity
  8
0
100
AcDbLine
 10
131.9228
 20
689.8744999999999
 30
0.0
 11
132.3218
 21
689.3745
 31
0.0
  0
LINE
  5
4A0
330
1E
100
AcDbEntity
  8
0
100
AcDbLine
 10
131.9228
 20
681.0744999999999
 30
0.0
 11
132.3218
 21
681.5744999999999
 31
0.0
  0
LINE
  5
4A1
330
1E
100
AcDbEntity
  8
0
100
AcDbLine
 10
131.9228
 20
683.0744999999999
 30
0.0
 11
132.3218
 21
682.5744999999999
 31
0.0
  0
LINE
  5
4A2
330
1E
100
AcDbEntity
  8
0
100
AcDbLine
 10
131.6117999999999
 20
674.2745
 30
0.0
 11
131.9228
 21
674.2745
 31
0.0
  0
LINE
  5
4A3
330
1E
100
AcDbEntity
  8
0
100
AcDbLine
 10
131.9228
 20
676.2744999999999
 30
0.0
 11
132.3218
 21
675.7744999999999
 31
0.0
  0
LINE
  5
4A4
330
1E
100
AcDbEntity
  8
0
100
AcDbLine
 10
131.9228
 20
667.4745
 30
0.0
 11
132.3218
 21
667.9745
 31
0.0
  0
LINE
  5
4A5
330
1E
100
AcDbEntity
  8
0
100
AcDbLine
 10
131.9228
 20
669.4745
 30
0.0
 11
132.3218
 21
668.9745
 31
0.0
  0
LINE
  5
4A6
330
1E
100
AcDbEntity
  8
0
100
AcDbLine
 10
131.6117999999999
 20
660.6745
 30
0.0
 11
131.9228
 21
660.6745
 31
0.0
  0
LINE
  5
4A7
330
1E
100
AcDbEntity
  8
0
100
AcDbLine
 10
132.3218
 20
701.9745
 30
0.0
 11
132.3218
 21
702.9745
 31
0.0
  0
LINE
  5
4A8
330
1E
100
AcDbEntity
  8
0
100
AcDbLine
 10
132.3218
 20
702.9745
 30
0.0
 11
132.3218
 21
701.9745
 31
0.0
  0
LINE
  5
4A9
330
1E
100
AcDbEntity
  8
0
100
AcDbLine
 10
132.3218
 20
708.7744999999999
 30
0.0
 11
132.3218
 21
709.7744999999999
 31
0.0
  0
LINE
  5
4AA
330
1E
100
AcDbEntity
  8
0
100
AcDbLine
 10
132.3218
 20
715.5744999999999
 30
0.0
 11
132.3218
 21
716.5744999999999
 31
0.0
  0
LINE
  5
4AB
330
1E
100
AcDbEntity
  8
0
100
AcDbLine
 10
132.3218
 20
716.5744999999999
 30
0.0
 11
132.3218
 21
715.5744999999999
 31
0.0
  0
LINE
  5
4AC
330
1E
100
AcDbEntity
  8
0
100
AcDbLine
 10
132.3218
 20
709.7744999999999
 30
0.0
 11
132.3218
 21
708.7744999999999
 31
0.0
  0
LINE
  5
4AD
330
1E
100
AcDbEntity
  8
0
100
AcDbLine
 10
132.3218
 20
696.1744999999999
 30
0.0
 11
132.3218
 21
695.1744999999999
 31
0.0
  0
LINE
  5
4AE
330
1E
100
AcDbEntity
  8
0
100
AcDbLine
 10
132.3218
 20
695.1744999999999
 30
0.0
 11
132.3218
 21
696.1744999999999
 31
0.0
  0
LINE
  5
4AF
330
1E
100
AcDbEntity
  8
0
100
AcDbLine
 10
132.3218
 20
689.3745
 30
0.0
 11
132.3218
 21
688.3745
 31
0.0
  0
LINE
  5
4B0
330
1E
100
AcDbEntity
  8
0
100
AcDbLine
 10
132.3218
 20
688.3745
 30
0.0
 11
132.3218
 21
689.3745
 31
0.0
  0
LINE
  5
4B1
330
1E
100
AcDbEntity
  8
0
100
AcDbLine
 10
132.3218
 20
682.5744999999999
 30
0.0
 11
132.3218
 21
681.5744999999999
 31
0.0
  0
LINE
  5
4B2
330
1E
100
AcDbEntity
  8
0
100
AcDbLine
 10
132.3218
 20
681.5744999999999
 30
0.0
 11
132.3218
 21
682.5744999999999
 31
0.0
  0
LINE
  5
4B3
330
1E
100
AcDbEntity
  8
0
100
AcDbLine
 10
132.3218
 20
675.7744999999999
 30
0.0
 11
132.3218
 21
674.7745
 31
0.0
  0
LINE
  5
4B4
330
1E
100
AcDbEntity
  8
0
100
AcDbLine
 10
132.3218
 20
674.7745
 30
0.0
 11
132.3218
 21
675.7744999999999
 31
0.0
  0
LINE
  5
4B5
330
1E
100
AcDbEntity
  8
0
100
AcDbLine
 10
132.3218
 20
668.9745
 30
0.0
 11
132.3218
 21
667.9745
 31
0.0
  0
LINE
  5
4B6
330
1E
100
AcDbEntity
  8
0
100
AcDbLine
 10
132.3218
 20
667.9745
 30
0.0
 11
132.3218
 21
668.9745
 31
0.0
  0
LINE
  5
4B7
330
1E
100
AcDbEntity
  8
0
100
AcDbLine
 10
132.3218
 20
662.1744999999999
 30
0.0
 11
132.3218
 21
661.1744999999999
 31
0.0
  0
LINE
  5
4B8
330
1E
100
AcDbEntity
  8
0
100
AcDbLine
 10
132.3218
 20
661.1744999999999
 30
0.0
 11
132.3218
 21
662.1744999999999
 31
0.0
  0
LINE
  5
4B9
330
1E
100
AcDbEntity
  8
0
100
AcDbLine
 10
131.9228
 20
662.6744999999999
 30
0.0
 11
132.3218
 21
662.1744999999999
 31
0.0
  0
LINE
  5
4BA
330
1E
100
AcDbEntity
  8
0
100
AcDbLine
 10
131.9228
 20
655.8745
 30
0.0
 11
132.3218
 21
655.3745
 31
0.0
  0
LINE
  5
4BB
330
1E
100
AcDbEntity
  8
0
100
AcDbLine
 10
131.1237999999999
 20
655.8745
 30
0.0
 11
131.9228
 21
655.8745
 31
0.0
  0
LINE
  5
4BC
330
1E
100
AcDbEntity
  8
0
100
AcDbLine
 10
131.9228
 20
649.0744999999999
 30
0.0
 11
132.3218
 21
648.5744999999999
 31
0.0
  0
LINE
  5
4BE
330
1E
100
AcDbEntity
  8
0
100
AcDbLine
 10
134.2998
 20
649.0744999999999
 30
0.0
 11
134.8898
 21
649.0744999999999
 31
0.0
  0
LINE
  5
4BF
330
1E
100
AcDbEntity
  8
0
100
AcDbLine
 10
134.5787999999999
 20
648.5744999999999
 30
0.0
 11
134.8898
 21
649.0744999999999
 31
0.0
  0
LINE
  5
4C0
330
1E
100
AcDbEntity
  8
0
100
AcDbLine
 10
134.5787999999999
 20
648.5744999999999
 30
0.0
 11
134.5787999999999
 21
647.5744999999999
 31
0.0
  0
LINE
  5
4C2
330
1E
100
AcDbEntity
  8
0
100
AcDbLine
 10
134.5787999999999
 20
654.3745
 30
0.0
 11
134.8898
 21
653.8745
 31
0.0
  0
LINE
  5
4C3
330
1E
100
AcDbEntity
  8
0
100
AcDbLine
 10
134.5787999999999
 20
654.3745
 30
0.0
 11
134.5787999999999
 21
655.3745
 31
0.0
  0
LINE
  5
4C4
330
1E
100
AcDbEntity
  8
0
100
AcDbLine
 10
134.2998
 20
653.8745
 30
0.0
 11
134.8898
 21
653.8745
 31
0.0
  0
LINE
  5
4C6
330
1E
100
AcDbEntity
  8
0
100
AcDbLine
 10
134.2998
 20
660.6745
 30
0.0
 11
134.8898
 21
660.6745
 31
0.0
  0
LINE
  5
4C7
330
1E
100
AcDbEntity
  8
0
100
AcDbLine
 10
134.2998
 20
667.4745
 30
0.0
 11
134.8898
 21
667.4745
 31
0.0
  0
LINE
  5
4D5
330
1E
100
AcDbEntity
  8
0
100
AcDbLine
 10
134.2998
 20
674.2745
 30
0.0
 11
134.8898
 21
674.2745
 31
0.0
  0
LINE
  5
4D6
330
1E
100
AcDbEntity
  8
0
100
AcDbLine
 10
134.2998
 20
703.4745
 30
0.0
 11
134.8898
 21
703.4745
 31
0.0
  0
LINE
  5
4D7
330
1E
100
AcDbEntity
  8
0
100
AcDbLine
 10
134.2998
 20
717.0744999999999
 30
0.0
 11
134.8898
 21
717.0744999999999
 31
0.0
  0
LINE
  5
4D8
330
1E
100
AcDbEntity
  8
0
100
AcDbLine
 10
134.2998
 20
715.0744999999999
 30
0.0
 11
134.8898
 21
715.0744999999999
 31
0.0
  0
LINE
  5
4D9
330
1E
100
AcDbEntity
  8
0
100
AcDbLine
 10
134.2998
 20
710.2744999999999
 30
0.0
 11
134.8898
 21
710.2744999999999
 31
0.0
  0
LINE
  5
4DA
330
1E
100
AcDbEntity
  8
0
100
AcDbLine
 10
134.2998
 20
708.2745
 30
0.0
 11
134.8898
 21
708.2745
 31
0.0
  0
LINE
  5
4DB
330
1E
100
AcDbEntity
  8
0
100
AcDbLine
 10
134.2998
 20
701.4745
 30
0.0
 11
134.8898
 21
701.4745
 31
0.0
  0
LINE
  5
4DC
330
1E
100
AcDbEntity
  8
0
100
AcDbLine
 10
134.2998
 20
694.6744999999999
 30
0.0
 11
134.8898
 21
694.6744999999999
 31
0.0
  0
LINE
  5
4DD
330
1E
100
AcDbEntity
  8
0
100
AcDbLine
 10
134.2998
 20
696.6744999999999
 30
0.0
 11
134.8898
 21
696.6744999999999
 31
0.0
  0
LINE
  5
4DE
330
1E
100
AcDbEntity
  8
0
100
AcDbLine
 10
134.2998
 20
689.8744999999999
 30
0.0
 11
134.8898
 21
689.8744999999999
 31
0.0
  0
LINE
  5
4DF
330
1E
100
AcDbEntity
  8
0
100
AcDbLine
 10
134.2998
 20
687.8745
 30
0.0
 11
134.8898
 21
687.8745
 31
0.0
  0
LINE
  5
4E0
330
1E
100
AcDbEntity
  8
0
100
AcDbLine
 10
134.2998
 20
683.0744999999999
 30
0.0
 11
134.8898
 21
683.0744999999999
 31
0.0
  0
LINE
  5
4E1
330
1E
100
AcDbEntity
  8
0
100
AcDbLine
 10
134.2998
 20
681.0744999999999
 30
0.0
 11
134.8898
 21
681.0744999999999
 31
0.0
  0
LINE
  5
4E2
330
1E
100
AcDbEntity
  8
0
100
AcDbLine
 10
134.2998
 20
676.2744999999999
 30
0.0
 11
134.8898
 21
676.2744999999999
 31
0.0
  0
LINE
  5
4E5
330
1E
100
AcDbEntity
  8
0
100
AcDbLine
 10
134.2998
 20
669.4745
 30
0.0
 11
134.8898
 21
669.4745
 31
0.0
  0
LINE
  5
4E7
330
1E
100
AcDbEntity
  8
0
100
AcDbLine
 10
134.2998
 20
662.6744999999999
 30
0.0
 11
134.8898
 21
662.6744999999999
 31
0.0
  0
LINE
  5
4E9
330
1E
100
AcDbEntity
  8
0
100
AcDbLine
 10
134.5787999999999
 20
661.1744999999999
 30
0.0
 11
134.8898
 21
660.6745
 31
0.0
  0
LINE
  5
4EA
330
1E
100
AcDbEntity
  8
0
100
AcDbLine
 10
134.5787999999999
 20
661.1744999999999
 30
0.0
 11
134.5787999999999
 21
662.1744999999999
 31
0.0
  0
LINE
  5
4EB
330
1E
100
AcDbEntity
  8
0
100
AcDbLine
 10
134.5787999999999
 20
702.9745
 30
0.0
 11
134.8898
 21
703.4745
 31
0.0
  0
LINE
  5
4EC
330
1E
100
AcDbEntity
  8
0
100
AcDbLine
 10
134.5787999999999
 20
702.9745
 30
0.0
 11
134.5787999999999
 21
701.9745
 31
0.0
  0
LINE
  5
4ED
330
1E
100
AcDbEntity
  8
0
100
AcDbLine
 10
134.5787999999999
 20
715.5744999999999
 30
0.0
 11
134.5787999999999
 21
716.5744999999999
 31
0.0
  0
LINE
  5
4EE
330
1E
100
AcDbEntity
  8
0
100
AcDbLine
 10
134.5787999999999
 20
715.5744999999999
 30
0.0
 11
134.8898
 21
715.0744999999999
 31
0.0
  0
LINE
  5
4EF
330
1E
100
AcDbEntity
  8
0
100
AcDbLine
 10
134.5787999999999
 20
716.5744999999999
 30
0.0
 11
134.8898
 21
717.0744999999999
 31
0.0
  0
LINE
  5
4F0
330
1E
100
AcDbEntity
  8
0
100
AcDbLine
 10
134.5787999999999
 20
716.5744999999999
 30
0.0
 11
134.5787999999999
 21
715.5744999999999
 31
0.0
  0
LINE
  5
4F1
330
1E
100
AcDbEntity
  8
0
100
AcDbLine
 10
134.5787999999999
 20
709.7744999999999
 30
0.0
 11
134.5787999999999
 21
708.7744999999999
 31
0.0
  0
LINE
  5
4F2
330
1E
100
AcDbEntity
  8
0
100
AcDbLine
 10
134.5787999999999
 20
709.7744999999999
 30
0.0
 11
134.8898
 21
710.2744999999999
 31
0.0
  0
LINE
  5
4F3
330
1E
100
AcDbEntity
  8
0
100
AcDbLine
 10
134.5787999999999
 20
708.7744999999999
 30
0.0
 11
134.8898
 21
708.2745
 31
0.0
  0
LINE
  5
4F4
330
1E
100
AcDbEntity
  8
0
100
AcDbLine
 10
134.5787999999999
 20
708.7744999999999
 30
0.0
 11
134.5787999999999
 21
709.7744999999999
 31
0.0
  0
LINE
  5
4F5
330
1E
100
AcDbEntity
  8
0
100
AcDbLine
 10
134.5787999999999
 20
701.9745
 30
0.0
 11
134.8898
 21
701.4745
 31
0.0
  0
LINE
  5
4F6
330
1E
100
AcDbEntity
  8
0
100
AcDbLine
 10
134.5787999999999
 20
701.9745
 30
0.0
 11
134.5787999999999
 21
702.9745
 31
0.0
  0
LINE
  5
4F7
330
1E
100
AcDbEntity
  8
0
100
AcDbLine
 10
134.5787999999999
 20
695.1744999999999
 30
0.0
 11
134.8898
 21
694.6744999999999
 31
0.0
  0
LINE
  5
4F8
330
1E
100
AcDbEntity
  8
0
100
AcDbLine
 10
134.5787999999999
 20
695.1744999999999
 30
0.0
 11
134.5787999999999
 21
696.1744999999999
 31
0.0
  0
LINE
  5
4F9
330
1E
100
AcDbEntity
  8
0
100
AcDbLine
 10
134.5787999999999
 20
696.1744999999999
 30
0.0
 11
134.8898
 21
696.6744999999999
 31
0.0
  0
LINE
  5
4FA
330
1E
100
AcDbEntity
  8
0
100
AcDbLine
 10
134.5787999999999
 20
696.1744999999999
 30
0.0
 11
134.5787999999999
 21
695.1744999999999
 31
0.0
  0
LINE
  5
4FB
330
1E
100
AcDbEntity
  8
0
100
AcDbLine
 10
134.5787999999999
 20
689.3745
 30
0.0
 11
134.8898
 21
689.8744999999999
 31
0.0
  0
LINE
  5
4FC
330
1E
100
AcDbEntity
  8
0
100
AcDbLine
 10
134.5787999999999
 20
689.3745
 30
0.0
 11
134.5787999999999
 21
688.3745
 31
0.0
  0
LINE
  5
4FD
330
1E
100
AcDbEntity
  8
0
100
AcDbLine
 10
134.5787999999999
 20
688.3745
 30
0.0
 11
134.8898
 21
687.8745
 31
0.0
  0
LINE
  5
4FE
330
1E
100
AcDbEntity
  8
0
100
AcDbLine
 10
134.5787999999999
 20
688.3745
 30
0.0
 11
134.5787999999999
 21
689.3745
 31
0.0
  0
LINE
  5
4FF
330
1E
100
AcDbEntity
  8
0
100
AcDbLine
 10
134.5787999999999
 20
682.5744999999999
 30
0.0
 11
134.8898
 21
683.0744999999999
 31
0.0
  0
LINE
  5
500
330
1E
100
AcDbEntity
  8
0
100
AcDbLine
 10
134.5787999999999
 20
682.5744999999999
 30
0.0
 11
134.5787999999999
 21
681.5744999999999
 31
0.0
  0
LINE
  5
501
330
1E
100
AcDbEntity
  8
0
100
AcDbLine
 10
134.5787999999999
 20
681.5744999999999
 30
0.0
 11
134.8898
 21
681.0744999999999
 31
0.0
  0
LINE
  5
502
330
1E
100
AcDbEntity
  8
0
100
AcDbLine
 10
134.5787999999999
 20
681.5744999999999
 30
0.0
 11
134.5787999999999
 21
682.5744999999999
 31
0.0
  0
LINE
  5
503
330
1E
100
AcDbEntity
  8
0
100
AcDbLine
 10
134.5787999999999
 20
674.7745
 30
0.0
 11
134.8898
 21
674.2745
 31
0.0
  0
LINE
  5
504
330
1E
100
AcDbEntity
  8
0
100
AcDbLine
 10
134.5787999999999
 20
674.7745
 30
0.0
 11
134.5787999999999
 21
675.7744999999999
 31
0.0
  0
LINE
  5
505
330
1E
100
AcDbEntity
  8
0
100
AcDbLine
 10
134.5787999999999
 20
675.7744999999999
 30
0.0
 11
134.8898
 21
676.2744999999999
 31
0.0
  0
LINE
  5
506
330
1E
100
AcDbEntity
  8
0
100
AcDbLine
 10
134.5787999999999
 20
675.7744999999999
 30
0.0
 11
134.5787999999999
 21
674.7745
 31
0.0
  0
LINE
  5
507
330
1E
100
AcDbEntity
  8
0
100
AcDbLine
 10
134.5787999999999
 20
668.9745
 30
0.0
 11
134.8898
 21
669.4745
 31
0.0
  0
LINE
  5
508
330
1E
100
AcDbEntity
  8
0
100
AcDbLine
 10
134.5787999999999
 20
668.9745
 30
0.0
 11
134.5787999999999
 21
667.9745
 31
0.0
  0
LINE
  5
509
330
1E
100
AcDbEntity
  8
0
100
AcDbLine
 10
134.5787999999999
 20
667.9745
 30
0.0
 11
134.8898
 21
667.4745
 31
0.0
  0
LINE
  5
50A
330
1E
100
AcDbEntity
  8
0
100
AcDbLine
 10
134.5787999999999
 20
667.9745
 30
0.0
 11
134.5787999999999
 21
668.9745
 31
0.0
  0
LINE
  5
50B
330
1E
100
AcDbEntity
  8
0
100
AcDbLine
 10
134.5787999999999
 20
662.1744999999999
 30
0.0
 11
134.8898
 21
662.6744999999999
 31
0.0
  0
LINE
  5
50C
330
1E
100
AcDbEntity
  8
0
100
AcDbLine
 10
134.5787999999999
 20
662.1744999999999
 30
0.0
 11
134.5787999999999
 21
661.1744999999999
 31
0.0
  0
LINE
  5
50D
330
1E
100
AcDbEntity
  8
0
100
AcDbLine
 10
134.2998
 20
655.8745
 30
0.0
 11
134.8898
 21
655.8745
 31
0.0
  0
LINE
  5
50F
330
1E
100
AcDbEntity
  8
0
100
AcDbLine
 10
135.1348
 20
653.8745
 30
0.0
 11
135.5118
 21
653.8745
 31
0.0
  0
LINE
  5
510
330
1E
100
AcDbEntity
  8
0
100
AcDbLine
 10
134.8898
 20
653.8745
 30
0.0
 11
135.5118
 21
653.8745
 31
0.0
  0
LINE
  5
511
330
1E
100
AcDbEntity
  8
0
100
AcDbLine
 10
134.8898
 20
703.4745
 30
0.0
 11
135.5118
 21
703.4745
 31
0.0
  0
LINE
  5
512
330
1E
100
AcDbEntity
  8
0
100
AcDbLine
 10
134.8898
 20
715.0744999999999
 30
0.0
 11
135.5118
 21
715.0744999999999
 31
0.0
  0
LINE
  5
513
330
1E
100
AcDbEntity
  8
0
100
AcDbLine
 10
134.8898
 20
717.0744999999999
 30
0.0
 11
135.5118
 21
717.0744999999999
 31
0.0
  0
LINE
  5
514
330
1E
100
AcDbEntity
  8
0
100
AcDbLine
 10
134.8898
 20
710.2744999999999
 30
0.0
 11
135.5118
 21
710.2744999999999
 31
0.0
  0
LINE
  5
515
330
1E
100
AcDbEntity
  8
0
100
AcDbLine
 10
134.8898
 20
708.2745
 30
0.0
 11
135.5118
 21
708.2745
 31
0.0
  0
LINE
  5
516
330
1E
100
AcDbEntity
  8
0
100
AcDbLine
 10
134.8898
 20
701.4745
 30
0.0
 11
135.5118
 21
701.4745
 31
0.0
  0
LINE
  5
517
330
1E
100
AcDbEntity
  8
0
100
AcDbLine
 10
134.8898
 20
694.6744999999999
 30
0.0
 11
135.5118
 21
694.6744999999999
 31
0.0
  0
LINE
  5
518
330
1E
100
AcDbEntity
  8
0
100
AcDbLine
 10
134.8898
 20
696.6744999999999
 30
0.0
 11
135.5118
 21
696.6744999999999
 31
0.0
  0
LINE
  5
519
330
1E
100
AcDbEntity
  8
0
100
AcDbLine
 10
134.8898
 20
689.8744999999999
 30
0.0
 11
135.5118
 21
689.8744999999999
 31
0.0
  0
LINE
  5
51A
330
1E
100
AcDbEntity
  8
0
100
AcDbLine
 10
134.8898
 20
687.8745
 30
0.0
 11
135.5118
 21
687.8745
 31
0.0
  0
LINE
  5
51B
330
1E
100
AcDbEntity
  8
0
100
AcDbLine
 10
134.8898
 20
683.0744999999999
 30
0.0
 11
135.5118
 21
683.0744999999999
 31
0.0
  0
LINE
  5
51C
330
1E
100
AcDbEntity
  8
0
100
AcDbLine
 10
134.8898
 20
681.0744999999999
 30
0.0
 11
135.5118
 21
681.0744999999999
 31
0.0
  0
LINE
  5
51D
330
1E
100
AcDbEntity
  8
0
100
AcDbLine
 10
134.8898
 20
674.2745
 30
0.0
 11
135.5118
 21
674.2745
 31
0.0
  0
LINE
  5
51E
330
1E
100
AcDbEntity
  8
0
100
AcDbLine
 10
134.8898
 20
676.2744999999999
 30
0.0
 11
135.5118
 21
676.2744999999999
 31
0.0
  0
LINE
  5
51F
330
1E
100
AcDbEntity
  8
0
100
AcDbLine
 10
134.8898
 20
669.4745
 30
0.0
 11
135.5118
 21
669.4745
 31
0.0
  0
LINE
  5
520
330
1E
100
AcDbEntity
  8
0
100
AcDbLine
 10
134.8898
 20
667.4745
 30
0.0
 11
135.5118
 21
667.4745
 31
0.0
  0
LINE
  5
521
330
1E
100
AcDbEntity
  8
0
100
AcDbLine
 10
134.8898
 20
660.6745
 30
0.0
 11
135.5118
 21
660.6745
 31
0.0
  0
LINE
  5
522
330
1E
100
AcDbEntity
  8
0
100
AcDbLine
 10
135.1348
 20
715.0744999999999
 30
0.0
 11
135.5118
 21
715.0744999999999
 31
0.0
  0
LINE
  5
523
330
1E
100
AcDbEntity
  8
0
100
AcDbLine
 10
135.1348
 20
708.2745
 30
0.0
 11
135.5118
 21
708.2745
 31
0.0
  0
LINE
  5
524
330
1E
100
AcDbEntity
  8
0
100
AcDbLine
 10
135.1348
 20
701.4745
 30
0.0
 11
135.5118
 21
701.4745
 31
0.0
  0
LINE
  5
525
330
1E
100
AcDbEntity
  8
0
100
AcDbLine
 10
135.1348
 20
694.6744999999999
 30
0.0
 11
135.5118
 21
694.6744999999999
 31
0.0
  0
LINE
  5
526
330
1E
100
AcDbEntity
  8
0
100
AcDbLine
 10
135.1348
 20
687.8745
 30
0.0
 11
135.5118
 21
687.8745
 31
0.0
  0
LINE
  5
527
330
1E
100
AcDbEntity
  8
0
100
AcDbLine
 10
135.1348
 20
681.0744999999999
 30
0.0
 11
135.5118
 21
681.0744999999999
 31
0.0
  0
LINE
  5
528
330
1E
100
AcDbEntity
  8
0
100
AcDbLine
 10
135.1348
 20
674.2745
 30
0.0
 11
135.5118
 21
674.2745
 31
0.0
  0
LINE
  5
529
330
1E
100
AcDbEntity
  8
0
100
AcDbLine
 10
135.1348
 20
667.4745
 30
0.0
 11
135.5118
 21
667.4745
 31
0.0
  0
LINE
  5
52A
330
1E
100
AcDbEntity
  8
0
100
AcDbLine
 10
135.1348
 20
660.6745
 30
0.0
 11
135.5118
 21
660.6745
 31
0.0
  0
LINE
  5
52B
330
1E
100
AcDbEntity
  8
0
100
AcDbLine
 10
134.8898
 20
662.6744999999999
 30
0.0
 11
135.5118
 21
662.6744999999999
 31
0.0
  0
LINE
  5
52C
330
1E
100
AcDbEntity
  8
0
100
AcDbLine
 10
134.8898
 20
655.8745
 30
0.0
 11
135.5118
 21
655.8745
 31
0.0
  0
LINE
  5
52D
330
1E
100
AcDbEntity
  8
0
100
AcDbLine
 10
134.5787999999999
 20
655.3745
 30
0.0
 11
134.8898
 21
655.8745
 31
0.0
  0
LINE
  5
52E
330
1E
100
AcDbEntity
  8
0
100
AcDbLine
 10
134.5787999999999
 20
655.3745
 30
0.0
 11
134.5787999999999
 21
654.3745
 31
0.0
  0
LINE
  5
52F
330
1E
100
AcDbEntity
  8
0
100
AcDbLine
 10
134.8898
 20
649.0744999999999
 30
0.0
 11
135.5118
 21
649.0744999999999
 31
0.0
  0
LINE
  5
530
330
1E
100
AcDbEntity
  8
0
100
AcDbLine
 10
132.3218
 20
648.5744999999999
 30
0.0
 11
132.3218
 21
647.5744999999999
 31
0.0
  0
LINE
  5
531
330
1E
100
AcDbEntity
  8
0
100
AcDbLine
 10
130.7238
 20
647.5744999999999
 30
0.0
 11
131.1237999999999
 21
647.0744999999999
 31
0.0
  0
LINE
  5
532
330
1E
100
AcDbEntity
  8
0
100
AcDbLine
 10
130.7238
 20
647.5744999999999
 30
0.0
 11
130.7238
 21
648.5744999999999
 31
0.0
  0
LINE
  5
533
330
1E
100
AcDbEntity
  8
0
100
AcDbLine
 10
135.8227999999999
 20
647.5744999999999
 30
0.0
 11
135.8227999999999
 21
648.5744999999999
 31
0.0
  0
LINE
  5
534
330
1E
100
AcDbEntity
  8
0
100
AcDbLine
 10
135.5118
 20
703.4745
 30
0.0
 11
135.8227999999999
 21
702.9745
 31
0.0
  0
LINE
  5
535
330
1E
100
AcDbEntity
  8
0
100
AcDbLine
 10
135.5118
 20
715.0744999999999
 30
0.0
 11
135.8227999999999
 21
715.5744999999999
 31
0.0
  0
LINE
  5
536
330
1E
100
AcDbEntity
  8
0
100
AcDbLine
 10
135.5118
 20
717.0744999999999
 30
0.0
 11
135.8227999999999
 21
716.5744999999999
 31
0.0
  0
LINE
  5
537
330
1E
100
AcDbEntity
  8
0
100
AcDbLine
 10
135.5118
 20
710.2744999999999
 30
0.0
 11
135.8227999999999
 21
709.7744999999999
 31
0.0
  0
LINE
  5
538
330
1E
100
AcDbEntity
  8
0
100
AcDbLine
 10
135.5118
 20
708.2745
 30
0.0
 11
135.8227999999999
 21
708.7744999999999
 31
0.0
  0
LINE
  5
539
330
1E
100
AcDbEntity
  8
0
100
AcDbLine
 10
135.5118
 20
701.4745
 30
0.0
 11
135.8227999999999
 21
701.9745
 31
0.0
  0
LINE
  5
53A
330
1E
100
AcDbEntity
  8
0
100
AcDbLine
 10
135.5118
 20
694.6744999999999
 30
0.0
 11
135.8227999999999
 21
695.1744999999999
 31
0.0
  0
LINE
  5
53B
330
1E
100
AcDbEntity
  8
0
100
AcDbLine
 10
135.5118
 20
696.6744999999999
 30
0.0
 11
135.8227999999999
 21
696.1744999999999
 31
0.0
  0
LINE
  5
53C
330
1E
100
AcDbEntity
  8
0
100
AcDbLine
 10
135.5118
 20
689.8744999999999
 30
0.0
 11
135.8227999999999
 21
689.3745
 31
0.0
  0
LINE
  5
53D
330
1E
100
AcDbEntity
  8
0
100
AcDbLine
 10
135.5118
 20
687.8745
 30
0.0
 11
135.8227999999999
 21
688.3745
 31
0.0
  0
LINE
  5
53E
330
1E
100
AcDbEntity
  8
0
100
AcDbLine
 10
135.5118
 20
683.0744999999999
 30
0.0
 11
135.8227999999999
 21
682.5744999999999
 31
0.0
  0
LINE
  5
53F
330
1E
100
AcDbEntity
  8
0
100
AcDbLine
 10
135.5118
 20
681.0744999999999
 30
0.0
 11
135.8227999999999
 21
681.5744999999999
 31
0.0
  0
LINE
  5
540
330
1E
100
AcDbEntity
  8
0
100
AcDbLine
 10
135.5118
 20
674.2745
 30
0.0
 11
135.8227999999999
 21
674.7745
 31
0.0
  0
LINE
  5
541
330
1E
100
AcDbEntity
  8
0
100
AcDbLine
 10
135.5118
 20
676.2744999999999
 30
0.0
 11
135.8227999999999
 21
675.7744999999999
 31
0.0
  0
LINE
  5
542
330
1E
100
AcDbEntity
  8
0
100
AcDbLine
 10
135.5118
 20
669.4745
 30
0.0
 11
135.8227999999999
 21
668.9745
 31
0.0
  0
LINE
  5
543
330
1E
100
AcDbEntity
  8
0
100
AcDbLine
 10
135.5118
 20
667.4745
 30
0.0
 11
135.8227999999999
 21
667.9745
 31
0.0
  0
LINE
  5
544
330
1E
100
AcDbEntity
  8
0
100
AcDbLine
 10
135.5118
 20
660.6745
 30
0.0
 11
135.8227999999999
 21
661.1744999999999
 31
0.0
  0
LINE
  5
545
330
1E
100
AcDbEntity
  8
0
100
AcDbLine
 10
135.5118
 20
662.6744999999999
 30
0.0
 11
135.8227999999999
 21
662.1744999999999
 31
0.0
  0
LINE
  5
546
330
1E
100
AcDbEntity
  8
0
100
AcDbLine
 10
135.5118
 20
653.8745
 30
0.0
 11
135.8227999999999
 21
654.3745
 31
0.0
  0
LINE
  5
547
330
1E
100
AcDbEntity
  8
0
100
AcDbLine
 10
135.8227999999999
 20
667.9745
 30
0.0
 11
135.8227999999999
 21
668.9745
 31
0.0
  0
LINE
  5
548
330
1E
100
AcDbEntity
  8
0
100
AcDbLine
 10
135.8227999999999
 20
702.9745
 30
0.0
 11
135.8227999999999
 21
701.9745
 31
0.0
  0
LINE
  5
549
330
1E
100
AcDbEntity
  8
0
100
AcDbLine
 10
135.8227999999999
 20
701.9745
 30
0.0
 11
135.8227999999999
 21
702.9745
 31
0.0
  0
LINE
  5
54A
330
1E
100
AcDbEntity
  8
0
100
AcDbLine
 10
135.8227999999999
 20
715.5744999999999
 30
0.0
 11
135.8227999999999
 21
716.5744999999999
 31
0.0
  0
LINE
  5
54B
330
1E
100
AcDbEntity
  8
0
100
AcDbLine
 10
135.8227999999999
 20
716.5744999999999
 30
0.0
 11
135.8227999999999
 21
715.5744999999999
 31
0.0
  0
LINE
  5
54C
330
1E
100
AcDbEntity
  8
0
100
AcDbLine
 10
135.8227999999999
 20
708.7744999999999
 30
0.0
 11
135.8227999999999
 21
709.7744999999999
 31
0.0
  0
LINE
  5
54D
330
1E
100
AcDbEntity
  8
0
100
AcDbLine
 10
135.8227999999999
 20
709.7744999999999
 30
0.0
 11
135.8227999999999
 21
708.7744999999999
 31
0.0
  0
LINE
  5
54E
330
1E
100
AcDbEntity
  8
0
100
AcDbLine
 10
135.8227999999999
 20
696.1744999999999
 30
0.0
 11
135.8227999999999
 21
695.1744999999999
 31
0.0
  0
LINE
  5
54F
330
1E
100
AcDbEntity
  8
0
100
AcDbLine
 10
135.8227999999999
 20
695.1744999999999
 30
0.0
 11
135.8227999999999
 21
696.1744999999999
 31
0.0
  0
LINE
  5
550
330
1E
100
AcDbEntity
  8
0
100
AcDbLine
 10
135.8227999999999
 20
688.3745
 30
0.0
 11
135.8227999999999
 21
689.3745
 31
0.0
  0
LINE
  5
551
330
1E
100
AcDbEntity
  8
0
100
AcDbLine
 10
135.8227999999999
 20
689.3745
 30
0.0
 11
135.8227999999999
 21
688.3745
 31
0.0
  0
LINE
  5
552
330
1E
100
AcDbEntity
  8
0
100
AcDbLine
 10
135.8227999999999
 20
681.5744999999999
 30
0.0
 11
135.8227999999999
 21
682.5744999999999
 31
0.0
  0
LINE
  5
553
330
1E
100
AcDbEntity
  8
0
100
AcDbLine
 10
135.8227999999999
 20
682.5744999999999
 30
0.0
 11
135.8227999999999
 21
681.5744999999999
 31
0.0
  0
LINE
  5
554
330
1E
100
AcDbEntity
  8
0
100
AcDbLine
 10
135.8227999999999
 20
675.7744999999999
 30
0.0
 11
135.8227999999999
 21
674.7745
 31
0.0
  0
LINE
  5
555
330
1E
100
AcDbEntity
  8
0
100
AcDbLine
 10
135.8227999999999
 20
674.7745
 30
0.0
 11
135.8227999999999
 21
675.7744999999999
 31
0.0
  0
LINE
  5
556
330
1E
100
AcDbEntity
  8
0
100
AcDbLine
 10
135.8227999999999
 20
668.9745
 30
0.0
 11
135.8227999999999
 21
667.9745
 31
0.0
  0
LINE
  5
557
330
1E
100
AcDbEntity
  8
0
100
AcDbLine
 10
135.8227999999999
 20
662.1744999999999
 30
0.0
 11
135.8227999999999
 21
661.1744999999999
 31
0.0
  0
LINE
  5
558
330
1E
100
AcDbEntity
  8
0
100
AcDbLine
 10
135.8227999999999
 20
661.1744999999999
 30
0.0
 11
135.8227999999999
 21
662.1744999999999
 31
0.0
  0
LINE
  5
559
330
1E
100
AcDbEntity
  8
0
100
AcDbLine
 10
135.8227999999999
 20
655.3745
 30
0.0
 11
135.8227999999999
 21
654.3745
 31
0.0
  0
LINE
  5
55A
330
1E
100
AcDbEntity
  8
0
100
AcDbLine
 10
135.8227999999999
 20
654.3745
 30
0.0
 11
135.8227999999999
 21
655.3745
 31
0.0
  0
LINE
  5
55B
330
1E
100
AcDbEntity
  8
0
100
AcDbLine
 10
135.5118
 20
655.8745
 30
0.0
 11
135.8227999999999
 21
655.3745
 31
0.0
  0
LINE
  5
55C
330
1E
100
AcDbEntity
  8
0
100
AcDbLine
 10
135.5118
 20
649.0744999999999
 30
0.0
 11
135.8227999999999
 21
648.5744999999999
 31
0.0
  0
LINE
  5
55D
330
1E
100
AcDbEntity
  8
0
100
AcDbLine
 10
135.8227999999999
 20
648.5744999999999
 30
0.0
 11
135.8227999999999
 21
647.5744999999999
 31
0.0
  0
LINE
  5
55E
330
1E
100
AcDbEntity
  8
0
100
AcDbLine
 10
135.5118
 20
647.0744999999999
 30
0.0
 11
135.8227999999999
 21
647.5744999999999
 31
0.0
  0
LINE
  5
55F
330
1E
100
AcDbEntity
  8
0
100
AcDbLine
 10
135.1348
 20
718.5744999999999
 30
0.0
 11
137.0347999999999
 21
718.5744999999999
 31
0.0
  0
LINE
  5
560
330
1E
100
AcDbEntity
  8
0
100
AcDbLine
 10
137.0347999999999
 20
718.5744999999999
 30
0.0
 11
138.2348
 21
718.5744999999999
 31
0.0
  0
LINE
  5
561
330
1E
100
AcDbEntity
  8
0
100
AcDbLine
 10
138.6348
 20
718.5744999999999
 30
0.0
 11
138.6348
 21
565.0744999999999
 31
0.0
  0
LINE
  5
562
330
1E
100
AcDbEntity
  8
0
100
AcDbLine
 10
138.2348
 20
718.5744999999999
 30
0.0
 11
138.6348
 21
718.5744999999999
 31
0.0
  0
LINE
  5
563
330
1E
100
AcDbEntity
  8
0
100
AcDbLine
 10
132.6348
 20
718.5744999999999
 30
0.0
 11
135.1348
 21
718.5744999999999
 31
0.0
  0
LINE
  5
564
330
1E
100
AcDbEntity
  8
0
100
AcDbLine
 10
129.7348
 20
718.5744999999999
 30
0.0
 11
132.6348
 21
718.5744999999999
 31
0.0
  0
LINE
  5
565
330
1E
100
AcDbEntity
  8
0
100
AcDbLine
 10
126.6348
 20
718.5744999999999
 30
0.0
 11
129.7348
 21
718.5744999999999
 31
0.0
  0
LINE
  5
566
330
1E
100
AcDbEntity
  8
0
100
AcDbLine
 10
120.6347999999999
 20
718.5744999999999
 30
0.0
 11
123.5348
 21
718.5744999999999
 31
0.0
  0
LINE
  5
567
330
1E
100
AcDbEntity
  8
0
100
AcDbLine
 10
123.5348
 20
718.5744999999999
 30
0.0
 11
126.6348
 21
718.5744999999999
 31
0.0
  0
LINE
  5
568
330
1E
100
AcDbEntity
  8
0
100
AcDbLine
 10
116.2348
 20
718.5744999999999
 30
0.0
 11
118.1348
 21
718.5744999999999
 31
0.0
  0
LINE
  5
569
330
1E
100
AcDbEntity
  8
0
100
AcDbLine
 10
115.5348
 20
739.0744999999999
 30
0.0
 11
116.6347999999999
 21
739.0744999999999
 31
0.0
  0
LINE
  5
56A
330
1E
100
AcDbEntity
  8
0
100
AcDbLine
 10
115.1348
 20
739.0744999999999
 30
0.0
 11
115.5348
 21
739.0744999999999
 31
0.0
  0
LINE
  5
56B
330
1E
100
AcDbEntity
  8
0
100
AcDbLine
 10
115.0348
 20
738.5745
 30
0.0
 11
116.2348
 21
738.5745
 31
0.0
  0
LINE
  5
56C
330
1E
100
AcDbEntity
  8
0
100
AcDbLine
 10
115.0348
 20
719.5744999999999
 30
0.0
 11
116.2348
 21
719.5744999999999
 31
0.0
  0
LINE
  5
56D
330
1E
100
AcDbEntity
  8
0
100
AcDbLine
 10
118.8347999999999
 20
719.0744999999999
 30
0.0
 11
121.1348
 21
719.0744999999999
 31
0.0
  0
LINE
  5
56E
330
1E
100
AcDbEntity
  8
0
100
AcDbLine
 10
134.4347999999999
 20
719.0744999999999
 30
0.0
 11
136.1348
 21
719.0744999999999
 31
0.0
  0
LINE
  5
56F
330
1E
100
AcDbEntity
  8
0
100
AcDbLine
 10
136.1348
 20
719.0744999999999
 30
0.0
 11
137.2348
 21
719.0744999999999
 31
0.0
  0
LINE
  5
570
330
1E
100
AcDbEntity
  8
0
100
AcDbLine
 10
137.6348
 20
719.0744999999999
 30
0.0
 11
138.6348
 21
718.5744999999999
 31
0.0
  0
LINE
  5
571
330
1E
100
AcDbEntity
  8
0
100
AcDbLine
 10
137.6348
 20
719.0744999999999
 30
0.0
 11
138.6348
 21
719.5744999999999
 31
0.0
  0
LINE
  5
572
330
1E
100
AcDbEntity
  8
0
100
AcDbLine
 10
137.2348
 20
719.0744999999999
 30
0.0
 11
137.6348
 21
719.0744999999999
 31
0.0
  0
LINE
  5
573
330
1E
100
AcDbEntity
  8
0
100
AcDbLine
 10
132.1348
 20
719.0744999999999
 30
0.0
 11
134.4347999999999
 21
719.0744999999999
 31
0.0
  0
LINE
  5
574
330
1E
100
AcDbEntity
  8
0
100
AcDbLine
 10
129.4348
 20
719.0744999999999
 30
0.0
 11
132.1348
 21
719.0744999999999
 31
0.0
  0
LINE
  5
575
330
1E
100
AcDbEntity
  8
0
100
AcDbLine
 10
126.6348
 20
719.0744999999999
 30
0.0
 11
129.4348
 21
719.0744999999999
 31
0.0
  0
LINE
  5
576
330
1E
100
AcDbEntity
  8
0
100
AcDbLine
 10
121.1348
 20
719.0744999999999
 30
0.0
 11
123.8348
 21
719.0744999999999
 31
0.0
  0
LINE
  5
577
330
1E
100
AcDbEntity
  8
0
100
AcDbLine
 10
123.8348
 20
719.0744999999999
 30
0.0
 11
126.6348
 21
719.0744999999999
 31
0.0
  0
LINE
  5
578
330
1E
100
AcDbEntity
  8
0
100
AcDbLine
 10
117.1348
 20
719.0744999999999
 30
0.0
 11
118.8347999999999
 21
719.0744999999999
 31
0.0
  0
LINE
  5
579
330
1E
100
AcDbEntity
  8
0
100
AcDbLine
 10
116.2348
 20
738.5745
 30
0.0
 11
118.1348
 21
738.5745
 31
0.0
  0
LINE
  5
57A
330
1E
100
AcDbEntity
  8
0
100
AcDbLine
 10
118.1348
 20
719.5744999999999
 30
0.0
 11
120.6347999999999
 21
719.5744999999999
 31
0.0
  0
LINE
  5
57B
330
1E
100
AcDbEntity
  8
0
100
AcDbLine
 10
118.1348
 20
738.5745
 30
0.0
 11
120.6347999999999
 21
738.5745
 31
0.0
  0
LINE
  5
57C
330
1E
100
AcDbEntity
  8
0
100
AcDbLine
 10
118.5348
 20
739.0744999999999
 30
0.0
 11
120.9348
 21
739.0744999999999
 31
0.0
  0
LINE
  5
57D
330
1E
100
AcDbEntity
  8
0
100
AcDbLine
 10
120.9348
 20
739.0744999999999
 30
0.0
 11
123.6348
 21
739.0744999999999
 31
0.0
  0
LINE
  5
57E
330
1E
100
AcDbEntity
  8
0
100
AcDbLine
 10
120.6347999999999
 20
738.5745
 30
0.0
 11
123.5348
 21
738.5745
 31
0.0
  0
LINE
  5
57F
330
1E
100
AcDbEntity
  8
0
100
AcDbLine
 10
123.5348
 20
738.5745
 30
0.0
 11
126.6348
 21
738.5745
 31
0.0
  0
LINE
  5
580
330
1E
100
AcDbEntity
  8
0
100
AcDbLine
 10
120.6347999999999
 20
719.5744999999999
 30
0.0
 11
123.5348
 21
719.5744999999999
 31
0.0
  0
LINE
  5
581
330
1E
100
AcDbEntity
  8
0
100
AcDbLine
 10
126.6348
 20
739.0744999999999
 30
0.0
 11
129.6348
 21
739.0744999999999
 31
0.0
  0
LINE
  5
582
330
1E
100
AcDbEntity
  8
0
100
AcDbLine
 10
126.6348
 20
738.5745
 30
0.0
 11
129.7348
 21
738.5745
 31
0.0
  0
LINE
  5
583
330
1E
100
AcDbEntity
  8
0
100
AcDbLine
 10
135.1348
 20
719.5744999999999
 30
0.0
 11
137.0347999999999
 21
719.5744999999999
 31
0.0
  0
LINE
  5
584
330
1E
100
AcDbEntity
  8
0
100
AcDbLine
 10
138.6348
 20
719.5744999999999
 30
0.0
 11
138.6348
 21
738.5745
 31
0.0
  0
LINE
  5
585
330
1E
100
AcDbEntity
  8
0
100
AcDbLine
 10
137.0347999999999
 20
719.5744999999999
 30
0.0
 11
138.2348
 21
719.5744999999999
 31
0.0
  0
LINE
  5
586
330
1E
100
AcDbEntity
  8
0
100
AcDbLine
 10
138.2348
 20
719.5744999999999
 30
0.0
 11
138.6348
 21
719.5744999999999
 31
0.0
  0
LINE
  5
587
330
1E
100
AcDbEntity
  8
0
100
AcDbLine
 10
132.6348
 20
719.5744999999999
 30
0.0
 11
135.1348
 21
719.5744999999999
 31
0.0
  0
LINE
  5
588
330
1E
100
AcDbEntity
  8
0
100
AcDbLine
 10
129.6348
 20
739.0744999999999
 30
0.0
 11
132.3347999999999
 21
739.0744999999999
 31
0.0
  0
LINE
  5
589
330
1E
100
AcDbEntity
  8
0
100
AcDbLine
 10
135.1348
 20
738.5745
 30
0.0
 11
137.0347999999999
 21
738.5745
 31
0.0
  0
LINE
  5
58A
330
1E
100
AcDbEntity
  8
0
100
AcDbLine
 10
137.0347999999999
 20
738.5745
 30
0.0
 11
138.2348
 21
738.5745
 31
0.0
  0
LINE
  5
58B
330
1E
100
AcDbEntity
  8
0
100
AcDbLine
 10
138.6348
 20
738.5745
 30
0.0
 11
138.6348
 21
719.5744999999999
 31
0.0
  0
LINE
  5
58C
330
1E
100
AcDbEntity
  8
0
100
AcDbLine
 10
138.2348
 20
738.5745
 30
0.0
 11
138.6348
 21
738.5745
 31
0.0
  0
LINE
  5
58D
330
1E
100
AcDbEntity
  8
0
100
AcDbLine
 10
134.7347999999999
 20
739.0744999999999
 30
0.0
 11
136.6348
 21
739.0744999999999
 31
0.0
  0
LINE
  5
58E
330
1E
100
AcDbEntity
  8
0
100
AcDbLine
 10
136.6348
 20
739.0744999999999
 30
0.0
 11
137.7348
 21
739.0744999999999
 31
0.0
  0
LINE
  5
58F
330
1E
100
AcDbEntity
  8
0
100
AcDbLine
 10
138.1348
 20
739.0744999999999
 30
0.0
 11
138.6348
 21
738.5745
 31
0.0
  0
LINE
  5
590
330
1E
100
AcDbEntity
  8
0
100
AcDbLine
 10
137.7348
 20
739.0744999999999
 30
0.0
 11
138.1348
 21
739.0744999999999
 31
0.0
  0
LINE
  5
591
330
1E
100
AcDbEntity
  8
0
100
AcDbLine
 10
132.3347999999999
 20
739.0744999999999
 30
0.0
 11
134.7347999999999
 21
739.0744999999999
 31
0.0
  0
LINE
  5
592
330
1E
100
AcDbEntity
  8
0
100
AcDbLine
 10
132.6348
 20
738.5745
 30
0.0
 11
135.1348
 21
738.5745
 31
0.0
  0
LINE
  5
593
330
1E
100
AcDbEntity
  8
0
100
AcDbLine
 10
129.7348
 20
738.5745
 30
0.0
 11
132.6348
 21
738.5745
 31
0.0
  0
LINE
  5
594
330
1E
100
AcDbEntity
  8
0
100
AcDbLine
 10
129.7348
 20
719.5744999999999
 30
0.0
 11
132.6348
 21
719.5744999999999
 31
0.0
  0
LINE
  5
595
330
1E
100
AcDbEntity
  8
0
100
AcDbLine
 10
126.6348
 20
719.5744999999999
 30
0.0
 11
129.7348
 21
719.5744999999999
 31
0.0
  0
LINE
  5
596
330
1E
100
AcDbEntity
  8
0
100
AcDbLine
 10
123.6348
 20
739.0744999999999
 30
0.0
 11
126.6348
 21
739.0744999999999
 31
0.0
  0
LINE
  5
597
330
1E
100
AcDbEntity
  8
0
100
AcDbLine
 10
123.5348
 20
719.5744999999999
 30
0.0
 11
126.6348
 21
719.5744999999999
 31
0.0
  0
LINE
  5
598
330
1E
100
AcDbEntity
  8
0
100
AcDbLine
 10
116.6347999999999
 20
739.0744999999999
 30
0.0
 11
118.5348
 21
739.0744999999999
 31
0.0
  0
LINE
  5
599
330
1E
100
AcDbEntity
  8
0
100
AcDbLine
 10
116.2348
 20
719.5744999999999
 30
0.0
 11
118.1348
 21
719.5744999999999
 31
0.0
  0
LINE
  5
59A
330
1E
100
AcDbEntity
  8
0
100
AcDbLine
 10
116.0348
 20
719.0744999999999
 30
0.0
 11
117.1348
 21
719.0744999999999
 31
0.0
  0
LINE
  5
59B
330
1E
100
AcDbEntity
  8
0
100
AcDbLine
 10
115.6347999999999
 20
719.0744999999999
 30
0.0
 11
116.0348
 21
719.0744999999999
 31
0.0
  0
LINE
  5
59C
330
1E
100
AcDbEntity
  8
0
100
AcDbLine
 10
115.0348
 20
718.5744999999999
 30
0.0
 11
116.2348
 21
718.5744999999999
 31
0.0
  0
LINE
  5
59D
330
1E
100
AcDbEntity
  8
0
100
AcDbLine
 10
114.6347999999999
 20
718.5744999999999
 30
0.0
 11
114.6347999999999
 21
565.0744999999999
 31
0.0
  0
LINE
  5
59E
330
1E
100
AcDbEntity
  8
0
100
AcDbLine
 10
114.6347999999999
 20
718.5744999999999
 30
0.0
 11
115.0348
 21
718.5744999999999
 31
0.0
  0
LINE
  5
59F
330
1E
100
AcDbEntity
  8
0
100
AcDbLine
 10
114.6347999999999
 20
718.5744999999999
 30
0.0
 11
115.6347999999999
 21
719.0744999999999
 31
0.0
  0
LINE
  5
5A0
330
1E
100
AcDbEntity
  8
0
100
AcDbLine
 10
86.86480000000001
 20
626.0745
 30
0.0
 11
114.6347999999999
 21
626.0745
 31
0.0
  0
LINE
  5
5A1
330
1E
100
AcDbEntity
  8
0
100
AcDbLine
 10
86.86480000000001
 20
626.0745
 30
0.0
 11
114.6347999999999
 21
626.0745
 31
0.0
  0
LINE
  5
5A5
330
1E
100
AcDbEntity
  8
0
100
AcDbLine
 10
165.9647999999999
 20
622.9745
 30
0.0
 11
167.4647999999999
 21
621.6744999999999
 31
0.0
  0
LINE
  5
5A6
330
1E
100
AcDbEntity
  8
0
100
AcDbLine
 10
164.3647999999999
 20
624.0744999999999
 30
0.0
 11
165.9647999999999
 21
622.9745
 31
0.0
  0
LINE
  5
5A8
330
1E
100
AcDbEntity
  8
0
100
AcDbLine
 10
160.7648
 20
625.5744999999999
 30
0.0
 11
162.5647999999999
 21
624.8745
 31
0.0
  0
LINE
  5
5A9
330
1E
100
AcDbEntity
  8
0
100
AcDbLine
 10
162.5647999999999
 20
624.8745
 30
0.0
 11
164.3647999999999
 21
624.0744999999999
 31
0.0
  0
LINE
  5
5AA
330
1E
100
AcDbEntity
  8
0
100
AcDbLine
 10
158.8648
 20
625.8745
 30
0.0
 11
160.7648
 21
625.5744999999999
 31
0.0
  0
LINE
  5
5AB
330
1E
100
AcDbEntity
  8
0
100
AcDbLine
 10
167.4647999999999
 20
621.6744999999999
 30
0.0
 11
168.7648
 21
620.1744999999999
 31
0.0
  0
LINE
  5
5AD
330
1E
100
AcDbEntity
  8
0
100
AcDbLine
 10
169.8648
 20
618.5744999999999
 30
0.0
 11
170.6648
 21
616.7745
 31
0.0
  0
LINE
  5
5AE
330
1E
100
AcDbEntity
  8
0
100
AcDbLine
 10
168.7648
 20
620.1744999999999
 30
0.0
 11
169.8648
 21
618.5744999999999
 31
0.0
  0
LINE
  5
5AF
330
1E
100
AcDbEntity
  8
0
100
AcDbLine
 10
170.6648
 20
616.7745
 30
0.0
 11
171.3648
 21
614.9745
 31
0.0
  0
LINE
  5
5B0
330
1E
100
AcDbEntity
  8
0
100
AcDbLine
 10
55.8648
 20
560.9244999999999
 30
0.0
 11
58.8648
 21
560.7245
 31
0.0
  0
LINE
  5
5B2
330
1E
100
AcDbEntity
  8
0
100
AcDbLine
 10
44.56479999999999
 20
561.0644999999999
 30
0.0
 11
46.8648
 21
561.0744999999999
 31
0.0
  0
LINE
  5
5B4
330
1E
100
AcDbEntity
  8
0
100
AcDbLine
 10
41.46479999999999
 20
561.0244999999999
 30
0.0
 11
44.56479999999999
 21
561.0644999999999
 31
0.0
  0
LINE
  5
5B6
330
1E
100
AcDbEntity
  8
0
100
AcDbLine
 10
37.8648
 20
560.9244999999999
 30
0.0
 11
41.46479999999999
 21
561.0244999999999
 31
0.0
  0
LINE
  5
5B8
330
1E
100
AcDbEntity
  8
0
100
AcDbLine
 10
34.8648
 20
560.7245
 30
0.0
 11
37.8648
 21
560.9244999999999
 31
0.0
  0
LINE
  5
5BA
330
1E
100
AcDbEntity
  8
0
100
AcDbLine
 10
32.56479999999999
 20
560.4745
 30
0.0
 11
34.8648
 21
560.7245
 31
0.0
  0
LINE
  5
5BC
330
1E
100
AcDbEntity
  8
0
100
AcDbLine
 10
30.4648
 20
560.0744999999999
 30
0.0
 11
32.56479999999999
 21
560.4745
 31
0.0
  0
LINE
  5
5BE
330
1E
100
AcDbEntity
  8
0
100
AcDbLine
 10
28.5648
 20
559.2744999999999
 30
0.0
 11
30.4648
 21
560.0744999999999
 31
0.0
  0
LINE
  5
5C0
330
1E
100
AcDbEntity
  8
0
100
AcDbLine
 10
26.86479999999999
 20
558.0744999999999
 30
0.0
 11
28.5648
 21
559.2744999999999
 31
0.0
  0
LINE
  5
5C2
330
1E
100
AcDbEntity
  8
0
100
AcDbLine
 10
25.6648
 20
556.3744999999999
 30
0.0
 11
26.86479999999999
 21
558.0744999999999
 31
0.0
  0
LINE
  5
5CE
330
1E
100
AcDbEntity
  8
0
100
AcDbLine
 10
26.4038786439408
 20
484.4145918573099
 30
0.0
 11
25.6764
 21
485.353
 31
0.0
  0
LINE
  5
5CF
330
1E
100
AcDbEntity
  8
0
100
AcDbLine
 10
67.3257213560592
 20
484.4145918573099
 30
0.0
 11
68.0532
 21
485.353
 31
0.0
  0
LINE
  5
5D0
330
1E
100
AcDbEntity
  8
0
100
AcDbLine
 10
36.2608
 20
481.5370338382099
 30
0.0
 11
57.5983056559922
 21
481.546734502838
 31
0.0
  0
LINE
  5
5D1
330
1E
100
AcDbEntity
  8
0
100
AcDbLine
 10
24.4648
 20
552.3744999999999
 30
0.0
 11
24.14488589442408
 21
549.2168239524869
 31
0.0
  0
LINE
  5
5D2
330
1E
100
AcDbEntity
  8
0
100
AcDbLine
 10
24.14488589442408
 20
549.2168239524869
 30
0.0
 11
24.01613431493024
 21
546.9608495705849
 31
0.0
  0
LINE
  5
5D3
330
1E
100
AcDbEntity
  8
0
100
AcDbLine
 10
24.01613431493024
 20
546.9608495705849
 30
0.0
 11
23.8648
 21
498.5469
 31
0.0
  0
LINE
  5
5D4
330
1E
100
AcDbEntity
  8
0
100
AcDbLine
 10
69.26479999999999
 20
552.3744999999999
 30
0.0
 11
69.8648
 21
499.4129
 31
0.0
  0
LINE
  5
5D5
330
1E
100
AcDbEntity
  8
0
100
AcDbLine
 10
112.8648
 20
518.5744999999999
 30
0.0
 11
112.1647999999999
 21
518.8744999999999
 31
0.0
  0
LINE
  5
5D6
330
1E
100
AcDbEntity
  8
0
100
AcDbLine
 10
141.8648
 20
519.5744999999999
 30
0.0
 11
141.5648
 21
518.8744999999999
 31
0.0
  0
LINE
  5
5D7
330
1E
100
AcDbEntity
  8
0
100
AcDbLine
 10
141.5648
 20
518.8744999999999
 30
0.0
 11
140.8648
 21
518.5744999999999
 31
0.0
  0
LINE
  5
5D8
330
1E
100
AcDbEntity
  8
0
100
AcDbLine
 10
171.8647999999999
 20
471.0745
 30
0.0
 11
171.7274091226627
 21
469.123949067299
 31
0.0
  0
LINE
  5
5D9
330
1E
100
AcDbEntity
  8
0
100
AcDbLine
 10
171.7274091226627
 20
469.123949067299
 30
0.0
 11
171.2452000443891
 21
466.9640620662216
 31
0.0
  0
LINE
  5
5DA
330
1E
100
AcDbEntity
  8
0
100
AcDbLine
 10
171.2452000443891
 20
466.9640620662216
 30
0.0
 11
170.6648
 21
465.3744999999999
 31
0.0
  0
LINE
  5
5DB
330
1E
100
AcDbEntity
  8
0
100
AcDbLine
 10
169.8648
 20
463.5745
 30
0.0
 11
168.7648
 21
461.9744999999999
 31
0.0
  0
LINE
  5
5DC
330
1E
100
AcDbEntity
  8
0
100
AcDbLine
 10
162.5647999999999
 20
457.2745
 30
0.0
 11
164.286049167717
 21
458.1117547138401
 31
0.0
  0
LINE
  5
5DD
330
1E
100
AcDbEntity
  8
0
100
AcDbLine
 10
164.286049167717
 20
458.1117547138401
 30
0.0
 11
166.0456529511598
 21
459.3017692939304
 31
0.0
  0
LINE
  5
5DE
330
1E
100
AcDbEntity
  8
0
100
AcDbLine
 10
166.0456529511598
 20
459.3017692939304
 30
0.0
 11
167.4647999999999
 21
460.4745
 31
0.0
  0
ENDSEC
  0
SECTION
  2
OBJECTS
  0
DICTIONARY
  5
C
330
0
100
AcDbDictionary
281
     1
  3
ACAD_GROUP
350
D
  3
ACAD_LAYOUT
350
19
  3
ACAD_MLINESTYLE
350
16
  3
ACAD_PLOTSETTINGS
350
18
  3
ACAD_PLOTSTYLENAME
350
E
  3
AcDbVariableDictionary
350
5E0
  0
DICTIONARY
  5
D
102
{ACAD_REACTORS
330
C
102
}
330
C
100
AcDbDictionary
281
     1
  0
DICTIONARY
  5
19
102
{ACAD_REACTORS
330
C
102
}
330
C
100
AcDbDictionary
281
     1
  3
Layout1
350
1D
  3
Model
350
21
  0
DICTIONARY
  5
16
102
{ACAD_REACTORS
330
C
102
}
330
C
100
AcDbDictionary
281
     1
  3
Standard
350
17
  0
DICTIONARY
  5
18
102
{ACAD_REACTORS
330
C
102
}
330
C
100
AcDbDictionary
281
     1
  0
ACDBDICTIONARYWDFLT
  5
E
102
{ACAD_REACTORS
330
C
102
}
330
C
100
AcDbDictionary
281
     1
  3
Normal
350
F
100
AcDbDictionaryWithDefault
340
F
  0
DICTIONARY
  5
5E0
102
{ACAD_REACTORS
330
C
102
}
330
C
100
AcDbDictionary
281
     1
  3
DIMASSOC
350
5E1
  0
LAYOUT
  5
1D
102
{ACAD_REACTORS
330
19
102
}
330
19
100
AcDbPlotSettings
  1

  2
hp deskjet 980c series
  4

  6

 40
0.0
 41
0.0
 42
0.0
 43
0.0
 44
0.0
 45
0.0
 46
0.0
 47
0.0
 48
0.0
 49
0.0
140
0.0
141
0.0
142
1.0
143
1.0
 70
   688
 72
     0
 73
     0
 74
     5
  7

 75
    16
147
1.0
148
0.0
149
0.0
100
AcDbLayout
  1
Layout1
 70
     1
 71
     1
 10
0.0
 20
0.0
 11
12.0
 21
9.0
 12
0.0
 22
0.0
 32
0.0
 14
1.000000000000000E+20
 24
1.000000000000000E+20
 34
1.000000000000000E+20
 15
-1.000000000000000E+20
 25
-1.000000000000000E+20
 35
-1.000000000000000E+20
146
0.0
 13
0.0
 23
0.0
 33
0.0
 16
1.0
 26
0.0
 36
0.0
 17
0.0
 27
1.0
 37
0.0
 76
     0
330
1A
  0
LAYOUT
  5
21
102
{ACAD_REACTORS
330
19
102
}
330
19
100
AcDbPlotSettings
  1

  2
hp deskjet 980c series
  4

  6

 40
0.0
 41
0.0
 42
0.0
 43
0.0
 44
0.0
 45
0.0
 46
0.0
 47
0.0
 48
0.0
 49
0.0
140
0.0
141
0.0
142
1.0
143
1.0
 70
  1712
 72
     0
 73
     0
 74
     0
  7

 75
     0
147
1.0
148
0.0
149
0.0
100
AcDbLayout
  1
Model
 70
     1
 71
     0
 10
0.0
 20
0.0
 11
12.0
 21
9.0
 12
0.0
 22
0.0
 32
0.0
 14
0.0
 24
0.0
 34
0.0
 15
0.0
 25
0.0
 35
0.0
146
0.0
 13
0.0
 23
0.0
 33
0.0
 16
1.0
 26
0.0
 36
0.0
 17
0.0
 27
1.0
 37
0.0
 76
     0
330
1E
  0
MLINESTYLE
  5
17
102
{ACAD_REACTORS
330
16
102
}
330
16
100
AcDbMlineStyle
  2
STANDARD
 70
     0
  3

 62
   256
 51
90.0
 52
90.0
 71
     2
 49
0.5
 62
   256
  6
BYLAYER
 49
-0.5
 62
   256
  6
BYLAYER
  0
ACDBPLACEHOLDER
  5
F
102
{ACAD_REACTORS
330
E
102
}
330
E
  0
DICTIONARYVAR
  5
5E1
102
{ACAD_REACTORS
330
5E0
102
}
330
5E0
100
DictionaryVariables
280
     0
  1
1
  0
ENDSEC
  0
EOF
