  0
SECTION
  2
HEADER
  9
$ACADVER
  1
AC1015
  9
$ACADMAINTVER
 70
    13
  9
$DWGCODEPAGE
  3
ANSI_1252
  9
$INSBASE
 10
0.0
 20
0.0
 30
0.0
  9
$EXTMIN
 10
0.0442000000000111
 20
0.0000224999999914
 30
0.0
  9
$EXTMAX
 10
237.9558
 20
190.9999774999999
 30
0.0
  9
$LIMMIN
 10
0.0
 20
0.0
  9
$LIMMAX
 10
12.0
 20
9.0
  9
$ORTHOMODE
 70
     0
  9
$REGENMODE
 70
     1
  9
$FILLMODE
 70
     1
  9
$QTEXTMODE
 70
     0
  9
$MIRRTEXT
 70
     1
  9
$LTSCALE
 40
1.0
  9
$ATTMODE
 70
     1
  9
$TEXTSIZE
 40
0.2
  9
$TRACEWID
 40
0.05
  9
$TEXTSTYLE
  7
Standard
  9
$CLAYER
  8
0
  9
$CELTYPE
  6
Continuous
  9
$CECOLOR
 62
   256
  9
$CELTSCALE
 40
1.0
  9
$DISPSILH
 70
     0
  9
$DIMSCALE
 40
1.0
  9
$DIMASZ
 40
0.18
  9
$DIMEXO
 40
0.0625
  9
$DIMDLI
 40
0.38
  9
$DIMRND
 40
0.0
  9
$DIMDLE
 40
0.0
  9
$DIMEXE
 40
0.18
  9
$DIMTP
 40
0.0
  9
$DIMTM
 40
0.0
  9
$DIMTXT
 40
0.18
  9
$DIMCEN
 40
0.09
  9
$DIMTSZ
 40
0.0
  9
$DIMTOL
 70
     0
  9
$DIMLIM
 70
     0
  9
$DIMTIH
 70
     1
  9
$DIMTOH
 70
     1
  9
$DIMSE1
 70
     0
  9
$DIMSE2
 70
     0
  9
$DIMTAD
 70
     0
  9
$DIMZIN
 70
     0
  9
$DIMBLK
  1

  9
$DIMASO
 70
     1
  9
$DIMSHO
 70
     1
  9
$DIMPOST
  1

  9
$DIMAPOST
  1

  9
$DIMALT
 70
     0
  9
$DIMALTD
 70
     2
  9
$DIMALTF
 40
25.4
  9
$DIMLFAC
 40
1.0
  9
$DIMTOFL
 70
     0
  9
$DIMTVP
 40
0.0
  9
$DIMTIX
 70
     0
  9
$DIMSOXD
 70
     0
  9
$DIMSAH
 70
     0
  9
$DIMBLK1
  1

  9
$DIMBLK2
  1

  9
$DIMSTYLE
  2
Standard
  9
$DIMCLRD
 70
     0
  9
$DIMCLRE
 70
     0
  9
$DIMCLRT
 70
     0
  9
$DIMTFAC
 40
1.0
  9
$DIMGAP
 40
0.09
  9
$DIMJUST
 70
     0
  9
$DIMSD1
 70
     0
  9
$DIMSD2
 70
     0
  9
$DIMTOLJ
 70
     1
  9
$DIMTZIN
 70
     0
  9
$DIMALTZ
 70
     0
  9
$DIMALTTZ
 70
     0
  9
$DIMUPT
 70
     0
  9
$DIMDEC
 70
     4
  9
$DIMTDEC
 70
     4
  9
$DIMALTU
 70
     2
  9
$DIMALTTD
 70
     2
  9
$DIMTXSTY
  7
Standard
  9
$DIMAUNIT
 70
     0
  9
$DIMADEC
 70
     0
  9
$DIMALTRND
 40
0.0
  9
$DIMAZIN
 70
     0
  9
$DIMDSEP
 70
    46
  9
$DIMATFIT
 70
     3
  9
$DIMFRAC
 70
     0
  9
$DIMLDRBLK
  1

  9
$DIMLUNIT
 70
     2
  9
$DIMLWD
 70
    -2
  9
$DIMLWE
 70
    -2
  9
$DIMTMOVE
 70
     0
  9
$LUNITS
 70
     2
  9
$LUPREC
 70
     4
  9
$SKETCHINC
 40
0.1
  9
$FILLETRAD
 40
0.0
  9
$AUNITS
 70
     0
  9
$AUPREC
 70
     0
  9
$MENU
  1
.
  9
$ELEVATION
 40
0.0
  9
$PELEVATION
 40
0.0
  9
$THICKNESS
 40
0.0
  9
$LIMCHECK
 70
     0
  9
$CHAMFERA
 40
0.0
  9
$CHAMFERB
 40
0.0
  9
$CHAMFERC
 40
0.0
  9
$CHAMFERD
 40
0.0
  9
$SKPOLY
 70
     0
  9
$TDCREATE
 40
2454994.935213391
  9
$TDUCREATE
 40
2454994.851880058
  9
$TDUPDATE
 40
2454994.937366169
  9
$TDUUPDATE
 40
2454994.854032835
  9
$TDINDWG
 40
0.0021527778
  9
$TDUSRTIMER
 40
0.0021527778
  9
$USRTIMER
 70
     1
  9
$ANGBASE
 50
0.0
  9
$ANGDIR
 70
     0
  9
$PDMODE
 70
     0
  9
$PDSIZE
 40
0.0
  9
$PLINEWID
 40
0.0
  9
$SPLFRAME
 70
     0
  9
$SPLINETYPE
 70
     6
  9
$SPLINESEGS
 70
     8
  9
$HANDSEED
  5
AA8
  9
$SURFTAB1
 70
     6
  9
$SURFTAB2
 70
     6
  9
$SURFTYPE
 70
     6
  9
$SURFU
 70
     6
  9
$SURFV
 70
     6
  9
$UCSBASE
  2

  9
$UCSNAME
  2

  9
$UCSORG
 10
0.0
 20
0.0
 30
0.0
  9
$UCSXDIR
 10
1.0
 20
0.0
 30
0.0
  9
$UCSYDIR
 10
0.0
 20
1.0
 30
0.0
  9
$UCSORTHOREF
  2

  9
$UCSORTHOVIEW
 70
     1
  9
$UCSORGTOP
 10
0.0
 20
0.0
 30
0.0
  9
$UCSORGBOTTOM
 10
0.0
 20
0.0
 30
0.0
  9
$UCSORGLEFT
 10
0.0
 20
0.0
 30
0.0
  9
$UCSORGRIGHT
 10
0.0
 20
0.0
 30
0.0
  9
$UCSORGFRONT
 10
0.0
 20
0.0
 30
0.0
  9
$UCSORGBACK
 10
0.0
 20
0.0
 30
0.0
  9
$PUCSBASE
  2

  9
$PUCSNAME
  2

  9
$PUCSORG
 10
0.0
 20
0.0
 30
0.0
  9
$PUCSXDIR
 10
1.0
 20
0.0
 30
0.0
  9
$PUCSYDIR
 10
0.0
 20
1.0
 30
0.0
  9
$PUCSORTHOREF
  2

  9
$PUCSORTHOVIEW
 70
     0
  9
$PUCSORGTOP
 10
0.0
 20
0.0
 30
0.0
  9
$PUCSORGBOTTOM
 10
0.0
 20
0.0
 30
0.0
  9
$PUCSORGLEFT
 10
0.0
 20
0.0
 30
0.0
  9
$PUCSORGRIGHT
 10
0.0
 20
0.0
 30
0.0
  9
$PUCSORGFRONT
 10
0.0
 20
0.0
 30
0.0
  9
$PUCSORGBACK
 10
0.0
 20
0.0
 30
0.0
  9
$USERI1
 70
     0
  9
$USERI2
 70
     0
  9
$USERI3
 70
     0
  9
$USERI4
 70
     0
  9
$USERI5
 70
     0
  9
$USERR1
 40
0.0
  9
$USERR2
 40
0.0
  9
$USERR3
 40
0.0
  9
$USERR4
 40
0.0
  9
$USERR5
 40
0.0
  9
$WORLDVIEW
 70
     1
  9
$SHADEDGE
 70
     3
  9
$SHADEDIF
 70
    70
  9
$TILEMODE
 70
     1
  9
$MAXACTVP
 70
    64
  9
$PINSBASE
 10
0.0
 20
0.0
 30
0.0
  9
$PLIMCHECK
 70
     0
  9
$PEXTMIN
 10
1.000000000000000E+20
 20
1.000000000000000E+20
 30
1.000000000000000E+20
  9
$PEXTMAX
 10
-1.000000000000000E+20
 20
-1.000000000000000E+20
 30
-1.000000000000000E+20
  9
$PLIMMIN
 10
0.0
 20
0.0
  9
$PLIMMAX
 10
12.0
 20
9.0
  9
$UNITMODE
 70
     0
  9
$VISRETAIN
 70
     1
  9
$PLINEGEN
 70
     0
  9
$PSLTSCALE
 70
     1
  9
$TREEDEPTH
 70
  3020
  9
$CMLSTYLE
  2
Standard
  9
$CMLJUST
 70
     0
  9
$CMLSCALE
 40
1.0
  9
$PROXYGRAPHICS
 70
     1
  9
$MEASUREMENT
 70
     0
  9
$CELWEIGHT
370
    -1
  9
$ENDCAPS
280
     0
  9
$JOINSTYLE
280
     0
  9
$LWDISPLAY
290
     0
  9
$INSUNITS
 70
     0
  9
$HYPERLINKBASE
  1

  9
$STYLESHEET
  1

  9
$XEDIT
290
     1
  9
$CEPSNTYPE
380
     0
  9
$PSTYLEMODE
290
     1
  9
$FINGERPRINTGUID
  2
{617049D9-97D1-4D29-9768-B65003002535}
  9
$VERSIONGUID
  2
{9009D250-7BB7-4E7E-9801-CB4D184C3D25}
  9
$EXTNAMES
290
     1
  9
$PSVPSCALE
 40
0.0
  9
$OLESTARTUP
290
     0
  0
ENDSEC
  0
SECTION
  2
CLASSES
  0
CLASS
  1
ACDBDICTIONARYWDFLT
  2
AcDbDictionaryWithDefault
  3
AutoCAD 2000
 90
        0
280
     0
281
     0
  0
CLASS
  1
ACDBPLACEHOLDER
  2
AcDbPlaceHolder
  3
AutoCAD 2000
 90
        0
280
     0
281
     0
  0
CLASS
  1
LAYOUT
  2
AcDbLayout
  3
AutoCAD 2000
 90
        0
280
     0
281
     0
  0
CLASS
  1
DICTIONARYVAR
  2
AcDbDictionaryVar
  3
AutoCAD 2000
 90
        0
280
     0
281
     0
  0
ENDSEC
  0
SECTION
  2
TABLES
  0
TABLE
  2
VPORT
  5
8
330
0
100
AcDbSymbolTable
 70
     4
  0
VPORT
  5
AA7
330
8
100
AcDbSymbolTableRecord
100
AcDbViewportTableRecord
  2
*Active
 70
     0
 10
0.0
 20
0.0
 11
1.0
 21
1.0
 12
119.0
 22
95.49999999999998
 13
0.0
 23
0.0
 14
1.0
 24
1.0
 15
0.0
 25
0.0
 16
0.0
 26
0.0
 36
1.0
 17
0.0
 27
0.0
 37
0.0
 40
192.2062705052631
 41
1.968387776606954
 42
50.0
 43
0.0
 44
0.0
 50
0.0
 51
0.0
 71
     0
 72
   100
 73
     1
 74
     3
 75
     0
 76
     0
 77
     0
 78
     0
281
     0
 65
     1
110
0.0
120
0.0
130
0.0
111
1.0
121
0.0
131
0.0
112
0.0
122
1.0
132
0.0
 79
     1
146
0.0
  0
ENDTAB
  0
TABLE
  2
LTYPE
  5
5
330
0
100
AcDbSymbolTable
 70
     1
  0
LTYPE
  5
13
330
5
100
AcDbSymbolTableRecord
100
AcDbLinetypeTableRecord
  2
ByBlock
 70
     0
  3

 72
    65
 73
     0
 40
0.0
  0
LTYPE
  5
14
330
5
100
AcDbSymbolTableRecord
100
AcDbLinetypeTableRecord
  2
ByLayer
 70
     0
  3

 72
    65
 73
     0
 40
0.0
  0
LTYPE
  5
15
330
5
100
AcDbSymbolTableRecord
100
AcDbLinetypeTableRecord
  2
Continuous
 70
     0
  3
Solid line
 72
    65
 73
     0
 40
0.0
  0
ENDTAB
  0
TABLE
  2
LAYER
  5
2
330
0
100
AcDbSymbolTable
 70
     1
  0
LAYER
  5
10
330
2
100
AcDbSymbolTableRecord
100
AcDbLayerTableRecord
  2
0
 70
     0
 62
     7
  6
Continuous
370
    -3
390
F
  0
ENDTAB
  0
TABLE
  2
STYLE
  5
3
330
0
100
AcDbSymbolTable
 70
     1
  0
STYLE
  5
11
330
3
100
AcDbSymbolTableRecord
100
AcDbTextStyleTableRecord
  2
Standard
 70
     0
 40
0.0
 41
1.0
 50
0.0
 71
     0
 42
0.2
  3
txt
  4

  0
ENDTAB
  0
TABLE
  2
VIEW
  5
6
330
0
100
AcDbSymbolTable
 70
     0
  0
ENDTAB
  0
TABLE
  2
UCS
  5
7
330
0
100
AcDbSymbolTable
 70
     0
  0
ENDTAB
  0
TABLE
  2
APPID
  5
9
330
0
100
AcDbSymbolTable
 70
     1
  0
APPID
  5
12
330
9
100
AcDbSymbolTableRecord
100
AcDbRegAppTableRecord
  2
ACAD
 70
     0
  0
ENDTAB
  0
TABLE
  2
DIMSTYLE
  5
A
330
0
100
AcDbSymbolTable
 70
     1
100
AcDbDimStyleTable
 71
     0
  0
DIMSTYLE
105
578
330
A
100
AcDbSymbolTableRecord
100
AcDbDimStyleTableRecord
  2
Standard
 70
     0
340
11
  0
ENDTAB
  0
TABLE
  2
BLOCK_RECORD
  5
1
330
0
100
AcDbSymbolTable
 70
     1
  0
BLOCK_RECORD
  5
1E
330
1
100
AcDbSymbolTableRecord
100
AcDbBlockTableRecord
  2
*Model_Space
340
21
  0
BLOCK_RECORD
  5
1A
330
1
100
AcDbSymbolTableRecord
100
AcDbBlockTableRecord
  2
*Paper_Space
340
1D
  0
ENDTAB
  0
ENDSEC
  0
SECTION
  2
BLOCKS
  0
BLOCK
  5
1F
330
1E
100
AcDbEntity
  8
0
100
AcDbBlockBegin
  2
*Model_Space
 70
     0
 10
0.0
 20
0.0
 30
0.0
  3
*Model_Space
  1

  0
ENDBLK
  5
20
330
1E
100
AcDbEntity
  8
0
100
AcDbBlockEnd
  0
BLOCK
  5
1B
330
1A
100
AcDbEntity
 67
     1
  8
0
100
AcDbBlockBegin
  2
*Paper_Space
 70
     0
 10
0.0
 20
0.0
 30
0.0
  3
*Paper_Space
  1

  0
ENDBLK
  5
1C
330
1A
100
AcDbEntity
 67
     1
  8
0
100
AcDbBlockEnd
  0
ENDSEC
  0
SECTION
  2
ENTITIES
  0
LINE
  5
23
330
1E
100
AcDbEntity
  8
0
100
AcDbLine
 10
23.8648
 20
85.18277750000001
 30
0.0
 11
23.8648
 21
86.7999775
 31
0.0
  0
LINE
  5
24
330
1E
100
AcDbEntity
  8
0
100
AcDbLine
 10
23.8648
 20
85.18277750000001
 30
0.0
 11
23.8648
 21
94.9999775
 31
0.0
  0
LINE
  5
25
330
1E
100
AcDbEntity
  8
0
100
AcDbLine
 10
0.7372000000000111
 20
132.8879774999999
 30
0.0
 11
2.532396000000009
 21
135.3729774999999
 31
0.0
  0
LINE
  5
26
330
1E
100
AcDbEntity
  8
0
100
AcDbLine
 10
0.139700000000011
 20
129.7989774999999
 30
0.0
 11
0.7372000000000111
 21
132.8879774999999
 31
0.0
  0
LINE
  5
27
330
1E
100
AcDbEntity
  8
0
100
AcDbLine
 10
0.644300000000011
 20
125.2029775
 30
0.0
 11
2.348196000000009
 21
122.7099774999999
 31
0.0
  0
LINE
  5
28
330
1E
100
AcDbEntity
  8
0
100
AcDbLine
 10
0.0442000000000111
 20
128.2969774999999
 30
0.0
 11
0.644300000000011
 21
125.2029775
 31
0.0
  0
LINE
  5
29
330
1E
100
AcDbEntity
  8
0
100
AcDbLine
 10
0.0442000000000111
 20
128.2969774999999
 30
0.0
 11
0.139700000000011
 21
129.7989774999999
 31
0.0
  0
LINE
  5
2A
330
1E
100
AcDbEntity
  8
0
100
AcDbLine
 10
1.86480000000001
 20
177.9999775
 30
0.0
 11
1.86480000000001
 21
190.9999774999999
 31
0.0
  0
LINE
  5
2B
330
1E
100
AcDbEntity
  8
0
100
AcDbLine
 10
2.532396000000009
 20
135.3729774999999
 30
0.0
 11
5.026400000000009
 21
137.1559774999999
 31
0.0
  0
LINE
  5
2C
330
1E
100
AcDbEntity
  8
0
100
AcDbLine
 10
2.348196000000009
 20
122.7099774999999
 30
0.0
 11
4.846300000000009
 21
120.9639774999999
 31
0.0
  0
LINE
  5
2F
330
1E
100
AcDbEntity
  8
0
100
AcDbLine
 10
5.026400000000009
 20
137.1559774999999
 30
0.0
 11
7.504100000000009
 21
138.6329774999999
 31
0.0
  0
LINE
  5
30
330
1E
100
AcDbEntity
  8
0
100
AcDbLine
 10
4.846300000000009
 20
120.9639774999999
 30
0.0
 11
7.374100000000009
 21
119.1959774999999
 31
0.0
  0
LINE
  5
31
330
1E
100
AcDbEntity
  8
0
100
AcDbLine
 10
7.504100000000009
 20
138.6329774999999
 30
0.0
 11
12.8637
 21
140.3139774999999
 31
0.0
  0
LINE
  5
32
330
1E
100
AcDbEntity
  8
0
100
AcDbLine
 10
7.374100000000009
 20
119.1959774999999
 30
0.0
 11
12.174
 21
117.4469774999999
 31
0.0
  0
LINE
  5
33
330
1E
100
AcDbEntity
  8
0
100
AcDbLine
 10
6.964800000000009
 20
176.9999775
 30
0.0
 11
8.364800000000009
 21
176.9999775
 31
0.0
  0
LINE
  5
34
330
1E
100
AcDbEntity
  8
0
100
AcDbLine
 10
8.364800000000009
 20
176.9999775
 30
0.0
 11
9.864800000000009
 21
176.9999775
 31
0.0
  0
LINE
  5
35
330
1E
100
AcDbEntity
  8
0
100
AcDbLine
 10
12.8637
 20
140.3139774999999
 30
0.0
 11
20.6374
 21
142.0069774999999
 31
0.0
  0
LINE
  5
36
330
1E
100
AcDbEntity
  8
0
100
AcDbLine
 10
11.21969999999999
 20
122.3709774999999
 30
0.0
 11
13.5716
 21
123.8169775
 31
0.0
  0
LINE
  5
37
330
1E
100
AcDbEntity
  8
0
100
AcDbLine
 10
12.174
 20
117.4469774999999
 30
0.0
 11
20.9718
 21
115.6869775
 31
0.0
  0
LINE
  5
38
330
1E
100
AcDbEntity
  8
0
100
AcDbLine
 10
9.864800000000009
 20
176.9999775
 30
0.0
 11
11.56479999999999
 21
176.9999775
 31
0.0
  0
LINE
  5
39
330
1E
100
AcDbEntity
  8
0
100
AcDbLine
 10
11.56479999999999
 20
176.9999775
 30
0.0
 11
13.2648
 21
176.9999775
 31
0.0
  0
LINE
  5
3A
330
1E
100
AcDbEntity
  8
0
100
AcDbLine
 10
13.5716
 20
123.8169775
 30
0.0
 11
18.7926
 21
125.4539775
 31
0.0
  0
LINE
  5
3B
330
1E
100
AcDbEntity
  8
0
100
AcDbLine
 10
13.2648
 20
176.9999775
 30
0.0
 11
15.06479999999999
 21
176.9999775
 31
0.0
  0
LINE
  5
3C
330
1E
100
AcDbEntity
  8
0
100
AcDbLine
 10
15.06479999999999
 20
176.9999775
 30
0.0
 11
16.86479999999999
 21
176.9999775
 31
0.0
  0
LINE
  5
3D
330
1E
100
AcDbEntity
  8
0
100
AcDbLine
 10
20.6374
 20
142.0069774999999
 30
0.0
 11
23.3603
 21
142.5099774999999
 31
0.0
  0
LINE
  5
3E
330
1E
100
AcDbEntity
  8
0
100
AcDbLine
 10
18.7926
 20
125.4539775
 30
0.0
 11
23.8648
 21
126.558402067423
 31
0.0
  0
LINE
  5
3F
330
1E
100
AcDbEntity
  8
0
100
AcDbLine
 10
23.3603
 20
142.5099774999999
 30
0.0
 11
23.8648
 21
142.581715857625
 31
0.0
  0
LINE
  5
40
330
1E
100
AcDbEntity
  8
0
100
AcDbLine
 10
23.3669
 20
126.5559775
 30
0.0
 11
23.8648
 21
126.626688564099
 31
0.0
  0
LINE
  5
41
330
1E
100
AcDbEntity
  8
0
100
AcDbLine
 10
23.66359999999999
 20
115.1899774999999
 30
0.0
 11
23.8648
 21
115.158503736973
 31
0.0
  0
LINE
  5
42
330
1E
100
AcDbEntity
  8
0
100
AcDbLine
 10
20.9718
 20
115.6869775
 30
0.0
 11
23.66359999999999
 21
115.1899774999999
 31
0.0
  0
LINE
  5
43
330
1E
100
AcDbEntity
  8
0
100
AcDbLine
 10
16.86479999999999
 20
176.9999775
 30
0.0
 11
23.8648
 21
176.9999775
 31
0.0
  0
LINE
  5
44
330
1E
100
AcDbEntity
  8
0
100
AcDbLine
 10
16.86479999999999
 20
176.9999775
 30
0.0
 11
23.8648
 21
176.9999775
 31
0.0
  0
LINE
  5
45
330
1E
100
AcDbEntity
  8
0
100
AcDbLine
 10
5.764800000000009
 20
176.9999775
 30
0.0
 11
6.964800000000009
 21
176.9999775
 31
0.0
  0
LINE
  5
46
330
1E
100
AcDbEntity
  8
0
100
AcDbLine
 10
4.764800000000009
 20
176.9999775
 30
0.0
 11
5.764800000000009
 21
176.9999775
 31
0.0
  0
LINE
  5
47
330
1E
100
AcDbEntity
  8
0
100
AcDbLine
 10
3.964800000000009
 20
176.9999775
 30
0.0
 11
4.764800000000009
 21
176.9999775
 31
0.0
  0
LINE
  5
48
330
1E
100
AcDbEntity
  8
0
100
AcDbLine
 10
3.364800000000009
 20
176.9999775
 30
0.0
 11
3.964800000000009
 21
176.9999775
 31
0.0
  0
LINE
  5
54
330
1E
100
AcDbEntity
  8
0
100
AcDbLine
 10
2.964800000000009
 20
176.9999775
 30
0.0
 11
3.364800000000009
 21
176.9999775
 31
0.0
  0
LINE
  5
55
330
1E
100
AcDbEntity
  8
0
100
AcDbLine
 10
2.864800000000009
 20
176.9999775
 30
0.0
 11
2.964800000000009
 21
176.9999775
 31
0.0
  0
LINE
  5
56
330
1E
100
AcDbEntity
  8
0
100
AcDbLine
 10
6.264800000000009
 20
190.9999774999999
 30
0.0
 11
7.764800000000009
 21
190.9999774999999
 31
0.0
  0
LINE
  5
57
330
1E
100
AcDbEntity
  8
0
100
AcDbLine
 10
7.764800000000009
 20
190.9999774999999
 30
0.0
 11
9.364800000000009
 21
190.9999774999999
 31
0.0
  0
LINE
  5
58
330
1E
100
AcDbEntity
  8
0
100
AcDbLine
 10
9.364800000000009
 20
190.9999774999999
 30
0.0
 11
11.16479999999999
 21
190.9999774999999
 31
0.0
  0
LINE
  5
59
330
1E
100
AcDbEntity
  8
0
100
AcDbLine
 10
11.16479999999999
 20
190.9999774999999
 30
0.0
 11
12.9648
 21
190.9999774999999
 31
0.0
  0
LINE
  5
5A
330
1E
100
AcDbEntity
  8
0
100
AcDbLine
 10
12.9648
 20
190.9999774999999
 30
0.0
 11
14.8648
 21
190.9999774999999
 31
0.0
  0
LINE
  5
5B
330
1E
100
AcDbEntity
  8
0
100
AcDbLine
 10
16.86479999999999
 20
190.9999774999999
 30
0.0
 11
86.86480000000001
 21
190.9999774999999
 31
0.0
  0
LINE
  5
5C
330
1E
100
AcDbEntity
  8
0
100
AcDbLine
 10
14.8648
 20
190.9999774999999
 30
0.0
 11
16.86479999999999
 21
190.9999774999999
 31
0.0
  0
LINE
  5
5D
330
1E
100
AcDbEntity
  8
0
100
AcDbLine
 10
16.86479999999999
 20
190.9999774999999
 30
0.0
 11
86.86480000000001
 21
190.9999774999999
 31
0.0
  0
LINE
  5
5E
330
1E
100
AcDbEntity
  8
0
100
AcDbLine
 10
4.964800000000009
 20
190.9999774999999
 30
0.0
 11
6.264800000000009
 21
190.9999774999999
 31
0.0
  0
LINE
  5
5F
330
1E
100
AcDbEntity
  8
0
100
AcDbLine
 10
3.864800000000009
 20
190.9999774999999
 30
0.0
 11
4.964800000000009
 21
190.9999774999999
 31
0.0
  0
LINE
  5
60
330
1E
100
AcDbEntity
  8
0
100
AcDbLine
 10
3.064800000000009
 20
190.9999774999999
 30
0.0
 11
3.864800000000009
 21
190.9999774999999
 31
0.0
  0
LINE
  5
C1
330
1E
100
AcDbEntity
  8
0
100
AcDbLine
 10
2.36480000000001
 20
190.9999774999999
 30
0.0
 11
3.064800000000009
 21
190.9999774999999
 31
0.0
  0
LINE
  5
C2
330
1E
100
AcDbEntity
  8
0
100
AcDbLine
 10
2.06480000000001
 20
190.9999774999999
 30
0.0
 11
2.36480000000001
 21
190.9999774999999
 31
0.0
  0
LINE
  5
C3
330
1E
100
AcDbEntity
  8
0
100
AcDbLine
 10
2.16480000000001
 20
177.2999774999999
 30
0.0
 11
2.864800000000009
 21
176.9999775
 31
0.0
  0
LINE
  5
C5
330
1E
100
AcDbEntity
  8
0
100
AcDbLine
 10
1.86480000000001
 20
190.9999774999999
 30
0.0
 11
2.06480000000001
 21
190.9999774999999
 31
0.0
  0
LINE
  5
C6
330
1E
100
AcDbEntity
  8
0
100
AcDbLine
 10
1.86480000000001
 20
190.9999774999999
 30
0.0
 11
1.86480000000001
 21
177.9999775
 31
0.0
  0
LINE
  5
C7
330
1E
100
AcDbEntity
  8
0
100
AcDbLine
 10
23.8648
 20
94.9999775
 30
0.0
 11
23.8648
 21
90.6888775
 31
0.0
  0
LINE
  5
C8
330
1E
100
AcDbEntity
  8
0
100
AcDbLine
 10
23.8648
 20
94.9999775
 30
0.0
 11
23.8648
 21
85.18277750000001
 31
0.0
  0
LINE
  5
C9
330
1E
100
AcDbEntity
  8
0
100
AcDbLine
 10
23.8648
 20
90.6888775
 30
0.0
 11
23.8648
 21
86.94737749999999
 31
0.0
  0
LINE
  5
CA
330
1E
100
AcDbEntity
  8
0
100
AcDbLine
 10
23.8648
 20
90.6888775
 30
0.0
 11
23.8648
 21
94.9999775
 31
0.0
  0
LINE
  5
CC
330
1E
100
AcDbEntity
  8
0
100
AcDbLine
 10
23.8648
 20
86.94737749999999
 30
0.0
 11
23.8648
 21
90.6888775
 31
0.0
  0
LINE
  5
CD
330
1E
100
AcDbEntity
  8
0
100
AcDbLine
 10
23.8648
 20
176.9999775
 30
0.0
 11
23.8648
 21
86.7999775
 31
0.0
  0
LINE
  5
CE
330
1E
100
AcDbEntity
  8
0
100
AcDbLine
 10
23.8648
 20
86.7999775
 30
0.0
 11
23.8648
 21
176.9999775
 31
0.0
  0
LINE
  5
CF
330
1E
100
AcDbEntity
  8
0
100
AcDbLine
 10
23.8648
 20
86.7999775
 30
0.0
 11
23.8648
 21
85.18277750000001
 31
0.0
  0
LINE
  5
D2
330
1E
100
AcDbEntity
  8
0
100
AcDbLine
 10
23.8648
 20
20.8747775
 30
0.0
 11
23.8748
 21
18.88297749999999
 31
0.0
  0
LINE
  5
D3
330
1E
100
AcDbEntity
  8
0
100
AcDbLine
 10
23.8748
 20
18.88297749999999
 30
0.0
 11
23.9148
 21
16.19827749999999
 31
0.0
  0
LINE
  5
D4
330
1E
100
AcDbEntity
  8
0
100
AcDbLine
 10
23.9148
 20
16.19827749999999
 30
0.0
 11
24.0148
 21
13.08057749999999
 31
0.0
  0
LINE
  5
D5
330
1E
100
AcDbEntity
  8
0
100
AcDbLine
 10
24.0148
 20
13.08057749999999
 30
0.0
 11
24.2148
 21
10.4824775
 31
0.0
  0
LINE
  5
D7
330
1E
100
AcDbEntity
  8
0
100
AcDbLine
 10
30.4648
 20
1.822267499999989
 30
0.0
 11
30.7648
 21
1.732077499999989
 31
0.0
  0
LINE
  5
D8
330
1E
100
AcDbEntity
  8
0
100
AcDbLine
 10
37.7929
 20
0.5040524999999921
 30
0.0
 11
41.4107
 21
0.198027499999991
 31
0.0
  0
LINE
  5
D9
330
1E
100
AcDbEntity
  8
0
100
AcDbLine
 10
46.8648
 20
0.0000224999999914
 30
0.0
 11
49.1634
 21
0.0685554999999914
 31
0.0
  0
LINE
  5
DA
330
1E
100
AcDbEntity
  8
0
100
AcDbLine
 10
46.8648
 20
0.0000224999999914
 30
0.0
 11
49.1634
 21
0.0685554999999914
 31
0.0
  0
LINE
  5
DB
330
1E
100
AcDbEntity
  8
0
100
AcDbLine
 10
49.1634
 20
0.0685554999999914
 30
0.0
 11
52.31889999999999
 21
0.198027499999991
 31
0.0
  0
LINE
  5
DC
330
1E
100
AcDbEntity
  8
0
100
AcDbLine
 10
52.31889999999999
 20
0.198027499999991
 30
0.0
 11
55.9367
 21
0.5040524999999921
 31
0.0
  0
LINE
  5
DD
330
1E
100
AcDbEntity
  8
0
100
AcDbLine
 10
52.31889999999999
 20
0.198027499999991
 30
0.0
 11
55.9367
 21
0.5040524999999921
 31
0.0
  0
LINE
  5
DE
330
1E
100
AcDbEntity
  8
0
100
AcDbLine
 10
55.9367
 20
0.5040524999999921
 30
0.0
 11
58.72489999999999
 21
0.8806984999999921
 31
0.0
  0
LINE
  5
DF
330
1E
100
AcDbEntity
  8
0
100
AcDbLine
 10
44.5662
 20
0.0685554999999914
 30
0.0
 11
46.8648
 21
0.0000224999999914
 31
0.0
  0
LINE
  5
E0
330
1E
100
AcDbEntity
  8
0
100
AcDbLine
 10
44.5662
 20
0.0685554999999914
 30
0.0
 11
46.8648
 21
0.0000224999999914
 31
0.0
  0
LINE
  5
E1
330
1E
100
AcDbEntity
  8
0
100
AcDbLine
 10
41.4107
 20
0.198027499999991
 30
0.0
 11
44.5662
 21
0.0685554999999914
 31
0.0
  0
LINE
  5
E2
330
1E
100
AcDbEntity
  8
0
100
AcDbLine
 10
58.72489999999999
 20
0.8806984999999921
 30
0.0
 11
60.9963
 21
1.280887499999989
 31
0.0
  0
LINE
  5
E3
330
1E
100
AcDbEntity
  8
0
100
AcDbLine
 10
60.9963
 20
1.280887499999989
 30
0.0
 11
62.96479999999999
 21
1.732077499999989
 31
0.0
  0
LINE
  5
E4
330
1E
100
AcDbEntity
  8
0
100
AcDbLine
 10
37.7929
 20
0.5040524999999921
 30
0.0
 11
41.4107
 21
0.198027499999991
 31
0.0
  0
LINE
  5
E5
330
1E
100
AcDbEntity
  8
0
100
AcDbLine
 10
35.00469999999999
 20
0.8806984999999921
 30
0.0
 11
37.7929
 21
0.5040524999999921
 31
0.0
  0
LINE
  5
E7
330
1E
100
AcDbEntity
  8
0
100
AcDbLine
 10
62.96479999999999
 20
1.732077499999989
 30
0.0
 11
63.2648
 21
1.822267499999989
 31
0.0
  0
LINE
  5
E9
330
1E
100
AcDbEntity
  8
0
100
AcDbLine
 10
63.2648
 20
1.822267499999989
 30
0.0
 11
65.1648
 21
2.51508749999999
 31
0.0
  0
LINE
  5
EA
330
1E
100
AcDbEntity
  8
0
100
AcDbLine
 10
32.7333
 20
1.280887499999989
 30
0.0
 11
35.00469999999999
 21
0.8806984999999921
 31
0.0
  0
LINE
  5
EB
330
1E
100
AcDbEntity
  8
0
100
AcDbLine
 10
30.7648
 20
1.732077499999989
 30
0.0
 11
32.7333
 21
1.280887499999989
 31
0.0
  0
LINE
  5
EC
330
1E
100
AcDbEntity
  8
0
100
AcDbLine
 10
66.8648
 20
3.55431749999999
 30
0.0
 11
68.0648
 21
5.02655749999999
 31
0.0
  0
LINE
  5
EE
330
1E
100
AcDbEntity
  8
0
100
AcDbLine
 10
65.1648
 20
2.51508749999999
 30
0.0
 11
66.8648
 21
3.55431749999999
 31
0.0
  0
LINE
  5
F0
330
1E
100
AcDbEntity
  8
0
100
AcDbLine
 10
28.5648
 20
2.51508749999999
 30
0.0
 11
30.4648
 21
1.822267499999989
 31
0.0
  0
LINE
  5
F5
330
1E
100
AcDbEntity
  8
0
100
AcDbLine
 10
24.2148
 20
10.4824775
 30
0.0
 11
24.4648
 21
8.49065749999999
 31
0.0
  0
LINE
  5
F8
330
1E
100
AcDbEntity
  8
0
100
AcDbLine
 10
24.4648
 20
8.49065749999999
 30
0.0
 11
24.8648
 21
6.67200749999999
 31
0.0
  0
LINE
  5
F9
330
1E
100
AcDbEntity
  8
0
100
AcDbLine
 10
24.8648
 20
6.67200749999999
 30
0.0
 11
25.6648
 21
5.02655749999999
 31
0.0
  0
LINE
  5
FC
330
1E
100
AcDbEntity
  8
0
100
AcDbLine
 10
69.5148
 20
10.4824775
 30
0.0
 11
69.71479999999999
 21
13.08057749999999
 31
0.0
  0
LINE
  5
FD
330
1E
100
AcDbEntity
  8
0
100
AcDbLine
 10
69.26479999999999
 20
8.49065749999999
 30
0.0
 11
69.5148
 21
10.4824775
 31
0.0
  0
LINE
  5
FF
330
1E
100
AcDbEntity
  8
0
100
AcDbLine
 10
68.8648
 20
6.67200749999999
 30
0.0
 11
69.26479999999999
 21
8.49065749999999
 31
0.0
  0
LINE
  5
101
330
1E
100
AcDbEntity
  8
0
100
AcDbLine
 10
68.0648
 20
5.02655749999999
 30
0.0
 11
68.8648
 21
6.67200749999999
 31
0.0
  0
LINE
  5
102
330
1E
100
AcDbEntity
  8
0
100
AcDbLine
 10
69.85479999999999
 20
18.88297749999999
 30
0.0
 11
69.8648
 21
20.8747775
 31
0.0
  0
LINE
  5
104
330
1E
100
AcDbEntity
  8
0
100
AcDbLine
 10
69.81480000000001
 20
16.19827749999999
 30
0.0
 11
69.85479999999999
 21
18.88297749999999
 31
0.0
  0
LINE
  5
106
330
1E
100
AcDbEntity
  8
0
100
AcDbLine
 10
69.71479999999999
 20
13.08057749999999
 30
0.0
 11
69.81480000000001
 21
16.19827749999999
 31
0.0
  0
LINE
  5
10D
330
1E
100
AcDbEntity
  8
0
100
AcDbLine
 10
25.6648
 20
5.02655749999999
 30
0.0
 11
26.86479999999999
 21
3.55431749999999
 31
0.0
  0
LINE
  5
10E
330
1E
100
AcDbEntity
  8
0
100
AcDbLine
 10
26.86479999999999
 20
3.55431749999999
 30
0.0
 11
28.5648
 21
2.51508749999999
 31
0.0
  0
LINE
  5
113
330
1E
100
AcDbEntity
  8
0
100
AcDbLine
 10
24.16479999999999
 20
85.97417749999999
 30
0.0
 11
24.25069999999999
 21
87.2441775
 31
0.0
  0
LINE
  5
117
330
1E
100
AcDbEntity
  8
0
100
AcDbLine
 10
24.25069999999999
 20
87.2441775
 30
0.0
 11
24.3409
 21
88.4905775
 31
0.0
  0
LINE
  5
118
330
1E
100
AcDbEntity
  8
0
100
AcDbLine
 10
24.3409
 20
88.4905775
 30
0.0
 11
24.5148
 21
89.07857750000001
 31
0.0
  0
LINE
  5
119
330
1E
100
AcDbEntity
  8
0
100
AcDbLine
 10
24.5148
 20
89.07857750000001
 30
0.0
 11
24.7648
 21
89.2999775
 31
0.0
  0
LINE
  5
11A
330
1E
100
AcDbEntity
  8
0
100
AcDbLine
 10
24.7648
 20
89.2999775
 30
0.0
 11
25.1648
 21
89.2999775
 31
0.0
  0
LINE
  5
11B
330
1E
100
AcDbEntity
  8
0
100
AcDbLine
 10
49.1561
 20
89.2999775
 30
0.0
 11
52.2416
 21
89.2999775
 31
0.0
  0
LINE
  5
11C
330
1E
100
AcDbEntity
  8
0
100
AcDbLine
 10
52.2416
 20
89.2999775
 30
0.0
 11
55.7963
 21
89.2999775
 31
0.0
  0
LINE
  5
11D
330
1E
100
AcDbEntity
  8
0
100
AcDbLine
 10
55.7963
 20
89.2999775
 30
0.0
 11
58.5648
 21
89.2999775
 31
0.0
  0
LINE
  5
11E
330
1E
100
AcDbEntity
  8
0
100
AcDbLine
 10
58.5648
 20
89.2999775
 30
0.0
 11
60.8648
 21
89.2999775
 31
0.0
  0
LINE
  5
11F
330
1E
100
AcDbEntity
  8
0
100
AcDbLine
 10
60.8648
 20
89.2999775
 30
0.0
 11
62.96479999999999
 21
89.2999775
 31
0.0
  0
LINE
  5
125
330
1E
100
AcDbEntity
  8
0
100
AcDbLine
 10
69.8648
 20
85.18277750000001
 30
0.0
 11
69.8648
 21
86.7999775
 31
0.0
  0
LINE
  5
126
330
1E
100
AcDbEntity
  8
0
100
AcDbLine
 10
69.8648
 20
86.7999775
 30
0.0
 11
69.8648
 21
85.18277750000001
 31
0.0
  0
LINE
  5
127
330
1E
100
AcDbEntity
  8
0
100
AcDbLine
 10
69.8648
 20
86.7999775
 30
0.0
 11
69.8648
 21
176.9999775
 31
0.0
  0
LINE
  5
12A
330
1E
100
AcDbEntity
  8
0
100
AcDbLine
 10
69.4789
 20
87.2441775
 30
0.0
 11
69.5648
 21
85.97417749999999
 31
0.0
  0
LINE
  5
12B
330
1E
100
AcDbEntity
  8
0
100
AcDbLine
 10
69.3887
 20
88.4905775
 30
0.0
 11
69.4789
 21
87.2441775
 31
0.0
  0
LINE
  5
12C
330
1E
100
AcDbEntity
  8
0
100
AcDbLine
 10
69.21479999999999
 20
89.07857750000001
 30
0.0
 11
69.3887
 21
88.4905775
 31
0.0
  0
LINE
  5
12D
330
1E
100
AcDbEntity
  8
0
100
AcDbLine
 10
68.9648
 20
89.2999775
 30
0.0
 11
69.21479999999999
 21
89.07857750000001
 31
0.0
  0
LINE
  5
12E
330
1E
100
AcDbEntity
  8
0
100
AcDbLine
 10
68.56480000000001
 20
89.2999775
 30
0.0
 11
68.9648
 21
89.2999775
 31
0.0
  0
LINE
  5
12F
330
1E
100
AcDbEntity
  8
0
100
AcDbLine
 10
67.76479999999999
 20
89.2999775
 30
0.0
 11
68.56480000000001
 21
89.2999775
 31
0.0
  0
LINE
  5
130
330
1E
100
AcDbEntity
  8
0
100
AcDbLine
 10
66.56480000000001
 20
89.2999775
 30
0.0
 11
67.76479999999999
 21
89.2999775
 31
0.0
  0
LINE
  5
131
330
1E
100
AcDbEntity
  8
0
100
AcDbLine
 10
62.96479999999999
 20
89.2999775
 30
0.0
 11
64.8648
 21
89.2999775
 31
0.0
  0
LINE
  5
132
330
1E
100
AcDbEntity
  8
0
100
AcDbLine
 10
64.8648
 20
89.2999775
 30
0.0
 11
66.56480000000001
 21
89.2999775
 31
0.0
  0
LINE
  5
133
330
1E
100
AcDbEntity
  8
0
100
AcDbLine
 10
46.8648
 20
89.2999775
 30
0.0
 11
49.1561
 21
89.2999775
 31
0.0
  0
LINE
  5
135
330
1E
100
AcDbEntity
  8
0
100
AcDbLine
 10
44.5735
 20
89.2999775
 30
0.0
 11
46.8648
 21
89.2999775
 31
0.0
  0
LINE
  5
136
330
1E
100
AcDbEntity
  8
0
100
AcDbLine
 10
41.488
 20
89.2999775
 30
0.0
 11
44.5735
 21
89.2999775
 31
0.0
  0
LINE
  5
137
330
1E
100
AcDbEntity
  8
0
100
AcDbLine
 10
37.9333
 20
89.2999775
 30
0.0
 11
41.488
 21
89.2999775
 31
0.0
  0
LINE
  5
138
330
1E
100
AcDbEntity
  8
0
100
AcDbLine
 10
35.1648
 20
89.2999775
 30
0.0
 11
37.9333
 21
89.2999775
 31
0.0
  0
LINE
  5
139
330
1E
100
AcDbEntity
  8
0
100
AcDbLine
 10
32.8648
 20
89.2999775
 30
0.0
 11
35.1648
 21
89.2999775
 31
0.0
  0
LINE
  5
13A
330
1E
100
AcDbEntity
  8
0
100
AcDbLine
 10
30.7648
 20
89.2999775
 30
0.0
 11
32.8648
 21
89.2999775
 31
0.0
  0
LINE
  5
13B
330
1E
100
AcDbEntity
  8
0
100
AcDbLine
 10
28.8648
 20
89.2999775
 30
0.0
 11
30.7648
 21
89.2999775
 31
0.0
  0
LINE
  5
13C
330
1E
100
AcDbEntity
  8
0
100
AcDbLine
 10
27.1648
 20
89.2999775
 30
0.0
 11
28.8648
 21
89.2999775
 31
0.0
  0
LINE
  5
13D
330
1E
100
AcDbEntity
  8
0
100
AcDbLine
 10
25.1648
 20
89.2999775
 30
0.0
 11
25.9648
 21
89.2999775
 31
0.0
  0
LINE
  5
1D4
330
1E
100
AcDbEntity
  8
0
100
AcDbLine
 10
69.8648
 20
144.3735640919079
 30
0.0
 11
84.47560000000001
 21
144.4669774999999
 31
0.0
  0
LINE
  5
1D5
330
1E
100
AcDbEntity
  8
0
100
AcDbLine
 10
69.8648
 20
128.4182290399039
 30
0.0
 11
84.48159999999999
 21
128.5119775
 31
0.0
  0
LINE
  5
1D6
330
1E
100
AcDbEntity
  8
0
100
AcDbLine
 10
69.8648
 20
126.822280342578
 30
0.0
 11
83.3216
 21
126.2309775
 31
0.0
  0
LINE
  5
1D7
330
1E
100
AcDbEntity
  8
0
100
AcDbLine
 10
69.8648
 20
110.867322795356
 30
0.0
 11
83.3276
 21
110.2749774999999
 31
0.0
  0
LINE
  5
1D8
330
1E
100
AcDbEntity
  8
0
100
AcDbLine
 10
83.3216
 20
126.2309775
 30
0.0
 11
104.2557999999999
 21
125.6489774999999
 31
0.0
  0
LINE
  5
1D9
330
1E
100
AcDbEntity
  8
0
100
AcDbLine
 10
84.47560000000001
 20
144.4669774999999
 30
0.0
 11
94.9496
 21
145.9229775
 31
0.0
  0
LINE
  5
1DA
330
1E
100
AcDbEntity
  8
0
100
AcDbLine
 10
84.48159999999999
 20
128.5119775
 30
0.0
 11
94.95459999999999
 21
129.9679774999999
 31
0.0
  0
LINE
  5
1DB
330
1E
100
AcDbEntity
  8
0
100
AcDbLine
 10
83.3276
 20
110.2749774999999
 30
0.0
 11
104.2628
 21
109.6939774999999
 31
0.0
  0
LINE
  5
1DC
330
1E
100
AcDbEntity
  8
0
100
AcDbLine
 10
86.86480000000001
 20
176.9999775
 30
0.0
 11
111.8648
 21
176.9999775
 31
0.0
  0
LINE
  5
1DD
330
1E
100
AcDbEntity
  8
0
100
AcDbLine
 10
104.2628
 20
109.6939774999999
 30
0.0
 11
119.7208
 21
109.4979774999999
 31
0.0
  0
LINE
  5
1DE
330
1E
100
AcDbEntity
  8
0
100
AcDbLine
 10
112.0497999999999
 20
117.7309774999999
 30
0.0
 11
112.6028
 21
115.4519774999999
 31
0.0
  0
LINE
  5
1DF
330
1E
100
AcDbEntity
  8
0
100
AcDbLine
 10
112.6028
 20
115.4519774999999
 30
0.0
 11
113.5597999999999
 21
113.1059774999999
 31
0.0
  0
LINE
  5
1E0
330
1E
100
AcDbEntity
  8
0
100
AcDbLine
 10
113.5597999999999
 20
113.1059774999999
 30
0.0
 11
114.7998
 21
111.5359774999999
 31
0.0
  0
LINE
  5
1E1
330
1E
100
AcDbEntity
  8
0
100
AcDbLine
 10
114.7998
 20
111.5359774999999
 30
0.0
 11
115.8648
 21
110.570626622807
 31
0.0
  0
LINE
  5
1E2
330
1E
100
AcDbEntity
  8
0
100
AcDbLine
 10
122.5457999999999
 20
108.1509774999999
 30
0.0
 11
122.768500210748
 21
108.7170670679659
 31
0.0
  0
LINE
  5
1E3
330
1E
100
AcDbEntity
  8
0
100
AcDbLine
 10
121.3467999999999
 20
108.6099774999999
 30
0.0
 11
122.1457999999999
 21
108.3039774999999
 31
0.0
  0
LINE
  5
1E4
330
1E
100
AcDbEntity
  8
0
100
AcDbLine
 10
121.3467999999999
 20
108.6099774999999
 30
0.0
 11
121.582974957635
 21
109.207629241668
 31
0.0
  0
LINE
  5
1E5
330
1E
100
AcDbEntity
  8
0
100
AcDbLine
 10
122.1457999999999
 20
108.3039774999999
 30
0.0
 11
122.5457999999999
 21
108.1509774999999
 31
0.0
  0
LINE
  5
1E6
330
1E
100
AcDbEntity
  8
0
100
AcDbLine
 10
122.1457999999999
 20
108.3039774999999
 30
0.0
 11
122.3733643996389
 21
108.880571541529
 31
0.0
  0
LINE
  5
1E7
330
1E
100
AcDbEntity
  8
0
100
AcDbLine
 10
123.5348
 20
108.3999774999999
 30
0.0
 11
126.6348
 21
107.9999774999999
 31
0.0
  0
LINE
  5
1E8
330
1E
100
AcDbEntity
  8
0
100
AcDbLine
 10
119.7208
 20
109.4979774999999
 30
0.0
 11
121.0246108849089
 21
109.4386764441749
 31
0.0
  0
LINE
  5
1E9
330
1E
100
AcDbEntity
  8
0
100
AcDbLine
 10
115.8648
 20
109.9999774999999
 30
0.0
 11
115.8648
 21
110.5499774999999
 31
0.0
  0
LINE
  5
1EA
330
1E
100
AcDbEntity
  8
0
100
AcDbLine
 10
115.8648
 20
109.9999774999999
 30
0.0
 11
117.8648
 21
109.9999774999999
 31
0.0
  0
LINE
  5
1EB
330
1E
100
AcDbEntity
  8
0
100
AcDbLine
 10
118.6908
 20
110.3299774999999
 30
0.0
 11
119.106279178444
 21
110.7616533243829
 31
0.0
  0
LINE
  5
1EC
330
1E
100
AcDbEntity
  8
0
100
AcDbLine
 10
117.8648
 20
109.9999774999999
 30
0.0
 11
117.8648
 21
110.5499774999999
 31
0.0
  0
LINE
  5
1ED
330
1E
100
AcDbEntity
  8
0
100
AcDbLine
 10
118.3798
 20
110.6199774999999
 30
0.0
 11
118.6908
 21
110.3299774999999
 31
0.0
  0
LINE
  5
1EE
330
1E
100
AcDbEntity
  8
0
100
AcDbLine
 10
118.3798
 20
110.6199774999999
 30
0.0
 11
118.7654623327679
 21
111.0206741270959
 31
0.0
  0
LINE
  5
1EF
330
1E
100
AcDbEntity
  8
0
100
AcDbLine
 10
117.8648
 20
110.5499774999999
 30
0.0
 11
117.8648
 21
109.9999774999999
 31
0.0
  0
LINE
  5
1F0
330
1E
100
AcDbEntity
  8
0
100
AcDbLine
 10
117.8648
 20
110.5499774999999
 30
0.0
 11
117.8648
 21
111.101030554662
 31
0.0
  0
LINE
  5
1F1
330
1E
100
AcDbEntity
  8
0
100
AcDbLine
 10
115.8648
 20
110.5499774999999
 30
0.0
 11
115.8648
 21
111.9999774999999
 31
0.0
  0
LINE
  5
1F2
330
1E
100
AcDbEntity
  8
0
100
AcDbLine
 10
115.8648
 20
110.5499774999999
 30
0.0
 11
117.8648
 21
110.5499774999999
 31
0.0
  0
LINE
  5
1F3
330
1E
100
AcDbEntity
  8
0
100
AcDbLine
 10
115.8648
 20
110.5499774999999
 30
0.0
 11
115.8648
 21
109.9999774999999
 31
0.0
  0
LINE
  5
1F4
330
1E
100
AcDbEntity
  8
0
100
AcDbLine
 10
120.6347999999999
 20
109.5999774999999
 30
0.0
 11
123.5348
 21
108.3999774999999
 31
0.0
  0
LINE
  5
1F5
330
1E
100
AcDbEntity
  8
0
100
AcDbLine
 10
120.9478
 20
108.7629774999999
 30
0.0
 11
121.3467999999999
 21
108.6099774999999
 31
0.0
  0
LINE
  5
1F6
330
1E
100
AcDbEntity
  8
0
100
AcDbLine
 10
120.9478
 20
108.7629774999999
 30
0.0
 11
121.187421369099
 21
109.3713065886489
 31
0.0
  0
LINE
  5
1F7
330
1E
100
AcDbEntity
  8
0
100
AcDbLine
 10
121.1348
 20
110.4999774999999
 30
0.0
 11
123.8348
 21
109.3999774999999
 31
0.0
  0
LINE
  5
1F8
330
1E
100
AcDbEntity
  8
0
100
AcDbLine
 10
121.3812906862409
 20
110.399555368569
 30
0.0
 11
125.7268
 21
117.9259775
 31
0.0
  0
LINE
  5
1F9
330
1E
100
AcDbEntity
  8
0
100
AcDbLine
 10
120.9428457456539
 20
110.641856731473
 30
0.0
 11
122.185397839561
 21
112.793956958119
 31
0.0
  0
LINE
  5
1FA
330
1E
100
AcDbEntity
  8
0
100
AcDbLine
 10
120.9428457456539
 20
110.641856731473
 30
0.0
 11
125.2928
 21
118.1759774999999
 31
0.0
  0
LINE
  5
1FB
330
1E
100
AcDbEntity
  8
0
100
AcDbLine
 10
120.9348
 20
109.9999774999999
 30
0.0
 11
123.6348
 21
108.8999775
 31
0.0
  0
LINE
  5
1FC
330
1E
100
AcDbEntity
  8
0
100
AcDbLine
 10
120.6347999999999
 20
109.5999774999999
 30
0.0
 11
121.187421369099
 21
109.3713065886489
 31
0.0
  0
LINE
  5
1FD
330
1E
100
AcDbEntity
  8
0
100
AcDbLine
 10
122.768500210748
 20
108.7170670679659
 30
0.0
 11
123.5348
 21
108.3999774999999
 31
0.0
  0
LINE
  5
1FE
330
1E
100
AcDbEntity
  8
0
100
AcDbLine
 10
127.4917999999999
 20
107.4999774999999
 30
0.0
 11
127.4917999999999
 21
108.1105581451609
 31
0.0
  0
LINE
  5
1FF
330
1E
100
AcDbEntity
  8
0
100
AcDbLine
 10
127.0637999999999
 20
107.4999774999999
 30
0.0
 11
127.4917999999999
 21
107.4999774999999
 31
0.0
  0
LINE
  5
200
330
1E
100
AcDbEntity
  8
0
100
AcDbLine
 10
127.0637999999999
 20
107.4999774999999
 30
0.0
 11
127.0637999999999
 21
108.05533233871
 31
0.0
  0
LINE
  5
201
330
1E
100
AcDbEntity
  8
0
100
AcDbLine
 10
126.2057999999999
 20
107.4999774999999
 30
0.0
 11
127.0637999999999
 21
107.4999774999999
 31
0.0
  0
LINE
  5
202
330
1E
100
AcDbEntity
  8
0
100
AcDbLine
 10
126.2057999999999
 20
107.4999774999999
 30
0.0
 11
126.2057999999999
 21
108.05533233871
 31
0.0
  0
LINE
  5
203
330
1E
100
AcDbEntity
  8
0
100
AcDbLine
 10
125.7778
 20
107.4999774999999
 30
0.0
 11
126.2057999999999
 21
107.4999774999999
 31
0.0
  0
LINE
  5
204
330
1E
100
AcDbEntity
  8
0
100
AcDbLine
 10
125.7778
 20
107.4999774999999
 30
0.0
 11
125.7778
 21
108.1105581451609
 31
0.0
  0
LINE
  5
205
330
1E
100
AcDbEntity
  8
0
100
AcDbLine
 10
126.2057999999999
 20
108.05533233871
 30
0.0
 11
126.2057999999999
 21
107.4999774999999
 31
0.0
  0
LINE
  5
206
330
1E
100
AcDbEntity
  8
0
100
AcDbLine
 10
125.7778
 20
108.1105581451609
 30
0.0
 11
125.7778
 21
107.4999774999999
 31
0.0
  0
LINE
  5
207
330
1E
100
AcDbEntity
  8
0
100
AcDbLine
 10
127.0637999999999
 20
108.05533233871
 30
0.0
 11
127.0637999999999
 21
107.4999774999999
 31
0.0
  0
LINE
  5
208
330
1E
100
AcDbEntity
  8
0
100
AcDbLine
 10
127.4917999999999
 20
108.1105581451609
 30
0.0
 11
127.4917999999999
 21
107.4999774999999
 31
0.0
  0
LINE
  5
209
330
1E
100
AcDbEntity
  8
0
100
AcDbLine
 10
126.6348
 20
108.4999774999999
 30
0.0
 11
129.6348
 21
108.8999775
 31
0.0
  0
LINE
  5
20A
330
1E
100
AcDbEntity
  8
0
100
AcDbLine
 10
126.6348
 20
107.9999774999999
 30
0.0
 11
129.7348
 21
108.3999774999999
 31
0.0
  0
LINE
  5
20B
330
1E
100
AcDbEntity
  8
0
100
AcDbLine
 10
131.1237999999999
 20
108.3039774999999
 30
0.0
 11
131.9228
 21
108.6099774999999
 31
0.0
  0
LINE
  5
20C
330
1E
100
AcDbEntity
  8
0
100
AcDbLine
 10
130.7238
 20
108.1509774999999
 30
0.0
 11
131.1237999999999
 21
108.3039774999999
 31
0.0
  0
LINE
  5
20D
330
1E
100
AcDbEntity
  8
0
100
AcDbLine
 10
129.6348
 20
108.8999775
 30
0.0
 11
132.3347999999999
 21
109.9999774999999
 31
0.0
  0
LINE
  5
20E
330
1E
100
AcDbEntity
  8
0
100
AcDbLine
 10
131.9228
 20
108.6099774999999
 30
0.0
 11
132.3218
 21
108.7629774999999
 31
0.0
  0
LINE
  5
20F
330
1E
100
AcDbEntity
  8
0
100
AcDbLine
 10
130.5010997892519
 20
108.7170670679659
 30
0.0
 11
130.7238
 21
108.1509774999999
 31
0.0
  0
LINE
  5
210
330
1E
100
AcDbEntity
  8
0
100
AcDbLine
 10
155.0708
 20
108.6549774999999
 30
0.0
 11
173.0787999999999
 21
108.5169774999999
 31
0.0
  0
LINE
  5
211
330
1E
100
AcDbEntity
  8
0
100
AcDbLine
 10
130.8962356003609
 20
108.880571541529
 30
0.0
 11
131.1237999999999
 21
108.3039774999999
 31
0.0
  0
LINE
  5
212
330
1E
100
AcDbEntity
  8
0
100
AcDbLine
 10
134.1658
 20
108.8409774999999
 30
0.0
 11
155.0708
 21
108.6549774999999
 31
0.0
  0
LINE
  5
213
330
1E
100
AcDbEntity
  8
0
100
AcDbLine
 10
129.7348
 20
108.3999774999999
 30
0.0
 11
132.6348
 21
109.5999774999999
 31
0.0
  0
LINE
  5
214
330
1E
100
AcDbEntity
  8
0
100
AcDbLine
 10
129.7348
 20
108.3999774999999
 30
0.0
 11
130.5010997892519
 21
108.7170670679659
 31
0.0
  0
LINE
  5
215
330
1E
100
AcDbEntity
  8
0
100
AcDbLine
 10
127.4917999999999
 20
108.1105581451609
 30
0.0
 11
129.7348
 21
108.3999774999999
 31
0.0
  0
LINE
  5
216
330
1E
100
AcDbEntity
  8
0
100
AcDbLine
 10
126.6348
 20
108.9999774999999
 30
0.0
 11
129.4348
 21
109.3999774999999
 31
0.0
  0
LINE
  5
217
330
1E
100
AcDbEntity
  8
0
100
AcDbLine
 10
126.8847999999999
 20
109.0356917857139
 30
0.0
 11
126.8847999999999
 21
117.7499774999999
 31
0.0
  0
LINE
  5
218
330
1E
100
AcDbEntity
  8
0
100
AcDbLine
 10
126.8847999999999
 20
109.0356917857139
 30
0.0
 11
129.4348
 21
109.3999774999999
 31
0.0
  0
LINE
  5
219
330
1E
100
AcDbEntity
  8
0
100
AcDbLine
 10
126.3848
 20
109.0356917857139
 30
0.0
 11
126.3848
 21
111.5340684090909
 31
0.0
  0
LINE
  5
21A
330
1E
100
AcDbEntity
  8
0
100
AcDbLine
 10
126.3848
 20
109.0356917857139
 30
0.0
 11
126.3848
 21
117.7499774999999
 31
0.0
  0
LINE
  5
21B
330
1E
100
AcDbEntity
  8
0
100
AcDbLine
 10
131.6866250423649
 20
109.207629241668
 30
0.0
 11
131.9228
 21
108.6099774999999
 31
0.0
  0
LINE
  5
21C
330
1E
100
AcDbEntity
  8
0
100
AcDbLine
 10
129.4348
 20
109.3999774999999
 30
0.0
 11
132.1348
 21
110.4999774999999
 31
0.0
  0
LINE
  5
21D
330
1E
100
AcDbEntity
  8
0
100
AcDbLine
 10
129.4348
 20
109.3999774999999
 30
0.0
 11
131.888309313759
 21
110.399555368569
 31
0.0
  0
LINE
  5
21E
330
1E
100
AcDbEntity
  8
0
100
AcDbLine
 10
123.8348
 20
109.3999774999999
 30
0.0
 11
126.6348
 21
108.9999774999999
 31
0.0
  0
LINE
  5
21F
330
1E
100
AcDbEntity
  8
0
100
AcDbLine
 10
132.0821786309009
 20
109.3713065886489
 30
0.0
 11
132.3218
 21
108.7629774999999
 31
0.0
  0
LINE
  5
220
330
1E
100
AcDbEntity
  8
0
100
AcDbLine
 10
132.256875940847
 20
108.92780083727
 30
0.0
 11
134.1658
 21
108.8409774999999
 31
0.0
  0
LINE
  5
221
330
1E
100
AcDbEntity
  8
0
100
AcDbLine
 10
132.3260766857609
 20
110.64135591991
 30
0.0
 11
134.4347999999999
 21
112.1999774999999
 31
0.0
  0
LINE
  5
222
330
1E
100
AcDbEntity
  8
0
100
AcDbLine
 10
132.1348
 20
110.4999774999999
 30
0.0
 11
134.4347999999999
 21
112.1999774999999
 31
0.0
  0
LINE
  5
223
330
1E
100
AcDbEntity
  8
0
100
AcDbLine
 10
132.3347999999999
 20
109.9999774999999
 30
0.0
 11
134.7347999999999
 21
111.8999775
 31
0.0
  0
LINE
  5
224
330
1E
100
AcDbEntity
  8
0
100
AcDbLine
 10
134.5787999999999
 20
110.3299774999999
 30
0.0
 11
134.8898
 21
110.6199774999999
 31
0.0
  0
LINE
  5
225
330
1E
100
AcDbEntity
  8
0
100
AcDbLine
 10
137.8648
 20
109.9999774999999
 30
0.0
 11
137.8648
 21
110.5499774999999
 31
0.0
  0
LINE
  5
226
330
1E
100
AcDbEntity
  8
0
100
AcDbLine
 10
135.8648
 20
109.9999774999999
 30
0.0
 11
137.8648
 21
109.9999774999999
 31
0.0
  0
LINE
  5
227
330
1E
100
AcDbEntity
  8
0
100
AcDbLine
 10
135.8648
 20
109.9999774999999
 30
0.0
 11
135.8648
 21
110.5499774999999
 31
0.0
  0
LINE
  5
228
330
1E
100
AcDbEntity
  8
0
100
AcDbLine
 10
134.8898
 20
110.6199774999999
 30
0.0
 11
135.5118
 21
111.2009774999999
 31
0.0
  0
LINE
  5
229
330
1E
100
AcDbEntity
  8
0
100
AcDbLine
 10
137.8648
 20
110.5499774999999
 30
0.0
 11
137.8648
 21
111.9999774999999
 31
0.0
  0
LINE
  5
22A
330
1E
100
AcDbEntity
  8
0
100
AcDbLine
 10
137.8648
 20
110.5499774999999
 30
0.0
 11
137.8648
 21
109.9999774999999
 31
0.0
  0
LINE
  5
22B
330
1E
100
AcDbEntity
  8
0
100
AcDbLine
 10
135.8648
 20
110.5499774999999
 30
0.0
 11
135.8648
 21
109.9999774999999
 31
0.0
  0
LINE
  5
22C
330
1E
100
AcDbEntity
  8
0
100
AcDbLine
 10
135.8648
 20
110.5499774999999
 30
0.0
 11
135.8648
 21
111.9999774999999
 31
0.0
  0
LINE
  5
22D
330
1E
100
AcDbEntity
  8
0
100
AcDbLine
 10
135.8648
 20
110.5499774999999
 30
0.0
 11
137.8648
 21
110.5499774999999
 31
0.0
  0
LINE
  5
22E
330
1E
100
AcDbEntity
  8
0
100
AcDbLine
 10
155.5608
 20
110.4599775
 30
0.0
 11
165.3167999999999
 21
110.2189775
 31
0.0
  0
LINE
  5
22F
330
1E
100
AcDbEntity
  8
0
100
AcDbLine
 10
132.6348
 20
109.5999774999999
 30
0.0
 11
135.1348
 21
111.4999774999999
 31
0.0
  0
LINE
  5
230
330
1E
100
AcDbEntity
  8
0
100
AcDbLine
 10
132.6348
 20
109.5999774999999
 30
0.0
 11
134.1633208215559
 21
110.7616533243829
 31
0.0
  0
LINE
  5
231
330
1E
100
AcDbEntity
  8
0
100
AcDbLine
 10
132.0821786309009
 20
109.3713065886489
 30
0.0
 11
132.6348
 21
109.5999774999999
 31
0.0
  0
LINE
  5
232
330
1E
100
AcDbEntity
  8
0
100
AcDbLine
 10
123.6348
 20
108.8999775
 30
0.0
 11
126.6348
 21
108.4999774999999
 31
0.0
  0
LINE
  5
233
330
1E
100
AcDbEntity
  8
0
100
AcDbLine
 10
123.5348
 20
108.3999774999999
 30
0.0
 11
125.7778
 21
108.1105581451609
 31
0.0
  0
LINE
  5
234
330
1E
100
AcDbEntity
  8
0
100
AcDbLine
 10
117.7578
 20
111.2009774999999
 30
0.0
 11
118.3798
 21
110.6199774999999
 31
0.0
  0
LINE
  5
235
330
1E
100
AcDbEntity
  8
0
100
AcDbLine
 10
117.7578
 20
111.2009774999999
 30
0.0
 11
118.095434579687
 21
111.551774105675
 31
0.0
  0
LINE
  5
236
330
1E
100
AcDbEntity
  8
0
100
AcDbLine
 10
117.4468
 20
111.4919774999999
 30
0.0
 11
117.7578
 21
111.2009774999999
 31
0.0
  0
LINE
  5
237
330
1E
100
AcDbEntity
  8
0
100
AcDbLine
 10
117.4468
 20
111.4919774999999
 30
0.0
 11
117.8346349812479
 21
111.894931472042
 31
0.0
  0
LINE
  5
238
330
1E
100
AcDbEntity
  8
0
100
AcDbLine
 10
115.8648
 20
111.9999774999999
 30
0.0
 11
115.8648
 21
110.5499774999999
 31
0.0
  0
LINE
  5
239
330
1E
100
AcDbEntity
  8
0
100
AcDbLine
 10
117.8648
 20
111.101030554662
 30
0.0
 11
117.8648
 21
110.5499774999999
 31
0.0
  0
LINE
  5
23A
330
1E
100
AcDbEntity
  8
0
100
AcDbLine
 10
126.6348
 20
111.4999774999999
 30
0.0
 11
128.8348
 21
111.7999774999999
 31
0.0
  0
LINE
  5
23B
330
1E
100
AcDbEntity
  8
0
100
AcDbLine
 10
126.8847999999999
 20
111.5340684090909
 30
0.0
 11
128.8348
 21
111.7999774999999
 31
0.0
  0
LINE
  5
23C
330
1E
100
AcDbEntity
  8
0
100
AcDbLine
 10
128.8348
 20
111.7999774999999
 30
0.0
 11
130.8348
 21
112.5999774999999
 31
0.0
  0
LINE
  5
23D
330
1E
100
AcDbEntity
  8
0
100
AcDbLine
 10
124.4348
 20
111.7999774999999
 30
0.0
 11
126.3848
 21
111.5340684090909
 31
0.0
  0
LINE
  5
23E
330
1E
100
AcDbEntity
  8
0
100
AcDbLine
 10
124.4348
 20
111.7999774999999
 30
0.0
 11
126.6348
 21
111.4999774999999
 31
0.0
  0
LINE
  5
23F
330
1E
100
AcDbEntity
  8
0
100
AcDbLine
 10
126.3848
 20
111.5340684090909
 30
0.0
 11
126.3848
 21
109.0356917857139
 31
0.0
  0
LINE
  5
240
330
1E
100
AcDbEntity
  8
0
100
AcDbLine
 10
134.5041376672319
 20
111.0206741270959
 30
0.0
 11
134.8898
 21
110.6199774999999
 31
0.0
  0
LINE
  5
241
330
1E
100
AcDbEntity
  8
0
100
AcDbLine
 10
134.1633208215559
 20
110.7616533243829
 30
0.0
 11
134.5787999999999
 21
110.3299774999999
 31
0.0
  0
LINE
  5
242
330
1E
100
AcDbEntity
  8
0
100
AcDbLine
 10
134.7347999999999
 20
111.8999775
 30
0.0
 11
136.6348
 21
114.2999775
 31
0.0
  0
LINE
  5
243
330
1E
100
AcDbEntity
  8
0
100
AcDbLine
 10
135.1741654203129
 20
111.551774105675
 30
0.0
 11
135.5118
 21
111.2009774999999
 31
0.0
  0
LINE
  5
244
330
1E
100
AcDbEntity
  8
0
100
AcDbLine
 10
135.1741654203129
 20
111.551774105675
 30
0.0
 11
135.5118
 21
111.2009774999999
 31
0.0
  0
LINE
  5
245
330
1E
100
AcDbEntity
  8
0
100
AcDbLine
 10
135.5118
 20
111.2009774999999
 30
0.0
 11
135.8227999999999
 21
111.4919774999999
 31
0.0
  0
LINE
  5
246
330
1E
100
AcDbEntity
  8
0
100
AcDbLine
 10
135.434965018752
 20
111.894931472042
 30
0.0
 11
135.8227999999999
 21
111.4919774999999
 31
0.0
  0
LINE
  5
247
330
1E
100
AcDbEntity
  8
0
100
AcDbLine
 10
135.4398022282109
 20
111.1337255620429
 30
0.0
 11
135.8648
 21
111.109123664978
 31
0.0
  0
LINE
  5
248
330
1E
100
AcDbEntity
  8
0
100
AcDbLine
 10
135.1348
 20
111.4999774999999
 30
0.0
 11
137.0347999999999
 21
113.9999774999999
 31
0.0
  0
LINE
  5
249
330
1E
100
AcDbEntity
  8
0
100
AcDbLine
 10
122.4347999999999
 20
112.5999774999999
 30
0.0
 11
124.4348
 21
111.7999774999999
 31
0.0
  0
LINE
  5
24A
330
1E
100
AcDbEntity
  8
0
100
AcDbLine
 10
122.6347999999999
 20
113.0999775
 30
0.0
 11
124.5348
 21
112.2999775
 31
0.0
  0
LINE
  5
24B
330
1E
100
AcDbEntity
  8
0
100
AcDbLine
 10
124.5348
 20
112.2999775
 30
0.0
 11
126.6348
 21
111.9999774999999
 31
0.0
  0
LINE
  5
24C
330
1E
100
AcDbEntity
  8
0
100
AcDbLine
 10
122.611040150094
 20
112.529481439962
 30
0.0
 11
124.4348
 21
111.7999774999999
 31
0.0
  0
LINE
  5
24D
330
1E
100
AcDbEntity
  8
0
100
AcDbLine
 10
118.8347999999999
 20
112.1999774999999
 30
0.0
 11
121.1348
 21
110.4999774999999
 31
0.0
  0
LINE
  5
24E
330
1E
100
AcDbEntity
  8
0
100
AcDbLine
 10
134.4347999999999
 20
112.1999774999999
 30
0.0
 11
136.1348
 21
114.4999774999999
 31
0.0
  0
LINE
  5
24F
330
1E
100
AcDbEntity
  8
0
100
AcDbLine
 10
134.4347999999999
 20
112.1999774999999
 30
0.0
 11
135.9929380410429
 21
114.308046614353
 31
0.0
  0
LINE
  5
250
330
1E
100
AcDbEntity
  8
0
100
AcDbLine
 10
128.7348
 20
112.2999775
 30
0.0
 11
130.6348
 21
113.0999775
 31
0.0
  0
LINE
  5
251
330
1E
100
AcDbEntity
  8
0
100
AcDbLine
 10
128.7348
 20
112.2999775
 30
0.0
 11
130.388942563802
 21
112.996458579495
 31
0.0
  0
LINE
  5
252
330
1E
100
AcDbEntity
  8
0
100
AcDbLine
 10
126.6348
 20
111.9999774999999
 30
0.0
 11
128.7348
 21
112.2999775
 31
0.0
  0
LINE
  5
253
330
1E
100
AcDbEntity
  8
0
100
AcDbLine
 10
130.820003159544
 20
113.250455067129
 30
0.0
 11
132.2348
 21
114.3999774999999
 31
0.0
  0
LINE
  5
254
330
1E
100
AcDbEntity
  8
0
100
AcDbLine
 10
130.6348
 20
113.0999775
 30
0.0
 11
132.2348
 21
114.3999774999999
 31
0.0
  0
LINE
  5
255
330
1E
100
AcDbEntity
  8
0
100
AcDbLine
 10
130.8348
 20
112.5999774999999
 30
0.0
 11
132.6348
 21
113.9999774999999
 31
0.0
  0
LINE
  5
256
330
1E
100
AcDbEntity
  8
0
100
AcDbLine
 10
130.6585598499059
 20
112.529481439962
 30
0.0
 11
131.888309313759
 21
110.399555368569
 31
0.0
  0
LINE
  5
257
330
1E
100
AcDbEntity
  8
0
100
AcDbLine
 10
126.3848
 20
112.0356917857139
 30
0.0
 11
126.3848
 21
114.5356917857139
 31
0.0
  0
LINE
  5
258
330
1E
100
AcDbEntity
  8
0
100
AcDbLine
 10
122.4491666732169
 20
113.2508045780109
 30
0.0
 11
123.6834124093469
 21
115.3885181929899
 31
0.0
  0
LINE
  5
259
330
1E
100
AcDbEntity
  8
0
100
AcDbLine
 10
137.8648
 20
111.9999774999999
 30
0.0
 11
138.1488
 21
113.5519774999999
 31
0.0
  0
LINE
  5
25A
330
1E
100
AcDbEntity
  8
0
100
AcDbLine
 10
137.8648
 20
111.9999774999999
 30
0.0
 11
137.8648
 21
110.5499774999999
 31
0.0
  0
LINE
  5
25B
330
1E
100
AcDbEntity
  8
0
100
AcDbLine
 10
135.8648
 20
111.9999774999999
 30
0.0
 11
135.8648
 21
110.5499774999999
 31
0.0
  0
LINE
  5
25C
330
1E
100
AcDbEntity
  8
0
100
AcDbLine
 10
135.8648
 20
111.9999774999999
 30
0.0
 11
136.0032397736459
 21
112.6426614126919
 31
0.0
  0
LINE
  5
25D
330
1E
100
AcDbEntity
  8
0
100
AcDbLine
 10
118.5348
 20
111.8999775
 30
0.0
 11
120.9348
 21
109.9999774999999
 31
0.0
  0
LINE
  5
25E
330
1E
100
AcDbEntity
  8
0
100
AcDbLine
 10
118.1348
 20
111.4999774999999
 30
0.0
 11
120.6347999999999
 21
109.5999774999999
 31
0.0
  0
LINE
  5
25F
330
1E
100
AcDbEntity
  8
0
100
AcDbLine
 10
119.106279178444
 20
110.7616533243829
 30
0.0
 11
120.6347999999999
 21
109.5999774999999
 31
0.0
  0
LINE
  5
260
330
1E
100
AcDbEntity
  8
0
100
AcDbLine
 10
138.3495184175719
 20
111.009991270314
 30
0.0
 11
140.8838
 21
110.9119774999999
 31
0.0
  0
LINE
  5
261
330
1E
100
AcDbEntity
  8
0
100
AcDbLine
 10
140.8838
 20
110.9119774999999
 30
0.0
 11
147.4637999999999
 21
110.6949774999999
 31
0.0
  0
LINE
  5
262
330
1E
100
AcDbEntity
  8
0
100
AcDbLine
 10
147.4637999999999
 20
110.6949774999999
 30
0.0
 11
155.5608
 21
110.4599775
 31
0.0
  0
LINE
  5
263
330
1E
100
AcDbEntity
  8
0
100
AcDbLine
 10
139.9337999999999
 20
113.2919774999999
 30
0.0
 11
140.8488
 21
115.5659774999999
 31
0.0
  0
LINE
  5
264
330
1E
100
AcDbEntity
  8
0
100
AcDbLine
 10
138.6947999999999
 20
111.7219774999999
 30
0.0
 11
139.9337999999999
 21
113.2919774999999
 31
0.0
  0
LINE
  5
265
330
1E
100
AcDbEntity
  8
0
100
AcDbLine
 10
137.8648
 20
110.984972264398
 30
0.0
 11
138.6947999999999
 21
111.7219774999999
 31
0.0
  0
LINE
  5
266
330
1E
100
AcDbEntity
  8
0
100
AcDbLine
 10
115.0348
 20
111.7219774999999
 30
0.0
 11
115.8648
 21
110.984972264398
 31
0.0
  0
LINE
  5
267
330
1E
100
AcDbEntity
  8
0
100
AcDbLine
 10
115.5807999999999
 20
113.5519774999999
 30
0.0
 11
115.8648
 21
111.9999774999999
 31
0.0
  0
LINE
  5
268
330
1E
100
AcDbEntity
  8
0
100
AcDbLine
 10
116.2348
 20
113.9999774999999
 30
0.0
 11
118.1348
 21
111.4999774999999
 31
0.0
  0
LINE
  5
269
330
1E
100
AcDbEntity
  8
0
100
AcDbLine
 10
132.6348
 20
113.9999774999999
 30
0.0
 11
134.0347999999999
 21
115.7999774999999
 31
0.0
  0
LINE
  5
26A
330
1E
100
AcDbEntity
  8
0
100
AcDbLine
 10
120.6347999999999
 20
113.9999774999999
 30
0.0
 11
122.185397839561
 21
112.793956958119
 31
0.0
  0
LINE
  5
26B
330
1E
100
AcDbEntity
  8
0
100
AcDbLine
 10
120.6347999999999
 20
113.9999774999999
 30
0.0
 11
122.4347999999999
 21
112.5999774999999
 31
0.0
  0
LINE
  5
26C
330
1E
100
AcDbEntity
  8
0
100
AcDbLine
 10
120.6347999999999
 20
113.9999774999999
 30
0.0
 11
122.185397839561
 21
112.793956958119
 31
0.0
  0
LINE
  5
26D
330
1E
100
AcDbEntity
  8
0
100
AcDbLine
 10
136.6348
 20
114.2999775
 30
0.0
 11
137.7348
 21
116.9999774999999
 31
0.0
  0
LINE
  5
26E
330
1E
100
AcDbEntity
  8
0
100
AcDbLine
 10
138.1488
 20
113.5519774999999
 30
0.0
 11
139.3968
 21
116.6719775
 31
0.0
  0
LINE
  5
26F
330
1E
100
AcDbEntity
  8
0
100
AcDbLine
 10
137.0347999999999
 20
113.9999774999999
 30
0.0
 11
138.2348
 21
116.8999774999999
 31
0.0
  0
LINE
  5
270
330
1E
100
AcDbEntity
  8
0
100
AcDbLine
 10
121.0347999999999
 20
114.3999774999999
 30
0.0
 11
122.6347999999999
 21
113.0999775
 31
0.0
  0
LINE
  5
271
330
1E
100
AcDbEntity
  8
0
100
AcDbLine
 10
117.1348
 20
114.4999774999999
 30
0.0
 11
118.8347999999999
 21
112.1999774999999
 31
0.0
  0
LINE
  5
272
330
1E
100
AcDbEntity
  8
0
100
AcDbLine
 10
123.9347999999999
 20
115.1999774999999
 30
0.0
 11
125.2348
 21
114.6999774999999
 31
0.0
  0
LINE
  5
273
330
1E
100
AcDbEntity
  8
0
100
AcDbLine
 10
125.3348
 20
115.1999774999999
 30
0.0
 11
126.6348
 21
114.9999774999999
 31
0.0
  0
LINE
  5
274
330
1E
100
AcDbEntity
  8
0
100
AcDbLine
 10
124.1132660561129
 20
115.131336709187
 30
0.0
 11
125.2348
 21
114.6999774999999
 31
0.0
  0
LINE
  5
275
330
1E
100
AcDbEntity
  8
0
100
AcDbLine
 10
125.2348
 20
114.6999774999999
 30
0.0
 11
126.3848
 21
114.5356917857139
 31
0.0
  0
LINE
  5
276
330
1E
100
AcDbEntity
  8
0
100
AcDbLine
 10
125.2348
 20
114.6999774999999
 30
0.0
 11
126.6348
 21
114.4999774999999
 31
0.0
  0
LINE
  5
277
330
1E
100
AcDbEntity
  8
0
100
AcDbLine
 10
119.4286133650749
 20
115.55078888776
 30
0.0
 11
120.6347999999999
 21
113.9999774999999
 31
0.0
  0
LINE
  5
278
330
1E
100
AcDbEntity
  8
0
100
AcDbLine
 10
126.3848
 20
114.5356917857139
 30
0.0
 11
126.3848
 21
112.0356917857139
 31
0.0
  0
LINE
  5
279
330
1E
100
AcDbEntity
  8
0
100
AcDbLine
 10
126.6348
 20
114.9999774999999
 30
0.0
 11
127.9347999999999
 21
115.1999774999999
 31
0.0
  0
LINE
  5
27A
330
1E
100
AcDbEntity
  8
0
100
AcDbLine
 10
132.2348
 20
114.3999774999999
 30
0.0
 11
133.5347999999999
 21
115.9999774999999
 31
0.0
  0
LINE
  5
27B
330
1E
100
AcDbEntity
  8
0
100
AcDbLine
 10
132.2348
 20
114.3999774999999
 30
0.0
 11
133.3841764770739
 21
115.8145947025519
 31
0.0
  0
LINE
  5
27C
330
1E
100
AcDbEntity
  8
0
100
AcDbLine
 10
136.1348
 20
114.4999774999999
 30
0.0
 11
137.2348
 21
117.1999774999999
 31
0.0
  0
LINE
  5
27D
330
1E
100
AcDbEntity
  8
0
100
AcDbLine
 10
136.2352108076499
 20
114.7464403915039
 30
0.0
 11
137.2348
 21
117.1999774999999
 31
0.0
  0
LINE
  5
27E
330
1E
100
AcDbEntity
  8
0
100
AcDbLine
 10
126.8847999999999
 20
115.038439038462
 30
0.0
 11
127.9347999999999
 21
115.1999774999999
 31
0.0
  0
LINE
  5
27F
330
1E
100
AcDbEntity
  8
0
100
AcDbLine
 10
128.0347999999999
 20
114.6999774999999
 30
0.0
 11
129.3347999999999
 21
115.1999774999999
 31
0.0
  0
LINE
  5
280
330
1E
100
AcDbEntity
  8
0
100
AcDbLine
 10
126.6348
 20
114.4999774999999
 30
0.0
 11
128.0347999999999
 21
114.6999774999999
 31
0.0
  0
LINE
  5
281
330
1E
100
AcDbEntity
  8
0
100
AcDbLine
 10
127.9347999999999
 20
115.1999774999999
 30
0.0
 11
129.1348
 21
115.6999774999999
 31
0.0
  0
LINE
  5
282
330
1E
100
AcDbEntity
  8
0
100
AcDbLine
 10
127.9347999999999
 20
115.1999774999999
 30
0.0
 11
128.887509897611
 21
115.596939957338
 31
0.0
  0
LINE
  5
283
330
1E
100
AcDbEntity
  8
0
100
AcDbLine
 10
129.3347999999999
 20
115.1999774999999
 30
0.0
 11
130.5347999999999
 21
116.0999775
 31
0.0
  0
LINE
  5
284
330
1E
100
AcDbEntity
  8
0
100
AcDbLine
 10
129.156333943887
 20
115.131336709187
 30
0.0
 11
130.388942563802
 21
112.996458579495
 31
0.0
  0
LINE
  5
285
330
1E
100
AcDbEntity
  8
0
100
AcDbLine
 10
126.3848
 20
115.038439038462
 30
0.0
 11
126.3848
 21
117.5416441666669
 31
0.0
  0
LINE
  5
286
330
1E
100
AcDbEntity
  8
0
100
AcDbLine
 10
117.276661958957
 20
114.308046614353
 30
0.0
 11
124.8107999999999
 21
118.6589774999999
 31
0.0
  0
LINE
  5
287
330
1E
100
AcDbEntity
  8
0
100
AcDbLine
 10
117.03438919235
 20
114.7464403915039
 30
0.0
 11
124.5608
 21
119.0909774999999
 31
0.0
  0
LINE
  5
288
330
1E
100
AcDbEntity
  8
0
100
AcDbLine
 10
117.03438919235
 20
114.7464403915039
 30
0.0
 11
119.164403902602
 21
115.975967743496
 31
0.0
  0
LINE
  5
289
330
1E
100
AcDbEntity
  8
0
100
AcDbLine
 10
116.6347999999999
 20
114.2999775
 30
0.0
 11
118.5348
 21
111.8999775
 31
0.0
  0
LINE
  5
28A
330
1E
100
AcDbEntity
  8
0
100
AcDbLine
 10
116.2348
 20
113.9999774999999
 30
0.0
 11
117.8346349812479
 21
111.894931472042
 31
0.0
  0
LINE
  5
28B
330
1E
100
AcDbEntity
  8
0
100
AcDbLine
 10
114.3328
 20
116.6719775
 30
0.0
 11
115.5807999999999
 21
113.5519774999999
 31
0.0
  0
LINE
  5
28C
330
1E
100
AcDbEntity
  8
0
100
AcDbLine
 10
115.0348
 20
116.8999774999999
 30
0.0
 11
116.2348
 21
113.9999774999999
 31
0.0
  0
LINE
  5
28D
330
1E
100
AcDbEntity
  8
0
100
AcDbLine
 10
122.7348
 20
116.0999775
 30
0.0
 11
123.6834124093469
 21
115.3885181929899
 31
0.0
  0
LINE
  5
28E
330
1E
100
AcDbEntity
  8
0
100
AcDbLine
 10
122.7348
 20
116.0999775
 30
0.0
 11
123.9347999999999
 21
115.1999774999999
 31
0.0
  0
LINE
  5
28F
330
1E
100
AcDbEntity
  8
0
100
AcDbLine
 10
119.7348
 20
115.9999774999999
 30
0.0
 11
121.0347999999999
 21
114.3999774999999
 31
0.0
  0
LINE
  5
290
330
1E
100
AcDbEntity
  8
0
100
AcDbLine
 10
119.2348
 20
115.7999774999999
 30
0.0
 11
120.6347999999999
 21
113.9999774999999
 31
0.0
  0
LINE
  5
291
330
1E
100
AcDbEntity
  8
0
100
AcDbLine
 10
123.1348
 20
116.4999774999999
 30
0.0
 11
124.1348
 21
115.6999774999999
 31
0.0
  0
LINE
  5
292
330
1E
100
AcDbEntity
  8
0
100
AcDbLine
 10
119.6314055693779
 20
116.2455392727269
 30
0.0
 11
121.766361094195
 21
117.477918655092
 31
0.0
  0
LINE
  5
293
330
1E
100
AcDbEntity
  8
0
100
AcDbLine
 10
129.1348
 20
115.6999774999999
 30
0.0
 11
130.1348
 21
116.4999774999999
 31
0.0
  0
LINE
  5
294
330
1E
100
AcDbEntity
  8
0
100
AcDbLine
 10
130.1348
 20
116.4999774999999
 30
0.0
 11
130.9347999999999
 21
117.4999774999999
 31
0.0
  0
LINE
  5
295
330
1E
100
AcDbEntity
  8
0
100
AcDbLine
 10
130.1348
 20
116.4999774999999
 30
0.0
 11
130.786575897778
 21
117.3146973722219
 31
0.0
  0
LINE
  5
296
330
1E
100
AcDbEntity
  8
0
100
AcDbLine
 10
130.5347999999999
 20
116.0999775
 30
0.0
 11
131.4348
 21
117.2999775
 31
0.0
  0
LINE
  5
297
330
1E
100
AcDbEntity
  8
0
100
AcDbLine
 10
133.638194430622
 20
116.2455392727269
 30
0.0
 11
134.3347999999999
 21
117.8999774999999
 31
0.0
  0
LINE
  5
298
330
1E
100
AcDbEntity
  8
0
100
AcDbLine
 10
133.5347999999999
 20
115.9999774999999
 30
0.0
 11
134.3347999999999
 21
117.8999774999999
 31
0.0
  0
LINE
  5
299
330
1E
100
AcDbEntity
  8
0
100
AcDbLine
 10
134.0347999999999
 20
115.7999774999999
 30
0.0
 11
134.8348
 21
117.7999774999999
 31
0.0
  0
LINE
  5
29A
330
1E
100
AcDbEntity
  8
0
100
AcDbLine
 10
129.320355594565
 20
115.8484219756519
 30
0.0
 11
130.1348
 21
116.4999774999999
 31
0.0
  0
LINE
  5
29B
330
1E
100
AcDbEntity
  8
0
100
AcDbLine
 10
124.1348
 20
115.6999774999999
 30
0.0
 11
125.3348
 21
115.1999774999999
 31
0.0
  0
LINE
  5
29C
330
1E
100
AcDbEntity
  8
0
100
AcDbLine
 10
123.949040126382
 20
115.8485853988939
 30
0.0
 11
125.1755126181209
 21
117.9728357545859
 31
0.0
  0
LINE
  5
29D
330
1E
100
AcDbEntity
  8
0
100
AcDbLine
 10
137.7348
 20
116.9999774999999
 30
0.0
 11
138.1348
 21
119.9999774999999
 31
0.0
  0
LINE
  5
29E
330
1E
100
AcDbEntity
  8
0
100
AcDbLine
 10
139.3968
 20
116.6719775
 30
0.0
 11
139.8648
 21
119.9999774999999
 31
0.0
  0
LINE
  5
29F
330
1E
100
AcDbEntity
  8
0
100
AcDbLine
 10
138.2348
 20
116.8999774999999
 30
0.0
 11
138.6348
 21
119.9999774999999
 31
0.0
  0
LINE
  5
2A0
330
1E
100
AcDbEntity
  8
0
100
AcDbLine
 10
122.023004525616
 20
117.0490381325119
 30
0.0
 11
122.7348
 21
116.0999775
 31
0.0
  0
LINE
  5
2A1
330
1E
100
AcDbEntity
  8
0
100
AcDbLine
 10
121.8347999999999
 20
117.2999775
 30
0.0
 11
122.7348
 21
116.0999775
 31
0.0
  0
LINE
  5
2A2
330
1E
100
AcDbEntity
  8
0
100
AcDbLine
 10
118.4347999999999
 20
117.7999774999999
 30
0.0
 11
119.164403902602
 21
115.975967743496
 31
0.0
  0
LINE
  5
2A3
330
1E
100
AcDbEntity
  8
0
100
AcDbLine
 10
118.4347999999999
 20
117.7999774999999
 30
0.0
 11
119.2348
 21
115.7999774999999
 31
0.0
  0
LINE
  5
2A4
330
1E
100
AcDbEntity
  8
0
100
AcDbLine
 10
116.0348
 20
117.1999774999999
 30
0.0
 11
117.1348
 21
114.4999774999999
 31
0.0
  0
LINE
  5
2A5
330
1E
100
AcDbEntity
  8
0
100
AcDbLine
 10
125.6186657198189
 20
117.738688926727
 30
0.0
 11
126.0348
 21
117.5999774999999
 31
0.0
  0
LINE
  5
2A6
330
1E
100
AcDbEntity
  8
0
100
AcDbLine
 10
126.0348
 20
117.5999774999999
 30
0.0
 11
126.3848
 21
117.5416441666669
 31
0.0
  0
LINE
  5
2A7
330
1E
100
AcDbEntity
  8
0
100
AcDbLine
 10
126.0348
 20
117.5999774999999
 30
0.0
 11
126.6348
 21
117.4999774999999
 31
0.0
  0
LINE
  5
2A8
330
1E
100
AcDbEntity
  8
0
100
AcDbLine
 10
122.3348
 20
117.4999774999999
 30
0.0
 11
123.1348
 21
116.4999774999999
 31
0.0
  0
LINE
  5
2A9
330
1E
100
AcDbEntity
  8
0
100
AcDbLine
 10
127.2348
 20
117.5999774999999
 30
0.0
 11
127.8348
 21
117.7999774999999
 31
0.0
  0
LINE
  5
2AA
330
1E
100
AcDbEntity
  8
0
100
AcDbLine
 10
126.6348
 20
117.4999774999999
 30
0.0
 11
127.2348
 21
117.5999774999999
 31
0.0
  0
LINE
  5
2AB
330
1E
100
AcDbEntity
  8
0
100
AcDbLine
 10
127.650934280181
 20
117.738688926727
 30
0.0
 11
128.887509897611
 21
115.596939957338
 31
0.0
  0
LINE
  5
2AC
330
1E
100
AcDbEntity
  8
0
100
AcDbLine
 10
131.0376020306319
 20
117.746702373516
 30
0.0
 11
131.4348
 21
118.6999774999999
 31
0.0
  0
LINE
  5
2AD
330
1E
100
AcDbEntity
  8
0
100
AcDbLine
 10
130.9347999999999
 20
117.4999774999999
 30
0.0
 11
131.4348
 21
118.6999774999999
 31
0.0
  0
LINE
  5
2AE
330
1E
100
AcDbEntity
  8
0
100
AcDbLine
 10
131.4348
 20
117.2999775
 30
0.0
 11
131.9347999999999
 21
118.5999774999999
 31
0.0
  0
LINE
  5
2AF
330
1E
100
AcDbEntity
  8
0
100
AcDbLine
 10
137.2348
 20
117.1999774999999
 30
0.0
 11
137.6348
 21
119.9999774999999
 31
0.0
  0
LINE
  5
2B0
330
1E
100
AcDbEntity
  8
0
100
AcDbLine
 10
137.2348
 20
117.1999774999999
 30
0.0
 11
137.5990857142859
 21
119.7499774999999
 31
0.0
  0
LINE
  5
2B1
330
1E
100
AcDbEntity
  8
0
100
AcDbLine
 10
127.650934280181
 20
117.738688926727
 30
0.0
 11
128.887509897611
 21
115.596939957338
 31
0.0
  0
LINE
  5
2B2
330
1E
100
AcDbEntity
  8
0
100
AcDbLine
 10
126.8847999999999
 20
117.7499774999999
 30
0.0
 11
126.8847999999999
 21
109.0356917857139
 31
0.0
  0
LINE
  5
2B3
330
1E
100
AcDbEntity
  8
0
100
AcDbLine
 10
126.3848
 20
117.5416441666669
 30
0.0
 11
126.3848
 21
115.038439038462
 31
0.0
  0
LINE
  5
2B4
330
1E
100
AcDbEntity
  8
0
100
AcDbLine
 10
134.8348
 20
117.7999774999999
 30
0.0
 11
135.1348
 21
119.9999774999999
 31
0.0
  0
LINE
  5
2B5
330
1E
100
AcDbEntity
  8
0
100
AcDbLine
 10
127.8348
 20
117.7999774999999
 30
0.0
 11
128.4348
 21
118.1999774999999
 31
0.0
  0
LINE
  5
2B6
330
1E
100
AcDbEntity
  8
0
100
AcDbLine
 10
125.4348
 20
117.7999774999999
 30
0.0
 11
126.0348
 21
117.5999774999999
 31
0.0
  0
LINE
  5
2B7
330
1E
100
AcDbEntity
  8
0
100
AcDbLine
 10
126.3848
 20
117.7499774999999
 30
0.0
 11
126.3848
 21
109.0356917857139
 31
0.0
  0
LINE
  5
2B8
330
1E
100
AcDbEntity
  8
0
100
AcDbLine
 10
126.3848
 20
117.7499774999999
 30
0.0
 11
126.8847999999999
 21
117.7499774999999
 31
0.0
  0
LINE
  5
2B9
330
1E
100
AcDbEntity
  8
0
100
AcDbLine
 10
122.2319979693679
 20
117.746702373516
 30
0.0
 11
124.37378425451
 21
118.983024736469
 31
0.0
  0
LINE
  5
2BA
330
1E
100
AcDbEntity
  8
0
100
AcDbLine
 10
115.5348
 20
116.9999774999999
 30
0.0
 11
116.6347999999999
 21
114.2999775
 31
0.0
  0
LINE
  5
2BB
330
1E
100
AcDbEntity
  8
0
100
AcDbLine
 10
115.0348
 20
116.8999774999999
 30
0.0
 11
116.2348
 21
113.9999774999999
 31
0.0
  0
LINE
  5
2BC
330
1E
100
AcDbEntity
  8
0
100
AcDbLine
 10
140.8488
 20
115.5659774999999
 30
0.0
 11
141.3888
 21
117.8019774999999
 31
0.0
  0
LINE
  5
2BD
330
1E
100
AcDbEntity
  8
0
100
AcDbLine
 10
141.3888
 20
117.8019774999999
 30
0.0
 11
141.5648
 21
119.9999774999999
 31
0.0
  0
LINE
  5
2BE
330
1E
100
AcDbEntity
  8
0
100
AcDbLine
 10
113.7958
 20
113.2919774999999
 30
0.0
 11
115.0348
 21
111.7219774999999
 31
0.0
  0
LINE
  5
2BF
330
1E
100
AcDbEntity
  8
0
100
AcDbLine
 10
112.8808
 20
115.5659774999999
 30
0.0
 11
113.7958
 21
113.2919774999999
 31
0.0
  0
LINE
  5
2C0
330
1E
100
AcDbEntity
  8
0
100
AcDbLine
 10
102.0348
 20
147.1479774999999
 30
0.0
 11
109.9188
 21
148.9679774999999
 31
0.0
  0
LINE
  5
2C1
330
1E
100
AcDbEntity
  8
0
100
AcDbLine
 10
94.9496
 20
145.9229775
 30
0.0
 11
102.286028057761
 21
147.2059728152109
 31
0.0
  0
LINE
  5
2C2
330
1E
100
AcDbEntity
  8
0
100
AcDbLine
 10
94.95459999999999
 20
129.9679774999999
 30
0.0
 11
104.6318
 21
131.6599775
 31
0.0
  0
LINE
  5
2C3
330
1E
100
AcDbEntity
  8
0
100
AcDbLine
 10
109.9188
 20
148.9679774999999
 30
0.0
 11
111.8648
 21
149.5231060266459
 31
0.0
  0
LINE
  5
2C4
330
1E
100
AcDbEntity
  8
0
100
AcDbLine
 10
107.1288
 20
132.1339774999999
 30
0.0
 11
111.8648
 21
133.2076705187299
 31
0.0
  0
LINE
  5
2C5
330
1E
100
AcDbEntity
  8
0
100
AcDbLine
 10
104.6318
 20
131.6599775
 30
0.0
 11
107.1288
 21
132.1339774999999
 31
0.0
  0
LINE
  5
2C6
330
1E
100
AcDbEntity
  8
0
100
AcDbLine
 10
104.2557999999999
 20
125.6489774999999
 30
0.0
 11
111.8648
 21
125.5524990422429
 31
0.0
  0
LINE
  5
2C7
330
1E
100
AcDbEntity
  8
0
100
AcDbLine
 10
111.8648
 20
165.0499774999999
 30
0.0
 11
111.8648
 21
163.1399775
 31
0.0
  0
LINE
  5
2C8
330
1E
100
AcDbEntity
  8
0
100
AcDbLine
 10
111.8648
 20
163.1399775
 30
0.0
 11
111.8648
 21
165.0499774999999
 31
0.0
  0
LINE
  5
2C9
330
1E
100
AcDbEntity
  8
0
100
AcDbLine
 10
111.8648
 20
119.9999774999999
 30
0.0
 11
112.0497999999999
 21
117.7309774999999
 31
0.0
  0
LINE
  5
2CA
330
1E
100
AcDbEntity
  8
0
100
AcDbLine
 10
111.8648
 20
119.9999774999999
 30
0.0
 11
111.8648
 21
176.9999775
 31
0.0
  0
LINE
  5
2CB
330
1E
100
AcDbEntity
  8
0
100
AcDbLine
 10
113.8648
 20
119.9999774999999
 30
0.0
 11
114.3328
 21
116.6719775
 31
0.0
  0
LINE
  5
2CC
330
1E
100
AcDbEntity
  8
0
100
AcDbLine
 10
113.8648
 20
119.9999774999999
 30
0.0
 11
114.3328
 21
123.3279774999999
 31
0.0
  0
LINE
  5
2CD
330
1E
100
AcDbEntity
  8
0
100
AcDbLine
 10
118.9348
 20
117.8999774999999
 30
0.0
 11
119.7348
 21
115.9999774999999
 31
0.0
  0
LINE
  5
2CE
330
1E
100
AcDbEntity
  8
0
100
AcDbLine
 10
127.1347999999999
 20
118.0999774999999
 30
0.0
 11
127.6348
 21
118.2999775
 31
0.0
  0
LINE
  5
2CF
330
1E
100
AcDbEntity
  8
0
100
AcDbLine
 10
126.6348
 20
117.9999774999999
 30
0.0
 11
127.1347999999999
 21
118.0999774999999
 31
0.0
  0
LINE
  5
2D0
330
1E
100
AcDbEntity
  8
0
100
AcDbLine
 10
126.1347999999999
 20
118.0999774999999
 30
0.0
 11
126.6348
 21
117.9999774999999
 31
0.0
  0
LINE
  5
2D1
330
1E
100
AcDbEntity
  8
0
100
AcDbLine
 10
127.5428
 20
117.9259775
 30
0.0
 11
127.9768
 21
118.1759774999999
 31
0.0
  0
LINE
  5
2D2
330
1E
100
AcDbEntity
  8
0
100
AcDbLine
 10
127.5428
 20
117.9259775
 30
0.0
 11
131.888309313759
 21
110.399555368569
 31
0.0
  0
LINE
  5
2D3
330
1E
100
AcDbEntity
  8
0
100
AcDbLine
 10
134.3347999999999
 20
117.8999774999999
 30
0.0
 11
134.6348
 21
119.9999774999999
 31
0.0
  0
LINE
  5
2D4
330
1E
100
AcDbEntity
  8
0
100
AcDbLine
 10
134.3347999999999
 20
117.8999774999999
 30
0.0
 11
134.599085714286
 21
119.7499774999999
 31
0.0
  0
LINE
  5
2D5
330
1E
100
AcDbEntity
  8
0
100
AcDbLine
 10
127.9768
 20
118.1759774999999
 30
0.0
 11
132.3260766857609
 21
110.64135591991
 31
0.0
  0
LINE
  5
2D6
330
1E
100
AcDbEntity
  8
0
100
AcDbLine
 10
121.3348
 20
118.5999774999999
 30
0.0
 11
121.766361094195
 21
117.477918655092
 31
0.0
  0
LINE
  5
2D7
330
1E
100
AcDbEntity
  8
0
100
AcDbLine
 10
121.3348
 20
118.5999774999999
 30
0.0
 11
121.8347999999999
 21
117.2999775
 31
0.0
  0
LINE
  5
2D8
330
1E
100
AcDbEntity
  8
0
100
AcDbLine
 10
121.1705142857139
 20
119.7499774999999
 30
0.0
 11
121.3348
 21
118.5999774999999
 31
0.0
  0
LINE
  5
2D9
330
1E
100
AcDbEntity
  8
0
100
AcDbLine
 10
118.1688909090909
 20
119.7499774999999
 30
0.0
 11
118.4347999999999
 21
117.7999774999999
 31
0.0
  0
LINE
  5
2DA
330
1E
100
AcDbEntity
  8
0
100
AcDbLine
 10
124.4348
 20
118.7999774999999
 30
0.0
 11
124.8348
 21
118.1999774999999
 31
0.0
  0
LINE
  5
2DB
330
1E
100
AcDbEntity
  8
0
100
AcDbLine
 10
124.2348
 20
119.3999774999999
 30
0.0
 11
124.37378425451
 21
118.983024736469
 31
0.0
  0
LINE
  5
2DC
330
1E
100
AcDbEntity
  8
0
100
AcDbLine
 10
124.2348
 20
119.3999774999999
 30
0.0
 11
124.4348
 21
118.7999774999999
 31
0.0
  0
LINE
  5
2DD
330
1E
100
AcDbEntity
  8
0
100
AcDbLine
 10
124.1764666666669
 20
119.7499774999999
 30
0.0
 11
124.2348
 21
119.3999774999999
 31
0.0
  0
LINE
  5
2DE
330
1E
100
AcDbEntity
  8
0
100
AcDbLine
 10
121.8347999999999
 20
118.6999774999999
 30
0.0
 11
122.3348
 21
117.4999774999999
 31
0.0
  0
LINE
  5
2DF
330
1E
100
AcDbEntity
  8
0
100
AcDbLine
 10
128.4348
 20
118.1999774999999
 30
0.0
 11
128.8348
 21
118.7999774999999
 31
0.0
  0
LINE
  5
2E0
330
1E
100
AcDbEntity
  8
0
100
AcDbLine
 10
127.6348
 20
118.2999775
 30
0.0
 11
128.0347999999999
 21
118.5999774999999
 31
0.0
  0
LINE
  5
2E1
330
1E
100
AcDbEntity
  8
0
100
AcDbLine
 10
125.6348
 20
118.2999775
 30
0.0
 11
126.1347999999999
 21
118.0999774999999
 31
0.0
  0
LINE
  5
2E2
330
1E
100
AcDbEntity
  8
0
100
AcDbLine
 10
124.8348
 20
118.1999774999999
 30
0.0
 11
125.1755126181209
 21
117.9728357545859
 31
0.0
  0
LINE
  5
2E3
330
1E
100
AcDbEntity
  8
0
100
AcDbLine
 10
124.8348
 20
118.1999774999999
 30
0.0
 11
125.4348
 21
117.7999774999999
 31
0.0
  0
LINE
  5
2E4
330
1E
100
AcDbEntity
  8
0
100
AcDbLine
 10
128.0347999999999
 20
118.5999774999999
 30
0.0
 11
128.3347999999999
 21
118.9999774999999
 31
0.0
  0
LINE
  5
2E5
330
1E
100
AcDbEntity
  8
0
100
AcDbLine
 10
128.3347999999999
 20
118.9999774999999
 30
0.0
 11
128.5347999999999
 21
119.4999774999999
 31
0.0
  0
LINE
  5
2E6
330
1E
100
AcDbEntity
  8
0
100
AcDbLine
 10
125.2348
 20
118.5999774999999
 30
0.0
 11
125.6348
 21
118.2999775
 31
0.0
  0
LINE
  5
2E7
330
1E
100
AcDbEntity
  8
0
100
AcDbLine
 10
124.9347999999999
 20
118.9999774999999
 30
0.0
 11
125.2348
 21
118.5999774999999
 31
0.0
  0
LINE
  5
2E8
330
1E
100
AcDbEntity
  8
0
100
AcDbLine
 10
124.607189451581
 20
118.541393322628
 30
0.0
 11
124.8348
 21
118.1999774999999
 31
0.0
  0
LINE
  5
2E9
330
1E
100
AcDbEntity
  8
0
100
AcDbLine
 10
128.8348
 20
118.7999774999999
 30
0.0
 11
129.0347999999999
 21
119.3999774999999
 31
0.0
  0
LINE
  5
2EA
330
1E
100
AcDbEntity
  8
0
100
AcDbLine
 10
131.4348
 20
118.6999774999999
 30
0.0
 11
131.6348
 21
119.9999774999999
 31
0.0
  0
LINE
  5
2EB
330
1E
100
AcDbEntity
  8
0
100
AcDbLine
 10
131.4348
 20
118.6999774999999
 30
0.0
 11
131.5963384615379
 21
119.7499774999999
 31
0.0
  0
LINE
  5
2EC
330
1E
100
AcDbEntity
  8
0
100
AcDbLine
 10
131.9347999999999
 20
118.5999774999999
 30
0.0
 11
132.1348
 21
119.9999774999999
 31
0.0
  0
LINE
  5
2ED
330
1E
100
AcDbEntity
  8
0
100
AcDbLine
 10
128.4588
 20
118.6589774999999
 30
0.0
 11
128.7088
 21
119.0909774999999
 31
0.0
  0
LINE
  5
2EE
330
1E
100
AcDbEntity
  8
0
100
AcDbLine
 10
128.4588
 20
118.6589774999999
 30
0.0
 11
135.9929380410429
 21
114.308046614353
 31
0.0
  0
LINE
  5
2EF
330
1E
100
AcDbEntity
  8
0
100
AcDbLine
 10
128.5347999999999
 20
119.4999774999999
 30
0.0
 11
128.6348
 21
119.9999774999999
 31
0.0
  0
LINE
  5
2F0
330
1E
100
AcDbEntity
  8
0
100
AcDbLine
 10
124.7348
 20
119.4999774999999
 30
0.0
 11
124.9347999999999
 21
118.9999774999999
 31
0.0
  0
LINE
  5
2F1
330
1E
100
AcDbEntity
  8
0
100
AcDbLine
 10
129.0347999999999
 20
119.3999774999999
 30
0.0
 11
129.1348
 21
119.9999774999999
 31
0.0
  0
LINE
  5
2F2
330
1E
100
AcDbEntity
  8
0
100
AcDbLine
 10
129.0931333333329
 20
119.7499774999999
 30
0.0
 11
131.5963384615379
 21
119.7499774999999
 31
0.0
  0
LINE
  5
2F3
330
1E
100
AcDbEntity
  8
0
100
AcDbLine
 10
132.0990857142859
 20
119.7499774999999
 30
0.0
 11
134.599085714286
 21
119.7499774999999
 31
0.0
  0
LINE
  5
2F4
330
1E
100
AcDbEntity
  8
0
100
AcDbLine
 10
135.1007090909089
 20
119.7499774999999
 30
0.0
 11
137.5990857142859
 21
119.7499774999999
 31
0.0
  0
LINE
  5
2F5
330
1E
100
AcDbEntity
  8
0
100
AcDbLine
 10
128.8848
 20
119.7499774999999
 30
0.0
 11
137.5990857142859
 21
119.7499774999999
 31
0.0
  0
LINE
  5
2F6
330
1E
100
AcDbEntity
  8
0
100
AcDbLine
 10
128.8848
 20
119.7499774999999
 30
0.0
 11
128.8848
 21
120.2499774999999
 31
0.0
  0
LINE
  5
2F7
330
1E
100
AcDbEntity
  8
0
100
AcDbLine
 10
128.7088
 20
119.0909774999999
 30
0.0
 11
136.2352108076499
 21
114.7464403915039
 31
0.0
  0
LINE
  5
2F8
330
1E
100
AcDbEntity
  8
0
100
AcDbLine
 10
124.5608
 20
119.0909774999999
 30
0.0
 11
124.8107999999999
 21
118.6589774999999
 31
0.0
  0
LINE
  5
2F9
330
1E
100
AcDbEntity
  8
0
100
AcDbLine
 10
124.3848
 20
119.7499774999999
 30
0.0
 11
124.3848
 21
120.2499774999999
 31
0.0
  0
LINE
  5
2FA
330
1E
100
AcDbEntity
  8
0
100
AcDbLine
 10
121.673261538462
 20
119.7499774999999
 30
0.0
 11
124.1764666666669
 21
119.7499774999999
 31
0.0
  0
LINE
  5
2FB
330
1E
100
AcDbEntity
  8
0
100
AcDbLine
 10
118.670514285714
 20
119.7499774999999
 30
0.0
 11
121.1705142857139
 21
119.7499774999999
 31
0.0
  0
LINE
  5
2FC
330
1E
100
AcDbEntity
  8
0
100
AcDbLine
 10
115.6705142857139
 20
119.7499774999999
 30
0.0
 11
124.3848
 21
119.7499774999999
 31
0.0
  0
LINE
  5
2FD
330
1E
100
AcDbEntity
  8
0
100
AcDbLine
 10
115.6705142857139
 20
119.7499774999999
 30
0.0
 11
118.1688909090909
 21
119.7499774999999
 31
0.0
  0
LINE
  5
2FE
330
1E
100
AcDbEntity
  8
0
100
AcDbLine
 10
125.2928
 20
118.1759774999999
 30
0.0
 11
125.7268
 21
117.9259775
 31
0.0
  0
LINE
  5
2FF
330
1E
100
AcDbEntity
  8
0
100
AcDbLine
 10
114.6347999999999
 20
119.9999774999999
 30
0.0
 11
115.0348
 21
116.8999774999999
 31
0.0
  0
LINE
  5
300
330
1E
100
AcDbEntity
  8
0
100
AcDbLine
 10
114.6347999999999
 20
119.9999774999999
 30
0.0
 11
115.0348
 21
123.0999774999999
 31
0.0
  0
LINE
  5
302
330
1E
100
AcDbEntity
  8
0
100
AcDbLine
 10
141.8648
 20
119.9999774999999
 30
0.0
 11
141.8648
 21
176.9999775
 31
0.0
  0
LINE
  5
303
330
1E
100
AcDbEntity
  8
0
100
AcDbLine
 10
124.6348
 20
119.9999774999999
 30
0.0
 11
124.7348
 21
119.4999774999999
 31
0.0
  0
LINE
  5
304
330
1E
100
AcDbEntity
  8
0
100
AcDbLine
 10
124.6348
 20
119.9999774999999
 30
0.0
 11
124.7348
 21
120.4999774999999
 31
0.0
  0
LINE
  5
305
330
1E
100
AcDbEntity
  8
0
100
AcDbLine
 10
124.1348
 20
119.9999774999999
 30
0.0
 11
124.2348
 21
119.3999774999999
 31
0.0
  0
LINE
  5
306
330
1E
100
AcDbEntity
  8
0
100
AcDbLine
 10
124.1348
 20
119.9999774999999
 30
0.0
 11
124.2348
 21
120.5999774999999
 31
0.0
  0
LINE
  5
307
330
1E
100
AcDbEntity
  8
0
100
AcDbLine
 10
121.6347999999999
 20
119.9999774999999
 30
0.0
 11
121.8347999999999
 21
118.6999774999999
 31
0.0
  0
LINE
  5
308
330
1E
100
AcDbEntity
  8
0
100
AcDbLine
 10
121.6347999999999
 20
119.9999774999999
 30
0.0
 11
121.8347999999999
 21
121.2999774999999
 31
0.0
  0
LINE
  5
309
330
1E
100
AcDbEntity
  8
0
100
AcDbLine
 10
121.1348
 20
119.9999774999999
 30
0.0
 11
121.3348
 21
118.5999774999999
 31
0.0
  0
LINE
  5
30A
330
1E
100
AcDbEntity
  8
0
100
AcDbLine
 10
121.1348
 20
119.9999774999999
 30
0.0
 11
121.3348
 21
121.3999775
 31
0.0
  0
LINE
  5
30B
330
1E
100
AcDbEntity
  8
0
100
AcDbLine
 10
118.6347999999999
 20
119.9999774999999
 30
0.0
 11
118.9348
 21
117.8999774999999
 31
0.0
  0
LINE
  5
30C
330
1E
100
AcDbEntity
  8
0
100
AcDbLine
 10
118.6347999999999
 20
119.9999774999999
 30
0.0
 11
118.9348
 21
122.0999774999999
 31
0.0
  0
LINE
  5
30D
330
1E
100
AcDbEntity
  8
0
100
AcDbLine
 10
118.1348
 20
119.9999774999999
 30
0.0
 11
118.4347999999999
 21
117.7999774999999
 31
0.0
  0
LINE
  5
30E
330
1E
100
AcDbEntity
  8
0
100
AcDbLine
 10
118.1348
 20
119.9999774999999
 30
0.0
 11
118.4347999999999
 21
122.1999775
 31
0.0
  0
LINE
  5
30F
330
1E
100
AcDbEntity
  8
0
100
AcDbLine
 10
115.6347999999999
 20
119.9999774999999
 30
0.0
 11
116.0348
 21
117.1999774999999
 31
0.0
  0
LINE
  5
310
330
1E
100
AcDbEntity
  8
0
100
AcDbLine
 10
115.6347999999999
 20
119.9999774999999
 30
0.0
 11
116.0348
 21
122.7999775
 31
0.0
  0
LINE
  5
311
330
1E
100
AcDbEntity
  8
0
100
AcDbLine
 10
115.1348
 20
119.9999774999999
 30
0.0
 11
115.5348
 21
116.9999774999999
 31
0.0
  0
LINE
  5
312
330
1E
100
AcDbEntity
  8
0
100
AcDbLine
 10
115.1348
 20
119.9999774999999
 30
0.0
 11
115.5348
 21
122.9999774999999
 31
0.0
  0
LINE
  5
313
330
1E
100
AcDbEntity
  8
0
100
AcDbLine
 10
116.0348
 20
122.7999775
 30
0.0
 11
117.1348
 21
125.4999774999999
 31
0.0
  0
LINE
  5
314
330
1E
100
AcDbEntity
  8
0
100
AcDbLine
 10
115.6705142857139
 20
120.2499774999999
 30
0.0
 11
124.3848
 21
120.2499774999999
 31
0.0
  0
LINE
  5
315
330
1E
100
AcDbEntity
  8
0
100
AcDbLine
 10
115.5348
 20
122.9999774999999
 30
0.0
 11
116.6347999999999
 21
125.6999774999999
 31
0.0
  0
LINE
  5
316
330
1E
100
AcDbEntity
  8
0
100
AcDbLine
 10
115.5807999999999
 20
126.4479774999999
 30
0.0
 11
117.6607999999999
 21
129.2039774999999
 31
0.0
  0
LINE
  5
317
330
1E
100
AcDbEntity
  8
0
100
AcDbLine
 10
114.3328
 20
123.3279774999999
 30
0.0
 11
115.5807999999999
 21
126.4479774999999
 31
0.0
  0
LINE
  5
318
330
1E
100
AcDbEntity
  8
0
100
AcDbLine
 10
116.2348
 20
125.9999774999999
 30
0.0
 11
118.1348
 21
128.4999774999999
 31
0.0
  0
LINE
  5
319
330
1E
100
AcDbEntity
  8
0
100
AcDbLine
 10
115.0348
 20
123.0999774999999
 30
0.0
 11
116.2348
 21
125.9999774999999
 31
0.0
  0
LINE
  5
31A
330
1E
100
AcDbEntity
  8
0
100
AcDbLine
 10
117.1348
 20
125.4999774999999
 30
0.0
 11
118.8347999999999
 21
127.7999775
 31
0.0
  0
LINE
  5
31B
330
1E
100
AcDbEntity
  8
0
100
AcDbLine
 10
117.276161179534
 20
125.691230860546
 30
0.0
 11
124.8107999999999
 21
121.3409774999999
 31
0.0
  0
LINE
  5
31C
330
1E
100
AcDbEntity
  8
0
100
AcDbLine
 10
117.0347076933729
 20
125.2542963837339
 30
0.0
 11
124.5608
 21
120.9089775
 31
0.0
  0
LINE
  5
31D
330
1E
100
AcDbEntity
  8
0
100
AcDbLine
 10
117.0347076933729
 20
125.2542963837339
 30
0.0
 11
119.1646288930579
 21
124.024549732645
 31
0.0
  0
LINE
  5
31E
330
1E
100
AcDbEntity
  8
0
100
AcDbLine
 10
117.6607999999999
 20
129.2039774999999
 30
0.0
 11
120.4167999999999
 21
131.2839775
 31
0.0
  0
LINE
  5
31F
330
1E
100
AcDbEntity
  8
0
100
AcDbLine
 10
116.6347999999999
 20
125.6999774999999
 30
0.0
 11
118.5348
 21
128.0999774999999
 31
0.0
  0
LINE
  5
320
330
1E
100
AcDbEntity
  8
0
100
AcDbLine
 10
118.9348
 20
122.0999774999999
 30
0.0
 11
119.7348
 21
123.9999774999999
 31
0.0
  0
LINE
  5
321
330
1E
100
AcDbEntity
  8
0
100
AcDbLine
 10
119.2348
 20
124.1999774999999
 30
0.0
 11
120.6347999999999
 21
125.9999774999999
 31
0.0
  0
LINE
  5
322
330
1E
100
AcDbEntity
  8
0
100
AcDbLine
 10
119.428242712945
 20
124.448689559501
 30
0.0
 11
120.6347999999999
 21
125.9999774999999
 31
0.0
  0
LINE
  5
323
330
1E
100
AcDbEntity
  8
0
100
AcDbLine
 10
118.4347999999999
 20
122.1999775
 30
0.0
 11
119.1646288930579
 21
124.024549732645
 31
0.0
  0
LINE
  5
324
330
1E
100
AcDbEntity
  8
0
100
AcDbLine
 10
118.4347999999999
 20
122.1999775
 30
0.0
 11
119.2348
 21
124.1999774999999
 31
0.0
  0
LINE
  5
325
330
1E
100
AcDbEntity
  8
0
100
AcDbLine
 10
118.1688909090909
 20
120.2499774999999
 30
0.0
 11
118.4347999999999
 21
122.1999775
 31
0.0
  0
LINE
  5
326
330
1E
100
AcDbEntity
  8
0
100
AcDbLine
 10
118.8347999999999
 20
127.7999775
 30
0.0
 11
121.1348
 21
129.4999774999999
 31
0.0
  0
LINE
  5
327
330
1E
100
AcDbEntity
  8
0
100
AcDbLine
 10
119.7348
 20
123.9999774999999
 30
0.0
 11
121.0347999999999
 21
125.5999775
 31
0.0
  0
LINE
  5
328
330
1E
100
AcDbEntity
  8
0
100
AcDbLine
 10
120.6347999999999
 20
125.9999774999999
 30
0.0
 11
122.185397839561
 21
127.2059980418809
 31
0.0
  0
LINE
  5
329
330
1E
100
AcDbEntity
  8
0
100
AcDbLine
 10
120.6347999999999
 20
125.9999774999999
 30
0.0
 11
122.4347999999999
 21
127.3999774999999
 31
0.0
  0
LINE
  5
32A
330
1E
100
AcDbEntity
  8
0
100
AcDbLine
 10
119.63161979075
 20
123.754924503031
 30
0.0
 11
121.766473935165
 21
122.522329731429
 31
0.0
  0
LINE
  5
32B
330
1E
100
AcDbEntity
  8
0
100
AcDbLine
 10
118.5348
 20
128.0999774999999
 30
0.0
 11
120.9348
 21
129.9999775
 31
0.0
  0
LINE
  5
32C
330
1E
100
AcDbEntity
  8
0
100
AcDbLine
 10
124.1764666666669
 20
120.2499774999999
 30
0.0
 11
124.2348
 21
120.5999774999999
 31
0.0
  0
LINE
  5
32D
330
1E
100
AcDbEntity
  8
0
100
AcDbLine
 10
121.1705142857139
 20
120.2499774999999
 30
0.0
 11
121.3348
 21
121.3999775
 31
0.0
  0
LINE
  5
32E
330
1E
100
AcDbEntity
  8
0
100
AcDbLine
 10
121.8347999999999
 20
121.2999774999999
 30
0.0
 11
122.3348
 21
122.4999774999999
 31
0.0
  0
LINE
  5
32F
330
1E
100
AcDbEntity
  8
0
100
AcDbLine
 10
121.8347999999999
 20
122.6999774999999
 30
0.0
 11
122.7348
 21
123.8999774999999
 31
0.0
  0
LINE
  5
330
330
1E
100
AcDbEntity
  8
0
100
AcDbLine
 10
122.022817324738
 20
122.950667266318
 30
0.0
 11
122.7348
 21
123.8999774999999
 31
0.0
  0
LINE
  5
331
330
1E
100
AcDbEntity
  8
0
100
AcDbLine
 10
121.3348
 20
121.3999775
 30
0.0
 11
121.766473935165
 21
122.522329731429
 31
0.0
  0
LINE
  5
332
330
1E
100
AcDbEntity
  8
0
100
AcDbLine
 10
121.3348
 20
121.3999775
 30
0.0
 11
121.8347999999999
 21
122.6999774999999
 31
0.0
  0
LINE
  5
333
330
1E
100
AcDbEntity
  8
0
100
AcDbLine
 10
121.0347999999999
 20
125.5999775
 30
0.0
 11
122.6347999999999
 21
126.8999774999999
 31
0.0
  0
LINE
  5
334
330
1E
100
AcDbEntity
  8
0
100
AcDbLine
 10
121.1348
 20
129.4999774999999
 30
0.0
 11
123.8348
 21
130.5999774999999
 31
0.0
  0
LINE
  5
335
330
1E
100
AcDbEntity
  8
0
100
AcDbLine
 10
121.3812906862409
 20
129.6003996314309
 30
0.0
 11
125.7268
 21
122.0739774999999
 31
0.0
  0
LINE
  5
336
330
1E
100
AcDbEntity
  8
0
100
AcDbLine
 10
121.3812906862409
 20
129.6003996314309
 30
0.0
 11
123.8348
 21
130.5999774999999
 31
0.0
  0
LINE
  5
337
330
1E
100
AcDbEntity
  8
0
100
AcDbLine
 10
120.9428457456539
 20
129.3580982685269
 30
0.0
 11
125.2928
 21
121.8239774999999
 31
0.0
  0
LINE
  5
338
330
1E
100
AcDbEntity
  8
0
100
AcDbLine
 10
120.9428457456539
 20
129.3580982685269
 30
0.0
 11
122.185397839561
 21
127.2059980418809
 31
0.0
  0
LINE
  5
339
330
1E
100
AcDbEntity
  8
0
100
AcDbLine
 10
124.7348
 20
120.4999774999999
 30
0.0
 11
124.9347999999999
 21
120.9999774999999
 31
0.0
  0
LINE
  5
33A
330
1E
100
AcDbEntity
  8
0
100
AcDbLine
 10
124.2348
 20
120.5999774999999
 30
0.0
 11
124.3737909619109
 21
121.0169503857329
 31
0.0
  0
LINE
  5
33B
330
1E
100
AcDbEntity
  8
0
100
AcDbLine
 10
124.2348
 20
120.5999774999999
 30
0.0
 11
124.4348
 21
121.1999775
 31
0.0
  0
LINE
  5
33C
330
1E
100
AcDbEntity
  8
0
100
AcDbLine
 10
122.3348
 20
122.4999774999999
 30
0.0
 11
123.1348
 21
123.4999774999999
 31
0.0
  0
LINE
  5
33D
330
1E
100
AcDbEntity
  8
0
100
AcDbLine
 10
122.4347999999999
 20
127.3999774999999
 30
0.0
 11
124.4348
 21
128.1999774999999
 31
0.0
  0
LINE
  5
33E
330
1E
100
AcDbEntity
  8
0
100
AcDbLine
 10
124.9347999999999
 20
120.9999774999999
 30
0.0
 11
125.2348
 21
121.3999775
 31
0.0
  0
LINE
  5
33F
330
1E
100
AcDbEntity
  8
0
100
AcDbLine
 10
124.4348
 20
121.1999775
 30
0.0
 11
124.8348
 21
121.7999775
 31
0.0
  0
LINE
  5
340
330
1E
100
AcDbEntity
  8
0
100
AcDbLine
 10
124.607176876042
 20
121.4585428140629
 30
0.0
 11
124.8348
 21
121.7999775
 31
0.0
  0
LINE
  5
341
330
1E
100
AcDbEntity
  8
0
100
AcDbLine
 10
125.2348
 20
121.3999775
 30
0.0
 11
125.6348
 21
121.6999774999999
 31
0.0
  0
LINE
  5
342
330
1E
100
AcDbEntity
  8
0
100
AcDbLine
 10
124.8348
 20
121.7999775
 30
0.0
 11
125.1755126181209
 21
122.027119245414
 31
0.0
  0
LINE
  5
343
330
1E
100
AcDbEntity
  8
0
100
AcDbLine
 10
124.8348
 20
121.7999775
 30
0.0
 11
125.4348
 21
122.1999775
 31
0.0
  0
LINE
  5
344
330
1E
100
AcDbEntity
  8
0
100
AcDbLine
 10
123.1348
 20
123.4999774999999
 30
0.0
 11
124.1348
 21
124.2999774999999
 31
0.0
  0
LINE
  5
345
330
1E
100
AcDbEntity
  8
0
100
AcDbLine
 10
122.7348
 20
123.8999774999999
 30
0.0
 11
123.6834124093469
 21
124.61143680701
 31
0.0
  0
LINE
  5
346
330
1E
100
AcDbEntity
  8
0
100
AcDbLine
 10
122.7348
 20
123.8999774999999
 30
0.0
 11
123.9347999999999
 21
124.7999775
 31
0.0
  0
LINE
  5
347
330
1E
100
AcDbEntity
  8
0
100
AcDbLine
 10
125.6348
 20
121.6999774999999
 30
0.0
 11
126.1347999999999
 21
121.8999774999999
 31
0.0
  0
LINE
  5
348
330
1E
100
AcDbEntity
  8
0
100
AcDbLine
 10
126.1347999999999
 20
121.8999774999999
 30
0.0
 11
126.6348
 21
121.9999774999999
 31
0.0
  0
LINE
  5
349
330
1E
100
AcDbEntity
  8
0
100
AcDbLine
 10
125.4348
 20
122.1999775
 30
0.0
 11
126.0348
 21
122.3999775
 31
0.0
  0
LINE
  5
34A
330
1E
100
AcDbEntity
  8
0
100
AcDbLine
 10
126.6348
 20
121.9999774999999
 30
0.0
 11
127.1347999999999
 21
121.8999774999999
 31
0.0
  0
LINE
  5
34B
330
1E
100
AcDbEntity
  8
0
100
AcDbLine
 10
126.0348
 20
122.3999775
 30
0.0
 11
126.6348
 21
122.4999774999999
 31
0.0
  0
LINE
  5
34C
330
1E
100
AcDbEntity
  8
0
100
AcDbLine
 10
126.0348
 20
122.3999775
 30
0.0
 11
126.3848
 21
122.458310833333
 31
0.0
  0
LINE
  5
34D
330
1E
100
AcDbEntity
  8
0
100
AcDbLine
 10
125.6186657198189
 20
122.2612660732729
 30
0.0
 11
126.0348
 21
122.3999775
 31
0.0
  0
LINE
  5
34E
330
1E
100
AcDbEntity
  8
0
100
AcDbLine
 10
126.6348
 20
122.4999774999999
 30
0.0
 11
127.2348
 21
122.3999775
 31
0.0
  0
LINE
  5
34F
330
1E
100
AcDbEntity
  8
0
100
AcDbLine
 10
126.3848
 20
122.458310833333
 30
0.0
 11
126.3848
 21
124.9615159615379
 31
0.0
  0
LINE
  5
350
330
1E
100
AcDbEntity
  8
0
100
AcDbLine
 10
126.3848
 20
122.2499774999999
 30
0.0
 11
126.3848
 21
130.964263214286
 31
0.0
  0
LINE
  5
351
330
1E
100
AcDbEntity
  8
0
100
AcDbLine
 10
126.3848
 20
122.2499774999999
 30
0.0
 11
126.8847999999999
 21
122.2499774999999
 31
0.0
  0
LINE
  5
352
330
1E
100
AcDbEntity
  8
0
100
AcDbLine
 10
125.2928
 20
121.8239774999999
 30
0.0
 11
125.7268
 21
122.0739774999999
 31
0.0
  0
LINE
  5
353
330
1E
100
AcDbEntity
  8
0
100
AcDbLine
 10
123.9347999999999
 20
124.7999775
 30
0.0
 11
125.2348
 21
125.2999774999999
 31
0.0
  0
LINE
  5
354
330
1E
100
AcDbEntity
  8
0
100
AcDbLine
 10
124.1348
 20
124.2999774999999
 30
0.0
 11
125.3348
 21
124.7999775
 31
0.0
  0
LINE
  5
355
330
1E
100
AcDbEntity
  8
0
100
AcDbLine
 10
125.3348
 20
124.7999775
 30
0.0
 11
126.6348
 21
124.9999774999999
 31
0.0
  0
LINE
  5
356
330
1E
100
AcDbEntity
  8
0
100
AcDbLine
 10
124.1132660561129
 20
124.868618290813
 30
0.0
 11
125.2348
 21
125.2999774999999
 31
0.0
  0
LINE
  5
357
330
1E
100
AcDbEntity
  8
0
100
AcDbLine
 10
125.2348
 20
125.2999774999999
 30
0.0
 11
126.3848
 21
125.464263214286
 31
0.0
  0
LINE
  5
358
330
1E
100
AcDbEntity
  8
0
100
AcDbLine
 10
125.2348
 20
125.2999774999999
 30
0.0
 11
126.6348
 21
125.4999774999999
 31
0.0
  0
LINE
  5
359
330
1E
100
AcDbEntity
  8
0
100
AcDbLine
 10
122.6347999999999
 20
126.8999774999999
 30
0.0
 11
124.5348
 21
127.6999774999999
 31
0.0
  0
LINE
  5
35A
330
1E
100
AcDbEntity
  8
0
100
AcDbLine
 10
124.5348
 20
127.6999774999999
 30
0.0
 11
126.6348
 21
127.9999774999999
 31
0.0
  0
LINE
  5
35B
330
1E
100
AcDbEntity
  8
0
100
AcDbLine
 10
124.4348
 20
128.1999774999999
 30
0.0
 11
126.6348
 21
128.4999774999999
 31
0.0
  0
LINE
  5
35C
330
1E
100
AcDbEntity
  8
0
100
AcDbLine
 10
122.611040150094
 20
127.470473560038
 30
0.0
 11
124.4348
 21
128.1999774999999
 31
0.0
  0
LINE
  5
35D
330
1E
100
AcDbEntity
  8
0
100
AcDbLine
 10
126.3848
 20
125.464263214286
 30
0.0
 11
126.3848
 21
127.964263214286
 31
0.0
  0
LINE
  5
35E
330
1E
100
AcDbEntity
  8
0
100
AcDbLine
 10
126.3848
 20
128.465886590909
 30
0.0
 11
126.3848
 21
130.964263214286
 31
0.0
  0
LINE
  5
35F
330
1E
100
AcDbEntity
  8
0
100
AcDbLine
 10
126.3848
 20
124.9615159615379
 30
0.0
 11
126.3848
 21
122.458310833333
 31
0.0
  0
LINE
  5
360
330
1E
100
AcDbEntity
  8
0
100
AcDbLine
 10
126.6348
 20
124.9999774999999
 30
0.0
 11
127.9347999999999
 21
124.7999775
 31
0.0
  0
LINE
  5
361
330
1E
100
AcDbEntity
  8
0
100
AcDbLine
 10
126.6348
 20
125.4999774999999
 30
0.0
 11
128.0347999999999
 21
125.2999774999999
 31
0.0
  0
LINE
  5
362
330
1E
100
AcDbEntity
  8
0
100
AcDbLine
 10
126.6348
 20
127.9999774999999
 30
0.0
 11
128.7348
 21
127.6999774999999
 31
0.0
  0
LINE
  5
363
330
1E
100
AcDbEntity
  8
0
100
AcDbLine
 10
126.6348
 20
128.4999774999999
 30
0.0
 11
128.8348
 21
128.1999774999999
 31
0.0
  0
LINE
  5
364
330
1E
100
AcDbEntity
  8
0
100
AcDbLine
 10
126.3848
 20
127.964263214286
 30
0.0
 11
126.3848
 21
125.464263214286
 31
0.0
  0
LINE
  5
365
330
1E
100
AcDbEntity
  8
0
100
AcDbLine
 10
123.949040126382
 20
124.1513696011059
 30
0.0
 11
125.1755126181209
 21
122.027119245414
 31
0.0
  0
LINE
  5
366
330
1E
100
AcDbEntity
  8
0
100
AcDbLine
 10
122.4491666732169
 20
126.7491504219889
 30
0.0
 11
123.6834124093469
 21
124.61143680701
 31
0.0
  0
LINE
  5
367
330
1E
100
AcDbEntity
  8
0
100
AcDbLine
 10
124.5608
 20
120.9089775
 30
0.0
 11
124.8107999999999
 21
121.3409774999999
 31
0.0
  0
LINE
  5
368
330
1E
100
AcDbEntity
  8
0
100
AcDbLine
 10
122.232098324542
 20
122.2534934789019
 30
0.0
 11
124.3737909619109
 21
121.0169503857329
 31
0.0
  0
LINE
  5
369
330
1E
100
AcDbEntity
  8
0
100
AcDbLine
 10
124.3848
 20
120.2499774999999
 30
0.0
 11
124.3848
 21
119.7499774999999
 31
0.0
  0
LINE
  5
36A
330
1E
100
AcDbEntity
  8
0
100
AcDbLine
 10
120.9348
 20
129.9999775
 30
0.0
 11
123.6348
 21
131.0999774999999
 31
0.0
  0
LINE
  5
36B
330
1E
100
AcDbEntity
  8
0
100
AcDbLine
 10
120.4167999999999
 20
131.2839775
 30
0.0
 11
123.5368
 21
132.5319774999999
 31
0.0
  0
LINE
  5
36C
330
1E
100
AcDbEntity
  8
0
100
AcDbLine
 10
123.8348
 20
130.5999774999999
 30
0.0
 11
126.6348
 21
130.9999775
 31
0.0
  0
LINE
  5
36D
330
1E
100
AcDbEntity
  8
0
100
AcDbLine
 10
126.6348
 20
130.9999775
 30
0.0
 11
129.4348
 21
130.5999774999999
 31
0.0
  0
LINE
  5
36E
330
1E
100
AcDbEntity
  8
0
100
AcDbLine
 10
126.3848
 20
130.964263214286
 30
0.0
 11
126.3848
 21
128.465886590909
 31
0.0
  0
LINE
  5
36F
330
1E
100
AcDbEntity
  8
0
100
AcDbLine
 10
126.3848
 20
130.964263214286
 30
0.0
 11
126.3848
 21
122.2499774999999
 31
0.0
  0
LINE
  5
370
330
1E
100
AcDbEntity
  8
0
100
AcDbLine
 10
123.6348
 20
131.0999774999999
 30
0.0
 11
126.6348
 21
131.4999774999999
 31
0.0
  0
LINE
  5
371
330
1E
100
AcDbEntity
  8
0
100
AcDbLine
 10
120.6347999999999
 20
130.3999774999999
 30
0.0
 11
123.5348
 21
131.5999774999999
 31
0.0
  0
LINE
  5
372
330
1E
100
AcDbEntity
  8
0
100
AcDbLine
 10
118.1348
 20
128.4999774999999
 30
0.0
 11
120.6347999999999
 21
130.3999774999999
 31
0.0
  0
LINE
  5
373
330
1E
100
AcDbEntity
  8
0
100
AcDbLine
 10
123.5368
 20
132.5319774999999
 30
0.0
 11
126.8647999999999
 21
132.9999775
 31
0.0
  0
LINE
  5
374
330
1E
100
AcDbEntity
  8
0
100
AcDbLine
 10
123.5348
 20
131.5999774999999
 30
0.0
 11
126.6348
 21
131.9999775
 31
0.0
  0
LINE
  5
375
330
1E
100
AcDbEntity
  8
0
100
AcDbLine
 10
126.6348
 20
131.4999774999999
 30
0.0
 11
129.6348
 21
131.0999774999999
 31
0.0
  0
LINE
  5
376
330
1E
100
AcDbEntity
  8
0
100
AcDbLine
 10
126.8647999999999
 20
132.9999775
 30
0.0
 11
130.1927999999999
 21
132.5319774999999
 31
0.0
  0
LINE
  5
377
330
1E
100
AcDbEntity
  8
0
100
AcDbLine
 10
126.6348
 20
131.9999775
 30
0.0
 11
129.7348
 21
131.5999774999999
 31
0.0
  0
LINE
  5
378
330
1E
100
AcDbEntity
  8
0
100
AcDbLine
 10
114.6347999999999
 20
119.9999774999999
 30
0.0
 11
115.0348
 21
116.8999774999999
 31
0.0
  0
LINE
  5
379
330
1E
100
AcDbEntity
  8
0
100
AcDbLine
 10
114.6347999999999
 20
119.9999774999999
 30
0.0
 11
115.0348
 21
123.0999774999999
 31
0.0
  0
LINE
  5
37A
330
1E
100
AcDbEntity
  8
0
100
AcDbLine
 10
126.8847999999999
 20
122.458310833333
 30
0.0
 11
127.2348
 21
122.3999775
 31
0.0
  0
LINE
  5
37B
330
1E
100
AcDbEntity
  8
0
100
AcDbLine
 10
126.8847999999999
 20
124.9615159615379
 30
0.0
 11
127.9347999999999
 21
124.7999775
 31
0.0
  0
LINE
  5
37C
330
1E
100
AcDbEntity
  8
0
100
AcDbLine
 10
128.3347999999999
 20
120.9999774999999
 30
0.0
 11
128.5347999999999
 21
120.4999774999999
 31
0.0
  0
LINE
  5
37D
330
1E
100
AcDbEntity
  8
0
100
AcDbLine
 10
128.5347999999999
 20
120.4999774999999
 30
0.0
 11
128.6348
 21
119.9999774999999
 31
0.0
  0
LINE
  5
37E
330
1E
100
AcDbEntity
  8
0
100
AcDbLine
 10
128.0347999999999
 20
121.3999775
 30
0.0
 11
128.3347999999999
 21
120.9999774999999
 31
0.0
  0
LINE
  5
37F
330
1E
100
AcDbEntity
  8
0
100
AcDbLine
 10
128.4348
 20
121.7999775
 30
0.0
 11
128.8348
 21
121.1999775
 31
0.0
  0
LINE
  5
380
330
1E
100
AcDbEntity
  8
0
100
AcDbLine
 10
127.6348
 20
121.6999774999999
 30
0.0
 11
128.0347999999999
 21
121.3999775
 31
0.0
  0
LINE
  5
381
330
1E
100
AcDbEntity
  8
0
100
AcDbLine
 10
128.662423123958
 20
121.4585428140629
 30
0.0
 11
130.7867393364929
 21
122.6850533293839
 31
0.0
  0
LINE
  5
382
330
1E
100
AcDbEntity
  8
0
100
AcDbLine
 10
128.4588
 20
121.3409774999999
 30
0.0
 11
128.7088
 21
120.9089775
 31
0.0
  0
LINE
  5
383
330
1E
100
AcDbEntity
  8
0
100
AcDbLine
 10
128.4588
 20
121.3409774999999
 30
0.0
 11
135.9934388204659
 21
125.691230860546
 31
0.0
  0
LINE
  5
384
330
1E
100
AcDbEntity
  8
0
100
AcDbLine
 10
128.8348
 20
121.1999775
 30
0.0
 11
129.0347999999999
 21
120.5999774999999
 31
0.0
  0
LINE
  5
385
330
1E
100
AcDbEntity
  8
0
100
AcDbLine
 10
129.0347999999999
 20
120.5999774999999
 30
0.0
 11
129.1348
 21
119.9999774999999
 31
0.0
  0
LINE
  5
386
330
1E
100
AcDbEntity
  8
0
100
AcDbLine
 10
131.4348
 20
121.2999774999999
 30
0.0
 11
131.6348
 21
119.9999774999999
 31
0.0
  0
LINE
  5
387
330
1E
100
AcDbEntity
  8
0
100
AcDbLine
 10
131.4348
 20
121.2999774999999
 30
0.0
 11
131.5963384615379
 21
120.2499774999999
 31
0.0
  0
LINE
  5
388
330
1E
100
AcDbEntity
  8
0
100
AcDbLine
 10
131.9347999999999
 20
121.3999775
 30
0.0
 11
132.1348
 21
119.9999774999999
 31
0.0
  0
LINE
  5
389
330
1E
100
AcDbEntity
  8
0
100
AcDbLine
 10
128.7088
 20
120.9089775
 30
0.0
 11
136.234892306627
 21
125.2542963837339
 31
0.0
  0
LINE
  5
38A
330
1E
100
AcDbEntity
  8
0
100
AcDbLine
 10
127.1347999999999
 20
121.8999774999999
 30
0.0
 11
127.6348
 21
121.6999774999999
 31
0.0
  0
LINE
  5
38B
330
1E
100
AcDbEntity
  8
0
100
AcDbLine
 10
127.2348
 20
122.3999775
 30
0.0
 11
127.650934280181
 21
122.2612660732729
 31
0.0
  0
LINE
  5
38C
330
1E
100
AcDbEntity
  8
0
100
AcDbLine
 10
127.2348
 20
122.3999775
 30
0.0
 11
127.8348
 21
122.1999775
 31
0.0
  0
LINE
  5
38D
330
1E
100
AcDbEntity
  8
0
100
AcDbLine
 10
127.8348
 20
122.1999775
 30
0.0
 11
128.4348
 21
121.7999775
 31
0.0
  0
LINE
  5
38E
330
1E
100
AcDbEntity
  8
0
100
AcDbLine
 10
130.1348
 20
123.4999774999999
 30
0.0
 11
130.9347999999999
 21
122.4999774999999
 31
0.0
  0
LINE
  5
38F
330
1E
100
AcDbEntity
  8
0
100
AcDbLine
 10
130.1348
 20
123.4999774999999
 30
0.0
 11
130.7867393364929
 21
122.6850533293839
 31
0.0
  0
LINE
  5
390
330
1E
100
AcDbEntity
  8
0
100
AcDbLine
 10
131.037501675458
 20
122.2534934789019
 30
0.0
 11
131.4348
 21
121.2999774999999
 31
0.0
  0
LINE
  5
391
330
1E
100
AcDbEntity
  8
0
100
AcDbLine
 10
130.9347999999999
 20
122.4999774999999
 30
0.0
 11
131.4348
 21
121.2999774999999
 31
0.0
  0
LINE
  5
392
330
1E
100
AcDbEntity
  8
0
100
AcDbLine
 10
130.5347999999999
 20
123.8999774999999
 30
0.0
 11
131.4348
 21
122.6999774999999
 31
0.0
  0
LINE
  5
393
330
1E
100
AcDbEntity
  8
0
100
AcDbLine
 10
129.320355594565
 20
124.151533024348
 30
0.0
 11
130.1348
 21
123.4999774999999
 31
0.0
  0
LINE
  5
394
330
1E
100
AcDbEntity
  8
0
100
AcDbLine
 10
129.1348
 20
124.2999774999999
 30
0.0
 11
130.1348
 21
123.4999774999999
 31
0.0
  0
LINE
  5
395
330
1E
100
AcDbEntity
  8
0
100
AcDbLine
 10
134.3347999999999
 20
122.0999774999999
 30
0.0
 11
134.6348
 21
119.9999774999999
 31
0.0
  0
LINE
  5
396
330
1E
100
AcDbEntity
  8
0
100
AcDbLine
 10
134.3347999999999
 20
122.0999774999999
 30
0.0
 11
134.599085714286
 21
120.2499774999999
 31
0.0
  0
LINE
  5
397
330
1E
100
AcDbEntity
  8
0
100
AcDbLine
 10
131.4348
 20
122.6999774999999
 30
0.0
 11
131.9347999999999
 21
121.3999775
 31
0.0
  0
LINE
  5
398
330
1E
100
AcDbEntity
  8
0
100
AcDbLine
 10
133.6379802092499
 20
123.754924503031
 30
0.0
 11
134.3347999999999
 21
122.0999774999999
 31
0.0
  0
LINE
  5
399
330
1E
100
AcDbEntity
  8
0
100
AcDbLine
 10
133.5347999999999
 20
123.9999774999999
 30
0.0
 11
134.3347999999999
 21
122.0999774999999
 31
0.0
  0
LINE
  5
39A
330
1E
100
AcDbEntity
  8
0
100
AcDbLine
 10
134.0347999999999
 20
124.1999774999999
 30
0.0
 11
134.8348
 21
122.1999775
 31
0.0
  0
LINE
  5
39B
330
1E
100
AcDbEntity
  8
0
100
AcDbLine
 10
134.8348
 20
122.1999775
 30
0.0
 11
135.1348
 21
119.9999774999999
 31
0.0
  0
LINE
  5
39C
330
1E
100
AcDbEntity
  8
0
100
AcDbLine
 10
131.2467826752619
 20
122.950667266318
 30
0.0
 11
133.3845259775989
 21
124.1849301429549
 31
0.0
  0
LINE
  5
39D
330
1E
100
AcDbEntity
  8
0
100
AcDbLine
 10
127.9347999999999
 20
124.7999775
 30
0.0
 11
129.1348
 21
124.2999774999999
 31
0.0
  0
LINE
  5
39E
330
1E
100
AcDbEntity
  8
0
100
AcDbLine
 10
127.9347999999999
 20
124.7999775
 30
0.0
 11
128.887509897611
 21
124.403015042662
 31
0.0
  0
LINE
  5
39F
330
1E
100
AcDbEntity
  8
0
100
AcDbLine
 10
129.3347999999999
 20
124.7999775
 30
0.0
 11
130.5347999999999
 21
123.8999774999999
 31
0.0
  0
LINE
  5
3A0
330
1E
100
AcDbEntity
  8
0
100
AcDbLine
 10
133.8413572870549
 20
124.448689559501
 30
0.0
 11
135.9934388204659
 21
125.691230860546
 31
0.0
  0
LINE
  5
3A1
330
1E
100
AcDbEntity
  8
0
100
AcDbLine
 10
127.650934280181
 20
122.2612660732729
 30
0.0
 11
128.887509897611
 21
124.403015042662
 31
0.0
  0
LINE
  5
3A2
330
1E
100
AcDbEntity
  8
0
100
AcDbLine
 10
136.234892306627
 20
125.2542963837339
 30
0.0
 11
137.2348
 21
122.7999775
 31
0.0
  0
LINE
  5
3A3
330
1E
100
AcDbEntity
  8
0
100
AcDbLine
 10
132.2348
 20
125.5999775
 30
0.0
 11
133.5347999999999
 21
123.9999774999999
 31
0.0
  0
LINE
  5
3A4
330
1E
100
AcDbEntity
  8
0
100
AcDbLine
 10
132.2348
 20
125.5999775
 30
0.0
 11
133.3845259775989
 21
124.1849301429549
 31
0.0
  0
LINE
  5
3A5
330
1E
100
AcDbEntity
  8
0
100
AcDbLine
 10
132.6348
 20
125.9999774999999
 30
0.0
 11
134.0347999999999
 21
124.1999774999999
 31
0.0
  0
LINE
  5
3A6
330
1E
100
AcDbEntity
  8
0
100
AcDbLine
 10
136.1348
 20
125.4999774999999
 30
0.0
 11
137.2348
 21
122.7999775
 31
0.0
  0
LINE
  5
3A7
330
1E
100
AcDbEntity
  8
0
100
AcDbLine
 10
128.0347999999999
 20
125.2999774999999
 30
0.0
 11
129.3347999999999
 21
124.7999775
 31
0.0
  0
LINE
  5
3A8
330
1E
100
AcDbEntity
  8
0
100
AcDbLine
 10
129.156333943887
 20
124.868618290813
 30
0.0
 11
130.388942563802
 21
127.003496420505
 31
0.0
  0
LINE
  5
3A9
330
1E
100
AcDbEntity
  8
0
100
AcDbLine
 10
127.5428
 20
122.0739774999999
 30
0.0
 11
127.9768
 21
121.8239774999999
 31
0.0
  0
LINE
  5
3AA
330
1E
100
AcDbEntity
  8
0
100
AcDbLine
 10
127.5428
 20
122.0739774999999
 30
0.0
 11
131.888309313759
 21
129.6003996314309
 31
0.0
  0
LINE
  5
3AB
330
1E
100
AcDbEntity
  8
0
100
AcDbLine
 10
127.9768
 20
121.8239774999999
 30
0.0
 11
132.3260766857609
 21
129.3585990800899
 31
0.0
  0
LINE
  5
3AC
330
1E
100
AcDbEntity
  8
0
100
AcDbLine
 10
126.8847999999999
 20
122.2499774999999
 30
0.0
 11
126.8847999999999
 21
130.964263214286
 31
0.0
  0
LINE
  5
3AD
330
1E
100
AcDbEntity
  8
0
100
AcDbLine
 10
128.8848
 20
120.2499774999999
 30
0.0
 11
128.8848
 21
119.7499774999999
 31
0.0
  0
LINE
  5
3AE
330
1E
100
AcDbEntity
  8
0
100
AcDbLine
 10
128.8848
 20
120.2499774999999
 30
0.0
 11
137.5990857142859
 21
120.2499774999999
 31
0.0
  0
LINE
  5
3AF
330
1E
100
AcDbEntity
  8
0
100
AcDbLine
 10
136.6348
 20
125.6999774999999
 30
0.0
 11
137.7348
 21
122.9999774999999
 31
0.0
  0
LINE
  5
3B0
330
1E
100
AcDbEntity
  8
0
100
AcDbLine
 10
130.6348
 20
126.8999774999999
 30
0.0
 11
132.2348
 21
125.5999775
 31
0.0
  0
LINE
  5
3B1
330
1E
100
AcDbEntity
  8
0
100
AcDbLine
 10
126.8847999999999
 20
127.964263214286
 30
0.0
 11
128.7348
 21
127.6999774999999
 31
0.0
  0
LINE
  5
3B2
330
1E
100
AcDbEntity
  8
0
100
AcDbLine
 10
128.7348
 20
127.6999774999999
 30
0.0
 11
130.6348
 21
126.8999774999999
 31
0.0
  0
LINE
  5
3B3
330
1E
100
AcDbEntity
  8
0
100
AcDbLine
 10
130.820003159544
 20
126.749499932871
 30
0.0
 11
132.2348
 21
125.5999775
 31
0.0
  0
LINE
  5
3B4
330
1E
100
AcDbEntity
  8
0
100
AcDbLine
 10
134.4347999999999
 20
127.7999775
 30
0.0
 11
136.1348
 21
125.4999774999999
 31
0.0
  0
LINE
  5
3B5
330
1E
100
AcDbEntity
  8
0
100
AcDbLine
 10
134.4347999999999
 20
127.7999775
 30
0.0
 11
135.9934388204659
 21
125.691230860546
 31
0.0
  0
LINE
  5
3B6
330
1E
100
AcDbEntity
  8
0
100
AcDbLine
 10
134.4347999999999
 20
127.7999775
 30
0.0
 11
135.9934388204659
 21
125.691230860546
 31
0.0
  0
LINE
  5
3B7
330
1E
100
AcDbEntity
  8
0
100
AcDbLine
 10
130.8348
 20
127.3999774999999
 30
0.0
 11
132.6348
 21
125.9999774999999
 31
0.0
  0
LINE
  5
3B8
330
1E
100
AcDbEntity
  8
0
100
AcDbLine
 10
130.6585598499059
 20
127.470473560038
 30
0.0
 11
131.888309313759
 21
129.6003996314309
 31
0.0
  0
LINE
  5
3B9
330
1E
100
AcDbEntity
  8
0
100
AcDbLine
 10
128.8348
 20
128.1999774999999
 30
0.0
 11
130.6585598499059
 21
127.470473560038
 31
0.0
  0
LINE
  5
3BA
330
1E
100
AcDbEntity
  8
0
100
AcDbLine
 10
128.8348
 20
128.1999774999999
 30
0.0
 11
130.8348
 21
127.3999774999999
 31
0.0
  0
LINE
  5
3BB
330
1E
100
AcDbEntity
  8
0
100
AcDbLine
 10
129.4348
 20
130.5999774999999
 30
0.0
 11
132.1348
 21
129.4999774999999
 31
0.0
  0
LINE
  5
3BC
330
1E
100
AcDbEntity
  8
0
100
AcDbLine
 10
129.4348
 20
130.5999774999999
 30
0.0
 11
131.888309313759
 21
129.6003996314309
 31
0.0
  0
LINE
  5
3BD
330
1E
100
AcDbEntity
  8
0
100
AcDbLine
 10
126.8847999999999
 20
130.964263214286
 30
0.0
 11
126.8847999999999
 21
122.2499774999999
 31
0.0
  0
LINE
  5
3BE
330
1E
100
AcDbEntity
  8
0
100
AcDbLine
 10
132.3260766857609
 20
129.3585990800899
 30
0.0
 11
134.4347999999999
 21
127.7999775
 31
0.0
  0
LINE
  5
3BF
330
1E
100
AcDbEntity
  8
0
100
AcDbLine
 10
132.1348
 20
129.4999774999999
 30
0.0
 11
134.4347999999999
 21
127.7999775
 31
0.0
  0
LINE
  5
3C0
330
1E
100
AcDbEntity
  8
0
100
AcDbLine
 10
132.3347999999999
 20
129.9999775
 30
0.0
 11
134.7347999999999
 21
128.0999774999999
 31
0.0
  0
LINE
  5
3C1
330
1E
100
AcDbEntity
  8
0
100
AcDbLine
 10
129.6348
 20
131.0999774999999
 30
0.0
 11
132.3347999999999
 21
129.9999775
 31
0.0
  0
LINE
  5
3C2
330
1E
100
AcDbEntity
  8
0
100
AcDbLine
 10
133.3128
 20
131.2839775
 30
0.0
 11
136.0688
 21
129.2039774999999
 31
0.0
  0
LINE
  5
3C3
330
1E
100
AcDbEntity
  8
0
100
AcDbLine
 10
132.6348
 20
130.3999774999999
 30
0.0
 11
135.1348
 21
128.4999774999999
 31
0.0
  0
LINE
  5
3C4
330
1E
100
AcDbEntity
  8
0
100
AcDbLine
 10
130.1927999999999
 20
132.5319774999999
 30
0.0
 11
133.3128
 21
131.2839775
 31
0.0
  0
LINE
  5
3C5
330
1E
100
AcDbEntity
  8
0
100
AcDbLine
 10
129.7348
 20
131.5999774999999
 30
0.0
 11
132.6348
 21
130.3999774999999
 31
0.0
  0
LINE
  5
3C6
330
1E
100
AcDbEntity
  8
0
100
AcDbLine
 10
134.7347999999999
 20
128.0999774999999
 30
0.0
 11
136.6348
 21
125.6999774999999
 31
0.0
  0
LINE
  5
3C7
330
1E
100
AcDbEntity
  8
0
100
AcDbLine
 10
136.0688
 20
129.2039774999999
 30
0.0
 11
138.1488
 21
126.4479774999999
 31
0.0
  0
LINE
  5
3C8
330
1E
100
AcDbEntity
  8
0
100
AcDbLine
 10
135.1348
 20
128.4999774999999
 30
0.0
 11
137.0347999999999
 21
125.9999774999999
 31
0.0
  0
LINE
  5
3C9
330
1E
100
AcDbEntity
  8
0
100
AcDbLine
 10
137.0347999999999
 20
125.9999774999999
 30
0.0
 11
138.2348
 21
123.0999774999999
 31
0.0
  0
LINE
  5
3CA
330
1E
100
AcDbEntity
  8
0
100
AcDbLine
 10
137.7348
 20
122.9999774999999
 30
0.0
 11
138.1348
 21
119.9999774999999
 31
0.0
  0
LINE
  5
3CB
330
1E
100
AcDbEntity
  8
0
100
AcDbLine
 10
138.1488
 20
126.4479774999999
 30
0.0
 11
139.3968
 21
123.3279774999999
 31
0.0
  0
LINE
  5
3CC
330
1E
100
AcDbEntity
  8
0
100
AcDbLine
 10
139.3968
 20
123.3279774999999
 30
0.0
 11
139.8648
 21
119.9999774999999
 31
0.0
  0
LINE
  5
3CD
330
1E
100
AcDbEntity
  8
0
100
AcDbLine
 10
138.2348
 20
123.0999774999999
 30
0.0
 11
138.6348
 21
119.9999774999999
 31
0.0
  0
LINE
  5
3CE
330
1E
100
AcDbEntity
  8
0
100
AcDbLine
 10
137.2348
 20
122.7999775
 30
0.0
 11
137.6348
 21
119.9999774999999
 31
0.0
  0
LINE
  5
3CF
330
1E
100
AcDbEntity
  8
0
100
AcDbLine
 10
137.2348
 20
122.7999775
 30
0.0
 11
137.5990857142859
 21
120.2499774999999
 31
0.0
  0
LINE
  5
3D0
330
1E
100
AcDbEntity
  8
0
100
AcDbLine
 10
126.8647999999999
 20
176.9999775
 30
0.0
 11
140.8648
 21
176.9999775
 31
0.0
  0
LINE
  5
3D1
330
1E
100
AcDbEntity
  8
0
100
AcDbLine
 10
140.8648
 20
176.9999775
 30
0.0
 11
141.5648
 21
176.9999775
 31
0.0
  0
LINE
  5
3D2
330
1E
100
AcDbEntity
  8
0
100
AcDbLine
 10
141.8648
 20
126.8845245436239
 30
0.0
 11
147.6417999999999
 21
126.6939774999999
 31
0.0
  0
LINE
  5
3D3
330
1E
100
AcDbEntity
  8
0
100
AcDbLine
 10
147.6417999999999
 20
126.6939774999999
 30
0.0
 11
155.7387999999999
 21
126.4589774999999
 31
0.0
  0
LINE
  5
3D4
330
1E
100
AcDbEntity
  8
0
100
AcDbLine
 10
155.7387999999999
 20
126.4589774999999
 30
0.0
 11
165.4948
 21
126.2179774999999
 31
0.0
  0
LINE
  5
3D6
330
1E
100
AcDbEntity
  8
0
100
AcDbLine
 10
141.5648
 20
176.9999775
 30
0.0
 11
141.8648
 21
176.9999775
 31
0.0
  0
LINE
  5
3D7
330
1E
100
AcDbEntity
  8
0
100
AcDbLine
 10
112.8648
 20
176.9999775
 30
0.0
 11
126.8647999999999
 21
176.9999775
 31
0.0
  0
LINE
  5
3D9
330
1E
100
AcDbEntity
  8
0
100
AcDbLine
 10
112.1647999999999
 20
176.9999775
 30
0.0
 11
112.8648
 21
176.9999775
 31
0.0
  0
LINE
  5
3DB
330
1E
100
AcDbEntity
  8
0
100
AcDbLine
 10
112.1647999999999
 20
119.9999774999999
 30
0.0
 11
112.3407999999999
 21
117.8019774999999
 31
0.0
  0
LINE
  5
3DC
330
1E
100
AcDbEntity
  8
0
100
AcDbLine
 10
111.8648
 20
176.9999775
 30
0.0
 11
111.8648
 21
119.9999774999999
 31
0.0
  0
LINE
  5
3DD
330
1E
100
AcDbEntity
  8
0
100
AcDbLine
 10
111.8648
 20
176.9999775
 30
0.0
 11
112.1647999999999
 21
176.9999775
 31
0.0
  0
LINE
  5
3DE
330
1E
100
AcDbEntity
  8
0
100
AcDbLine
 10
112.3407999999999
 20
117.8019774999999
 30
0.0
 11
112.8808
 21
115.5659774999999
 31
0.0
  0
LINE
  5
3DF
330
1E
100
AcDbEntity
  8
0
100
AcDbLine
 10
158.6648
 20
176.9999775
 30
0.0
 11
160.4648
 21
176.9999775
 31
0.0
  0
LINE
  5
3E0
330
1E
100
AcDbEntity
  8
0
100
AcDbLine
 10
156.8648
 20
176.9999775
 30
0.0
 11
158.6648
 21
176.9999775
 31
0.0
  0
LINE
  5
3E1
330
1E
100
AcDbEntity
  8
0
100
AcDbLine
 10
141.8648
 20
176.9999775
 30
0.0
 11
156.8648
 21
176.9999775
 31
0.0
  0
LINE
  5
3E2
330
1E
100
AcDbEntity
  8
0
100
AcDbLine
 10
141.8648
 20
176.9999775
 30
0.0
 11
141.8648
 21
119.9999774999999
 31
0.0
  0
LINE
  5
3E3
330
1E
100
AcDbEntity
  8
0
100
AcDbLine
 10
162.1648
 20
176.9999775
 30
0.0
 11
163.8648
 21
176.9999775
 31
0.0
  0
LINE
  5
3E4
330
1E
100
AcDbEntity
  8
0
100
AcDbLine
 10
160.4648
 20
176.9999775
 30
0.0
 11
162.1648
 21
176.9999775
 31
0.0
  0
LINE
  5
3E5
330
1E
100
AcDbEntity
  8
0
100
AcDbLine
 10
165.3167999999999
 20
110.2189775
 30
0.0
 11
175.8588
 21
109.9879774999999
 31
0.0
  0
LINE
  5
3E6
330
1E
100
AcDbEntity
  8
0
100
AcDbLine
 10
165.4948
 20
126.2179774999999
 30
0.0
 11
176.0367999999999
 21
125.9869775
 31
0.0
  0
LINE
  5
3E7
330
1E
100
AcDbEntity
  8
0
100
AcDbLine
 10
165.3648
 20
176.9999775
 30
0.0
 11
166.7647999999999
 21
176.9999775
 31
0.0
  0
LINE
  5
3E8
330
1E
100
AcDbEntity
  8
0
100
AcDbLine
 10
163.8648
 20
176.9999775
 30
0.0
 11
165.3648
 21
176.9999775
 31
0.0
  0
LINE
  5
3E9
330
1E
100
AcDbEntity
  8
0
100
AcDbLine
 10
166.7647999999999
 20
176.9999775
 30
0.0
 11
167.9648
 21
176.9999775
 31
0.0
  0
LINE
  5
3F2
330
1E
100
AcDbEntity
  8
0
100
AcDbLine
 10
165.9647999999999
 20
190.9999774999999
 30
0.0
 11
167.4647999999999
 21
190.9999774999999
 31
0.0
  0
LINE
  5
3F3
330
1E
100
AcDbEntity
  8
0
100
AcDbLine
 10
164.3647999999999
 20
190.9999774999999
 30
0.0
 11
165.9647999999999
 21
190.9999774999999
 31
0.0
  0
LINE
  5
3F4
330
1E
100
AcDbEntity
  8
0
100
AcDbLine
 10
162.5647999999999
 20
190.9999774999999
 30
0.0
 11
164.3647999999999
 21
190.9999774999999
 31
0.0
  0
LINE
  5
3F5
330
1E
100
AcDbEntity
  8
0
100
AcDbLine
 10
160.7648
 20
190.9999774999999
 30
0.0
 11
162.5647999999999
 21
190.9999774999999
 31
0.0
  0
LINE
  5
3F6
330
1E
100
AcDbEntity
  8
0
100
AcDbLine
 10
158.8648
 20
190.9999774999999
 30
0.0
 11
160.7648
 21
190.9999774999999
 31
0.0
  0
LINE
  5
3F7
330
1E
100
AcDbEntity
  8
0
100
AcDbLine
 10
156.8648
 20
190.9999774999999
 30
0.0
 11
158.8648
 21
190.9999774999999
 31
0.0
  0
LINE
  5
3F8
330
1E
100
AcDbEntity
  8
0
100
AcDbLine
 10
86.86480000000001
 20
190.9999774999999
 30
0.0
 11
156.8648
 21
190.9999774999999
 31
0.0
  0
LINE
  5
3FA
330
1E
100
AcDbEntity
  8
0
100
AcDbLine
 10
167.9648
 20
176.9999775
 30
0.0
 11
168.9648
 21
176.9999775
 31
0.0
  0
LINE
  5
3FB
330
1E
100
AcDbEntity
  8
0
100
AcDbLine
 10
168.9648
 20
176.9999775
 30
0.0
 11
169.7648
 21
176.9999775
 31
0.0
  0
LINE
  5
3FC
330
1E
100
AcDbEntity
  8
0
100
AcDbLine
 10
169.7648
 20
176.9999775
 30
0.0
 11
170.3648
 21
176.9999775
 31
0.0
  0
LINE
  5
3FF
330
1E
100
AcDbEntity
  8
0
100
AcDbLine
 10
167.4647999999999
 20
190.9999774999999
 30
0.0
 11
168.7648
 21
190.9999774999999
 31
0.0
  0
LINE
  5
400
330
1E
100
AcDbEntity
  8
0
100
AcDbLine
 10
168.7648
 20
190.9999774999999
 30
0.0
 11
169.8648
 21
190.9999774999999
 31
0.0
  0
LINE
  5
401
330
1E
100
AcDbEntity
  8
0
100
AcDbLine
 10
170.3648
 20
176.9999775
 30
0.0
 11
170.7648
 21
176.9999775
 31
0.0
  0
LINE
  5
402
330
1E
100
AcDbEntity
  8
0
100
AcDbLine
 10
170.7648
 20
176.9999775
 30
0.0
 11
170.8648
 21
176.9999775
 31
0.0
  0
LINE
  5
406
330
1E
100
AcDbEntity
  8
0
100
AcDbLine
 10
169.8648
 20
190.9999774999999
 30
0.0
 11
170.6648
 21
190.9999774999999
 31
0.0
  0
LINE
  5
407
330
1E
100
AcDbEntity
  8
0
100
AcDbLine
 10
170.6648
 20
190.9999774999999
 30
0.0
 11
171.3648
 21
190.9999774999999
 31
0.0
  0
LINE
  5
409
330
1E
100
AcDbEntity
  8
0
100
AcDbLine
 10
227.5948
 20
108.5049774999999
 30
0.0
 11
229.8578
 21
108.6119775
 31
0.0
  0
LINE
  5
40A
330
1E
100
AcDbEntity
  8
0
100
AcDbLine
 10
223.0377999999999
 20
108.4209774999999
 30
0.0
 11
227.5948
 21
108.5049774999999
 31
0.0
  0
LINE
  5
40B
330
1E
100
AcDbEntity
  8
0
100
AcDbLine
 10
214.4967999999999
 20
108.3809774999999
 30
0.0
 11
223.0377999999999
 21
108.4209774999999
 31
0.0
  0
LINE
  5
40C
330
1E
100
AcDbEntity
  8
0
100
AcDbLine
 10
204.6877999999999
 20
108.3679775
 30
0.0
 11
214.4967999999999
 21
108.3809774999999
 31
0.0
  0
LINE
  5
40D
330
1E
100
AcDbEntity
  8
0
100
AcDbLine
 10
190.9138
 20
108.4219775
 30
0.0
 11
204.6877999999999
 21
108.3679775
 31
0.0
  0
LINE
  5
40E
330
1E
100
AcDbEntity
  8
0
100
AcDbLine
 10
227.1847999999999
 20
108.8719774999999
 30
0.0
 11
229.7178
 21
108.7289774999999
 31
0.0
  0
LINE
  5
40F
330
1E
100
AcDbEntity
  8
0
100
AcDbLine
 10
221.8647999999999
 20
109.0609774999999
 30
0.0
 11
227.1847999999999
 21
108.8719774999999
 31
0.0
  0
LINE
  5
410
330
1E
100
AcDbEntity
  8
0
100
AcDbLine
 10
214.2517999999999
 20
109.2749774999999
 30
0.0
 11
221.8647999999999
 21
109.0609774999999
 31
0.0
  0
LINE
  5
411
330
1E
100
AcDbEntity
  8
0
100
AcDbLine
 10
202.6418
 20
109.5329774999999
 30
0.0
 11
214.2517999999999
 21
109.2749774999999
 31
0.0
  0
LINE
  5
412
330
1E
100
AcDbEntity
  8
0
100
AcDbLine
 10
190.0357999999999
 20
109.7049774999999
 30
0.0
 11
202.6418
 21
109.5329774999999
 31
0.0
  0
LINE
  5
413
330
1E
100
AcDbEntity
  8
0
100
AcDbLine
 10
175.8588
 20
109.9879774999999
 30
0.0
 11
190.0357999999999
 21
109.7049774999999
 31
0.0
  0
LINE
  5
414
330
1E
100
AcDbEntity
  8
0
100
AcDbLine
 10
229.8578
 20
108.6119775
 30
0.0
 11
232.9698
 21
109.1769774999999
 31
0.0
  0
LINE
  5
415
330
1E
100
AcDbEntity
  8
0
100
AcDbLine
 10
232.9698
 20
109.1769774999999
 30
0.0
 11
235.5907999999999
 21
110.9489774999999
 31
0.0
  0
LINE
  5
416
330
1E
100
AcDbEntity
  8
0
100
AcDbLine
 10
176.0367999999999
 20
125.9869775
 30
0.0
 11
190.2148
 21
125.7039774999999
 31
0.0
  0
LINE
  5
417
330
1E
100
AcDbEntity
  8
0
100
AcDbLine
 10
235.7168
 20
122.1479774999999
 30
0.0
 11
237.3917999999999
 21
119.6289774999999
 31
0.0
  0
LINE
  5
418
330
1E
100
AcDbEntity
  8
0
100
AcDbLine
 10
229.8968
 20
124.7279774999999
 30
0.0
 11
232.9838
 21
124.0949774999999
 31
0.0
  0
LINE
  5
419
330
1E
100
AcDbEntity
  8
0
100
AcDbLine
 10
227.3627999999999
 20
124.8709775
 30
0.0
 11
229.8968
 21
124.7279774999999
 31
0.0
  0
LINE
  5
41A
330
1E
100
AcDbEntity
  8
0
100
AcDbLine
 10
222.0448
 20
125.0599774999999
 30
0.0
 11
227.3627999999999
 21
124.8709775
 31
0.0
  0
LINE
  5
41B
330
1E
100
AcDbEntity
  8
0
100
AcDbLine
 10
214.4308
 20
125.2739774999999
 30
0.0
 11
222.0448
 21
125.0599774999999
 31
0.0
  0
LINE
  5
41C
330
1E
100
AcDbEntity
  8
0
100
AcDbLine
 10
202.8207999999999
 20
125.5319775
 30
0.0
 11
214.4308
 21
125.2739774999999
 31
0.0
  0
LINE
  5
41D
330
1E
100
AcDbEntity
  8
0
100
AcDbLine
 10
190.2148
 20
125.7039774999999
 30
0.0
 11
202.8207999999999
 21
125.5319775
 31
0.0
  0
LINE
  5
41E
330
1E
100
AcDbEntity
  8
0
100
AcDbLine
 10
235.5907999999999
 20
110.9489774999999
 30
0.0
 11
237.3218
 21
113.4299774999999
 31
0.0
  0
LINE
  5
41F
330
1E
100
AcDbEntity
  8
0
100
AcDbLine
 10
237.3917999999999
 20
119.6289774999999
 30
0.0
 11
237.9558
 21
116.5229775
 31
0.0
  0
LINE
  5
420
330
1E
100
AcDbEntity
  8
0
100
AcDbLine
 10
237.3218
 20
113.4299774999999
 30
0.0
 11
237.9558
 21
116.5229775
 31
0.0
  0
LINE
  5
421
330
1E
100
AcDbEntity
  8
0
100
AcDbLine
 10
173.0787999999999
 20
108.5169774999999
 30
0.0
 11
190.9138
 21
108.4219775
 31
0.0
  0
LINE
  5
422
330
1E
100
AcDbEntity
  8
0
100
AcDbLine
 10
171.8647999999999
 20
177.9999775
 30
0.0
 11
171.8647999999999
 21
190.9999774999999
 31
0.0
  0
LINE
  5
423
330
1E
100
AcDbEntity
  8
0
100
AcDbLine
 10
171.8647999999999
 20
190.9999774999999
 30
0.0
 11
171.8647999999999
 21
177.9999775
 31
0.0
  0
LINE
  5
424
330
1E
100
AcDbEntity
  8
0
100
AcDbLine
 10
171.3648
 20
190.9999774999999
 30
0.0
 11
171.6648
 21
190.9999774999999
 31
0.0
  0
LINE
  5
56E
330
1E
100
AcDbEntity
  8
0
100
AcDbLine
 10
171.6648
 20
190.9999774999999
 30
0.0
 11
171.8647999999999
 21
190.9999774999999
 31
0.0
  0
LINE
  5
56F
330
1E
100
AcDbEntity
  8
0
100
AcDbLine
 10
69.8648
 20
176.9999775
 30
0.0
 11
69.8648
 21
86.7999775
 31
0.0
  0
LINE
  5
570
330
1E
100
AcDbEntity
  8
0
100
AcDbLine
 10
69.8648
 20
176.9999775
 30
0.0
 11
86.86480000000001
 21
176.9999775
 31
0.0
  0
LINE
  5
571
330
1E
100
AcDbEntity
  8
0
100
AcDbLine
 10
25.9648
 20
89.2999775
 30
0.0
 11
27.1648
 21
89.2999775
 31
0.0
  0
LINE
  5
80E
330
1E
100
AcDbEntity
  8
0
100
AcDbLine
 10
27.8648
 20
190.9999774999999
 30
0.0
 11
28.48579999999998
 21
190.9999774999999
 31
0.0
  0
LINE
  5
80F
330
1E
100
AcDbEntity
  8
0
100
AcDbLine
 10
27.8648
 20
190.9999774999999
 30
0.0
 11
28.48579999999998
 21
190.9999774999999
 31
0.0
  0
LINE
  5
810
330
1E
100
AcDbEntity
  8
0
100
AcDbLine
 10
27.8648
 20
190.9999774999999
 30
0.0
 11
28.48579999999998
 21
190.9999774999999
 31
0.0
  0
LINE
  5
811
330
1E
100
AcDbEntity
  8
0
100
AcDbLine
 10
28.48579999999998
 20
190.9999774999999
 30
0.0
 11
29.97640000000001
 21
190.9999774999999
 31
0.0
  0
LINE
  5
812
330
1E
100
AcDbEntity
  8
0
100
AcDbLine
 10
28.48579999999998
 20
190.9999774999999
 30
0.0
 11
29.97640000000001
 21
190.9999774999999
 31
0.0
  0
LINE
  5
842
330
1E
100
AcDbEntity
  8
0
100
AcDbLine
 10
78.90269999999998
 20
190.9999774999999
 30
0.0
 11
86.86480000000001
 21
190.9999774999999
 31
0.0
  0
LINE
  5
8AA
330
1E
100
AcDbEntity
  8
0
100
AcDbLine
 10
86.86480000000001
 20
190.9999774999999
 30
0.0
 11
94.82690000000003
 21
190.9999774999999
 31
0.0
  0
LINE
  5
956
330
1E
100
AcDbEntity
  8
0
100
AcDbLine
 10
79.1637
 20
190.9999774999999
 30
0.0
 11
86.86480000000001
 21
190.9999774999999
 31
0.0
  0
LINE
  5
957
330
1E
100
AcDbEntity
  8
0
100
AcDbLine
 10
145.2437999999999
 20
190.9999774999999
 30
0.0
 11
145.8647999999998
 21
190.9999774999999
 31
0.0
  0
LINE
  5
958
330
1E
100
AcDbEntity
  8
0
100
AcDbLine
 10
143.7528
 20
190.9999774999999
 30
0.0
 11
145.2437999999999
 21
190.9999774999999
 31
0.0
  0
LINE
  5
959
330
1E
100
AcDbEntity
  8
0
100
AcDbLine
 10
147.2227999999999
 20
190.9999774999999
 30
0.0
 11
147.8647999999998
 21
190.9999774999999
 31
0.0
  0
LINE
  5
95A
330
1E
100
AcDbEntity
  8
0
100
AcDbLine
 10
145.6818
 20
190.9999774999999
 30
0.0
 11
147.2227999999999
 21
190.9999774999999
 31
0.0
  0
LINE
  5
95B
330
1E
100
AcDbEntity
  8
0
100
AcDbLine
 10
141.2687999999998
 20
190.9999774999999
 30
0.0
 11
143.7528
 21
190.9999774999999
 31
0.0
  0
LINE
  5
95C
330
1E
100
AcDbEntity
  8
0
100
AcDbLine
 10
137.9777999999998
 20
190.9999774999999
 30
0.0
 11
141.2687999999998
 21
190.9999774999999
 31
0.0
  0
LINE
  5
95D
330
1E
100
AcDbEntity
  8
0
100
AcDbLine
 10
139.7097999999999
 20
190.9999774999999
 30
0.0
 11
143.1127999999999
 21
190.9999774999999
 31
0.0
  0
LINE
  5
95E
330
1E
100
AcDbEntity
  8
0
100
AcDbLine
 10
143.1127999999999
 20
190.9999774999999
 30
0.0
 11
145.6818
 21
190.9999774999999
 31
0.0
  0
LINE
  5
95F
330
1E
100
AcDbEntity
  8
0
100
AcDbLine
 10
133.5677999999999
 20
190.9999774999999
 30
0.0
 11
137.9777999999998
 21
190.9999774999999
 31
0.0
  0
LINE
  5
960
330
1E
100
AcDbEntity
  8
0
100
AcDbLine
 10
128.5377999999999
 20
190.9999774999999
 30
0.0
 11
133.5677999999999
 21
190.9999774999999
 31
0.0
  0
LINE
  5
961
330
1E
100
AcDbEntity
  8
0
100
AcDbLine
 10
135.1507999999998
 20
190.9999774999999
 30
0.0
 11
139.7097999999999
 21
190.9999774999999
 31
0.0
  0
LINE
  5
962
330
1E
100
AcDbEntity
  8
0
100
AcDbLine
 10
129.9497999999999
 20
190.9999774999999
 30
0.0
 11
135.1507999999998
 21
190.9999774999999
 31
0.0
  0
LINE
  5
963
330
1E
100
AcDbEntity
  8
0
100
AcDbLine
 10
110.1732
 20
190.9999774999999
 30
0.0
 11
117.2368
 21
190.9999774999999
 31
0.0
  0
LINE
  5
964
330
1E
100
AcDbEntity
  8
0
100
AcDbLine
 10
86.86480000000001
 20
190.9999774999999
 30
0.0
 11
94.5659
 21
190.9999774999999
 31
0.0
  0
LINE
  5
965
330
1E
100
AcDbEntity
  8
0
100
AcDbLine
 10
94.5659
 20
190.9999774999999
 30
0.0
 11
102.0806
 21
190.9999774999999
 31
0.0
  0
LINE
  5
966
330
1E
100
AcDbEntity
  8
0
100
AcDbLine
 10
94.82690000000003
 20
190.9999774999999
 30
0.0
 11
102.5964
 21
190.9999774999999
 31
0.0
  0
LINE
  5
967
330
1E
100
AcDbEntity
  8
0
100
AcDbLine
 10
102.5964
 20
190.9999774999999
 30
0.0
 11
110.1732
 21
190.9999774999999
 31
0.0
  0
LINE
  5
968
330
1E
100
AcDbEntity
  8
0
100
AcDbLine
 10
102.0806
 20
190.9999774999999
 30
0.0
 11
109.409
 21
190.9999774999999
 31
0.0
  0
LINE
  5
969
330
1E
100
AcDbEntity
  8
0
100
AcDbLine
 10
117.2368
 20
190.9999774999999
 30
0.0
 11
123.9787999999999
 21
190.9999774999999
 31
0.0
  0
LINE
  5
96A
330
1E
100
AcDbEntity
  8
0
100
AcDbLine
 10
123.9787999999999
 20
190.9999774999999
 30
0.0
 11
129.9497999999999
 21
190.9999774999999
 31
0.0
  0
LINE
  5
96B
330
1E
100
AcDbEntity
  8
0
100
AcDbLine
 10
122.7617999999999
 20
190.9999774999999
 30
0.0
 11
128.5377999999999
 21
190.9999774999999
 31
0.0
  0
LINE
  5
96C
330
1E
100
AcDbEntity
  8
0
100
AcDbLine
 10
109.409
 20
190.9999774999999
 30
0.0
 11
116.2407999999999
 21
190.9999774999999
 31
0.0
  0
LINE
  5
96D
330
1E
100
AcDbEntity
  8
0
100
AcDbLine
 10
116.2407999999999
 20
190.9999774999999
 30
0.0
 11
122.7617999999999
 21
190.9999774999999
 31
0.0
  0
LINE
  5
96E
330
1E
100
AcDbEntity
  8
0
100
AcDbLine
 10
145.2437999999999
 20
190.9999774999999
 30
0.0
 11
145.8647999999998
 21
190.9999774999999
 31
0.0
  0
LINE
  5
970
330
1E
100
AcDbEntity
  8
0
100
AcDbLine
 10
71.13319999999998
 20
190.9999774999999
 30
0.0
 11
78.90269999999998
 21
190.9999774999999
 31
0.0
  0
LINE
  5
971
330
1E
100
AcDbEntity
  8
0
100
AcDbLine
 10
71.649
 20
190.9999774999999
 30
0.0
 11
79.1637
 21
190.9999774999999
 31
0.0
  0
LINE
  5
972
330
1E
100
AcDbEntity
  8
0
100
AcDbLine
 10
63.5564
 20
190.9999774999999
 30
0.0
 11
71.13319999999998
 21
190.9999774999999
 31
0.0
  0
LINE
  5
9BF
330
1E
100
AcDbEntity
  8
0
100
AcDbLine
 10
64.32060000000001
 20
190.9999774999999
 30
0.0
 11
71.649
 21
190.9999774999999
 31
0.0
  0
LINE
  5
9C0
330
1E
100
AcDbEntity
  8
0
100
AcDbLine
 10
56.4932
 20
190.9999774999999
 30
0.0
 11
63.5564
 21
190.9999774999999
 31
0.0
  0
LINE
  5
9C1
330
1E
100
AcDbEntity
  8
0
100
AcDbLine
 10
57.48899999999998
 20
190.9999774999999
 30
0.0
 11
64.32060000000001
 21
190.9999774999999
 31
0.0
  0
LINE
  5
9C2
330
1E
100
AcDbEntity
  8
0
100
AcDbLine
 10
49.7511
 20
190.9999774999999
 30
0.0
 11
56.4932
 21
190.9999774999999
 31
0.0
  0
LINE
  5
9C3
330
1E
100
AcDbEntity
  8
0
100
AcDbLine
 10
50.96800000000001
 20
190.9999774999999
 30
0.0
 11
57.48899999999998
 21
190.9999774999999
 31
0.0
  0
LINE
  5
9C4
330
1E
100
AcDbEntity
  8
0
100
AcDbLine
 10
43.77949999999998
 20
190.9999774999999
 30
0.0
 11
49.7511
 21
190.9999774999999
 31
0.0
  0
LINE
  5
9C5
330
1E
100
AcDbEntity
  8
0
100
AcDbLine
 10
45.19220000000001
 20
190.9999774999999
 30
0.0
 11
50.96800000000001
 21
190.9999774999999
 31
0.0
  0
LINE
  5
9C6
330
1E
100
AcDbEntity
  8
0
100
AcDbLine
 10
30.6164
 20
190.9999774999999
 30
0.0
 11
34.01949999999999
 21
190.9999774999999
 31
0.0
  0
LINE
  5
9C7
330
1E
100
AcDbEntity
  8
0
100
AcDbLine
 10
34.01949999999999
 20
190.9999774999999
 30
0.0
 11
38.57850000000002
 21
190.9999774999999
 31
0.0
  0
LINE
  5
9C8
330
1E
100
AcDbEntity
  8
0
100
AcDbLine
 10
38.57850000000002
 20
190.9999774999999
 30
0.0
 11
43.77949999999998
 21
190.9999774999999
 31
0.0
  0
LINE
  5
9C9
330
1E
100
AcDbEntity
  8
0
100
AcDbLine
 10
35.75220000000001
 20
190.9999774999999
 30
0.0
 11
40.16160000000001
 21
190.9999774999999
 31
0.0
  0
LINE
  5
9CA
330
1E
100
AcDbEntity
  8
0
100
AcDbLine
 10
40.16160000000001
 20
190.9999774999999
 30
0.0
 11
45.19220000000001
 21
190.9999774999999
 31
0.0
  0
LINE
  5
9CB
330
1E
100
AcDbEntity
  8
0
100
AcDbLine
 10
29.97640000000001
 20
190.9999774999999
 30
0.0
 11
32.46059999999999
 21
190.9999774999999
 31
0.0
  0
LINE
  5
9CC
330
1E
100
AcDbEntity
  8
0
100
AcDbLine
 10
32.46059999999999
 20
190.9999774999999
 30
0.0
 11
35.75220000000001
 21
190.9999774999999
 31
0.0
  0
LINE
  5
9CD
330
1E
100
AcDbEntity
  8
0
100
AcDbLine
 10
28.48579999999998
 20
190.9999774999999
 30
0.0
 11
29.97640000000001
 21
190.9999774999999
 31
0.0
  0
LINE
  5
9CE
330
1E
100
AcDbEntity
  8
0
100
AcDbLine
 10
28.048
 20
190.9999774999999
 30
0.0
 11
30.6164
 21
190.9999774999999
 31
0.0
  0
LINE
  5
9D1
330
1E
100
AcDbEntity
  8
0
100
AcDbLine
 10
29.97640000000001
 20
190.9999774999999
 30
0.0
 11
32.46059999999999
 21
190.9999774999999
 31
0.0
  0
LINE
  5
9D2
330
1E
100
AcDbEntity
  8
0
100
AcDbLine
 10
32.46059999999999
 20
190.9999774999999
 30
0.0
 11
35.75220000000001
 21
190.9999774999999
 31
0.0
  0
LINE
  5
9D3
330
1E
100
AcDbEntity
  8
0
100
AcDbLine
 10
145.2437999999999
 20
190.9999774999999
 30
0.0
 11
145.8647999999998
 21
190.9999774999999
 31
0.0
  0
LINE
  5
9D4
330
1E
100
AcDbEntity
  8
0
100
AcDbLine
 10
147.2227999999999
 20
190.9999774999999
 30
0.0
 11
147.8647999999998
 21
190.9999774999999
 31
0.0
  0
LINE
  5
9D5
330
1E
100
AcDbEntity
  8
0
100
AcDbLine
 10
147.2227999999999
 20
190.9999774999999
 30
0.0
 11
147.8647999999998
 21
190.9999774999999
 31
0.0
  0
LINE
  5
9D6
330
1E
100
AcDbEntity
  8
0
100
AcDbLine
 10
145.6818
 20
190.9999774999999
 30
0.0
 11
147.2227999999999
 21
190.9999774999999
 31
0.0
  0
LINE
  5
9D7
330
1E
100
AcDbEntity
  8
0
100
AcDbLine
 10
145.6818
 20
190.9999774999999
 30
0.0
 11
147.2227999999999
 21
190.9999774999999
 31
0.0
  0
LINE
  5
9D8
330
1E
100
AcDbEntity
  8
0
100
AcDbLine
 10
143.7528
 20
190.9999774999999
 30
0.0
 11
145.2437999999999
 21
190.9999774999999
 31
0.0
  0
LINE
  5
9D9
330
1E
100
AcDbEntity
  8
0
100
AcDbLine
 10
143.7528
 20
190.9999774999999
 30
0.0
 11
145.2437999999999
 21
190.9999774999999
 31
0.0
  0
LINE
  5
9DA
330
1E
100
AcDbEntity
  8
0
100
AcDbLine
 10
35.75220000000001
 20
190.9999774999999
 30
0.0
 11
40.16160000000001
 21
190.9999774999999
 31
0.0
  0
LINE
  5
9DB
330
1E
100
AcDbEntity
  8
0
100
AcDbLine
 10
40.16160000000001
 20
190.9999774999999
 30
0.0
 11
45.19220000000001
 21
190.9999774999999
 31
0.0
  0
LINE
  5
9DC
330
1E
100
AcDbEntity
  8
0
100
AcDbLine
 10
139.7097999999999
 20
190.9999774999999
 30
0.0
 11
143.1127999999999
 21
190.9999774999999
 31
0.0
  0
LINE
  5
9DD
330
1E
100
AcDbEntity
  8
0
100
AcDbLine
 10
141.2687999999998
 20
190.9999774999999
 30
0.0
 11
143.7528
 21
190.9999774999999
 31
0.0
  0
LINE
  5
9DE
330
1E
100
AcDbEntity
  8
0
100
AcDbLine
 10
143.1127999999999
 20
190.9999774999999
 30
0.0
 11
145.6818
 21
190.9999774999999
 31
0.0
  0
LINE
  5
9DF
330
1E
100
AcDbEntity
  8
0
100
AcDbLine
 10
137.9777999999998
 20
190.9999774999999
 30
0.0
 11
141.2687999999998
 21
190.9999774999999
 31
0.0
  0
LINE
  5
9E0
330
1E
100
AcDbEntity
  8
0
100
AcDbLine
 10
38.57850000000002
 20
190.9999774999999
 30
0.0
 11
43.77949999999998
 21
190.9999774999999
 31
0.0
  0
LINE
  5
9E1
330
1E
100
AcDbEntity
  8
0
100
AcDbLine
 10
56.4932
 20
190.9999774999999
 30
0.0
 11
63.5564
 21
190.9999774999999
 31
0.0
  0
LINE
  5
9E2
330
1E
100
AcDbEntity
  8
0
100
AcDbLine
 10
49.7511
 20
190.9999774999999
 30
0.0
 11
56.4932
 21
190.9999774999999
 31
0.0
  0
LINE
  5
9E3
330
1E
100
AcDbEntity
  8
0
100
AcDbLine
 10
57.48899999999998
 20
190.9999774999999
 30
0.0
 11
64.32060000000001
 21
190.9999774999999
 31
0.0
  0
LINE
  5
9E4
330
1E
100
AcDbEntity
  8
0
100
AcDbLine
 10
50.96800000000001
 20
190.9999774999999
 30
0.0
 11
57.48899999999998
 21
190.9999774999999
 31
0.0
  0
LINE
  5
9E5
330
1E
100
AcDbEntity
  8
0
100
AcDbLine
 10
122.7617999999999
 20
190.9999774999999
 30
0.0
 11
128.5377999999999
 21
190.9999774999999
 31
0.0
  0
LINE
  5
9E6
330
1E
100
AcDbEntity
  8
0
100
AcDbLine
 10
135.1507999999998
 20
190.9999774999999
 30
0.0
 11
139.7097999999999
 21
190.9999774999999
 31
0.0
  0
LINE
  5
9E7
330
1E
100
AcDbEntity
  8
0
100
AcDbLine
 10
129.9497999999999
 20
190.9999774999999
 30
0.0
 11
135.1507999999998
 21
190.9999774999999
 31
0.0
  0
LINE
  5
9E8
330
1E
100
AcDbEntity
  8
0
100
AcDbLine
 10
133.5677999999999
 20
190.9999774999999
 30
0.0
 11
137.9777999999998
 21
190.9999774999999
 31
0.0
  0
LINE
  5
9E9
330
1E
100
AcDbEntity
  8
0
100
AcDbLine
 10
128.5377999999999
 20
190.9999774999999
 30
0.0
 11
133.5677999999999
 21
190.9999774999999
 31
0.0
  0
LINE
  5
9EA
330
1E
100
AcDbEntity
  8
0
100
AcDbLine
 10
123.9787999999999
 20
190.9999774999999
 30
0.0
 11
129.9497999999999
 21
190.9999774999999
 31
0.0
  0
LINE
  5
9EB
330
1E
100
AcDbEntity
  8
0
100
AcDbLine
 10
116.2407999999999
 20
190.9999774999999
 30
0.0
 11
122.7617999999999
 21
190.9999774999999
 31
0.0
  0
LINE
  5
9EC
330
1E
100
AcDbEntity
  8
0
100
AcDbLine
 10
43.77949999999998
 20
190.9999774999999
 30
0.0
 11
49.7511
 21
190.9999774999999
 31
0.0
  0
LINE
  5
9ED
330
1E
100
AcDbEntity
  8
0
100
AcDbLine
 10
45.19220000000001
 20
190.9999774999999
 30
0.0
 11
50.96800000000001
 21
190.9999774999999
 31
0.0
  0
LINE
  5
9EE
330
1E
100
AcDbEntity
  8
0
100
AcDbLine
 10
79.1637
 20
190.9999774999999
 30
0.0
 11
86.86480000000001
 21
190.9999774999999
 31
0.0
  0
LINE
  5
9EF
330
1E
100
AcDbEntity
  8
0
100
AcDbLine
 10
86.86480000000001
 20
190.9999774999999
 30
0.0
 11
94.5659
 21
190.9999774999999
 31
0.0
  0
LINE
  5
9F0
330
1E
100
AcDbEntity
  8
0
100
AcDbLine
 10
94.5659
 20
190.9999774999999
 30
0.0
 11
102.0806
 21
190.9999774999999
 31
0.0
  0
LINE
  5
9F1
330
1E
100
AcDbEntity
  8
0
100
AcDbLine
 10
102.0806
 20
190.9999774999999
 30
0.0
 11
109.409
 21
190.9999774999999
 31
0.0
  0
LINE
  5
9F2
330
1E
100
AcDbEntity
  8
0
100
AcDbLine
 10
109.409
 20
190.9999774999999
 30
0.0
 11
116.2407999999999
 21
190.9999774999999
 31
0.0
  0
LINE
  5
9F3
330
1E
100
AcDbEntity
  8
0
100
AcDbLine
 10
110.1732
 20
190.9999774999999
 30
0.0
 11
117.2368
 21
190.9999774999999
 31
0.0
  0
LINE
  5
9F4
330
1E
100
AcDbEntity
  8
0
100
AcDbLine
 10
117.2368
 20
190.9999774999999
 30
0.0
 11
123.9787999999999
 21
190.9999774999999
 31
0.0
  0
LINE
  5
9F5
330
1E
100
AcDbEntity
  8
0
100
AcDbLine
 10
102.5964
 20
190.9999774999999
 30
0.0
 11
110.1732
 21
190.9999774999999
 31
0.0
  0
LINE
  5
9F6
330
1E
100
AcDbEntity
  8
0
100
AcDbLine
 10
86.86480000000001
 20
190.9999774999999
 30
0.0
 11
94.82690000000003
 21
190.9999774999999
 31
0.0
  0
LINE
  5
9F7
330
1E
100
AcDbEntity
  8
0
100
AcDbLine
 10
94.82690000000003
 20
190.9999774999999
 30
0.0
 11
102.5964
 21
190.9999774999999
 31
0.0
  0
LINE
  5
9F8
330
1E
100
AcDbEntity
  8
0
100
AcDbLine
 10
71.649
 20
190.9999774999999
 30
0.0
 11
79.1637
 21
190.9999774999999
 31
0.0
  0
LINE
  5
9F9
330
1E
100
AcDbEntity
  8
0
100
AcDbLine
 10
64.32060000000001
 20
190.9999774999999
 30
0.0
 11
71.649
 21
190.9999774999999
 31
0.0
  0
LINE
  5
9FA
330
1E
100
AcDbEntity
  8
0
100
AcDbLine
 10
63.5564
 20
190.9999774999999
 30
0.0
 11
71.13319999999998
 21
190.9999774999999
 31
0.0
  0
LINE
  5
9FB
330
1E
100
AcDbEntity
  8
0
100
AcDbLine
 10
78.90269999999998
 20
190.9999774999999
 30
0.0
 11
86.86480000000001
 21
190.9999774999999
 31
0.0
  0
LINE
  5
9FC
330
1E
100
AcDbEntity
  8
0
100
AcDbLine
 10
71.13319999999998
 20
190.9999774999999
 30
0.0
 11
78.90269999999998
 21
190.9999774999999
 31
0.0
  0
LINE
  5
9FD
330
1E
100
AcDbEntity
  8
0
100
AcDbLine
 10
30.6164
 20
190.9999774999999
 30
0.0
 11
34.01949999999999
 21
190.9999774999999
 31
0.0
  0
LINE
  5
9FE
330
1E
100
AcDbEntity
  8
0
100
AcDbLine
 10
34.01949999999999
 20
190.9999774999999
 30
0.0
 11
38.57850000000002
 21
190.9999774999999
 31
0.0
  0
LINE
  5
9FF
330
1E
100
AcDbEntity
  8
0
100
AcDbLine
 10
28.048
 20
190.9999774999999
 30
0.0
 11
30.6164
 21
190.9999774999999
 31
0.0
  0
LINE
  5
A00
330
1E
100
AcDbEntity
  8
0
100
AcDbLine
 10
25.8648
 20
190.9999774999999
 30
0.0
 11
26.50690000000003
 21
190.9999774999999
 31
0.0
  0
LINE
  5
A01
330
1E
100
AcDbEntity
  8
0
100
AcDbLine
 10
25.8648
 20
190.9999774999999
 30
0.0
 11
26.50690000000003
 21
190.9999774999999
 31
0.0
  0
LINE
  5
A03
330
1E
100
AcDbEntity
  8
0
100
AcDbLine
 10
25.8648
 20
190.9999774999999
 30
0.0
 11
26.50690000000003
 21
190.9999774999999
 31
0.0
  0
LINE
  5
A05
330
1E
100
AcDbEntity
  8
0
100
AcDbLine
 10
26.50690000000003
 20
190.9999774999999
 30
0.0
 11
28.048
 21
190.9999774999999
 31
0.0
  0
LINE
  5
A9A
330
1E
100
AcDbEntity
  8
0
100
AcDbLine
 10
26.50690000000003
 20
190.9999774999999
 30
0.0
 11
28.048
 21
190.9999774999999
 31
0.0
  0
LINE
  5
A9B
330
1E
100
AcDbEntity
  8
0
100
AcDbLine
 10
26.50690000000003
 20
190.9999774999999
 30
0.0
 11
28.048
 21
190.9999774999999
 31
0.0
  0
LINE
  5
A9C
330
1E
100
AcDbEntity
  8
0
100
AcDbLine
 10
1.86480000000001
 20
177.9999775
 30
0.0
 11
2.16480000000001
 21
177.2999774999999
 31
0.0
  0
LINE
  5
A9D
330
1E
100
AcDbEntity
  8
0
100
AcDbLine
 10
170.8648
 20
176.9999775
 30
0.0
 11
171.5647999999999
 21
177.2999774999999
 31
0.0
  0
LINE
  5
A9E
330
1E
100
AcDbEntity
  8
0
100
AcDbLine
 10
171.5647999999999
 20
177.2999774999999
 30
0.0
 11
171.8647999999999
 21
177.9999775
 31
0.0
  0
LINE
  5
A9F
330
1E
100
AcDbEntity
  8
0
100
AcDbLine
 10
232.9838
 20
124.0949774999999
 30
0.0
 11
235.7168
 21
122.1479774999999
 31
0.0
  0
LINE
  5
AA0
330
1E
100
AcDbEntity
  8
0
100
AcDbLine
 10
69.8648
 20
176.9999775
 30
0.0
 11
23.8648
 21
176.9999775
 31
0.0
  0
LINE
  5
AA1
330
1E
100
AcDbEntity
  8
0
100
AcDbLine
 10
23.8648
 20
85.18277750000001
 30
0.0
 11
23.8648
 21
20.8747775
 31
0.0
  0
LINE
  5
AA2
330
1E
100
AcDbEntity
  8
0
100
AcDbLine
 10
69.8648
 20
85.18277750000001
 30
0.0
 11
69.8648
 21
20.8747775
 31
0.0
  0
ENDSEC
  0
SECTION
  2
OBJECTS
  0
DICTIONARY
  5
C
330
0
100
AcDbDictionary
281
     1
  3
ACAD_GROUP
350
D
  3
ACAD_LAYOUT
350
19
  3
ACAD_MLINESTYLE
350
16
  3
ACAD_PLOTSETTINGS
350
18
  3
ACAD_PLOTSTYLENAME
350
E
  3
AcDbVariableDictionary
350
AA4
  0
DICTIONARY
  5
D
102
{ACAD_REACTORS
330
C
102
}
330
C
100
AcDbDictionary
281
     1
  0
DICTIONARY
  5
19
102
{ACAD_REACTORS
330
C
102
}
330
C
100
AcDbDictionary
281
     1
  3
Layout1
350
1D
  3
Model
350
21
  0
DICTIONARY
  5
16
102
{ACAD_REACTORS
330
C
102
}
330
C
100
AcDbDictionary
281
     1
  3
Standard
350
17
  0
DICTIONARY
  5
18
102
{ACAD_REACTORS
330
C
102
}
330
C
100
AcDbDictionary
281
     1
  0
ACDBDICTIONARYWDFLT
  5
E
102
{ACAD_REACTORS
330
C
102
}
330
C
100
AcDbDictionary
281
     1
  3
Normal
350
F
100
AcDbDictionaryWithDefault
340
F
  0
DICTIONARY
  5
AA4
102
{ACAD_REACTORS
330
C
102
}
330
C
100
AcDbDictionary
281
     1
  3
DIMASSOC
350
AA5
  0
LAYOUT
  5
1D
102
{ACAD_REACTORS
330
19
102
}
330
19
100
AcDbPlotSettings
  1

  2
hp deskjet 980c series
  4

  6

 40
0.0
 41
0.0
 42
0.0
 43
0.0
 44
0.0
 45
0.0
 46
0.0
 47
0.0
 48
0.0
 49
0.0
140
0.0
141
0.0
142
1.0
143
1.0
 70
   688
 72
     0
 73
     0
 74
     5
  7

 75
    16
147
1.0
148
0.0
149
0.0
100
AcDbLayout
  1
Layout1
 70
     1
 71
     1
 10
0.0
 20
0.0
 11
12.0
 21
9.0
 12
0.0
 22
0.0
 32
0.0
 14
1.000000000000000E+20
 24
1.000000000000000E+20
 34
1.000000000000000E+20
 15
-1.000000000000000E+20
 25
-1.000000000000000E+20
 35
-1.000000000000000E+20
146
0.0
 13
0.0
 23
0.0
 33
0.0
 16
1.0
 26
0.0
 36
0.0
 17
0.0
 27
1.0
 37
0.0
 76
     0
330
1A
  0
LAYOUT
  5
21
102
{ACAD_REACTORS
330
19
102
}
330
19
100
AcDbPlotSettings
  1

  2
hp deskjet 980c series
  4

  6

 40
0.0
 41
0.0
 42
0.0
 43
0.0
 44
0.0
 45
0.0
 46
0.0
 47
0.0
 48
0.0
 49
0.0
140
0.0
141
0.0
142
1.0
143
1.0
 70
  1712
 72
     0
 73
     0
 74
     0
  7

 75
     0
147
1.0
148
0.0
149
0.0
100
AcDbLayout
  1
Model
 70
     1
 71
     0
 10
0.0
 20
0.0
 11
12.0
 21
9.0
 12
0.0
 22
0.0
 32
0.0
 14
0.0
 24
0.0
 34
0.0
 15
0.0
 25
0.0
 35
0.0
146
0.0
 13
0.0
 23
0.0
 33
0.0
 16
1.0
 26
0.0
 36
0.0
 17
0.0
 27
1.0
 37
0.0
 76
     0
330
1E
  0
MLINESTYLE
  5
17
102
{ACAD_REACTORS
330
16
102
}
330
16
100
AcDbMlineStyle
  2
STANDARD
 70
     0
  3

 62
   256
 51
90.0
 52
90.0
 71
     2
 49
0.5
 62
   256
  6
BYLAYER
 49
-0.5
 62
   256
  6
BYLAYER
  0
ACDBPLACEHOLDER
  5
F
102
{ACAD_REACTORS
330
E
102
}
330
E
  0
DICTIONARYVAR
  5
AA5
102
{ACAD_REACTORS
330
AA4
102
}
330
AA4
100
DictionaryVariables
280
     0
  1
1
  0
ENDSEC
  0
EOF
