  0
SECTION
  2
HEADER
  9
$ACADVER
  1
AC1015
  9
$ACADMAINTVER
 70
    13
  9
$DWGCODEPAGE
  3
ANSI_1252
  9
$INSBASE
 10
0.0
 20
0.0
 30
0.0
  9
$EXTMIN
 10
0.0
 20
0.0
 30
0.0
  9
$EXTMAX
 10
256.0
 20
126.926
 30
0.0
  9
$LIMMIN
 10
0.0
 20
0.0
  9
$LIMMAX
 10
12.0
 20
9.0
  9
$ORTHOMODE
 70
     0
  9
$REGENMODE
 70
     1
  9
$FILLMODE
 70
     1
  9
$QTEXTMODE
 70
     0
  9
$MIRRTEXT
 70
     1
  9
$LTSCALE
 40
1.0
  9
$ATTMODE
 70
     1
  9
$TEXTSIZE
 40
0.2
  9
$TRACEWID
 40
0.05
  9
$TEXTSTYLE
  7
Standard
  9
$CLAYER
  8
0
  9
$CELTYPE
  6
Continuous
  9
$CECOLOR
 62
   256
  9
$CELTSCALE
 40
1.0
  9
$DISPSILH
 70
     0
  9
$DIMSCALE
 40
1.0
  9
$DIMASZ
 40
0.18
  9
$DIMEXO
 40
0.0625
  9
$DIMDLI
 40
0.38
  9
$DIMRND
 40
0.0
  9
$DIMDLE
 40
0.0
  9
$DIMEXE
 40
0.18
  9
$DIMTP
 40
0.0
  9
$DIMTM
 40
0.0
  9
$DIMTXT
 40
0.18
  9
$DIMCEN
 40
0.09
  9
$DIMTSZ
 40
0.0
  9
$DIMTOL
 70
     0
  9
$DIMLIM
 70
     0
  9
$DIMTIH
 70
     1
  9
$DIMTOH
 70
     1
  9
$DIMSE1
 70
     0
  9
$DIMSE2
 70
     0
  9
$DIMTAD
 70
     0
  9
$DIMZIN
 70
     0
  9
$DIMBLK
  1

  9
$DIMASO
 70
     1
  9
$DIMSHO
 70
     1
  9
$DIMPOST
  1

  9
$DIMAPOST
  1

  9
$DIMALT
 70
     0
  9
$DIMALTD
 70
     2
  9
$DIMALTF
 40
25.4
  9
$DIMLFAC
 40
1.0
  9
$DIMTOFL
 70
     0
  9
$DIMTVP
 40
0.0
  9
$DIMTIX
 70
     0
  9
$DIMSOXD
 70
     0
  9
$DIMSAH
 70
     0
  9
$DIMBLK1
  1

  9
$DIMBLK2
  1

  9
$DIMSTYLE
  2
Standard
  9
$DIMCLRD
 70
     0
  9
$DIMCLRE
 70
     0
  9
$DIMCLRT
 70
     0
  9
$DIMTFAC
 40
1.0
  9
$DIMGAP
 40
0.09
  9
$DIMJUST
 70
     0
  9
$DIMSD1
 70
     0
  9
$DIMSD2
 70
     0
  9
$DIMTOLJ
 70
     1
  9
$DIMTZIN
 70
     0
  9
$DIMALTZ
 70
     0
  9
$DIMALTTZ
 70
     0
  9
$DIMUPT
 70
     0
  9
$DIMDEC
 70
     4
  9
$DIMTDEC
 70
     4
  9
$DIMALTU
 70
     2
  9
$DIMALTTD
 70
     2
  9
$DIMTXSTY
  7
Standard
  9
$DIMAUNIT
 70
     0
  9
$DIMADEC
 70
     0
  9
$DIMALTRND
 40
0.0
  9
$DIMAZIN
 70
     0
  9
$DIMDSEP
 70
    46
  9
$DIMATFIT
 70
     3
  9
$DIMFRAC
 70
     0
  9
$DIMLDRBLK
  1

  9
$DIMLUNIT
 70
     2
  9
$DIMLWD
 70
    -2
  9
$DIMLWE
 70
    -2
  9
$DIMTMOVE
 70
     0
  9
$LUNITS
 70
     2
  9
$LUPREC
 70
     4
  9
$SKETCHINC
 40
0.1
  9
$FILLETRAD
 40
0.0
  9
$AUNITS
 70
     0
  9
$AUPREC
 70
     0
  9
$MENU
  1
.
  9
$ELEVATION
 40
0.0
  9
$PELEVATION
 40
0.0
  9
$THICKNESS
 40
0.0
  9
$LIMCHECK
 70
     0
  9
$CHAMFERA
 40
0.0
  9
$CHAMFERB
 40
0.0
  9
$CHAMFERC
 40
0.0
  9
$CHAMFERD
 40
0.0
  9
$SKPOLY
 70
     0
  9
$TDCREATE
 40
2455509.971208217
  9
$TDUCREATE
 40
2455509.929541551
  9
$TDUPDATE
 40
2455509.976803565
  9
$TDUUPDATE
 40
2455509.935136898
  9
$TDINDWG
 40
0.0055953472
  9
$TDUSRTIMER
 40
0.0055953472
  9
$USRTIMER
 70
     1
  9
$ANGBASE
 50
0.0
  9
$ANGDIR
 70
     0
  9
$PDMODE
 70
     0
  9
$PDSIZE
 40
0.0
  9
$PLINEWID
 40
0.0
  9
$SPLFRAME
 70
     0
  9
$SPLINETYPE
 70
     6
  9
$SPLINESEGS
 70
     8
  9
$HANDSEED
  5
7C8
  9
$SURFTAB1
 70
     6
  9
$SURFTAB2
 70
     6
  9
$SURFTYPE
 70
     6
  9
$SURFU
 70
     6
  9
$SURFV
 70
     6
  9
$UCSBASE
  2

  9
$UCSNAME
  2

  9
$UCSORG
 10
0.0
 20
0.0
 30
0.0
  9
$UCSXDIR
 10
1.0
 20
0.0
 30
0.0
  9
$UCSYDIR
 10
0.0
 20
1.0
 30
0.0
  9
$UCSORTHOREF
  2

  9
$UCSORTHOVIEW
 70
     1
  9
$UCSORGTOP
 10
0.0
 20
0.0
 30
0.0
  9
$UCSORGBOTTOM
 10
0.0
 20
0.0
 30
0.0
  9
$UCSORGLEFT
 10
0.0
 20
0.0
 30
0.0
  9
$UCSORGRIGHT
 10
0.0
 20
0.0
 30
0.0
  9
$UCSORGFRONT
 10
0.0
 20
0.0
 30
0.0
  9
$UCSORGBACK
 10
0.0
 20
0.0
 30
0.0
  9
$PUCSBASE
  2

  9
$PUCSNAME
  2

  9
$PUCSORG
 10
0.0
 20
0.0
 30
0.0
  9
$PUCSXDIR
 10
1.0
 20
0.0
 30
0.0
  9
$PUCSYDIR
 10
0.0
 20
1.0
 30
0.0
  9
$PUCSORTHOREF
  2

  9
$PUCSORTHOVIEW
 70
     0
  9
$PUCSORGTOP
 10
0.0
 20
0.0
 30
0.0
  9
$PUCSORGBOTTOM
 10
0.0
 20
0.0
 30
0.0
  9
$PUCSORGLEFT
 10
0.0
 20
0.0
 30
0.0
  9
$PUCSORGRIGHT
 10
0.0
 20
0.0
 30
0.0
  9
$PUCSORGFRONT
 10
0.0
 20
0.0
 30
0.0
  9
$PUCSORGBACK
 10
0.0
 20
0.0
 30
0.0
  9
$USERI1
 70
     0
  9
$USERI2
 70
     0
  9
$USERI3
 70
     0
  9
$USERI4
 70
     0
  9
$USERI5
 70
     0
  9
$USERR1
 40
0.0
  9
$USERR2
 40
0.0
  9
$USERR3
 40
0.0
  9
$USERR4
 40
0.0
  9
$USERR5
 40
0.0
  9
$WORLDVIEW
 70
     1
  9
$SHADEDGE
 70
     3
  9
$SHADEDIF
 70
    70
  9
$TILEMODE
 70
     1
  9
$MAXACTVP
 70
    64
  9
$PINSBASE
 10
0.0
 20
0.0
 30
0.0
  9
$PLIMCHECK
 70
     0
  9
$PEXTMIN
 10
1.000000000000000E+20
 20
1.000000000000000E+20
 30
1.000000000000000E+20
  9
$PEXTMAX
 10
-1.000000000000000E+20
 20
-1.000000000000000E+20
 30
-1.000000000000000E+20
  9
$PLIMMIN
 10
0.0
 20
0.0
  9
$PLIMMAX
 10
12.0
 20
9.0
  9
$UNITMODE
 70
     0
  9
$VISRETAIN
 70
     1
  9
$PLINEGEN
 70
     0
  9
$PSLTSCALE
 70
     1
  9
$TREEDEPTH
 70
  3020
  9
$CMLSTYLE
  2
Standard
  9
$CMLJUST
 70
     0
  9
$CMLSCALE
 40
1.0
  9
$PROXYGRAPHICS
 70
     1
  9
$MEASUREMENT
 70
     0
  9
$CELWEIGHT
370
    -1
  9
$ENDCAPS
280
     0
  9
$JOINSTYLE
280
     0
  9
$LWDISPLAY
290
     0
  9
$INSUNITS
 70
     0
  9
$HYPERLINKBASE
  1

  9
$STYLESHEET
  1

  9
$XEDIT
290
     1
  9
$CEPSNTYPE
380
     0
  9
$PSTYLEMODE
290
     1
  9
$FINGERPRINTGUID
  2
{3D352CF9-0683-46A3-B5B7-7138584BBA74}
  9
$VERSIONGUID
  2
{48E5937B-D63C-444F-AA77-7D3174E36C7B}
  9
$EXTNAMES
290
     1
  9
$PSVPSCALE
 40
0.0
  9
$OLESTARTUP
290
     0
  0
ENDSEC
  0
SECTION
  2
CLASSES
  0
CLASS
  1
ACDBDICTIONARYWDFLT
  2
AcDbDictionaryWithDefault
  3
AutoCAD 2000
 90
        0
280
     0
281
     0
  0
CLASS
  1
ACDBPLACEHOLDER
  2
AcDbPlaceHolder
  3
AutoCAD 2000
 90
        0
280
     0
281
     0
  0
CLASS
  1
LAYOUT
  2
AcDbLayout
  3
AutoCAD 2000
 90
        0
280
     0
281
     0
  0
CLASS
  1
DICTIONARYVAR
  2
AcDbDictionaryVar
  3
AutoCAD 2000
 90
        0
280
     0
281
     0
  0
ENDSEC
  0
SECTION
  2
TABLES
  0
TABLE
  2
VPORT
  5
8
330
0
100
AcDbSymbolTable
 70
     3
  0
VPORT
  5
7C7
330
8
100
AcDbSymbolTableRecord
100
AcDbViewportTableRecord
  2
*Active
 70
     0
 10
0.0
 20
0.0
 11
1.0
 21
1.0
 12
128.0
 22
63.463
 13
0.0
 23
0.0
 14
1.0
 24
1.0
 15
0.0
 25
0.0
 16
0.0
 26
0.0
 36
1.0
 17
0.0
 27
0.0
 37
0.0
 40
127.7845749718151
 41
2.073363431151241
 42
50.0
 43
0.0
 44
0.0
 50
0.0
 51
0.0
 71
     0
 72
   100
 73
     1
 74
     3
 75
     0
 76
     0
 77
     0
 78
     0
281
     0
 65
     1
110
0.0
120
0.0
130
0.0
111
1.0
121
0.0
131
0.0
112
0.0
122
1.0
132
0.0
 79
     1
146
0.0
  0
ENDTAB
  0
TABLE
  2
LTYPE
  5
5
330
0
100
AcDbSymbolTable
 70
     1
  0
LTYPE
  5
13
330
5
100
AcDbSymbolTableRecord
100
AcDbLinetypeTableRecord
  2
ByBlock
 70
     0
  3

 72
    65
 73
     0
 40
0.0
  0
LTYPE
  5
14
330
5
100
AcDbSymbolTableRecord
100
AcDbLinetypeTableRecord
  2
ByLayer
 70
     0
  3

 72
    65
 73
     0
 40
0.0
  0
LTYPE
  5
15
330
5
100
AcDbSymbolTableRecord
100
AcDbLinetypeTableRecord
  2
Continuous
 70
     0
  3
Solid line
 72
    65
 73
     0
 40
0.0
  0
ENDTAB
  0
TABLE
  2
LAYER
  5
2
330
0
100
AcDbSymbolTable
 70
     1
  0
LAYER
  5
10
330
2
100
AcDbSymbolTableRecord
100
AcDbLayerTableRecord
  2
0
 70
     0
 62
     7
  6
Continuous
370
    -3
390
F
  0
ENDTAB
  0
TABLE
  2
STYLE
  5
3
330
0
100
AcDbSymbolTable
 70
     1
  0
STYLE
  5
11
330
3
100
AcDbSymbolTableRecord
100
AcDbTextStyleTableRecord
  2
Standard
 70
     0
 40
0.0
 41
1.0
 50
0.0
 71
     0
 42
0.2
  3
txt
  4

  0
ENDTAB
  0
TABLE
  2
VIEW
  5
6
330
0
100
AcDbSymbolTable
 70
     0
  0
ENDTAB
  0
TABLE
  2
UCS
  5
7
330
0
100
AcDbSymbolTable
 70
     0
  0
ENDTAB
  0
TABLE
  2
APPID
  5
9
330
0
100
AcDbSymbolTable
 70
     1
  0
APPID
  5
12
330
9
100
AcDbSymbolTableRecord
100
AcDbRegAppTableRecord
  2
ACAD
 70
     0
  0
ENDTAB
  0
TABLE
  2
DIMSTYLE
  5
A
330
0
100
AcDbSymbolTable
 70
     1
100
AcDbDimStyleTable
 71
     0
  0
DIMSTYLE
105
64E
330
A
100
AcDbSymbolTableRecord
100
AcDbDimStyleTableRecord
  2
Standard
 70
     0
340
11
  0
ENDTAB
  0
TABLE
  2
BLOCK_RECORD
  5
1
330
0
100
AcDbSymbolTable
 70
     0
  0
BLOCK_RECORD
  5
1E
330
1
100
AcDbSymbolTableRecord
100
AcDbBlockTableRecord
  2
*Model_Space
340
21
  0
BLOCK_RECORD
  5
1A
330
1
100
AcDbSymbolTableRecord
100
AcDbBlockTableRecord
  2
*Paper_Space
340
1D
  0
ENDTAB
  0
ENDSEC
  0
SECTION
  2
BLOCKS
  0
BLOCK
  5
1F
330
1E
100
AcDbEntity
  8
0
100
AcDbBlockBegin
  2
*Model_Space
 70
     0
 10
0.0
 20
0.0
 30
0.0
  3
*Model_Space
  1

  0
ENDBLK
  5
20
330
1E
100
AcDbEntity
  8
0
100
AcDbBlockEnd
  0
BLOCK
  5
1B
330
1A
100
AcDbEntity
 67
     1
  8
0
100
AcDbBlockBegin
  2
*Paper_Space
 70
     0
 10
0.0
 20
0.0
 30
0.0
  3
*Paper_Space
  1

  0
ENDBLK
  5
1C
330
1A
100
AcDbEntity
 67
     1
  8
0
100
AcDbBlockEnd
  0
ENDSEC
  0
SECTION
  2
ENTITIES
  0
LINE
  5
23
330
1E
100
AcDbEntity
  8
0
100
AcDbLine
 10
0.0
 20
3.62899999999999
 30
0.0
 11
0.5
 21
4.12899999999999
 31
0.0
  0
LINE
  5
24
330
1E
100
AcDbEntity
  8
0
100
AcDbLine
 10
0.0
 20
3.62899999999999
 30
0.0
 11
0.0
 21
0.128999999999988
 31
0.0
  0
LINE
  5
25
330
1E
100
AcDbEntity
  8
0
100
AcDbLine
 10
0.3
 20
0.128999999999987
 30
0.0
 11
1.0
 21
0.128999999999987
 31
0.0
  0
LINE
  5
26
330
1E
100
AcDbEntity
  8
0
100
AcDbLine
 10
0.3000000000000011
 20
0.128999999999987
 30
0.0
 11
28.0
 21
0.128999999999988
 31
0.0
  0
LINE
  5
27
330
1E
100
AcDbEntity
  8
0
100
AcDbLine
 10
31.8
 20
0.128999999999986
 30
0.0
 11
35.2
 21
0.128999999999986
 31
0.0
  0
LINE
  5
28
330
1E
100
AcDbEntity
  8
0
100
AcDbLine
 10
28.0
 20
0.128999999999986
 30
0.0
 11
31.8
 21
0.128999999999986
 31
0.0
  0
LINE
  5
29
330
1E
100
AcDbEntity
  8
0
100
AcDbLine
 10
2.2
 20
0.128999999999987
 30
0.0
 11
28.0
 21
0.128999999999988
 31
0.0
  0
LINE
  5
2A
330
1E
100
AcDbEntity
  8
0
100
AcDbLine
 10
3.7
 20
0.128999999999987
 30
0.0
 11
28.0
 21
0.128999999999988
 31
0.0
  0
LINE
  5
2B
330
1E
100
AcDbEntity
  8
0
100
AcDbLine
 10
5.799999999999999
 20
0.128999999999987
 30
0.0
 11
28.0
 21
0.128999999999988
 31
0.0
  0
LINE
  5
2C
330
1E
100
AcDbEntity
  8
0
100
AcDbLine
 10
5.799999999999999
 20
0.128999999999987
 30
0.0
 11
28.0
 21
0.128999999999988
 31
0.0
  0
LINE
  5
2D
330
1E
100
AcDbEntity
  8
0
100
AcDbLine
 10
5.799999999999999
 20
0.128999999999987
 30
0.0
 11
8.199999999999999
 21
0.128999999999986
 31
0.0
  0
LINE
  5
2E
330
1E
100
AcDbEntity
  8
0
100
AcDbLine
 10
3.7
 20
0.128999999999987
 30
0.0
 11
28.0
 21
0.128999999999988
 31
0.0
  0
LINE
  5
2F
330
1E
100
AcDbEntity
  8
0
100
AcDbLine
 10
3.7
 20
0.128999999999987
 30
0.0
 11
5.799999999999999
 21
0.128999999999987
 31
0.0
  0
LINE
  5
30
330
1E
100
AcDbEntity
  8
0
100
AcDbLine
 10
2.2
 20
0.128999999999987
 30
0.0
 11
28.0
 21
0.128999999999988
 31
0.0
  0
LINE
  5
31
330
1E
100
AcDbEntity
  8
0
100
AcDbLine
 10
2.2
 20
0.128999999999987
 30
0.0
 11
3.7
 21
0.128999999999987
 31
0.0
  0
LINE
  5
32
330
1E
100
AcDbEntity
  8
0
100
AcDbLine
 10
1.0
 20
0.128999999999987
 30
0.0
 11
28.0
 21
0.128999999999988
 31
0.0
  0
LINE
  5
33
330
1E
100
AcDbEntity
  8
0
100
AcDbLine
 10
1.0
 20
0.128999999999987
 30
0.0
 11
2.2
 21
0.128999999999987
 31
0.0
  0
LINE
  5
34
330
1E
100
AcDbEntity
  8
0
100
AcDbLine
 10
8.199999999999999
 20
0.128999999999986
 30
0.0
 11
11.0
 21
0.128999999999986
 31
0.0
  0
LINE
  5
35
330
1E
100
AcDbEntity
  8
0
100
AcDbLine
 10
8.199999999999999
 20
0.128999999999986
 30
0.0
 11
28.0
 21
0.128999999999988
 31
0.0
  0
LINE
  5
36
330
1E
100
AcDbEntity
  8
0
100
AcDbLine
 10
11.0
 20
0.128999999999986
 30
0.0
 11
14.1
 21
0.128999999999986
 31
0.0
  0
LINE
  5
37
330
1E
100
AcDbEntity
  8
0
100
AcDbLine
 10
11.0
 20
0.128999999999986
 30
0.0
 11
28.0
 21
0.128999999999988
 31
0.0
  0
LINE
  5
38
330
1E
100
AcDbEntity
  8
0
100
AcDbLine
 10
14.1
 20
0.128999999999986
 30
0.0
 11
17.3
 21
0.128999999999986
 31
0.0
  0
LINE
  5
39
330
1E
100
AcDbEntity
  8
0
100
AcDbLine
 10
14.1
 20
0.128999999999986
 30
0.0
 11
28.0
 21
0.128999999999988
 31
0.0
  0
LINE
  5
3A
330
1E
100
AcDbEntity
  8
0
100
AcDbLine
 10
17.3
 20
0.128999999999986
 30
0.0
 11
20.8
 21
0.128999999999986
 31
0.0
  0
LINE
  5
3B
330
1E
100
AcDbEntity
  8
0
100
AcDbLine
 10
17.3
 20
0.128999999999986
 30
0.0
 11
28.0
 21
0.128999999999988
 31
0.0
  0
LINE
  5
3C
330
1E
100
AcDbEntity
  8
0
100
AcDbLine
 10
45.0
 20
0.128999999999986
 30
0.0
 11
47.8
 21
0.128999999999986
 31
0.0
  0
LINE
  5
3D
330
1E
100
AcDbEntity
  8
0
100
AcDbLine
 10
41.9
 20
0.128999999999986
 30
0.0
 11
45.0
 21
0.128999999999986
 31
0.0
  0
LINE
  5
3E
330
1E
100
AcDbEntity
  8
0
100
AcDbLine
 10
38.7
 20
0.128999999999986
 30
0.0
 11
41.9
 21
0.128999999999986
 31
0.0
  0
LINE
  5
3F
330
1E
100
AcDbEntity
  8
0
100
AcDbLine
 10
35.2
 20
0.128999999999986
 30
0.0
 11
38.7
 21
0.128999999999986
 31
0.0
  0
LINE
  5
40
330
1E
100
AcDbEntity
  8
0
100
AcDbLine
 10
47.8
 20
0.128999999999986
 30
0.0
 11
50.2
 21
0.128999999999987
 31
0.0
  0
LINE
  5
41
330
1E
100
AcDbEntity
  8
0
100
AcDbLine
 10
50.2
 20
0.128999999999987
 30
0.0
 11
52.3
 21
0.128999999999987
 31
0.0
  0
LINE
  5
42
330
1E
100
AcDbEntity
  8
0
100
AcDbLine
 10
52.3
 20
0.128999999999987
 30
0.0
 11
53.79999999999999
 21
0.128999999999987
 31
0.0
  0
LINE
  5
43
330
1E
100
AcDbEntity
  8
0
100
AcDbLine
 10
53.79999999999999
 20
0.128999999999987
 30
0.0
 11
55.0
 21
0.128999999999987
 31
0.0
  0
LINE
  5
44
330
1E
100
AcDbEntity
  8
0
100
AcDbLine
 10
55.0
 20
0.128999999999987
 30
0.0
 11
55.7
 21
0.128999999999987
 31
0.0
  0
LINE
  5
45
330
1E
100
AcDbEntity
  8
0
100
AcDbLine
 10
55.7
 20
0.128999999999987
 30
0.0
 11
56.0
 21
0.128999999999988
 31
0.0
  0
LINE
  5
46
330
1E
100
AcDbEntity
  8
0
100
AcDbLine
 10
20.8
 20
0.128999999999986
 30
0.0
 11
24.19999999999999
 21
0.128999999999986
 31
0.0
  0
LINE
  5
47
330
1E
100
AcDbEntity
  8
0
100
AcDbLine
 10
20.8
 20
0.128999999999986
 30
0.0
 11
28.0
 21
0.128999999999988
 31
0.0
  0
LINE
  5
48
330
1E
100
AcDbEntity
  8
0
100
AcDbLine
 10
24.19999999999999
 20
0.128999999999986
 30
0.0
 11
28.0
 21
0.128999999999986
 31
0.0
  0
LINE
  5
49
330
1E
100
AcDbEntity
  8
0
100
AcDbLine
 10
24.19999999999999
 20
0.128999999999986
 30
0.0
 11
28.0
 21
0.128999999999988
 31
0.0
  0
LINE
  5
50
330
1E
100
AcDbEntity
  8
0
100
AcDbLine
 10
101.7409999999999
 20
0.128999999999987
 30
0.0
 11
103.403
 21
0.128999999999987
 31
0.0
  0
LINE
  5
51
330
1E
100
AcDbEntity
  8
0
100
AcDbLine
 10
100.6139999999999
 20
0.128999999999987
 30
0.0
 11
101.7409999999999
 21
0.128999999999987
 31
0.0
  0
LINE
  5
52
330
1E
100
AcDbEntity
  8
0
100
AcDbLine
 10
100.0439999999999
 20
0.128999999999988
 30
0.0
 11
100.6139999999999
 21
0.128999999999987
 31
0.0
  0
LINE
  5
55
330
1E
100
AcDbEntity
  8
0
100
AcDbLine
 10
56.0
 20
0.128999999999988
 30
0.0
 11
56.0
 21
3.62899999999999
 31
0.0
  0
LINE
  5
56
330
1E
100
AcDbEntity
  8
0
100
AcDbLine
 10
100.0439999999999
 20
0.128999999999988
 30
0.0
 11
100.611
 21
0.128999999999988
 31
0.0
  0
LINE
  5
57
330
1E
100
AcDbEntity
  8
0
100
AcDbLine
 10
100.0439999999999
 20
0.128999999999988
 30
0.0
 11
100.5449999999999
 21
4.22699999999999
 31
0.0
  0
LINE
  5
58
330
1E
100
AcDbEntity
  8
0
100
AcDbLine
 10
55.7
 20
0.128999999999988
 30
0.0
 11
56.0
 21
0.128999999999988
 31
0.0
  0
LINE
  5
5A
330
1E
100
AcDbEntity
  8
0
100
AcDbLine
 10
28.0
 20
0.128999999999988
 30
0.0
 11
31.8
 21
0.128999999999989
 31
0.0
  0
LINE
  5
5B
330
1E
100
AcDbEntity
  8
0
100
AcDbLine
 10
28.0
 20
0.128999999999988
 30
0.0
 11
35.2
 21
0.128999999999989
 31
0.0
  0
LINE
  5
5C
330
1E
100
AcDbEntity
  8
0
100
AcDbLine
 10
28.0
 20
0.128999999999988
 30
0.0
 11
38.7
 21
0.128999999999989
 31
0.0
  0
LINE
  5
5D
330
1E
100
AcDbEntity
  8
0
100
AcDbLine
 10
28.0
 20
0.128999999999988
 30
0.0
 11
41.9
 21
0.128999999999989
 31
0.0
  0
LINE
  5
5E
330
1E
100
AcDbEntity
  8
0
100
AcDbLine
 10
28.0
 20
0.128999999999988
 30
0.0
 11
45.0
 21
0.128999999999989
 31
0.0
  0
LINE
  5
5F
330
1E
100
AcDbEntity
  8
0
100
AcDbLine
 10
28.0
 20
0.128999999999988
 30
0.0
 11
47.8
 21
0.128999999999989
 31
0.0
  0
LINE
  5
60
330
1E
100
AcDbEntity
  8
0
100
AcDbLine
 10
28.0
 20
0.128999999999988
 30
0.0
 11
56.0
 21
0.128999999999988
 31
0.0
  0
LINE
  5
61
330
1E
100
AcDbEntity
  8
0
100
AcDbLine
 10
28.0
 20
0.128999999999988
 30
0.0
 11
55.7
 21
0.128999999999988
 31
0.0
  0
LINE
  5
62
330
1E
100
AcDbEntity
  8
0
100
AcDbLine
 10
28.0
 20
0.128999999999988
 30
0.0
 11
55.0
 21
0.128999999999988
 31
0.0
  0
LINE
  5
63
330
1E
100
AcDbEntity
  8
0
100
AcDbLine
 10
28.0
 20
0.128999999999988
 30
0.0
 11
53.79999999999999
 21
0.128999999999988
 31
0.0
  0
LINE
  5
64
330
1E
100
AcDbEntity
  8
0
100
AcDbLine
 10
28.0
 20
0.128999999999988
 30
0.0
 11
52.3
 21
0.128999999999988
 31
0.0
  0
LINE
  5
65
330
1E
100
AcDbEntity
  8
0
100
AcDbLine
 10
28.0
 20
0.128999999999988
 30
0.0
 11
50.2
 21
0.128999999999989
 31
0.0
  0
LINE
  5
66
330
1E
100
AcDbEntity
  8
0
100
AcDbLine
 10
28.0
 20
0.128999999999988
 30
0.0
 11
55.7
 21
0.128999999999987
 31
0.0
  0
LINE
  5
67
330
1E
100
AcDbEntity
  8
0
100
AcDbLine
 10
28.0
 20
0.128999999999988
 30
0.0
 11
55.0
 21
0.128999999999987
 31
0.0
  0
LINE
  5
68
330
1E
100
AcDbEntity
  8
0
100
AcDbLine
 10
28.0
 20
0.128999999999988
 30
0.0
 11
53.79999999999999
 21
0.128999999999987
 31
0.0
  0
LINE
  5
69
330
1E
100
AcDbEntity
  8
0
100
AcDbLine
 10
28.0
 20
0.128999999999988
 30
0.0
 11
52.3
 21
0.128999999999987
 31
0.0
  0
LINE
  5
6A
330
1E
100
AcDbEntity
  8
0
100
AcDbLine
 10
28.0
 20
0.128999999999988
 30
0.0
 11
50.2
 21
0.128999999999987
 31
0.0
  0
LINE
  5
6B
330
1E
100
AcDbEntity
  8
0
100
AcDbLine
 10
28.0
 20
0.128999999999988
 30
0.0
 11
47.8
 21
0.128999999999986
 31
0.0
  0
LINE
  5
6C
330
1E
100
AcDbEntity
  8
0
100
AcDbLine
 10
28.0
 20
0.128999999999988
 30
0.0
 11
31.8
 21
0.128999999999986
 31
0.0
  0
LINE
  5
6D
330
1E
100
AcDbEntity
  8
0
100
AcDbLine
 10
28.0
 20
0.128999999999988
 30
0.0
 11
35.2
 21
0.128999999999986
 31
0.0
  0
LINE
  5
6E
330
1E
100
AcDbEntity
  8
0
100
AcDbLine
 10
28.0
 20
0.128999999999988
 30
0.0
 11
38.7
 21
0.128999999999986
 31
0.0
  0
LINE
  5
6F
330
1E
100
AcDbEntity
  8
0
100
AcDbLine
 10
28.0
 20
0.128999999999988
 30
0.0
 11
41.9
 21
0.128999999999986
 31
0.0
  0
LINE
  5
70
330
1E
100
AcDbEntity
  8
0
100
AcDbLine
 10
28.0
 20
0.128999999999988
 30
0.0
 11
45.0
 21
0.128999999999986
 31
0.0
  0
LINE
  5
71
330
1E
100
AcDbEntity
  8
0
100
AcDbLine
 10
0.3000000000000011
 20
0.128999999999988
 30
0.0
 11
28.0
 21
0.128999999999988
 31
0.0
  0
LINE
  5
73
330
1E
100
AcDbEntity
  8
0
100
AcDbLine
 10
0.8
 20
4.12899999999999
 30
0.0
 11
1.5
 21
4.12899999999999
 31
0.0
  0
LINE
  5
75
330
1E
100
AcDbEntity
  8
0
100
AcDbLine
 10
0.5
 20
4.12899999999999
 30
0.0
 11
0.8
 21
4.12899999999999
 31
0.0
  0
LINE
  5
76
330
1E
100
AcDbEntity
  8
0
100
AcDbLine
 10
0.5
 20
4.12899999999999
 30
0.0
 11
8.0
 21
4.62899999999999
 31
0.0
  0
LINE
  5
7D
330
1E
100
AcDbEntity
  8
0
100
AcDbLine
 10
100.611
 20
0.128999999999988
 30
0.0
 11
101.737
 21
0.128999999999988
 31
0.0
  0
LINE
  5
7E
330
1E
100
AcDbEntity
  8
0
100
AcDbLine
 10
100.0439999999999
 20
0.128999999999988
 30
0.0
 11
100.5449999999999
 21
4.22699999999999
 31
0.0
  0
LINE
  5
7F
330
1E
100
AcDbEntity
  8
0
100
AcDbLine
 10
101.737
 20
0.128999999999988
 30
0.0
 11
128.0
 21
0.0
 31
0.0
  0
LINE
  5
80
330
1E
100
AcDbEntity
  8
0
100
AcDbLine
 10
53.79999999999999
 20
0.128999999999988
 30
0.0
 11
55.0
 21
0.128999999999988
 31
0.0
  0
LINE
  5
82
330
1E
100
AcDbEntity
  8
0
100
AcDbLine
 10
55.0
 20
0.128999999999988
 30
0.0
 11
55.7
 21
0.128999999999988
 31
0.0
  0
LINE
  5
84
330
1E
100
AcDbEntity
  8
0
100
AcDbLine
 10
2.2
 20
0.128999999999988
 30
0.0
 11
28.0
 21
0.128999999999988
 31
0.0
  0
LINE
  5
85
330
1E
100
AcDbEntity
  8
0
100
AcDbLine
 10
1.5
 20
4.12899999999999
 30
0.0
 11
2.6
 21
4.12899999999999
 31
0.0
  0
LINE
  5
88
330
1E
100
AcDbEntity
  8
0
100
AcDbLine
 10
2.6
 20
4.12899999999999
 30
0.0
 11
4.2
 21
4.12899999999999
 31
0.0
  0
LINE
  5
90
330
1E
100
AcDbEntity
  8
0
100
AcDbLine
 10
3.7
 20
0.128999999999988
 30
0.0
 11
28.0
 21
0.128999999999988
 31
0.0
  0
LINE
  5
93
330
1E
100
AcDbEntity
  8
0
100
AcDbLine
 10
50.2
 20
0.128999999999989
 30
0.0
 11
52.3
 21
0.128999999999988
 31
0.0
  0
LINE
  5
95
330
1E
100
AcDbEntity
  8
0
100
AcDbLine
 10
52.3
 20
0.128999999999988
 30
0.0
 11
53.79999999999999
 21
0.128999999999988
 31
0.0
  0
LINE
  5
97
330
1E
100
AcDbEntity
  8
0
100
AcDbLine
 10
5.799999999999999
 20
0.128999999999989
 30
0.0
 11
28.0
 21
0.128999999999988
 31
0.0
  0
LINE
  5
9B
330
1E
100
AcDbEntity
  8
0
100
AcDbLine
 10
8.0
 20
4.62899999999999
 30
0.0
 11
9.5
 21
5.12899999999999
 31
0.0
  0
LINE
  5
9C
330
1E
100
AcDbEntity
  8
0
100
AcDbLine
 10
6.2
 20
4.12899999999999
 30
0.0
 11
8.599999999999999
 21
4.12899999999999
 31
0.0
  0
LINE
  5
9E
330
1E
100
AcDbEntity
  8
0
100
AcDbLine
 10
4.2
 20
4.12899999999999
 30
0.0
 11
6.2
 21
4.12899999999999
 31
0.0
  0
LINE
  5
A7
330
1E
100
AcDbEntity
  8
0
100
AcDbLine
 10
8.599999999999999
 20
4.12899999999999
 30
0.0
 11
11.3
 21
4.12899999999999
 31
0.0
  0
LINE
  5
AB
330
1E
100
AcDbEntity
  8
0
100
AcDbLine
 10
11.3
 20
4.12899999999999
 30
0.0
 11
14.3
 21
4.12899999999999
 31
0.0
  0
LINE
  5
B0
330
1E
100
AcDbEntity
  8
0
100
AcDbLine
 10
11.0
 20
0.128999999999989
 30
0.0
 11
28.0
 21
0.128999999999988
 31
0.0
  0
LINE
  5
B1
330
1E
100
AcDbEntity
  8
0
100
AcDbLine
 10
11.0
 20
0.128999999999989
 30
0.0
 11
14.1
 21
0.128999999999989
 31
0.0
  0
LINE
  5
B3
330
1E
100
AcDbEntity
  8
0
100
AcDbLine
 10
14.1
 20
0.128999999999989
 30
0.0
 11
28.0
 21
0.128999999999988
 31
0.0
  0
LINE
  5
B4
330
1E
100
AcDbEntity
  8
0
100
AcDbLine
 10
14.1
 20
0.128999999999989
 30
0.0
 11
17.3
 21
0.128999999999989
 31
0.0
  0
LINE
  5
B6
330
1E
100
AcDbEntity
  8
0
100
AcDbLine
 10
17.3
 20
0.128999999999989
 30
0.0
 11
28.0
 21
0.128999999999988
 31
0.0
  0
LINE
  5
B7
330
1E
100
AcDbEntity
  8
0
100
AcDbLine
 10
17.3
 20
0.128999999999989
 30
0.0
 11
20.8
 21
0.128999999999989
 31
0.0
  0
LINE
  5
BF
330
1E
100
AcDbEntity
  8
0
100
AcDbLine
 10
14.3
 20
4.12899999999999
 30
0.0
 11
17.5
 21
4.12899999999999
 31
0.0
  0
LINE
  5
C2
330
1E
100
AcDbEntity
  8
0
100
AcDbLine
 10
17.5
 20
4.12899999999999
 30
0.0
 11
20.89999999999999
 21
4.12899999999999
 31
0.0
  0
LINE
  5
C4
330
1E
100
AcDbEntity
  8
0
100
AcDbLine
 10
20.89999999999999
 20
4.12899999999999
 30
0.0
 11
24.39999999999999
 21
4.12899999999999
 31
0.0
  0
LINE
  5
CC
330
1E
100
AcDbEntity
  8
0
100
AcDbLine
 10
20.8
 20
0.128999999999989
 30
0.0
 11
28.0
 21
0.128999999999988
 31
0.0
  0
LINE
  5
CD
330
1E
100
AcDbEntity
  8
0
100
AcDbLine
 10
20.8
 20
0.128999999999989
 30
0.0
 11
24.19999999999999
 21
0.128999999999989
 31
0.0
  0
LINE
  5
D1
330
1E
100
AcDbEntity
  8
0
100
AcDbLine
 10
47.8
 20
0.128999999999989
 30
0.0
 11
50.2
 21
0.128999999999989
 31
0.0
  0
LINE
  5
D2
330
1E
100
AcDbEntity
  8
0
100
AcDbLine
 10
45.0
 20
0.128999999999989
 30
0.0
 11
47.8
 21
0.128999999999989
 31
0.0
  0
LINE
  5
D6
330
1E
100
AcDbEntity
  8
0
100
AcDbLine
 10
41.9
 20
0.128999999999989
 30
0.0
 11
45.0
 21
0.128999999999989
 31
0.0
  0
LINE
  5
D8
330
1E
100
AcDbEntity
  8
0
100
AcDbLine
 10
38.7
 20
0.128999999999989
 30
0.0
 11
41.9
 21
0.128999999999989
 31
0.0
  0
LINE
  5
DB
330
1E
100
AcDbEntity
  8
0
100
AcDbLine
 10
35.2
 20
0.128999999999989
 30
0.0
 11
38.7
 21
0.128999999999989
 31
0.0
  0
LINE
  5
DD
330
1E
100
AcDbEntity
  8
0
100
AcDbLine
 10
31.8
 20
0.128999999999989
 30
0.0
 11
35.2
 21
0.128999999999989
 31
0.0
  0
LINE
  5
F6
330
1E
100
AcDbEntity
  8
0
100
AcDbLine
 10
51.79999999999999
 20
4.12899999999999
 30
0.0
 11
53.39999999999999
 21
4.12899999999999
 31
0.0
  0
LINE
  5
F8
330
1E
100
AcDbEntity
  8
0
100
AcDbLine
 10
53.39999999999999
 20
4.12899999999999
 30
0.0
 11
54.5
 21
4.12899999999999
 31
0.0
  0
LINE
  5
FA
330
1E
100
AcDbEntity
  8
0
100
AcDbLine
 10
49.8
 20
4.12899999999999
 30
0.0
 11
51.79999999999999
 21
4.12899999999999
 31
0.0
  0
LINE
  5
FC
330
1E
100
AcDbEntity
  8
0
100
AcDbLine
 10
54.5
 20
4.12899999999999
 30
0.0
 11
55.2
 21
4.12899999999999
 31
0.0
  0
LINE
  5
FE
330
1E
100
AcDbEntity
  8
0
100
AcDbLine
 10
55.2
 20
4.12899999999999
 30
0.0
 11
55.5
 21
4.12899999999999
 31
0.0
  0
LINE
  5
FF
330
1E
100
AcDbEntity
  8
0
100
AcDbLine
 10
55.5
 20
4.12899999999999
 30
0.0
 11
56.0
 21
3.62899999999999
 31
0.0
  0
LINE
  5
101
330
1E
100
AcDbEntity
  8
0
100
AcDbLine
 10
47.4
 20
4.12899999999999
 30
0.0
 11
49.8
 21
4.12899999999999
 31
0.0
  0
LINE
  5
103
330
1E
100
AcDbEntity
  8
0
100
AcDbLine
 10
44.7
 20
4.12899999999999
 30
0.0
 11
47.4
 21
4.12899999999999
 31
0.0
  0
LINE
  5
105
330
1E
100
AcDbEntity
  8
0
100
AcDbLine
 10
41.7
 20
4.12899999999999
 30
0.0
 11
44.7
 21
4.12899999999999
 31
0.0
  0
LINE
  5
107
330
1E
100
AcDbEntity
  8
0
100
AcDbLine
 10
38.5
 20
4.12899999999999
 30
0.0
 11
41.7
 21
4.12899999999999
 31
0.0
  0
LINE
  5
109
330
1E
100
AcDbEntity
  8
0
100
AcDbLine
 10
35.1
 20
4.12899999999999
 30
0.0
 11
38.5
 21
4.12899999999999
 31
0.0
  0
LINE
  5
112
330
1E
100
AcDbEntity
  8
0
100
AcDbLine
 10
102.2089999999999
 20
4.22699999999999
 30
0.0
 11
103.8399999999999
 21
4.22799999999999
 31
0.0
  0
LINE
  5
115
330
1E
100
AcDbEntity
  8
0
100
AcDbLine
 10
100.5449999999999
 20
4.22699999999999
 30
0.0
 11
102.2089999999999
 21
4.22699999999999
 31
0.0
  0
LINE
  5
116
330
1E
100
AcDbEntity
  8
0
100
AcDbLine
 10
103.8399999999999
 20
4.22799999999999
 30
0.0
 11
118.375
 21
4.22699999999999
 31
0.0
  0
LINE
  5
117
330
1E
100
AcDbEntity
  8
0
100
AcDbLine
 10
118.375
 20
4.22699999999999
 30
0.0
 11
126.0299999999999
 21
4.22699999999999
 31
0.0
  0
LINE
  5
118
330
1E
100
AcDbEntity
  8
0
100
AcDbLine
 10
126.0299999999999
 20
4.22699999999999
 30
0.0
 11
128.0
 21
4.14699999999999
 31
0.0
  0
LINE
  5
119
330
1E
100
AcDbEntity
  8
0
100
AcDbLine
 10
48.0
 20
4.62899999999999
 30
0.0
 11
55.5
 21
4.12899999999999
 31
0.0
  0
LINE
  5
11F
330
1E
100
AcDbEntity
  8
0
100
AcDbLine
 10
31.6
 20
4.12899999999999
 30
0.0
 11
35.1
 21
4.12899999999999
 31
0.0
  0
LINE
  5
121
330
1E
100
AcDbEntity
  8
0
100
AcDbLine
 10
28.0
 20
4.12899999999999
 30
0.0
 11
31.6
 21
4.12899999999999
 31
0.0
  0
LINE
  5
124
330
1E
100
AcDbEntity
  8
0
100
AcDbLine
 10
24.39999999999999
 20
4.12899999999999
 30
0.0
 11
28.0
 21
4.12899999999999
 31
0.0
  0
LINE
  5
127
330
1E
100
AcDbEntity
  8
0
100
AcDbLine
 10
28.0
 20
0.128999999999989
 30
0.0
 11
31.8
 21
0.128999999999989
 31
0.0
  0
LINE
  5
128
330
1E
100
AcDbEntity
  8
0
100
AcDbLine
 10
24.19999999999999
 20
0.128999999999989
 30
0.0
 11
28.0
 21
0.128999999999988
 31
0.0
  0
LINE
  5
129
330
1E
100
AcDbEntity
  8
0
100
AcDbLine
 10
24.19999999999999
 20
0.128999999999989
 30
0.0
 11
28.0
 21
0.128999999999989
 31
0.0
  0
LINE
  5
150
330
1E
100
AcDbEntity
  8
0
100
AcDbLine
 10
46.5
 20
5.12899999999999
 30
0.0
 11
48.0
 21
4.62899999999999
 31
0.0
  0
LINE
  5
17F
330
1E
100
AcDbEntity
  8
0
100
AcDbLine
 10
45.49999999999999
 20
6.12899999999999
 30
0.0
 11
46.5
 21
5.12899999999999
 31
0.0
  0
LINE
  5
192
330
1E
100
AcDbEntity
  8
0
100
AcDbLine
 10
11.0
 20
10.1188
 30
0.0
 11
11.5
 21
9.62899999999999
 31
0.0
  0
LINE
  5
193
330
1E
100
AcDbEntity
  8
0
100
AcDbLine
 10
11.0
 20
10.1188
 30
0.0
 11
11.19999999999999
 21
10.1188
 31
0.0
  0
LINE
  5
194
330
1E
100
AcDbEntity
  8
0
100
AcDbLine
 10
11.0
 20
10.1188
 30
0.0
 11
13.3309
 21
32.54059999999999
 31
0.0
  0
LINE
  5
195
330
1E
100
AcDbEntity
  8
0
100
AcDbLine
 10
11.0
 20
8.12899999999999
 30
0.0
 11
11.19999999999999
 21
8.12899999999999
 31
0.0
  0
LINE
  5
196
330
1E
100
AcDbEntity
  8
0
100
AcDbLine
 10
11.0
 20
8.12899999999999
 30
0.0
 11
11.5
 21
8.62899999999999
 31
0.0
  0
LINE
  5
197
330
1E
100
AcDbEntity
  8
0
100
AcDbLine
 10
11.0
 20
8.12899999999999
 30
0.0
 11
11.0
 21
7.62899999999999
 31
0.0
  0
LINE
  5
1AB
330
1E
100
AcDbEntity
  8
0
100
AcDbLine
 10
106.4289999999999
 20
6.31099999999999
 30
0.0
 11
107.63
 21
6.78099999999999
 31
0.0
  0
LINE
  5
1AC
330
1E
100
AcDbEntity
  8
0
100
AcDbLine
 10
107.63
 20
6.78099999999999
 30
0.0
 11
108.6
 21
7.57799999999999
 31
0.0
  0
LINE
  5
1AD
330
1E
100
AcDbEntity
  8
0
100
AcDbLine
 10
108.6
 20
7.57799999999999
 30
0.0
 11
109.2689999999999
 21
8.643999999999991
 31
0.0
  0
LINE
  5
1BD
330
1E
100
AcDbEntity
  8
0
100
AcDbLine
 10
45.0
 20
7.62899999999999
 30
0.0
 11
45.49999999999999
 21
6.12899999999999
 31
0.0
  0
LINE
  5
1BE
330
1E
100
AcDbEntity
  8
0
100
AcDbLine
 10
45.0
 20
7.62899999999999
 30
0.0
 11
45.0
 21
8.12899999999999
 31
0.0
  0
LINE
  5
1D3
330
1E
100
AcDbEntity
  8
0
100
AcDbLine
 10
11.19999999999999
 20
10.1188
 30
0.0
 11
11.59999999999999
 21
10.1188
 31
0.0
  0
LINE
  5
1D7
330
1E
100
AcDbEntity
  8
0
100
AcDbLine
 10
17.7
 20
8.12899999999999
 30
0.0
 11
19.5
 21
8.12899999999999
 31
0.0
  0
LINE
  5
1D9
330
1E
100
AcDbEntity
  8
0
100
AcDbLine
 10
19.5
 20
8.12899999999999
 30
0.0
 11
21.49999999999999
 21
8.12899999999999
 31
0.0
  0
LINE
  5
1DB
330
1E
100
AcDbEntity
  8
0
100
AcDbLine
 10
21.49999999999999
 20
8.12899999999999
 30
0.0
 11
23.6
 21
8.12899999999999
 31
0.0
  0
LINE
  5
1DD
330
1E
100
AcDbEntity
  8
0
100
AcDbLine
 10
23.6
 20
8.12899999999999
 30
0.0
 11
25.8
 21
8.12899999999999
 31
0.0
  0
LINE
  5
1DF
330
1E
100
AcDbEntity
  8
0
100
AcDbLine
 10
25.8
 20
8.12899999999999
 30
0.0
 11
28.0
 21
8.12899999999999
 31
0.0
  0
LINE
  5
1EC
330
1E
100
AcDbEntity
  8
0
100
AcDbLine
 10
41.5
 20
8.12899999999999
 30
0.0
 11
42.7
 21
8.12899999999999
 31
0.0
  0
LINE
  5
1EE
330
1E
100
AcDbEntity
  8
0
100
AcDbLine
 10
42.7
 20
8.12899999999999
 30
0.0
 11
43.7
 21
8.12899999999999
 31
0.0
  0
LINE
  5
1F0
330
1E
100
AcDbEntity
  8
0
100
AcDbLine
 10
43.7
 20
8.12899999999999
 30
0.0
 11
44.4
 21
8.12899999999999
 31
0.0
  0
LINE
  5
1F2
330
1E
100
AcDbEntity
  8
0
100
AcDbLine
 10
44.4
 20
8.12899999999999
 30
0.0
 11
44.79999999999999
 21
8.12899999999999
 31
0.0
  0
LINE
  5
1F4
330
1E
100
AcDbEntity
  8
0
100
AcDbLine
 10
44.79999999999999
 20
8.12899999999999
 30
0.0
 11
45.0
 21
8.12899999999999
 31
0.0
  0
LINE
  5
1F6
330
1E
100
AcDbEntity
  8
0
100
AcDbLine
 10
40.0
 20
8.12899999999999
 30
0.0
 11
41.5
 21
8.12899999999999
 31
0.0
  0
LINE
  5
1F8
330
1E
100
AcDbEntity
  8
0
100
AcDbLine
 10
38.3
 20
8.12899999999999
 30
0.0
 11
40.0
 21
8.12899999999999
 31
0.0
  0
LINE
  5
1FA
330
1E
100
AcDbEntity
  8
0
100
AcDbLine
 10
36.5
 20
8.12899999999999
 30
0.0
 11
38.3
 21
8.12899999999999
 31
0.0
  0
LINE
  5
1FC
330
1E
100
AcDbEntity
  8
0
100
AcDbLine
 10
34.5
 20
8.12899999999999
 30
0.0
 11
36.5
 21
8.12899999999999
 31
0.0
  0
LINE
  5
1FE
330
1E
100
AcDbEntity
  8
0
100
AcDbLine
 10
32.4
 20
8.12899999999999
 30
0.0
 11
34.5
 21
8.12899999999999
 31
0.0
  0
LINE
  5
200
330
1E
100
AcDbEntity
  8
0
100
AcDbLine
 10
30.2
 20
8.12899999999999
 30
0.0
 11
32.4
 21
8.12899999999999
 31
0.0
  0
LINE
  5
202
330
1E
100
AcDbEntity
  8
0
100
AcDbLine
 10
28.0
 20
8.12899999999999
 30
0.0
 11
30.2
 21
8.12899999999999
 31
0.0
  0
LINE
  5
209
330
1E
100
AcDbEntity
  8
0
100
AcDbLine
 10
16.0
 20
8.12899999999999
 30
0.0
 11
17.7
 21
8.12899999999999
 31
0.0
  0
LINE
  5
20B
330
1E
100
AcDbEntity
  8
0
100
AcDbLine
 10
14.5
 20
8.12899999999999
 30
0.0
 11
16.0
 21
8.12899999999999
 31
0.0
  0
LINE
  5
20D
330
1E
100
AcDbEntity
  8
0
100
AcDbLine
 10
13.3
 20
8.12899999999999
 30
0.0
 11
14.5
 21
8.12899999999999
 31
0.0
  0
LINE
  5
20F
330
1E
100
AcDbEntity
  8
0
100
AcDbLine
 10
12.3
 20
8.12899999999999
 30
0.0
 11
13.3
 21
8.12899999999999
 31
0.0
  0
LINE
  5
210
330
1E
100
AcDbEntity
  8
0
100
AcDbLine
 10
11.5
 20
9.62899999999999
 30
0.0
 11
11.69999999999999
 21
9.62899999999999
 31
0.0
  0
LINE
  5
211
330
1E
100
AcDbEntity
  8
0
100
AcDbLine
 10
11.5
 20
9.62899999999999
 30
0.0
 11
11.5
 21
8.62899999999999
 31
0.0
  0
LINE
  5
212
330
1E
100
AcDbEntity
  8
0
100
AcDbLine
 10
16.39999999999999
 20
8.62899999999999
 30
0.0
 11
18.0
 21
8.62899999999999
 31
0.0
  0
LINE
  5
213
330
1E
100
AcDbEntity
  8
0
100
AcDbLine
 10
18.0
 20
8.62899999999999
 30
0.0
 11
19.8
 21
8.62899999999999
 31
0.0
  0
LINE
  5
214
330
1E
100
AcDbEntity
  8
0
100
AcDbLine
 10
19.8
 20
8.62899999999999
 30
0.0
 11
21.69999999999999
 21
8.62899999999999
 31
0.0
  0
LINE
  5
215
330
1E
100
AcDbEntity
  8
0
100
AcDbLine
 10
21.69999999999999
 20
8.62899999999999
 30
0.0
 11
23.7
 21
8.62899999999999
 31
0.0
  0
LINE
  5
216
330
1E
100
AcDbEntity
  8
0
100
AcDbLine
 10
23.7
 20
8.62899999999999
 30
0.0
 11
25.89999999999999
 21
8.62899999999999
 31
0.0
  0
LINE
  5
217
330
1E
100
AcDbEntity
  8
0
100
AcDbLine
 10
38.0
 20
8.62899999999999
 30
0.0
 11
39.6
 21
8.62899999999999
 31
0.0
  0
LINE
  5
218
330
1E
100
AcDbEntity
  8
0
100
AcDbLine
 10
41.1
 20
8.62899999999999
 30
0.0
 11
42.29999999999999
 21
8.62899999999999
 31
0.0
  0
LINE
  5
219
330
1E
100
AcDbEntity
  8
0
100
AcDbLine
 10
42.29999999999999
 20
8.62899999999999
 30
0.0
 11
43.2
 21
8.62899999999999
 31
0.0
  0
LINE
  5
21A
330
1E
100
AcDbEntity
  8
0
100
AcDbLine
 10
43.2
 20
8.62899999999999
 30
0.0
 11
43.89999999999999
 21
8.62899999999999
 31
0.0
  0
LINE
  5
21B
330
1E
100
AcDbEntity
  8
0
100
AcDbLine
 10
43.89999999999999
 20
8.62899999999999
 30
0.0
 11
44.29999999999999
 21
8.62899999999999
 31
0.0
  0
LINE
  5
21C
330
1E
100
AcDbEntity
  8
0
100
AcDbLine
 10
44.29999999999999
 20
8.62899999999999
 30
0.0
 11
44.5
 21
8.62899999999999
 31
0.0
  0
LINE
  5
21D
330
1E
100
AcDbEntity
  8
0
100
AcDbLine
 10
44.5
 20
8.62899999999999
 30
0.0
 11
45.0
 21
8.12899999999999
 31
0.0
  0
LINE
  5
21E
330
1E
100
AcDbEntity
  8
0
100
AcDbLine
 10
44.5
 20
8.62899999999999
 30
0.0
 11
44.5
 21
9.62899999999999
 31
0.0
  0
LINE
  5
220
330
1E
100
AcDbEntity
  8
0
100
AcDbLine
 10
39.6
 20
8.62899999999999
 30
0.0
 11
41.1
 21
8.62899999999999
 31
0.0
  0
LINE
  5
221
330
1E
100
AcDbEntity
  8
0
100
AcDbLine
 10
36.2
 20
8.62899999999999
 30
0.0
 11
38.0
 21
8.62899999999999
 31
0.0
  0
LINE
  5
222
330
1E
100
AcDbEntity
  8
0
100
AcDbLine
 10
34.29999999999999
 20
8.62899999999999
 30
0.0
 11
36.2
 21
8.62899999999999
 31
0.0
  0
LINE
  5
223
330
1E
100
AcDbEntity
  8
0
100
AcDbLine
 10
32.29999999999999
 20
8.62899999999999
 30
0.0
 11
34.29999999999999
 21
8.62899999999999
 31
0.0
  0
LINE
  5
224
330
1E
100
AcDbEntity
  8
0
100
AcDbLine
 10
30.1
 20
8.62899999999999
 30
0.0
 11
32.29999999999999
 21
8.62899999999999
 31
0.0
  0
LINE
  5
225
330
1E
100
AcDbEntity
  8
0
100
AcDbLine
 10
28.0
 20
8.62899999999999
 30
0.0
 11
30.1
 21
8.62899999999999
 31
0.0
  0
LINE
  5
226
330
1E
100
AcDbEntity
  8
0
100
AcDbLine
 10
25.89999999999999
 20
8.62899999999999
 30
0.0
 11
28.0
 21
8.62899999999999
 31
0.0
  0
LINE
  5
227
330
1E
100
AcDbEntity
  8
0
100
AcDbLine
 10
14.9
 20
8.62899999999999
 30
0.0
 11
16.39999999999999
 21
8.62899999999999
 31
0.0
  0
LINE
  5
228
330
1E
100
AcDbEntity
  8
0
100
AcDbLine
 10
13.7
 20
8.62899999999999
 30
0.0
 11
14.9
 21
8.62899999999999
 31
0.0
  0
LINE
  5
229
330
1E
100
AcDbEntity
  8
0
100
AcDbLine
 10
12.8
 20
8.62899999999999
 30
0.0
 11
13.7
 21
8.62899999999999
 31
0.0
  0
LINE
  5
22A
330
1E
100
AcDbEntity
  8
0
100
AcDbLine
 10
12.09999999999999
 20
8.62899999999999
 30
0.0
 11
12.8
 21
8.62899999999999
 31
0.0
  0
LINE
  5
22B
330
1E
100
AcDbEntity
  8
0
100
AcDbLine
 10
11.59999999999999
 20
10.1188
 30
0.0
 11
12.3
 21
10.1188
 31
0.0
  0
LINE
  5
22C
330
1E
100
AcDbEntity
  8
0
100
AcDbLine
 10
16.39999999999999
 20
9.62899999999999
 30
0.0
 11
18.0
 21
9.62899999999999
 31
0.0
  0
LINE
  5
22D
330
1E
100
AcDbEntity
  8
0
100
AcDbLine
 10
18.0
 20
9.62899999999999
 30
0.0
 11
19.8
 21
9.62899999999999
 31
0.0
  0
LINE
  5
22E
330
1E
100
AcDbEntity
  8
0
100
AcDbLine
 10
19.8
 20
9.62899999999999
 30
0.0
 11
21.69999999999999
 21
9.62899999999999
 31
0.0
  0
LINE
  5
22F
330
1E
100
AcDbEntity
  8
0
100
AcDbLine
 10
21.69999999999999
 20
9.62899999999999
 30
0.0
 11
23.7
 21
9.62899999999999
 31
0.0
  0
LINE
  5
230
330
1E
100
AcDbEntity
  8
0
100
AcDbLine
 10
38.0
 20
9.62899999999999
 30
0.0
 11
39.6
 21
9.62899999999999
 31
0.0
  0
LINE
  5
231
330
1E
100
AcDbEntity
  8
0
100
AcDbLine
 10
36.2
 20
9.62899999999999
 30
0.0
 11
38.0
 21
9.62899999999999
 31
0.0
  0
LINE
  5
233
330
1E
100
AcDbEntity
  8
0
100
AcDbLine
 10
34.29999999999999
 20
9.62899999999999
 30
0.0
 11
36.2
 21
9.62899999999999
 31
0.0
  0
LINE
  5
234
330
1E
100
AcDbEntity
  8
0
100
AcDbLine
 10
32.29999999999999
 20
9.62899999999999
 30
0.0
 11
34.29999999999999
 21
9.62899999999999
 31
0.0
  0
LINE
  5
235
330
1E
100
AcDbEntity
  8
0
100
AcDbLine
 10
30.1
 20
9.62899999999999
 30
0.0
 11
32.29999999999999
 21
9.62899999999999
 31
0.0
  0
LINE
  5
236
330
1E
100
AcDbEntity
  8
0
100
AcDbLine
 10
28.0
 20
9.62899999999999
 30
0.0
 11
30.1
 21
9.62899999999999
 31
0.0
  0
LINE
  5
237
330
1E
100
AcDbEntity
  8
0
100
AcDbLine
 10
39.6
 20
9.62899999999999
 30
0.0
 11
41.1
 21
9.62899999999999
 31
0.0
  0
LINE
  5
239
330
1E
100
AcDbEntity
  8
0
100
AcDbLine
 10
41.1
 20
9.62899999999999
 30
0.0
 11
42.29999999999999
 21
9.62899999999999
 31
0.0
  0
LINE
  5
23A
330
1E
100
AcDbEntity
  8
0
100
AcDbLine
 10
42.29999999999999
 20
9.62899999999999
 30
0.0
 11
43.2
 21
9.62899999999999
 31
0.0
  0
LINE
  5
23C
330
1E
100
AcDbEntity
  8
0
100
AcDbLine
 10
43.2
 20
9.62899999999999
 30
0.0
 11
43.89999999999999
 21
9.62899999999999
 31
0.0
  0
LINE
  5
23D
330
1E
100
AcDbEntity
  8
0
100
AcDbLine
 10
43.89999999999999
 20
9.62899999999999
 30
0.0
 11
44.29999999999999
 21
9.62899999999999
 31
0.0
  0
LINE
  5
23E
330
1E
100
AcDbEntity
  8
0
100
AcDbLine
 10
109.2689999999999
 20
8.643999999999991
 30
0.0
 11
109.592
 21
9.94099999999999
 31
0.0
  0
LINE
  5
23F
330
1E
100
AcDbEntity
  8
0
100
AcDbLine
 10
44.5
 20
9.62899999999999
 30
0.0
 11
45.0
 21
10.1188
 31
0.0
  0
LINE
  5
240
330
1E
100
AcDbEntity
  8
0
100
AcDbLine
 10
44.5
 20
9.62899999999999
 30
0.0
 11
44.5
 21
8.62899999999999
 31
0.0
  0
LINE
  5
241
330
1E
100
AcDbEntity
  8
0
100
AcDbLine
 10
44.29999999999999
 20
9.62899999999999
 30
0.0
 11
44.5
 21
9.62899999999999
 31
0.0
  0
LINE
  5
242
330
1E
100
AcDbEntity
  8
0
100
AcDbLine
 10
23.7
 20
9.62899999999999
 30
0.0
 11
25.89999999999999
 21
9.62899999999999
 31
0.0
  0
LINE
  5
243
330
1E
100
AcDbEntity
  8
0
100
AcDbLine
 10
25.89999999999999
 20
9.62899999999999
 30
0.0
 11
28.0
 21
9.62899999999999
 31
0.0
  0
LINE
  5
244
330
1E
100
AcDbEntity
  8
0
100
AcDbLine
 10
14.9
 20
9.62899999999999
 30
0.0
 11
16.39999999999999
 21
9.62899999999999
 31
0.0
  0
LINE
  5
245
330
1E
100
AcDbEntity
  8
0
100
AcDbLine
 10
13.7
 20
9.62899999999999
 30
0.0
 11
14.9
 21
9.62899999999999
 31
0.0
  0
LINE
  5
246
330
1E
100
AcDbEntity
  8
0
100
AcDbLine
 10
12.8
 20
9.62899999999999
 30
0.0
 11
13.7
 21
9.62899999999999
 31
0.0
  0
LINE
  5
247
330
1E
100
AcDbEntity
  8
0
100
AcDbLine
 10
16.0
 20
10.1188
 30
0.0
 11
17.7
 21
10.1188
 31
0.0
  0
LINE
  5
248
330
1E
100
AcDbEntity
  8
0
100
AcDbLine
 10
17.7
 20
10.1188
 30
0.0
 11
19.5
 21
10.1188
 31
0.0
  0
LINE
  5
249
330
1E
100
AcDbEntity
  8
0
100
AcDbLine
 10
19.5
 20
10.1188
 30
0.0
 11
21.49999999999999
 21
10.1188
 31
0.0
  0
LINE
  5
24A
330
1E
100
AcDbEntity
  8
0
100
AcDbLine
 10
21.49999999999999
 20
10.1188
 30
0.0
 11
23.6
 21
10.1188
 31
0.0
  0
LINE
  5
24B
330
1E
100
AcDbEntity
  8
0
100
AcDbLine
 10
38.3
 20
10.1188
 30
0.0
 11
40.0
 21
10.1188
 31
0.0
  0
LINE
  5
24C
330
1E
100
AcDbEntity
  8
0
100
AcDbLine
 10
36.5
 20
10.1188
 30
0.0
 11
38.3
 21
10.1188
 31
0.0
  0
LINE
  5
24D
330
1E
100
AcDbEntity
  8
0
100
AcDbLine
 10
34.5
 20
10.1188
 30
0.0
 11
36.5
 21
10.1188
 31
0.0
  0
LINE
  5
24E
330
1E
100
AcDbEntity
  8
0
100
AcDbLine
 10
32.4
 20
10.1188
 30
0.0
 11
34.5
 21
10.1188
 31
0.0
  0
LINE
  5
24F
330
1E
100
AcDbEntity
  8
0
100
AcDbLine
 10
30.2
 20
10.1188
 30
0.0
 11
32.4
 21
10.1188
 31
0.0
  0
LINE
  5
250
330
1E
100
AcDbEntity
  8
0
100
AcDbLine
 10
28.0
 20
10.1188
 30
0.0
 11
30.2
 21
10.1188
 31
0.0
  0
LINE
  5
251
330
1E
100
AcDbEntity
  8
0
100
AcDbLine
 10
40.0
 20
10.1188
 30
0.0
 11
41.5
 21
10.1188
 31
0.0
  0
LINE
  5
252
330
1E
100
AcDbEntity
  8
0
100
AcDbLine
 10
41.5
 20
10.1188
 30
0.0
 11
42.7
 21
10.1188
 31
0.0
  0
LINE
  5
253
330
1E
100
AcDbEntity
  8
0
100
AcDbLine
 10
42.7
 20
10.1188
 30
0.0
 11
43.7
 21
10.1188
 31
0.0
  0
LINE
  5
254
330
1E
100
AcDbEntity
  8
0
100
AcDbLine
 10
43.7
 20
10.1188
 30
0.0
 11
44.4
 21
10.1188
 31
0.0
  0
LINE
  5
255
330
1E
100
AcDbEntity
  8
0
100
AcDbLine
 10
109.592
 20
9.94099999999999
 30
0.0
 11
109.7839999999999
 21
14.547
 31
0.0
  0
LINE
  5
256
330
1E
100
AcDbEntity
  8
0
100
AcDbLine
 10
44.4
 20
10.1188
 30
0.0
 11
44.79999999999999
 21
10.1188
 31
0.0
  0
LINE
  5
257
330
1E
100
AcDbEntity
  8
0
100
AcDbLine
 10
44.79999999999999
 20
10.1188
 30
0.0
 11
45.0
 21
10.1188
 31
0.0
  0
LINE
  5
258
330
1E
100
AcDbEntity
  8
0
100
AcDbLine
 10
23.6
 20
10.1188
 30
0.0
 11
25.8
 21
10.1188
 31
0.0
  0
LINE
  5
259
330
1E
100
AcDbEntity
  8
0
100
AcDbLine
 10
25.8
 20
10.1188
 30
0.0
 11
28.0
 21
10.1188
 31
0.0
  0
LINE
  5
25A
330
1E
100
AcDbEntity
  8
0
100
AcDbLine
 10
14.5
 20
10.1188
 30
0.0
 11
16.0
 21
10.1188
 31
0.0
  0
LINE
  5
25B
330
1E
100
AcDbEntity
  8
0
100
AcDbLine
 10
13.77539999999999
 20
33.0848
 30
0.0
 11
14.6644
 21
33.3569
 31
0.0
  0
LINE
  5
263
330
1E
100
AcDbEntity
  8
0
100
AcDbLine
 10
109.7839999999999
 20
14.547
 30
0.0
 11
109.801
 21
25.599
 31
0.0
  0
LINE
  5
26D
330
1E
100
AcDbEntity
  8
0
100
AcDbLine
 10
42.2246
 20
33.0848
 30
0.0
 11
42.6691
 21
32.54059999999999
 31
0.0
  0
LINE
  5
26E
330
1E
100
AcDbEntity
  8
0
100
AcDbLine
 10
42.6691
 20
32.54059999999999
 30
0.0
 11
45.0
 21
10.1188
 31
0.0
  0
LINE
  5
278
330
1E
100
AcDbEntity
  8
0
100
AcDbLine
 10
38.6685
 20
33.5202
 30
0.0
 11
41.3356
 21
33.3569
 31
0.0
  0
LINE
  5
279
330
1E
100
AcDbEntity
  8
0
100
AcDbLine
 10
41.3356
 20
33.3569
 30
0.0
 11
42.2246
 21
33.0848
 31
0.0
  0
LINE
  5
27C
330
1E
100
AcDbEntity
  8
0
100
AcDbLine
 10
17.3315
 20
33.5202
 30
0.0
 11
22.6658
 21
33.62899999999999
 31
0.0
  0
LINE
  5
27D
330
1E
100
AcDbEntity
  8
0
100
AcDbLine
 10
23.7326
 20
33.62899999999999
 30
0.0
 11
25.3329
 21
33.62899999999999
 31
0.0
  0
LINE
  5
27E
330
1E
100
AcDbEntity
  8
0
100
AcDbLine
 10
25.3329
 20
33.62899999999999
 30
0.0
 11
25.9552
 21
33.62899999999999
 31
0.0
  0
LINE
  5
27F
330
1E
100
AcDbEntity
  8
0
100
AcDbLine
 10
25.9552
 20
33.62899999999999
 30
0.0
 11
26.6664
 21
33.62899999999999
 31
0.0
  0
LINE
  5
280
330
1E
100
AcDbEntity
  8
0
100
AcDbLine
 10
31.2005
 20
33.62899999999999
 30
0.0
 11
31.734
 21
33.62899999999999
 31
0.0
  0
LINE
  5
281
330
1E
100
AcDbEntity
  8
0
100
AcDbLine
 10
30.6671
 20
33.62899999999999
 30
0.0
 11
31.2005
 21
33.62899999999999
 31
0.0
  0
LINE
  5
282
330
1E
100
AcDbEntity
  8
0
100
AcDbLine
 10
30.0448
 20
33.62899999999999
 30
0.0
 11
30.6671
 21
33.62899999999999
 31
0.0
  0
LINE
  5
283
330
1E
100
AcDbEntity
  8
0
100
AcDbLine
 10
29.3336
 20
33.62899999999999
 30
0.0
 11
30.0448
 21
33.62899999999999
 31
0.0
  0
LINE
  5
284
330
1E
100
AcDbEntity
  8
0
100
AcDbLine
 10
28.7112
 20
33.62899999999999
 30
0.0
 11
29.3336
 21
33.62899999999999
 31
0.0
  0
LINE
  5
285
330
1E
100
AcDbEntity
  8
0
100
AcDbLine
 10
28.0
 20
33.62899999999999
 30
0.0
 11
28.7112
 21
33.62899999999999
 31
0.0
  0
LINE
  5
287
330
1E
100
AcDbEntity
  8
0
100
AcDbLine
 10
32.2674
 20
33.62899999999999
 30
0.0
 11
32.623
 21
33.62899999999999
 31
0.0
  0
LINE
  5
288
330
1E
100
AcDbEntity
  8
0
100
AcDbLine
 10
32.623
 20
33.62899999999999
 30
0.0
 11
32.88969999999999
 21
33.62899999999999
 31
0.0
  0
LINE
  5
28A
330
1E
100
AcDbEntity
  8
0
100
AcDbLine
 10
32.88969999999999
 20
33.62899999999999
 30
0.0
 11
33.1564
 21
33.62899999999999
 31
0.0
  0
LINE
  5
28B
330
1E
100
AcDbEntity
  8
0
100
AcDbLine
 10
33.1564
 20
33.62899999999999
 30
0.0
 11
33.2453
 21
33.62899999999999
 31
0.0
  0
LINE
  5
28C
330
1E
100
AcDbEntity
  8
0
100
AcDbLine
 10
33.2453
 20
33.62899999999999
 30
0.0
 11
33.3342
 21
33.62899999999999
 31
0.0
  0
LINE
  5
28D
330
1E
100
AcDbEntity
  8
0
100
AcDbLine
 10
33.3342
 20
33.62899999999999
 30
0.0
 11
38.6685
 21
33.5202
 31
0.0
  0
LINE
  5
28E
330
1E
100
AcDbEntity
  8
0
100
AcDbLine
 10
26.6664
 20
33.62899999999999
 30
0.0
 11
27.2888
 21
33.62899999999999
 31
0.0
  0
LINE
  5
28F
330
1E
100
AcDbEntity
  8
0
100
AcDbLine
 10
27.2888
 20
33.62899999999999
 30
0.0
 11
28.0
 21
33.62899999999999
 31
0.0
  0
LINE
  5
290
330
1E
100
AcDbEntity
  8
0
100
AcDbLine
 10
23.37699999999999
 20
33.62899999999999
 30
0.0
 11
23.7326
 21
33.62899999999999
 31
0.0
  0
LINE
  5
291
330
1E
100
AcDbEntity
  8
0
100
AcDbLine
 10
23.1103
 20
33.62899999999999
 30
0.0
 11
23.37699999999999
 21
33.62899999999999
 31
0.0
  0
LINE
  5
292
330
1E
100
AcDbEntity
  8
0
100
AcDbLine
 10
22.84359999999999
 20
33.62899999999999
 30
0.0
 11
23.1103
 21
33.62899999999999
 31
0.0
  0
LINE
  5
294
330
1E
100
AcDbEntity
  8
0
100
AcDbLine
 10
123.4909999999999
 20
98.846
 30
0.0
 11
125.797
 21
98.37700000000001
 31
0.0
  0
LINE
  5
295
330
1E
100
AcDbEntity
  8
0
100
AcDbLine
 10
111.1979999999999
 20
94.737
 30
0.0
 11
111.653
 21
106.1099999999999
 31
0.0
  0
LINE
  5
296
330
1E
100
AcDbEntity
  8
0
100
AcDbLine
 10
109.801
 20
25.599
 30
0.0
 11
111.1979999999999
 21
94.737
 31
0.0
  0
LINE
  5
298
330
1E
100
AcDbEntity
  8
0
100
AcDbLine
 10
125.797
 20
98.37700000000001
 30
0.0
 11
128.0
 21
98.12899999999999
 31
0.0
  0
LINE
  5
29A
330
1E
100
AcDbEntity
  8
0
100
AcDbLine
 10
22.75469999999999
 20
33.62899999999999
 30
0.0
 11
22.84359999999999
 21
33.62899999999999
 31
0.0
  0
LINE
  5
29B
330
1E
100
AcDbEntity
  8
0
100
AcDbLine
 10
22.6658
 20
33.62899999999999
 30
0.0
 11
22.75469999999999
 21
33.62899999999999
 31
0.0
  0
LINE
  5
29E
330
1E
100
AcDbEntity
  8
0
100
AcDbLine
 10
14.6644
 20
33.3569
 30
0.0
 11
17.3315
 21
33.5202
 31
0.0
  0
LINE
  5
2A0
330
1E
100
AcDbEntity
  8
0
100
AcDbLine
 10
13.3309
 20
32.54059999999999
 30
0.0
 11
13.77539999999999
 21
33.0848
 31
0.0
  0
LINE
  5
2A1
330
1E
100
AcDbEntity
  8
0
100
AcDbLine
 10
13.3
 20
10.1188
 30
0.0
 11
14.5
 21
10.1188
 31
0.0
  0
LINE
  5
2A2
330
1E
100
AcDbEntity
  8
0
100
AcDbLine
 10
12.3
 20
10.1188
 30
0.0
 11
13.3
 21
10.1188
 31
0.0
  0
LINE
  5
2A3
330
1E
100
AcDbEntity
  8
0
100
AcDbLine
 10
12.09999999999999
 20
9.62899999999999
 30
0.0
 11
12.8
 21
9.62899999999999
 31
0.0
  0
LINE
  5
2A4
330
1E
100
AcDbEntity
  8
0
100
AcDbLine
 10
11.69999999999999
 20
9.62899999999999
 30
0.0
 11
12.09999999999999
 21
9.62899999999999
 31
0.0
  0
LINE
  5
2A5
330
1E
100
AcDbEntity
  8
0
100
AcDbLine
 10
11.69999999999999
 20
8.62899999999999
 30
0.0
 11
12.09999999999999
 21
8.62899999999999
 31
0.0
  0
LINE
  5
2A6
330
1E
100
AcDbEntity
  8
0
100
AcDbLine
 10
11.5
 20
8.62899999999999
 30
0.0
 11
11.69999999999999
 21
8.62899999999999
 31
0.0
  0
LINE
  5
2A7
330
1E
100
AcDbEntity
  8
0
100
AcDbLine
 10
11.5
 20
8.62899999999999
 30
0.0
 11
11.5
 21
9.62899999999999
 31
0.0
  0
LINE
  5
2A9
330
1E
100
AcDbEntity
  8
0
100
AcDbLine
 10
11.59999999999999
 20
8.12899999999999
 30
0.0
 11
12.3
 21
8.12899999999999
 31
0.0
  0
LINE
  5
2AB
330
1E
100
AcDbEntity
  8
0
100
AcDbLine
 10
11.19999999999999
 20
8.12899999999999
 30
0.0
 11
11.59999999999999
 21
8.12899999999999
 31
0.0
  0
LINE
  5
2AF
330
1E
100
AcDbEntity
  8
0
100
AcDbLine
 10
11.0
 20
7.62899999999999
 30
0.0
 11
11.0
 21
8.12899999999999
 31
0.0
  0
LINE
  5
2B3
330
1E
100
AcDbEntity
  8
0
100
AcDbLine
 10
10.5
 20
6.12899999999999
 30
0.0
 11
11.0
 21
7.62899999999999
 31
0.0
  0
LINE
  5
2B7
330
1E
100
AcDbEntity
  8
0
100
AcDbLine
 10
9.5
 20
5.12899999999999
 30
0.0
 11
10.5
 21
6.12899999999999
 31
0.0
  0
LINE
  5
2BA
330
1E
100
AcDbEntity
  8
0
100
AcDbLine
 10
8.199999999999999
 20
0.128999999999989
 30
0.0
 11
28.0
 21
0.128999999999988
 31
0.0
  0
LINE
  5
2BB
330
1E
100
AcDbEntity
  8
0
100
AcDbLine
 10
8.199999999999999
 20
0.128999999999989
 30
0.0
 11
11.0
 21
0.128999999999989
 31
0.0
  0
LINE
  5
2BC
330
1E
100
AcDbEntity
  8
0
100
AcDbLine
 10
5.799999999999999
 20
0.128999999999989
 30
0.0
 11
28.0
 21
0.128999999999988
 31
0.0
  0
LINE
  5
2BD
330
1E
100
AcDbEntity
  8
0
100
AcDbLine
 10
5.799999999999999
 20
0.128999999999989
 30
0.0
 11
8.199999999999999
 21
0.128999999999989
 31
0.0
  0
LINE
  5
2BF
330
1E
100
AcDbEntity
  8
0
100
AcDbLine
 10
3.7
 20
0.128999999999988
 30
0.0
 11
28.0
 21
0.128999999999988
 31
0.0
  0
LINE
  5
2C0
330
1E
100
AcDbEntity
  8
0
100
AcDbLine
 10
3.7
 20
0.128999999999988
 30
0.0
 11
5.799999999999999
 21
0.128999999999989
 31
0.0
  0
LINE
  5
2C2
330
1E
100
AcDbEntity
  8
0
100
AcDbLine
 10
2.2
 20
0.128999999999988
 30
0.0
 11
28.0
 21
0.128999999999988
 31
0.0
  0
LINE
  5
2C3
330
1E
100
AcDbEntity
  8
0
100
AcDbLine
 10
2.2
 20
0.128999999999988
 30
0.0
 11
3.7
 21
0.128999999999988
 31
0.0
  0
LINE
  5
2C5
330
1E
100
AcDbEntity
  8
0
100
AcDbLine
 10
1.0
 20
0.128999999999988
 30
0.0
 11
28.0
 21
0.128999999999988
 31
0.0
  0
LINE
  5
2C6
330
1E
100
AcDbEntity
  8
0
100
AcDbLine
 10
1.0
 20
0.128999999999988
 30
0.0
 11
2.2
 21
0.128999999999988
 31
0.0
  0
LINE
  5
2C8
330
1E
100
AcDbEntity
  8
0
100
AcDbLine
 10
0.3
 20
0.128999999999988
 30
0.0
 11
28.0
 21
0.128999999999988
 31
0.0
  0
LINE
  5
2C9
330
1E
100
AcDbEntity
  8
0
100
AcDbLine
 10
0.3
 20
0.128999999999988
 30
0.0
 11
1.0
 21
0.128999999999988
 31
0.0
  0
LINE
  5
2CB
330
1E
100
AcDbEntity
  8
0
100
AcDbLine
 10
0.0
 20
0.128999999999988
 30
0.0
 11
28.0
 21
0.128999999999988
 31
0.0
  0
LINE
  5
2CC
330
1E
100
AcDbEntity
  8
0
100
AcDbLine
 10
0.0
 20
0.128999999999988
 30
0.0
 11
0.3
 21
0.128999999999988
 31
0.0
  0
LINE
  5
2CD
330
1E
100
AcDbEntity
  8
0
100
AcDbLine
 10
0.0
 20
0.128999999999988
 30
0.0
 11
0.0
 21
3.62899999999999
 31
0.0
  0
LINE
  5
2CE
330
1E
100
AcDbEntity
  8
0
100
AcDbLine
 10
0.0
 20
0.128999999999988
 30
0.0
 11
0.3
 21
0.128999999999987
 31
0.0
  0
LINE
  5
2D0
330
1E
100
AcDbEntity
  8
0
100
AcDbLine
 10
126.166
 20
99.24280000000001
 30
0.0
 11
128.0
 21
99.15649999999999
 31
0.0
  0
LINE
  5
2D1
330
1E
100
AcDbEntity
  8
0
100
AcDbLine
 10
121.7799999999999
 20
99.59600000000001
 30
0.0
 11
123.4909999999999
 21
98.846
 31
0.0
  0
LINE
  5
2D3
330
1E
100
AcDbEntity
  8
0
100
AcDbLine
 10
123.1039999999999
 20
100.0135999999999
 30
0.0
 11
126.166
 21
99.24280000000001
 31
0.0
  0
LINE
  5
2D6
330
1E
100
AcDbEntity
  8
0
100
AcDbLine
 10
117.846
 20
102.3949999999999
 30
0.0
 11
119.906
 21
100.669
 31
0.0
  0
LINE
  5
2D7
330
1E
100
AcDbEntity
  8
0
100
AcDbLine
 10
119.906
 20
100.669
 30
0.0
 11
121.7799999999999
 21
99.59600000000001
 31
0.0
  0
LINE
  5
2DC
330
1E
100
AcDbEntity
  8
0
100
AcDbLine
 10
120.855
 20
102.2929999999999
 30
0.0
 11
124.2439999999999
 21
100.5679999999999
 31
0.0
  0
LINE
  5
2DD
330
1E
100
AcDbEntity
  8
0
100
AcDbLine
 10
120.48
 20
101.383
 30
0.0
 11
123.1039999999999
 21
100.0135999999999
 31
0.0
  0
LINE
  5
2E1
330
1E
100
AcDbEntity
  8
0
100
AcDbLine
 10
118.856
 20
103.8229999999999
 30
0.0
 11
120.855
 21
102.2929999999999
 31
0.0
  0
LINE
  5
2E2
330
1E
100
AcDbEntity
  8
0
100
AcDbLine
 10
118.646
 20
102.8089999999999
 30
0.0
 11
120.48
 21
101.383
 31
0.0
  0
LINE
  5
2E7
330
1E
100
AcDbEntity
  8
0
100
AcDbLine
 10
125.506
 20
103.5409999999999
 30
0.0
 11
128.0
 21
103.2259999999999
 31
0.0
  0
LINE
  5
2E8
330
1E
100
AcDbEntity
  8
0
100
AcDbLine
 10
124.2439999999999
 20
100.5679999999999
 30
0.0
 11
128.0
 21
100.1659999999999
 31
0.0
  0
LINE
  5
2EB
330
1E
100
AcDbEntity
  8
0
100
AcDbLine
 10
111.653
 20
106.1099999999999
 30
0.0
 11
112.082
 21
111.596
 31
0.0
  0
LINE
  5
2EC
330
1E
100
AcDbEntity
  8
0
100
AcDbLine
 10
114.247
 20
109.79
 30
0.0
 11
115.057
 21
106.7829999999999
 31
0.0
  0
LINE
  5
2ED
330
1E
100
AcDbEntity
  8
0
100
AcDbLine
 10
116.215
 20
104.536
 30
0.0
 11
117.846
 21
102.3949999999999
 31
0.0
  0
LINE
  5
2F1
330
1E
100
AcDbEntity
  8
0
100
AcDbLine
 10
123.3659999999999
 20
104.3779999999999
 30
0.0
 11
125.506
 21
103.5409999999999
 31
0.0
  0
LINE
  5
2F2
330
1E
100
AcDbEntity
  8
0
100
AcDbLine
 10
121.4919999999999
 20
105.6769999999999
 30
0.0
 11
123.3659999999999
 21
104.3779999999999
 31
0.0
  0
LINE
  5
2F3
330
1E
100
AcDbEntity
  8
0
100
AcDbLine
 10
117.0279999999999
 20
104.644
 30
0.0
 11
118.646
 21
102.8089999999999
 31
0.0
  0
LINE
  5
2F5
330
1E
100
AcDbEntity
  8
0
100
AcDbLine
 10
115.057
 20
106.7829999999999
 30
0.0
 11
116.215
 21
104.536
 31
0.0
  0
LINE
  5
2F6
330
1E
100
AcDbEntity
  8
0
100
AcDbLine
 10
119.357
 20
108.347
 30
0.0
 11
120.3219999999999
 21
106.928
 31
0.0
  0
LINE
  5
2F7
330
1E
100
AcDbEntity
  8
0
100
AcDbLine
 10
116.4109999999999
 20
106.9039999999999
 30
0.0
 11
118.856
 21
103.8229999999999
 31
0.0
  0
LINE
  5
2F8
330
1E
100
AcDbEntity
  8
0
100
AcDbLine
 10
120.3219999999999
 20
106.928
 30
0.0
 11
121.4919999999999
 21
105.6769999999999
 31
0.0
  0
LINE
  5
2F9
330
1E
100
AcDbEntity
  8
0
100
AcDbLine
 10
115.67
 20
106.8289999999999
 30
0.0
 11
117.0279999999999
 21
104.644
 31
0.0
  0
LINE
  5
2FD
330
1E
100
AcDbEntity
  8
0
100
AcDbLine
 10
114.427
 20
110.851
 30
0.0
 11
114.867
 21
108.7529999999999
 31
0.0
  0
LINE
  5
2FE
330
1E
100
AcDbEntity
  8
0
100
AcDbLine
 10
118.502
 20
110.4689999999999
 30
0.0
 11
119.357
 21
108.347
 31
0.0
  0
LINE
  5
2FF
330
1E
100
AcDbEntity
  8
0
100
AcDbLine
 10
115.443
 20
109.458
 30
0.0
 11
116.4109999999999
 21
106.9039999999999
 31
0.0
  0
LINE
  5
300
330
1E
100
AcDbEntity
  8
0
100
AcDbLine
 10
114.867
 20
108.7529999999999
 30
0.0
 11
115.67
 21
106.8289999999999
 31
0.0
  0
LINE
  5
305
330
1E
100
AcDbEntity
  8
0
100
AcDbLine
 10
112.082
 20
111.596
 30
0.0
 11
112.5729999999999
 21
114.325
 31
0.0
  0
LINE
  5
306
330
1E
100
AcDbEntity
  8
0
100
AcDbLine
 10
114.052
 20
112.04
 30
0.0
 11
114.247
 21
109.79
 31
0.0
  0
LINE
  5
307
330
1E
100
AcDbEntity
  8
0
100
AcDbLine
 10
114.052
 20
112.04
 30
0.0
 11
114.247194274122
 21
114.0614437327619
 31
0.0
  0
LINE
  5
309
330
1E
100
AcDbEntity
  8
0
100
AcDbLine
 10
114.2789999999999
 20
112.358
 30
0.0
 11
114.427
 21
110.851
 31
0.0
  0
LINE
  5
30B
330
1E
100
AcDbEntity
  8
0
100
AcDbLine
 10
114.2789999999999
 20
112.358
 30
0.0
 11
114.3079999999999
 21
113.607
 31
0.0
  0
LINE
  5
30E
330
1E
100
AcDbEntity
  8
0
100
AcDbLine
 10
112.5729999999999
 20
114.325
 30
0.0
 11
112.956
 21
115.592
 31
0.0
  0
LINE
  5
30F
330
1E
100
AcDbEntity
  8
0
100
AcDbLine
 10
113.585
 20
117.154
 30
0.0
 11
114.3129999999999
 21
118.5089999999999
 31
0.0
  0
LINE
  5
310
330
1E
100
AcDbEntity
  8
0
100
AcDbLine
 10
112.956
 20
115.592
 30
0.0
 11
113.585
 21
117.154
 31
0.0
  0
LINE
  5
311
330
1E
100
AcDbEntity
  8
0
100
AcDbLine
 10
114.247194274122
 20
114.0614437327619
 30
0.0
 11
114.3159999999999
 21
114.7739999999999
 31
0.0
  0
LINE
  5
313
330
1E
100
AcDbEntity
  8
0
100
AcDbLine
 10
114.3129999999999
 20
118.5089999999999
 30
0.0
 11
115.6349999999999
 21
120.399
 31
0.0
  0
LINE
  5
314
330
1E
100
AcDbEntity
  8
0
100
AcDbLine
 10
114.3079999999999
 20
113.607
 30
0.0
 11
114.376
 21
114.4349999999999
 31
0.0
  0
LINE
  5
31C
330
1E
100
AcDbEntity
  8
0
100
AcDbLine
 10
114.376
 20
114.4349999999999
 30
0.0
 11
115.061
 21
117.0179999999999
 31
0.0
  0
LINE
  5
31D
330
1E
100
AcDbEntity
  8
0
100
AcDbLine
 10
118.1589999999999
 20
112.724
 30
0.0
 11
118.502
 21
110.4689999999999
 31
0.0
  0
LINE
  5
31E
330
1E
100
AcDbEntity
  8
0
100
AcDbLine
 10
118.1589999999999
 20
112.724
 30
0.0
 11
118.2649999999999
 21
114.439
 31
0.0
  0
LINE
  5
31F
330
1E
100
AcDbEntity
  8
0
100
AcDbLine
 10
115.6349999999999
 20
120.399
 30
0.0
 11
117.2389999999999
 21
122.001
 31
0.0
  0
LINE
  5
321
330
1E
100
AcDbEntity
  8
0
100
AcDbLine
 10
115.061
 20
117.0179999999999
 30
0.0
 11
116.527
 21
120.571
 31
0.0
  0
LINE
  5
324
330
1E
100
AcDbEntity
  8
0
100
AcDbLine
 10
115.863
 20
118.0929999999999
 30
0.0
 11
117.4379999999999
 21
120.877
 31
0.0
  0
LINE
  5
326
330
1E
100
AcDbEntity
  8
0
100
AcDbLine
 10
116.527
 20
120.571
 30
0.0
 11
118.837
 21
123.164
 31
0.0
  0
LINE
  5
327
330
1E
100
AcDbEntity
  8
0
100
AcDbLine
 10
117.4379999999999
 20
120.877
 30
0.0
 11
119.174
 21
122.831
 31
0.0
  0
LINE
  5
328
330
1E
100
AcDbEntity
  8
0
100
AcDbLine
 10
117.2389999999999
 20
122.001
 30
0.0
 11
117.6698885009899
 21
122.295369371963
 31
0.0
  0
LINE
  5
329
330
1E
100
AcDbEntity
  8
0
100
AcDbLine
 10
120.996
 20
119.9899999999999
 30
0.0
 11
122.7339999999999
 21
121.391
 31
0.0
  0
LINE
  5
32A
330
1E
100
AcDbEntity
  8
0
100
AcDbLine
 10
119.589
 20
118.1889999999999
 30
0.0
 11
120.996
 21
119.9899999999999
 31
0.0
  0
LINE
  5
32B
330
1E
100
AcDbEntity
  8
0
100
AcDbLine
 10
118.651
 20
116.175
 30
0.0
 11
119.589
 21
118.1889999999999
 31
0.0
  0
LINE
  5
32C
330
1E
100
AcDbEntity
  8
0
100
AcDbLine
 10
118.2649999999999
 20
114.439
 30
0.0
 11
118.651
 21
116.175
 31
0.0
  0
LINE
  5
32D
330
1E
100
AcDbEntity
  8
0
100
AcDbLine
 10
114.8779999999999
 20
113.7639999999999
 30
0.0
 11
115.863
 21
118.0929999999999
 31
0.0
  0
LINE
  5
32E
330
1E
100
AcDbEntity
  8
0
100
AcDbLine
 10
114.8779999999999
 20
113.7639999999999
 30
0.0
 11
115.443
 21
109.458
 31
0.0
  0
LINE
  5
331
330
1E
100
AcDbEntity
  8
0
100
AcDbLine
 10
118.796
 20
123.411
 30
0.0
 11
120.9729999999999
 21
125.039
 31
0.0
  0
LINE
  5
332
330
1E
100
AcDbEntity
  8
0
100
AcDbLine
 10
118.837
 20
123.164
 30
0.0
 11
122.031
 21
125.4739999999999
 31
0.0
  0
LINE
  5
333
330
1E
100
AcDbEntity
  8
0
100
AcDbLine
 10
119.174
 20
122.831
 30
0.0
 11
121.7779999999999
 21
124.7239999999999
 31
0.0
  0
LINE
  5
334
330
1E
100
AcDbEntity
  8
0
100
AcDbLine
 10
120.9729999999999
 20
125.039
 30
0.0
 11
122.031
 21
125.4739999999999
 31
0.0
  0
LINE
  5
335
330
1E
100
AcDbEntity
  8
0
100
AcDbLine
 10
121.7779999999999
 20
124.7239999999999
 30
0.0
 11
125.9779999999999
 21
126.28
 31
0.0
  0
LINE
  5
336
330
1E
100
AcDbEntity
  8
0
100
AcDbLine
 10
117.7059999999999
 20
122.3449999999999
 30
0.0
 11
118.796
 21
123.411
 31
0.0
  0
LINE
  5
337
330
1E
100
AcDbEntity
  8
0
100
AcDbLine
 10
122.7339999999999
 20
121.391
 30
0.0
 11
124.3199999999999
 21
122.184
 31
0.0
  0
LINE
  5
338
330
1E
100
AcDbEntity
  8
0
100
AcDbLine
 10
125.9539999999999
 20
122.7
 30
0.0
 11
128.0
 21
122.8849999999999
 31
0.0
  0
LINE
  5
339
330
1E
100
AcDbEntity
  8
0
100
AcDbLine
 10
124.3199999999999
 20
122.184
 30
0.0
 11
125.9539999999999
 21
122.7
 31
0.0
  0
LINE
  5
33A
330
1E
100
AcDbEntity
  8
0
100
AcDbLine
 10
122.031
 20
125.4739999999999
 30
0.0
 11
123.8369999999999
 21
126.246
 31
0.0
  0
LINE
  5
33B
330
1E
100
AcDbEntity
  8
0
100
AcDbLine
 10
125.9779999999999
 20
126.28
 30
0.0
 11
128.0
 21
126.235
 31
0.0
  0
LINE
  5
33C
330
1E
100
AcDbEntity
  8
0
100
AcDbLine
 10
123.8369999999999
 20
126.246
 30
0.0
 11
125.9889999999999
 21
126.807
 31
0.0
  0
LINE
  5
33E
330
1E
100
AcDbEntity
  8
0
100
AcDbLine
 10
125.9889999999999
 20
126.807
 30
0.0
 11
128.0
 21
126.926
 31
0.0
  0
LINE
  5
652
330
1E
100
AcDbEntity
  8
0
  6
Continuous
100
AcDbLine
 10
100.5449999999999
 20
4.22699999999999
 30
0.0
 11
100.9957344490903
 21
4.615494020121275
 31
0.0
  0
LINE
  5
653
330
1E
100
AcDbEntity
  8
0
  6
Continuous
100
AcDbLine
 10
100.9957344490903
 20
4.615494020121275
 30
0.0
 11
102.9151158613086
 21
5.228708647671055
 31
0.0
  0
LINE
  5
654
330
1E
100
AcDbEntity
  8
0
  6
Continuous
100
AcDbLine
 10
102.9151158613086
 20
5.228708647671055
 30
0.0
 11
106.4289999999999
 21
6.31099999999999
 31
0.0
  0
LINE
  5
655
330
1E
100
AcDbEntity
  8
0
100
AcDbLine
 10
232.2674
 20
33.62899999999999
 30
0.0
 11
230.6671
 21
33.62899999999999
 31
0.0
  0
LINE
  5
656
330
1E
100
AcDbEntity
  8
0
100
AcDbLine
 10
232.4
 20
10.1188
 30
0.0
 11
230.2
 21
10.1188
 31
0.0
  0
LINE
  5
657
330
1E
100
AcDbEntity
  8
0
100
AcDbLine
 10
232.2999999999999
 20
9.62899999999999
 30
0.0
 11
230.1
 21
9.62899999999999
 31
0.0
  0
LINE
  5
658
330
1E
100
AcDbEntity
  8
0
100
AcDbLine
 10
232.2999999999999
 20
8.62899999999999
 30
0.0
 11
230.1
 21
8.62899999999999
 31
0.0
  0
LINE
  5
659
330
1E
100
AcDbEntity
  8
0
100
AcDbLine
 10
232.4
 20
8.12899999999999
 30
0.0
 11
230.2
 21
8.12899999999999
 31
0.0
  0
LINE
  5
65A
330
1E
100
AcDbEntity
  8
0
100
AcDbLine
 10
235.0999999999999
 20
4.12899999999999
 30
0.0
 11
231.5999999999999
 21
4.12899999999999
 31
0.0
  0
LINE
  5
65B
330
1E
100
AcDbEntity
  8
0
100
AcDbLine
 10
235.1999999999999
 20
0.128999999999989
 30
0.0
 11
231.8
 21
0.128999999999989
 31
0.0
  0
LINE
  5
65C
330
1E
100
AcDbEntity
  8
0
100
AcDbLine
 10
235.1999999999999
 20
0.128999999999989
 30
0.0
 11
228.0
 21
0.128999999999988
 31
0.0
  0
LINE
  5
65D
330
1E
100
AcDbEntity
  8
0
100
AcDbLine
 10
235.1999999999999
 20
0.128999999999986
 30
0.0
 11
228.0
 21
0.128999999999988
 31
0.0
  0
LINE
  5
65E
330
1E
100
AcDbEntity
  8
0
100
AcDbLine
 10
235.1999999999999
 20
0.128999999999986
 30
0.0
 11
231.8
 21
0.128999999999986
 31
0.0
  0
LINE
  5
65F
330
1E
100
AcDbEntity
  8
0
100
AcDbLine
 10
247.8
 20
0.128999999999989
 30
0.0
 11
228.0
 21
0.128999999999988
 31
0.0
  0
LINE
  5
660
330
1E
100
AcDbEntity
  8
0
100
AcDbLine
 10
238.7
 20
0.128999999999989
 30
0.0
 11
228.0
 21
0.128999999999988
 31
0.0
  0
LINE
  5
661
330
1E
100
AcDbEntity
  8
0
100
AcDbLine
 10
241.9
 20
0.128999999999989
 30
0.0
 11
228.0
 21
0.128999999999988
 31
0.0
  0
LINE
  5
662
330
1E
100
AcDbEntity
  8
0
100
AcDbLine
 10
245.0
 20
0.128999999999989
 30
0.0
 11
228.0
 21
0.128999999999988
 31
0.0
  0
LINE
  5
663
330
1E
100
AcDbEntity
  8
0
100
AcDbLine
 10
238.7
 20
0.128999999999986
 30
0.0
 11
228.0
 21
0.128999999999988
 31
0.0
  0
LINE
  5
664
330
1E
100
AcDbEntity
  8
0
100
AcDbLine
 10
241.9
 20
0.128999999999986
 30
0.0
 11
228.0
 21
0.128999999999988
 31
0.0
  0
LINE
  5
665
330
1E
100
AcDbEntity
  8
0
100
AcDbLine
 10
245.0
 20
0.128999999999986
 30
0.0
 11
228.0
 21
0.128999999999988
 31
0.0
  0
LINE
  5
666
330
1E
100
AcDbEntity
  8
0
100
AcDbLine
 10
247.8
 20
0.128999999999986
 30
0.0
 11
228.0
 21
0.128999999999988
 31
0.0
  0
LINE
  5
667
330
1E
100
AcDbEntity
  8
0
100
AcDbLine
 10
256.0
 20
0.128999999999988
 30
0.0
 11
228.0
 21
0.128999999999988
 31
0.0
  0
LINE
  5
668
330
1E
100
AcDbEntity
  8
0
100
AcDbLine
 10
255.6999999999999
 20
0.128999999999988
 30
0.0
 11
228.0
 21
0.128999999999988
 31
0.0
  0
LINE
  5
669
330
1E
100
AcDbEntity
  8
0
100
AcDbLine
 10
255.0
 20
0.128999999999988
 30
0.0
 11
228.0
 21
0.128999999999988
 31
0.0
  0
LINE
  5
66A
330
1E
100
AcDbEntity
  8
0
100
AcDbLine
 10
253.8
 20
0.128999999999988
 30
0.0
 11
228.0
 21
0.128999999999988
 31
0.0
  0
LINE
  5
66B
330
1E
100
AcDbEntity
  8
0
100
AcDbLine
 10
252.3
 20
0.128999999999988
 30
0.0
 11
228.0
 21
0.128999999999988
 31
0.0
  0
LINE
  5
66C
330
1E
100
AcDbEntity
  8
0
100
AcDbLine
 10
250.1999999999999
 20
0.128999999999989
 30
0.0
 11
228.0
 21
0.128999999999988
 31
0.0
  0
LINE
  5
66D
330
1E
100
AcDbEntity
  8
0
100
AcDbLine
 10
250.1999999999999
 20
0.128999999999989
 30
0.0
 11
228.0
 21
0.128999999999988
 31
0.0
  0
LINE
  5
66E
330
1E
100
AcDbEntity
  8
0
100
AcDbLine
 10
252.3
 20
0.128999999999988
 30
0.0
 11
228.0
 21
0.128999999999988
 31
0.0
  0
LINE
  5
66F
330
1E
100
AcDbEntity
  8
0
100
AcDbLine
 10
253.8
 20
0.128999999999988
 30
0.0
 11
228.0
 21
0.128999999999988
 31
0.0
  0
LINE
  5
670
330
1E
100
AcDbEntity
  8
0
100
AcDbLine
 10
255.6999999999999
 20
0.128999999999988
 30
0.0
 11
228.0
 21
0.128999999999988
 31
0.0
  0
LINE
  5
671
330
1E
100
AcDbEntity
  8
0
100
AcDbLine
 10
255.0
 20
0.128999999999987
 30
0.0
 11
228.0
 21
0.128999999999988
 31
0.0
  0
LINE
  5
672
330
1E
100
AcDbEntity
  8
0
100
AcDbLine
 10
253.8
 20
0.128999999999987
 30
0.0
 11
228.0
 21
0.128999999999988
 31
0.0
  0
LINE
  5
673
330
1E
100
AcDbEntity
  8
0
100
AcDbLine
 10
252.3
 20
0.128999999999987
 30
0.0
 11
228.0
 21
0.128999999999988
 31
0.0
  0
LINE
  5
674
330
1E
100
AcDbEntity
  8
0
100
AcDbLine
 10
250.1999999999999
 20
0.128999999999987
 30
0.0
 11
228.0
 21
0.128999999999988
 31
0.0
  0
LINE
  5
675
330
1E
100
AcDbEntity
  8
0
100
AcDbLine
 10
250.1999999999999
 20
0.128999999999987
 30
0.0
 11
228.0
 21
0.128999999999988
 31
0.0
  0
LINE
  5
676
330
1E
100
AcDbEntity
  8
0
100
AcDbLine
 10
252.3
 20
0.128999999999987
 30
0.0
 11
228.0
 21
0.128999999999988
 31
0.0
  0
LINE
  5
677
330
1E
100
AcDbEntity
  8
0
100
AcDbLine
 10
253.8
 20
0.128999999999987
 30
0.0
 11
228.0
 21
0.128999999999988
 31
0.0
  0
LINE
  5
678
330
1E
100
AcDbEntity
  8
0
100
AcDbLine
 10
255.6999999999999
 20
0.128999999999987
 30
0.0
 11
228.0
 21
0.128999999999988
 31
0.0
  0
LINE
  5
679
330
1E
100
AcDbEntity
  8
0
100
AcDbLine
 10
245.0
 20
10.1188
 30
0.0
 11
242.6691
 21
32.54059999999999
 31
0.0
  0
LINE
  5
67A
330
1E
100
AcDbEntity
  8
0
100
AcDbLine
 10
253.4
 20
4.12899999999999
 30
0.0
 11
251.8
 21
4.12899999999999
 31
0.0
  0
LINE
  5
67B
330
1E
100
AcDbEntity
  8
0
100
AcDbLine
 10
255.5
 20
4.12899999999999
 30
0.0
 11
248.0
 21
4.62899999999999
 31
0.0
  0
LINE
  5
67C
330
1E
100
AcDbEntity
  8
0
100
AcDbLine
 10
252.3
 20
0.128999999999988
 30
0.0
 11
250.1999999999999
 21
0.128999999999989
 31
0.0
  0
LINE
  5
67D
330
1E
100
AcDbEntity
  8
0
100
AcDbLine
 10
252.3
 20
0.128999999999987
 30
0.0
 11
250.1999999999999
 21
0.128999999999987
 31
0.0
  0
LINE
  5
67E
330
1E
100
AcDbEntity
  8
0
100
AcDbLine
 10
256.0
 20
3.62899999999999
 30
0.0
 11
255.5
 21
4.12899999999999
 31
0.0
  0
LINE
  5
67F
330
1E
100
AcDbEntity
  8
0
100
AcDbLine
 10
255.0
 20
0.128999999999988
 30
0.0
 11
253.8
 21
0.128999999999988
 31
0.0
  0
LINE
  5
680
330
1E
100
AcDbEntity
  8
0
100
AcDbLine
 10
255.0
 20
0.128999999999987
 30
0.0
 11
253.8
 21
0.128999999999987
 31
0.0
  0
LINE
  5
681
330
1E
100
AcDbEntity
  8
0
100
AcDbLine
 10
256.0
 20
0.128999999999988
 30
0.0
 11
256.0
 21
3.62899999999999
 31
0.0
  0
LINE
  5
682
330
1E
100
AcDbEntity
  8
0
100
AcDbLine
 10
256.0
 20
3.62899999999999
 30
0.0
 11
256.0
 21
0.128999999999988
 31
0.0
  0
LINE
  5
683
330
1E
100
AcDbEntity
  8
0
100
AcDbLine
 10
256.0
 20
0.128999999999988
 30
0.0
 11
255.6999999999999
 21
0.128999999999987
 31
0.0
  0
LINE
  5
684
330
1E
100
AcDbEntity
  8
0
100
AcDbLine
 10
256.0
 20
0.128999999999988
 30
0.0
 11
255.6999999999999
 21
0.128999999999988
 31
0.0
  0
LINE
  5
685
330
1E
100
AcDbEntity
  8
0
100
AcDbLine
 10
255.6999999999999
 20
0.128999999999988
 30
0.0
 11
255.0
 21
0.128999999999988
 31
0.0
  0
LINE
  5
686
330
1E
100
AcDbEntity
  8
0
100
AcDbLine
 10
255.6999999999999
 20
0.128999999999987
 30
0.0
 11
255.0
 21
0.128999999999987
 31
0.0
  0
LINE
  5
687
330
1E
100
AcDbEntity
  8
0
100
AcDbLine
 10
253.8
 20
0.128999999999988
 30
0.0
 11
252.3
 21
0.128999999999988
 31
0.0
  0
LINE
  5
688
330
1E
100
AcDbEntity
  8
0
100
AcDbLine
 10
253.8
 20
0.128999999999987
 30
0.0
 11
252.3
 21
0.128999999999987
 31
0.0
  0
LINE
  5
689
330
1E
100
AcDbEntity
  8
0
100
AcDbLine
 10
254.4999999999999
 20
4.12899999999999
 30
0.0
 11
253.4
 21
4.12899999999999
 31
0.0
  0
LINE
  5
68A
330
1E
100
AcDbEntity
  8
0
100
AcDbLine
 10
255.2
 20
4.12899999999999
 30
0.0
 11
254.4999999999999
 21
4.12899999999999
 31
0.0
  0
LINE
  5
68B
330
1E
100
AcDbEntity
  8
0
100
AcDbLine
 10
255.5
 20
4.12899999999999
 30
0.0
 11
255.2
 21
4.12899999999999
 31
0.0
  0
LINE
  5
68C
330
1E
100
AcDbEntity
  8
0
100
AcDbLine
 10
245.0
 20
0.128999999999989
 30
0.0
 11
241.9
 21
0.128999999999989
 31
0.0
  0
LINE
  5
68D
330
1E
100
AcDbEntity
  8
0
100
AcDbLine
 10
245.0
 20
0.128999999999986
 30
0.0
 11
241.9
 21
0.128999999999986
 31
0.0
  0
LINE
  5
68E
330
1E
100
AcDbEntity
  8
0
100
AcDbLine
 10
247.8
 20
0.128999999999989
 30
0.0
 11
245.0
 21
0.128999999999989
 31
0.0
  0
LINE
  5
68F
330
1E
100
AcDbEntity
  8
0
100
AcDbLine
 10
247.8
 20
0.128999999999986
 30
0.0
 11
245.0
 21
0.128999999999986
 31
0.0
  0
LINE
  5
690
330
1E
100
AcDbEntity
  8
0
100
AcDbLine
 10
250.1999999999999
 20
0.128999999999989
 30
0.0
 11
247.8
 21
0.128999999999989
 31
0.0
  0
LINE
  5
691
330
1E
100
AcDbEntity
  8
0
100
AcDbLine
 10
250.1999999999999
 20
0.128999999999987
 30
0.0
 11
247.8
 21
0.128999999999986
 31
0.0
  0
LINE
  5
692
330
1E
100
AcDbEntity
  8
0
100
AcDbLine
 10
238.7
 20
0.128999999999989
 30
0.0
 11
235.1999999999999
 21
0.128999999999989
 31
0.0
  0
LINE
  5
693
330
1E
100
AcDbEntity
  8
0
100
AcDbLine
 10
238.7
 20
0.128999999999986
 30
0.0
 11
235.1999999999999
 21
0.128999999999986
 31
0.0
  0
LINE
  5
694
330
1E
100
AcDbEntity
  8
0
100
AcDbLine
 10
241.9
 20
0.128999999999989
 30
0.0
 11
238.7
 21
0.128999999999989
 31
0.0
  0
LINE
  5
695
330
1E
100
AcDbEntity
  8
0
100
AcDbLine
 10
241.9
 20
0.128999999999986
 30
0.0
 11
238.7
 21
0.128999999999986
 31
0.0
  0
LINE
  5
696
330
1E
100
AcDbEntity
  8
0
100
AcDbLine
 10
242.3
 20
9.62899999999999
 30
0.0
 11
241.1
 21
9.62899999999999
 31
0.0
  0
LINE
  5
697
330
1E
100
AcDbEntity
  8
0
100
AcDbLine
 10
242.7
 20
10.1188
 30
0.0
 11
241.5
 21
10.1188
 31
0.0
  0
LINE
  5
698
330
1E
100
AcDbEntity
  8
0
100
AcDbLine
 10
242.3
 20
8.62899999999999
 30
0.0
 11
241.1
 21
8.62899999999999
 31
0.0
  0
LINE
  5
699
330
1E
100
AcDbEntity
  8
0
100
AcDbLine
 10
242.7
 20
8.12899999999999
 30
0.0
 11
241.5
 21
8.12899999999999
 31
0.0
  0
LINE
  5
69A
330
1E
100
AcDbEntity
  8
0
100
AcDbLine
 10
244.7
 20
4.12899999999999
 30
0.0
 11
241.6999999999999
 21
4.12899999999999
 31
0.0
  0
LINE
  5
69B
330
1E
100
AcDbEntity
  8
0
100
AcDbLine
 10
247.4
 20
4.12899999999999
 30
0.0
 11
244.7
 21
4.12899999999999
 31
0.0
  0
LINE
  5
69C
330
1E
100
AcDbEntity
  8
0
100
AcDbLine
 10
248.0
 20
4.62899999999999
 30
0.0
 11
246.4999999999999
 21
5.12899999999999
 31
0.0
  0
LINE
  5
69D
330
1E
100
AcDbEntity
  8
0
100
AcDbLine
 10
249.8
 20
4.12899999999999
 30
0.0
 11
247.4
 21
4.12899999999999
 31
0.0
  0
LINE
  5
69E
330
1E
100
AcDbEntity
  8
0
100
AcDbLine
 10
251.8
 20
4.12899999999999
 30
0.0
 11
249.8
 21
4.12899999999999
 31
0.0
  0
LINE
  5
69F
330
1E
100
AcDbEntity
  8
0
100
AcDbLine
 10
244.4999999999999
 20
8.62899999999999
 30
0.0
 11
244.4999999999999
 21
9.62899999999999
 31
0.0
  0
LINE
  5
6A0
330
1E
100
AcDbEntity
  8
0
100
AcDbLine
 10
244.4999999999999
 20
9.62899999999999
 30
0.0
 11
244.4999999999999
 21
8.62899999999999
 31
0.0
  0
LINE
  5
6A1
330
1E
100
AcDbEntity
  8
0
100
AcDbLine
 10
244.7999999999999
 20
8.12899999999999
 30
0.0
 11
244.3999999999999
 21
8.12899999999999
 31
0.0
  0
LINE
  5
6A2
330
1E
100
AcDbEntity
  8
0
100
AcDbLine
 10
244.4999999999999
 20
8.62899999999999
 30
0.0
 11
244.3
 21
8.62899999999999
 31
0.0
  0
LINE
  5
6A3
330
1E
100
AcDbEntity
  8
0
100
AcDbLine
 10
245.5
 20
6.12899999999999
 30
0.0
 11
245.0
 21
7.62899999999999
 31
0.0
  0
LINE
  5
6A4
330
1E
100
AcDbEntity
  8
0
100
AcDbLine
 10
246.4999999999999
 20
5.12899999999999
 30
0.0
 11
245.5
 21
6.12899999999999
 31
0.0
  0
LINE
  5
6A5
330
1E
100
AcDbEntity
  8
0
100
AcDbLine
 10
245.0
 20
8.12899999999999
 30
0.0
 11
244.4999999999999
 21
8.62899999999999
 31
0.0
  0
LINE
  5
6A6
330
1E
100
AcDbEntity
  8
0
100
AcDbLine
 10
245.0
 20
8.12899999999999
 30
0.0
 11
244.7999999999999
 21
8.12899999999999
 31
0.0
  0
LINE
  5
6A7
330
1E
100
AcDbEntity
  8
0
100
AcDbLine
 10
245.0
 20
7.62899999999999
 30
0.0
 11
245.0
 21
8.12899999999999
 31
0.0
  0
LINE
  5
6A8
330
1E
100
AcDbEntity
  8
0
100
AcDbLine
 10
245.0
 20
8.12899999999999
 30
0.0
 11
245.0
 21
7.62899999999999
 31
0.0
  0
LINE
  5
6A9
330
1E
100
AcDbEntity
  8
0
100
AcDbLine
 10
243.9
 20
8.62899999999999
 30
0.0
 11
243.1999999999999
 21
8.62899999999999
 31
0.0
  0
LINE
  5
6AA
330
1E
100
AcDbEntity
  8
0
100
AcDbLine
 10
243.6999999999999
 20
8.12899999999999
 30
0.0
 11
242.7
 21
8.12899999999999
 31
0.0
  0
LINE
  5
6AB
330
1E
100
AcDbEntity
  8
0
100
AcDbLine
 10
244.3
 20
8.62899999999999
 30
0.0
 11
243.9
 21
8.62899999999999
 31
0.0
  0
LINE
  5
6AC
330
1E
100
AcDbEntity
  8
0
100
AcDbLine
 10
244.3999999999999
 20
8.12899999999999
 30
0.0
 11
243.6999999999999
 21
8.12899999999999
 31
0.0
  0
LINE
  5
6AD
330
1E
100
AcDbEntity
  8
0
100
AcDbLine
 10
243.1999999999999
 20
8.62899999999999
 30
0.0
 11
242.3
 21
8.62899999999999
 31
0.0
  0
LINE
  5
6AE
330
1E
100
AcDbEntity
  8
0
100
AcDbLine
 10
244.7999999999999
 20
10.1188
 30
0.0
 11
244.3999999999999
 21
10.1188
 31
0.0
  0
LINE
  5
6AF
330
1E
100
AcDbEntity
  8
0
100
AcDbLine
 10
244.4999999999999
 20
9.62899999999999
 30
0.0
 11
244.3
 21
9.62899999999999
 31
0.0
  0
LINE
  5
6B0
330
1E
100
AcDbEntity
  8
0
100
AcDbLine
 10
245.0
 20
10.1188
 30
0.0
 11
244.7999999999999
 21
10.1188
 31
0.0
  0
LINE
  5
6B1
330
1E
100
AcDbEntity
  8
0
100
AcDbLine
 10
245.0
 20
10.1188
 30
0.0
 11
244.4999999999999
 21
9.62899999999999
 31
0.0
  0
LINE
  5
6B2
330
1E
100
AcDbEntity
  8
0
100
AcDbLine
 10
243.9
 20
9.62899999999999
 30
0.0
 11
243.1999999999999
 21
9.62899999999999
 31
0.0
  0
LINE
  5
6B3
330
1E
100
AcDbEntity
  8
0
100
AcDbLine
 10
243.6999999999999
 20
10.1188
 30
0.0
 11
242.7
 21
10.1188
 31
0.0
  0
LINE
  5
6B4
330
1E
100
AcDbEntity
  8
0
100
AcDbLine
 10
244.3
 20
9.62899999999999
 30
0.0
 11
243.9
 21
9.62899999999999
 31
0.0
  0
LINE
  5
6B5
330
1E
100
AcDbEntity
  8
0
100
AcDbLine
 10
244.3999999999999
 20
10.1188
 30
0.0
 11
243.6999999999999
 21
10.1188
 31
0.0
  0
LINE
  5
6B6
330
1E
100
AcDbEntity
  8
0
100
AcDbLine
 10
243.1999999999999
 20
9.62899999999999
 30
0.0
 11
242.3
 21
9.62899999999999
 31
0.0
  0
LINE
  5
6B7
330
1E
100
AcDbEntity
  8
0
100
AcDbLine
 10
238.3
 20
10.1188
 30
0.0
 11
236.5
 21
10.1188
 31
0.0
  0
LINE
  5
6B8
330
1E
100
AcDbEntity
  8
0
100
AcDbLine
 10
238.0
 20
9.62899999999999
 30
0.0
 11
236.2
 21
9.62899999999999
 31
0.0
  0
LINE
  5
6B9
330
1E
100
AcDbEntity
  8
0
100
AcDbLine
 10
238.0
 20
8.62899999999999
 30
0.0
 11
236.2
 21
8.62899999999999
 31
0.0
  0
LINE
  5
6BA
330
1E
100
AcDbEntity
  8
0
100
AcDbLine
 10
238.3
 20
8.12899999999999
 30
0.0
 11
236.5
 21
8.12899999999999
 31
0.0
  0
LINE
  5
6BB
330
1E
100
AcDbEntity
  8
0
100
AcDbLine
 10
238.5
 20
4.12899999999999
 30
0.0
 11
235.0999999999999
 21
4.12899999999999
 31
0.0
  0
LINE
  5
6BC
330
1E
100
AcDbEntity
  8
0
100
AcDbLine
 10
239.5999999999999
 20
8.62899999999999
 30
0.0
 11
238.0
 21
8.62899999999999
 31
0.0
  0
LINE
  5
6BD
330
1E
100
AcDbEntity
  8
0
100
AcDbLine
 10
240.0
 20
8.12899999999999
 30
0.0
 11
238.3
 21
8.12899999999999
 31
0.0
  0
LINE
  5
6BE
330
1E
100
AcDbEntity
  8
0
100
AcDbLine
 10
241.6999999999999
 20
4.12899999999999
 30
0.0
 11
238.5
 21
4.12899999999999
 31
0.0
  0
LINE
  5
6BF
330
1E
100
AcDbEntity
  8
0
100
AcDbLine
 10
241.1
 20
8.62899999999999
 30
0.0
 11
239.5999999999999
 21
8.62899999999999
 31
0.0
  0
LINE
  5
6C0
330
1E
100
AcDbEntity
  8
0
100
AcDbLine
 10
241.5
 20
8.12899999999999
 30
0.0
 11
240.0
 21
8.12899999999999
 31
0.0
  0
LINE
  5
6C1
330
1E
100
AcDbEntity
  8
0
100
AcDbLine
 10
240.0
 20
10.1188
 30
0.0
 11
238.3
 21
10.1188
 31
0.0
  0
LINE
  5
6C2
330
1E
100
AcDbEntity
  8
0
100
AcDbLine
 10
239.5999999999999
 20
9.62899999999999
 30
0.0
 11
238.0
 21
9.62899999999999
 31
0.0
  0
LINE
  5
6C3
330
1E
100
AcDbEntity
  8
0
100
AcDbLine
 10
241.5
 20
10.1188
 30
0.0
 11
240.0
 21
10.1188
 31
0.0
  0
LINE
  5
6C4
330
1E
100
AcDbEntity
  8
0
100
AcDbLine
 10
241.1
 20
9.62899999999999
 30
0.0
 11
239.5999999999999
 21
9.62899999999999
 31
0.0
  0
LINE
  5
6C5
330
1E
100
AcDbEntity
  8
0
100
AcDbLine
 10
236.2
 20
8.62899999999999
 30
0.0
 11
234.2999999999999
 21
8.62899999999999
 31
0.0
  0
LINE
  5
6C6
330
1E
100
AcDbEntity
  8
0
100
AcDbLine
 10
234.5
 20
8.12899999999999
 30
0.0
 11
232.4
 21
8.12899999999999
 31
0.0
  0
LINE
  5
6C7
330
1E
100
AcDbEntity
  8
0
100
AcDbLine
 10
236.5
 20
8.12899999999999
 30
0.0
 11
234.5
 21
8.12899999999999
 31
0.0
  0
LINE
  5
6C8
330
1E
100
AcDbEntity
  8
0
100
AcDbLine
 10
234.2999999999999
 20
8.62899999999999
 30
0.0
 11
232.2999999999999
 21
8.62899999999999
 31
0.0
  0
LINE
  5
6C9
330
1E
100
AcDbEntity
  8
0
100
AcDbLine
 10
236.2
 20
9.62899999999999
 30
0.0
 11
234.2999999999999
 21
9.62899999999999
 31
0.0
  0
LINE
  5
6CA
330
1E
100
AcDbEntity
  8
0
100
AcDbLine
 10
234.5
 20
10.1188
 30
0.0
 11
232.4
 21
10.1188
 31
0.0
  0
LINE
  5
6CB
330
1E
100
AcDbEntity
  8
0
100
AcDbLine
 10
236.5
 20
10.1188
 30
0.0
 11
234.5
 21
10.1188
 31
0.0
  0
LINE
  5
6CC
330
1E
100
AcDbEntity
  8
0
100
AcDbLine
 10
234.2999999999999
 20
9.62899999999999
 30
0.0
 11
232.2999999999999
 21
9.62899999999999
 31
0.0
  0
LINE
  5
6CD
330
1E
100
AcDbEntity
  8
0
100
AcDbLine
 10
242.2246
 20
33.0848
 30
0.0
 11
241.3355999999999
 21
33.3569
 31
0.0
  0
LINE
  5
6CE
330
1E
100
AcDbEntity
  8
0
100
AcDbLine
 10
242.6691
 20
32.54059999999999
 30
0.0
 11
242.2246
 21
33.0848
 31
0.0
  0
LINE
  5
6CF
330
1E
100
AcDbEntity
  8
0
100
AcDbLine
 10
238.6684999999999
 20
33.5202
 30
0.0
 11
233.3342
 21
33.62899999999999
 31
0.0
  0
LINE
  5
6D0
330
1E
100
AcDbEntity
  8
0
100
AcDbLine
 10
241.3355999999999
 20
33.3569
 30
0.0
 11
238.6684999999999
 21
33.5202
 31
0.0
  0
LINE
  5
6D1
330
1E
100
AcDbEntity
  8
0
100
AcDbLine
 10
233.3342
 20
33.62899999999999
 30
0.0
 11
233.2453
 21
33.62899999999999
 31
0.0
  0
LINE
  5
6D2
330
1E
100
AcDbEntity
  8
0
100
AcDbLine
 10
232.8896999999999
 20
33.62899999999999
 30
0.0
 11
232.6229999999999
 21
33.62899999999999
 31
0.0
  0
LINE
  5
6D3
330
1E
100
AcDbEntity
  8
0
100
AcDbLine
 10
232.6229999999999
 20
33.62899999999999
 30
0.0
 11
232.2674
 21
33.62899999999999
 31
0.0
  0
LINE
  5
6D4
330
1E
100
AcDbEntity
  8
0
100
AcDbLine
 10
233.2453
 20
33.62899999999999
 30
0.0
 11
233.1563999999999
 21
33.62899999999999
 31
0.0
  0
LINE
  5
6D5
330
1E
100
AcDbEntity
  8
0
100
AcDbLine
 10
233.1563999999999
 20
33.62899999999999
 30
0.0
 11
232.8896999999999
 21
33.62899999999999
 31
0.0
  0
LINE
  5
6D6
330
1E
100
AcDbEntity
  8
0
100
AcDbLine
 10
213.3308999999999
 20
32.54059999999999
 30
0.0
 11
211.0
 21
10.1188
 31
0.0
  0
LINE
  5
6D7
330
1E
100
AcDbEntity
  8
0
100
AcDbLine
 10
212.3
 20
10.1188
 30
0.0
 11
211.6
 21
10.1188
 31
0.0
  0
LINE
  5
6D8
330
1E
100
AcDbEntity
  8
0
100
AcDbLine
 10
212.0999999999999
 20
9.62899999999999
 30
0.0
 11
211.6999999999999
 21
9.62899999999999
 31
0.0
  0
LINE
  5
6D9
330
1E
100
AcDbEntity
  8
0
100
AcDbLine
 10
212.0999999999999
 20
8.62899999999999
 30
0.0
 11
211.6999999999999
 21
8.62899999999999
 31
0.0
  0
LINE
  5
6DA
330
1E
100
AcDbEntity
  8
0
100
AcDbLine
 10
212.3
 20
8.12899999999999
 30
0.0
 11
211.6
 21
8.12899999999999
 31
0.0
  0
LINE
  5
6DB
330
1E
100
AcDbEntity
  8
0
100
AcDbLine
 10
214.3
 20
4.12899999999999
 30
0.0
 11
211.2999999999999
 21
4.12899999999999
 31
0.0
  0
LINE
  5
6DC
330
1E
100
AcDbEntity
  8
0
100
AcDbLine
 10
214.1
 20
0.128999999999989
 30
0.0
 11
211.0
 21
0.128999999999989
 31
0.0
  0
LINE
  5
6DD
330
1E
100
AcDbEntity
  8
0
100
AcDbLine
 10
214.1
 20
0.128999999999986
 30
0.0
 11
211.0
 21
0.128999999999986
 31
0.0
  0
LINE
  5
6DE
330
1E
100
AcDbEntity
  8
0
100
AcDbLine
 10
228.0
 20
0.128999999999988
 30
0.0
 11
211.0
 21
0.128999999999986
 31
0.0
  0
LINE
  5
6DF
330
1E
100
AcDbEntity
  8
0
100
AcDbLine
 10
228.0
 20
0.128999999999988
 30
0.0
 11
208.1999999999999
 21
0.128999999999986
 31
0.0
  0
LINE
  5
6E0
330
1E
100
AcDbEntity
  8
0
100
AcDbLine
 10
228.0
 20
0.128999999999988
 30
0.0
 11
208.1999999999999
 21
0.128999999999989
 31
0.0
  0
LINE
  5
6E1
330
1E
100
AcDbEntity
  8
0
100
AcDbLine
 10
228.0
 20
0.128999999999988
 30
0.0
 11
211.0
 21
0.128999999999989
 31
0.0
  0
LINE
  5
6E2
330
1E
100
AcDbEntity
  8
0
100
AcDbLine
 10
228.0
 20
0.128999999999988
 30
0.0
 11
205.8
 21
0.128999999999987
 31
0.0
  0
LINE
  5
6E3
330
1E
100
AcDbEntity
  8
0
100
AcDbLine
 10
228.0
 20
0.128999999999988
 30
0.0
 11
203.6999999999999
 21
0.128999999999987
 31
0.0
  0
LINE
  5
6E4
330
1E
100
AcDbEntity
  8
0
100
AcDbLine
 10
228.0
 20
0.128999999999988
 30
0.0
 11
202.1999999999999
 21
0.128999999999987
 31
0.0
  0
LINE
  5
6E5
330
1E
100
AcDbEntity
  8
0
100
AcDbLine
 10
228.0
 20
0.128999999999988
 30
0.0
 11
201.0
 21
0.128999999999987
 31
0.0
  0
LINE
  5
6E6
330
1E
100
AcDbEntity
  8
0
100
AcDbLine
 10
228.0
 20
0.128999999999988
 30
0.0
 11
200.3
 21
0.128999999999987
 31
0.0
  0
LINE
  5
6E7
330
1E
100
AcDbEntity
  8
0
100
AcDbLine
 10
228.0
 20
0.128999999999988
 30
0.0
 11
205.8
 21
0.128999999999989
 31
0.0
  0
LINE
  5
6E8
330
1E
100
AcDbEntity
  8
0
100
AcDbLine
 10
228.0
 20
0.128999999999988
 30
0.0
 11
203.6999999999999
 21
0.128999999999988
 31
0.0
  0
LINE
  5
6E9
330
1E
100
AcDbEntity
  8
0
100
AcDbLine
 10
228.0
 20
0.128999999999988
 30
0.0
 11
202.1999999999999
 21
0.128999999999988
 31
0.0
  0
LINE
  5
6EA
330
1E
100
AcDbEntity
  8
0
100
AcDbLine
 10
228.0
 20
0.128999999999988
 30
0.0
 11
201.0
 21
0.128999999999988
 31
0.0
  0
LINE
  5
6EB
330
1E
100
AcDbEntity
  8
0
100
AcDbLine
 10
228.0
 20
0.128999999999988
 30
0.0
 11
200.3
 21
0.128999999999988
 31
0.0
  0
LINE
  5
6EC
330
1E
100
AcDbEntity
  8
0
100
AcDbLine
 10
228.0
 20
0.128999999999988
 30
0.0
 11
200.0
 21
0.128999999999988
 31
0.0
  0
LINE
  5
6ED
330
1E
100
AcDbEntity
  8
0
100
AcDbLine
 10
224.1999999999999
 20
0.128999999999989
 30
0.0
 11
220.8
 21
0.128999999999989
 31
0.0
  0
LINE
  5
6EE
330
1E
100
AcDbEntity
  8
0
100
AcDbLine
 10
224.1999999999999
 20
0.128999999999986
 30
0.0
 11
220.8
 21
0.128999999999986
 31
0.0
  0
LINE
  5
6EF
330
1E
100
AcDbEntity
  8
0
100
AcDbLine
 10
228.0
 20
0.128999999999988
 30
0.0
 11
220.8
 21
0.128999999999986
 31
0.0
  0
LINE
  5
6F0
330
1E
100
AcDbEntity
  8
0
100
AcDbLine
 10
228.0
 20
0.128999999999988
 30
0.0
 11
220.8
 21
0.128999999999989
 31
0.0
  0
LINE
  5
6F1
330
1E
100
AcDbEntity
  8
0
100
AcDbLine
 10
228.0
 20
0.128999999999988
 30
0.0
 11
214.1
 21
0.128999999999986
 31
0.0
  0
LINE
  5
6F2
330
1E
100
AcDbEntity
  8
0
100
AcDbLine
 10
228.0
 20
0.128999999999988
 30
0.0
 11
217.3
 21
0.128999999999986
 31
0.0
  0
LINE
  5
6F3
330
1E
100
AcDbEntity
  8
0
100
AcDbLine
 10
228.0
 20
0.128999999999988
 30
0.0
 11
214.1
 21
0.128999999999989
 31
0.0
  0
LINE
  5
6F4
330
1E
100
AcDbEntity
  8
0
100
AcDbLine
 10
228.0
 20
0.128999999999988
 30
0.0
 11
217.3
 21
0.128999999999989
 31
0.0
  0
LINE
  5
6F5
330
1E
100
AcDbEntity
  8
0
100
AcDbLine
 10
228.0
 20
0.128999999999989
 30
0.0
 11
224.1999999999999
 21
0.128999999999989
 31
0.0
  0
LINE
  5
6F6
330
1E
100
AcDbEntity
  8
0
100
AcDbLine
 10
228.0
 20
0.128999999999988
 30
0.0
 11
224.1999999999999
 21
0.128999999999986
 31
0.0
  0
LINE
  5
6F7
330
1E
100
AcDbEntity
  8
0
100
AcDbLine
 10
228.0
 20
0.128999999999988
 30
0.0
 11
224.1999999999999
 21
0.128999999999989
 31
0.0
  0
LINE
  5
6F8
330
1E
100
AcDbEntity
  8
0
100
AcDbLine
 10
228.0
 20
0.128999999999986
 30
0.0
 11
224.1999999999999
 21
0.128999999999986
 31
0.0
  0
LINE
  5
6F9
330
1E
100
AcDbEntity
  8
0
100
AcDbLine
 10
231.8
 20
0.128999999999989
 30
0.0
 11
228.0
 21
0.128999999999989
 31
0.0
  0
LINE
  5
6FA
330
1E
100
AcDbEntity
  8
0
100
AcDbLine
 10
231.8
 20
0.128999999999989
 30
0.0
 11
228.0
 21
0.128999999999988
 31
0.0
  0
LINE
  5
6FB
330
1E
100
AcDbEntity
  8
0
100
AcDbLine
 10
231.8
 20
0.128999999999986
 30
0.0
 11
228.0
 21
0.128999999999988
 31
0.0
  0
LINE
  5
6FC
330
1E
100
AcDbEntity
  8
0
100
AcDbLine
 10
231.8
 20
0.128999999999986
 30
0.0
 11
228.0
 21
0.128999999999986
 31
0.0
  0
LINE
  5
6FD
330
1E
100
AcDbEntity
  8
0
100
AcDbLine
 10
217.3
 20
0.128999999999989
 30
0.0
 11
214.1
 21
0.128999999999989
 31
0.0
  0
LINE
  5
6FE
330
1E
100
AcDbEntity
  8
0
100
AcDbLine
 10
217.3
 20
0.128999999999986
 30
0.0
 11
214.1
 21
0.128999999999986
 31
0.0
  0
LINE
  5
6FF
330
1E
100
AcDbEntity
  8
0
100
AcDbLine
 10
220.8
 20
0.128999999999989
 30
0.0
 11
217.3
 21
0.128999999999989
 31
0.0
  0
LINE
  5
700
330
1E
100
AcDbEntity
  8
0
100
AcDbLine
 10
220.8
 20
0.128999999999986
 30
0.0
 11
217.3
 21
0.128999999999986
 31
0.0
  0
LINE
  5
701
330
1E
100
AcDbEntity
  8
0
100
AcDbLine
 10
223.6
 20
10.1188
 30
0.0
 11
221.4999999999999
 21
10.1188
 31
0.0
  0
LINE
  5
702
330
1E
100
AcDbEntity
  8
0
100
AcDbLine
 10
223.7
 20
9.62899999999999
 30
0.0
 11
221.7
 21
9.62899999999999
 31
0.0
  0
LINE
  5
703
330
1E
100
AcDbEntity
  8
0
100
AcDbLine
 10
223.7
 20
8.62899999999999
 30
0.0
 11
221.7
 21
8.62899999999999
 31
0.0
  0
LINE
  5
704
330
1E
100
AcDbEntity
  8
0
100
AcDbLine
 10
223.6
 20
8.12899999999999
 30
0.0
 11
221.4999999999999
 21
8.12899999999999
 31
0.0
  0
LINE
  5
705
330
1E
100
AcDbEntity
  8
0
100
AcDbLine
 10
224.4
 20
4.12899999999999
 30
0.0
 11
220.9
 21
4.12899999999999
 31
0.0
  0
LINE
  5
706
330
1E
100
AcDbEntity
  8
0
100
AcDbLine
 10
228.0
 20
10.1188
 30
0.0
 11
225.8
 21
10.1188
 31
0.0
  0
LINE
  5
707
330
1E
100
AcDbEntity
  8
0
100
AcDbLine
 10
228.0
 20
9.62899999999999
 30
0.0
 11
225.8999999999999
 21
9.62899999999999
 31
0.0
  0
LINE
  5
708
330
1E
100
AcDbEntity
  8
0
100
AcDbLine
 10
228.0
 20
8.62899999999999
 30
0.0
 11
225.8999999999999
 21
8.62899999999999
 31
0.0
  0
LINE
  5
709
330
1E
100
AcDbEntity
  8
0
100
AcDbLine
 10
228.0
 20
8.12899999999999
 30
0.0
 11
225.8
 21
8.12899999999999
 31
0.0
  0
LINE
  5
70A
330
1E
100
AcDbEntity
  8
0
100
AcDbLine
 10
228.0
 20
4.12899999999999
 30
0.0
 11
224.4
 21
4.12899999999999
 31
0.0
  0
LINE
  5
70B
330
1E
100
AcDbEntity
  8
0
100
AcDbLine
 10
230.1
 20
8.62899999999999
 30
0.0
 11
228.0
 21
8.62899999999999
 31
0.0
  0
LINE
  5
70C
330
1E
100
AcDbEntity
  8
0
100
AcDbLine
 10
230.2
 20
8.12899999999999
 30
0.0
 11
228.0
 21
8.12899999999999
 31
0.0
  0
LINE
  5
70D
330
1E
100
AcDbEntity
  8
0
100
AcDbLine
 10
231.5999999999999
 20
4.12899999999999
 30
0.0
 11
228.0
 21
4.12899999999999
 31
0.0
  0
LINE
  5
70E
330
1E
100
AcDbEntity
  8
0
100
AcDbLine
 10
230.2
 20
10.1188
 30
0.0
 11
228.0
 21
10.1188
 31
0.0
  0
LINE
  5
70F
330
1E
100
AcDbEntity
  8
0
100
AcDbLine
 10
230.1
 20
9.62899999999999
 30
0.0
 11
228.0
 21
9.62899999999999
 31
0.0
  0
LINE
  5
710
330
1E
100
AcDbEntity
  8
0
100
AcDbLine
 10
225.8999999999999
 20
8.62899999999999
 30
0.0
 11
223.7
 21
8.62899999999999
 31
0.0
  0
LINE
  5
711
330
1E
100
AcDbEntity
  8
0
100
AcDbLine
 10
225.8
 20
8.12899999999999
 30
0.0
 11
223.6
 21
8.12899999999999
 31
0.0
  0
LINE
  5
712
330
1E
100
AcDbEntity
  8
0
100
AcDbLine
 10
225.8
 20
10.1188
 30
0.0
 11
223.6
 21
10.1188
 31
0.0
  0
LINE
  5
713
330
1E
100
AcDbEntity
  8
0
100
AcDbLine
 10
225.8999999999999
 20
9.62899999999999
 30
0.0
 11
223.7
 21
9.62899999999999
 31
0.0
  0
LINE
  5
714
330
1E
100
AcDbEntity
  8
0
100
AcDbLine
 10
217.7
 20
10.1188
 30
0.0
 11
216.0
 21
10.1188
 31
0.0
  0
LINE
  5
715
330
1E
100
AcDbEntity
  8
0
100
AcDbLine
 10
217.7
 20
8.12899999999999
 30
0.0
 11
216.0
 21
8.12899999999999
 31
0.0
  0
LINE
  5
716
330
1E
100
AcDbEntity
  8
0
100
AcDbLine
 10
217.5
 20
4.12899999999999
 30
0.0
 11
214.3
 21
4.12899999999999
 31
0.0
  0
LINE
  5
717
330
1E
100
AcDbEntity
  8
0
100
AcDbLine
 10
218.0
 20
9.62899999999999
 30
0.0
 11
216.4
 21
9.62899999999999
 31
0.0
  0
LINE
  5
718
330
1E
100
AcDbEntity
  8
0
100
AcDbLine
 10
218.0
 20
8.62899999999999
 30
0.0
 11
216.4
 21
8.62899999999999
 31
0.0
  0
LINE
  5
719
330
1E
100
AcDbEntity
  8
0
100
AcDbLine
 10
219.7999999999999
 20
8.62899999999999
 30
0.0
 11
218.0
 21
8.62899999999999
 31
0.0
  0
LINE
  5
71A
330
1E
100
AcDbEntity
  8
0
100
AcDbLine
 10
219.4999999999999
 20
8.12899999999999
 30
0.0
 11
217.7
 21
8.12899999999999
 31
0.0
  0
LINE
  5
71B
330
1E
100
AcDbEntity
  8
0
100
AcDbLine
 10
220.9
 20
4.12899999999999
 30
0.0
 11
217.5
 21
4.12899999999999
 31
0.0
  0
LINE
  5
71C
330
1E
100
AcDbEntity
  8
0
100
AcDbLine
 10
221.7
 20
8.62899999999999
 30
0.0
 11
219.7999999999999
 21
8.62899999999999
 31
0.0
  0
LINE
  5
71D
330
1E
100
AcDbEntity
  8
0
100
AcDbLine
 10
221.4999999999999
 20
8.12899999999999
 30
0.0
 11
219.4999999999999
 21
8.12899999999999
 31
0.0
  0
LINE
  5
71E
330
1E
100
AcDbEntity
  8
0
100
AcDbLine
 10
219.7999999999999
 20
9.62899999999999
 30
0.0
 11
218.0
 21
9.62899999999999
 31
0.0
  0
LINE
  5
71F
330
1E
100
AcDbEntity
  8
0
100
AcDbLine
 10
219.4999999999999
 20
10.1188
 30
0.0
 11
217.7
 21
10.1188
 31
0.0
  0
LINE
  5
720
330
1E
100
AcDbEntity
  8
0
100
AcDbLine
 10
221.4999999999999
 20
10.1188
 30
0.0
 11
219.4999999999999
 21
10.1188
 31
0.0
  0
LINE
  5
721
330
1E
100
AcDbEntity
  8
0
100
AcDbLine
 10
221.7
 20
9.62899999999999
 30
0.0
 11
219.7999999999999
 21
9.62899999999999
 31
0.0
  0
LINE
  5
722
330
1E
100
AcDbEntity
  8
0
100
AcDbLine
 10
214.9
 20
8.62899999999999
 30
0.0
 11
213.7
 21
8.62899999999999
 31
0.0
  0
LINE
  5
723
330
1E
100
AcDbEntity
  8
0
100
AcDbLine
 10
214.5
 20
8.12899999999999
 30
0.0
 11
213.3
 21
8.12899999999999
 31
0.0
  0
LINE
  5
724
330
1E
100
AcDbEntity
  8
0
100
AcDbLine
 10
216.4
 20
8.62899999999999
 30
0.0
 11
214.9
 21
8.62899999999999
 31
0.0
  0
LINE
  5
725
330
1E
100
AcDbEntity
  8
0
100
AcDbLine
 10
216.0
 20
8.12899999999999
 30
0.0
 11
214.5
 21
8.12899999999999
 31
0.0
  0
LINE
  5
726
330
1E
100
AcDbEntity
  8
0
100
AcDbLine
 10
213.7
 20
8.62899999999999
 30
0.0
 11
212.8
 21
8.62899999999999
 31
0.0
  0
LINE
  5
727
330
1E
100
AcDbEntity
  8
0
100
AcDbLine
 10
213.3
 20
8.12899999999999
 30
0.0
 11
212.3
 21
8.12899999999999
 31
0.0
  0
LINE
  5
728
330
1E
100
AcDbEntity
  8
0
100
AcDbLine
 10
212.8
 20
8.62899999999999
 30
0.0
 11
212.0999999999999
 21
8.62899999999999
 31
0.0
  0
LINE
  5
729
330
1E
100
AcDbEntity
  8
0
100
AcDbLine
 10
214.5
 20
10.1188
 30
0.0
 11
213.3
 21
10.1188
 31
0.0
  0
LINE
  5
72A
330
1E
100
AcDbEntity
  8
0
100
AcDbLine
 10
214.9
 20
9.62899999999999
 30
0.0
 11
213.7
 21
9.62899999999999
 31
0.0
  0
LINE
  5
72B
330
1E
100
AcDbEntity
  8
0
100
AcDbLine
 10
216.0
 20
10.1188
 30
0.0
 11
214.5
 21
10.1188
 31
0.0
  0
LINE
  5
72C
330
1E
100
AcDbEntity
  8
0
100
AcDbLine
 10
216.4
 20
9.62899999999999
 30
0.0
 11
214.9
 21
9.62899999999999
 31
0.0
  0
LINE
  5
72D
330
1E
100
AcDbEntity
  8
0
100
AcDbLine
 10
213.3
 20
10.1188
 30
0.0
 11
212.3
 21
10.1188
 31
0.0
  0
LINE
  5
72E
330
1E
100
AcDbEntity
  8
0
100
AcDbLine
 10
213.7
 20
9.62899999999999
 30
0.0
 11
212.8
 21
9.62899999999999
 31
0.0
  0
LINE
  5
72F
330
1E
100
AcDbEntity
  8
0
100
AcDbLine
 10
212.8
 20
9.62899999999999
 30
0.0
 11
212.0999999999999
 21
9.62899999999999
 31
0.0
  0
LINE
  5
730
330
1E
100
AcDbEntity
  8
0
100
AcDbLine
 10
200.4999999999999
 20
4.12899999999999
 30
0.0
 11
200.0
 21
3.62899999999999
 31
0.0
  0
LINE
  5
731
330
1E
100
AcDbEntity
  8
0
100
AcDbLine
 10
202.1999999999999
 20
0.128999999999988
 30
0.0
 11
201.0
 21
0.128999999999988
 31
0.0
  0
LINE
  5
732
330
1E
100
AcDbEntity
  8
0
100
AcDbLine
 10
202.1999999999999
 20
0.128999999999987
 30
0.0
 11
201.0
 21
0.128999999999987
 31
0.0
  0
LINE
  5
733
330
1E
100
AcDbEntity
  8
0
100
AcDbLine
 10
208.1999999999999
 20
0.128999999999989
 30
0.0
 11
205.8
 21
0.128999999999989
 31
0.0
  0
LINE
  5
734
330
1E
100
AcDbEntity
  8
0
100
AcDbLine
 10
208.1999999999999
 20
0.128999999999986
 30
0.0
 11
205.8
 21
0.128999999999987
 31
0.0
  0
LINE
  5
735
330
1E
100
AcDbEntity
  8
0
100
AcDbLine
 10
211.0
 20
0.128999999999989
 30
0.0
 11
208.1999999999999
 21
0.128999999999989
 31
0.0
  0
LINE
  5
736
330
1E
100
AcDbEntity
  8
0
100
AcDbLine
 10
211.0
 20
0.128999999999986
 30
0.0
 11
208.1999999999999
 21
0.128999999999986
 31
0.0
  0
LINE
  5
737
330
1E
100
AcDbEntity
  8
0
100
AcDbLine
 10
205.8
 20
0.128999999999989
 30
0.0
 11
203.6999999999999
 21
0.128999999999988
 31
0.0
  0
LINE
  5
738
330
1E
100
AcDbEntity
  8
0
100
AcDbLine
 10
205.8
 20
0.128999999999987
 30
0.0
 11
203.6999999999999
 21
0.128999999999987
 31
0.0
  0
LINE
  5
739
330
1E
100
AcDbEntity
  8
0
100
AcDbLine
 10
203.6999999999999
 20
0.128999999999988
 30
0.0
 11
202.1999999999999
 21
0.128999999999988
 31
0.0
  0
LINE
  5
73A
330
1E
100
AcDbEntity
  8
0
100
AcDbLine
 10
203.6999999999999
 20
0.128999999999987
 30
0.0
 11
202.1999999999999
 21
0.128999999999987
 31
0.0
  0
LINE
  5
73B
330
1E
100
AcDbEntity
  8
0
100
AcDbLine
 10
200.0
 20
0.128999999999988
 30
0.0
 11
200.0
 21
3.62899999999999
 31
0.0
  0
LINE
  5
73C
330
1E
100
AcDbEntity
  8
0
100
AcDbLine
 10
201.0
 20
0.128999999999988
 30
0.0
 11
200.3
 21
0.128999999999988
 31
0.0
  0
LINE
  5
73D
330
1E
100
AcDbEntity
  8
0
100
AcDbLine
 10
201.0
 20
0.128999999999987
 30
0.0
 11
200.3
 21
0.128999999999987
 31
0.0
  0
LINE
  5
73E
330
1E
100
AcDbEntity
  8
0
100
AcDbLine
 10
200.3
 20
0.128999999999988
 30
0.0
 11
200.0
 21
0.128999999999988
 31
0.0
  0
LINE
  5
73F
330
1E
100
AcDbEntity
  8
0
100
AcDbLine
 10
200.3
 20
0.128999999999987
 30
0.0
 11
200.0
 21
0.128999999999988
 31
0.0
  0
LINE
  5
740
330
1E
100
AcDbEntity
  8
0
100
AcDbLine
 10
202.5999999999999
 20
4.12899999999999
 30
0.0
 11
201.5
 21
4.12899999999999
 31
0.0
  0
LINE
  5
741
330
1E
100
AcDbEntity
  8
0
100
AcDbLine
 10
208.0
 20
4.62899999999999
 30
0.0
 11
200.4999999999999
 21
4.12899999999999
 31
0.0
  0
LINE
  5
742
330
1E
100
AcDbEntity
  8
0
100
AcDbLine
 10
208.5999999999999
 20
4.12899999999999
 30
0.0
 11
206.1999999999999
 21
4.12899999999999
 31
0.0
  0
LINE
  5
743
330
1E
100
AcDbEntity
  8
0
100
AcDbLine
 10
211.5
 20
9.62899999999999
 30
0.0
 11
211.5
 21
8.62899999999999
 31
0.0
  0
LINE
  5
744
330
1E
100
AcDbEntity
  8
0
100
AcDbLine
 10
211.5
 20
8.62899999999999
 30
0.0
 11
211.5
 21
9.62899999999999
 31
0.0
  0
LINE
  5
745
330
1E
100
AcDbEntity
  8
0
100
AcDbLine
 10
209.5
 20
5.12899999999999
 30
0.0
 11
208.0
 21
4.62899999999999
 31
0.0
  0
LINE
  5
746
330
1E
100
AcDbEntity
  8
0
100
AcDbLine
 10
211.2999999999999
 20
4.12899999999999
 30
0.0
 11
208.5999999999999
 21
4.12899999999999
 31
0.0
  0
LINE
  5
747
330
1E
100
AcDbEntity
  8
0
100
AcDbLine
 10
211.0
 20
7.62899999999999
 30
0.0
 11
210.4999999999999
 21
6.12899999999999
 31
0.0
  0
LINE
  5
748
330
1E
100
AcDbEntity
  8
0
100
AcDbLine
 10
210.4999999999999
 20
6.12899999999999
 30
0.0
 11
209.5
 21
5.12899999999999
 31
0.0
  0
LINE
  5
749
330
1E
100
AcDbEntity
  8
0
100
AcDbLine
 10
211.5
 20
8.62899999999999
 30
0.0
 11
211.0
 21
8.12899999999999
 31
0.0
  0
LINE
  5
74A
330
1E
100
AcDbEntity
  8
0
100
AcDbLine
 10
211.6999999999999
 20
8.62899999999999
 30
0.0
 11
211.5
 21
8.62899999999999
 31
0.0
  0
LINE
  5
74B
330
1E
100
AcDbEntity
  8
0
100
AcDbLine
 10
211.2
 20
8.12899999999999
 30
0.0
 11
211.0
 21
8.12899999999999
 31
0.0
  0
LINE
  5
74C
330
1E
100
AcDbEntity
  8
0
100
AcDbLine
 10
211.6
 20
8.12899999999999
 30
0.0
 11
211.2
 21
8.12899999999999
 31
0.0
  0
LINE
  5
74D
330
1E
100
AcDbEntity
  8
0
100
AcDbLine
 10
211.0
 20
7.62899999999999
 30
0.0
 11
211.0
 21
8.12899999999999
 31
0.0
  0
LINE
  5
74E
330
1E
100
AcDbEntity
  8
0
100
AcDbLine
 10
211.2
 20
10.1188
 30
0.0
 11
211.0
 21
10.1188
 31
0.0
  0
LINE
  5
74F
330
1E
100
AcDbEntity
  8
0
100
AcDbLine
 10
211.6
 20
10.1188
 30
0.0
 11
211.2
 21
10.1188
 31
0.0
  0
LINE
  5
750
330
1E
100
AcDbEntity
  8
0
100
AcDbLine
 10
211.6999999999999
 20
9.62899999999999
 30
0.0
 11
211.5
 21
9.62899999999999
 31
0.0
  0
LINE
  5
751
330
1E
100
AcDbEntity
  8
0
100
AcDbLine
 10
211.5
 20
9.62899999999999
 30
0.0
 11
211.0
 21
10.1188
 31
0.0
  0
LINE
  5
752
330
1E
100
AcDbEntity
  8
0
100
AcDbLine
 10
206.1999999999999
 20
4.12899999999999
 30
0.0
 11
204.1999999999999
 21
4.12899999999999
 31
0.0
  0
LINE
  5
753
330
1E
100
AcDbEntity
  8
0
100
AcDbLine
 10
204.1999999999999
 20
4.12899999999999
 30
0.0
 11
202.5999999999999
 21
4.12899999999999
 31
0.0
  0
LINE
  5
754
330
1E
100
AcDbEntity
  8
0
100
AcDbLine
 10
200.8
 20
4.12899999999999
 30
0.0
 11
200.4999999999999
 21
4.12899999999999
 31
0.0
  0
LINE
  5
755
330
1E
100
AcDbEntity
  8
0
100
AcDbLine
 10
201.5
 20
4.12899999999999
 30
0.0
 11
200.8
 21
4.12899999999999
 31
0.0
  0
LINE
  5
756
330
1E
100
AcDbEntity
  8
0
100
AcDbLine
 10
222.6658
 20
33.62899999999999
 30
0.0
 11
217.3315
 21
33.5202
 31
0.0
  0
LINE
  5
757
330
1E
100
AcDbEntity
  8
0
100
AcDbLine
 10
227.2888
 20
33.62899999999999
 30
0.0
 11
226.6664
 21
33.62899999999999
 31
0.0
  0
LINE
  5
758
330
1E
100
AcDbEntity
  8
0
100
AcDbLine
 10
230.0448
 20
33.62899999999999
 30
0.0
 11
229.3336
 21
33.62899999999999
 31
0.0
  0
LINE
  5
759
330
1E
100
AcDbEntity
  8
0
100
AcDbLine
 10
230.6671
 20
33.62899999999999
 30
0.0
 11
230.0448
 21
33.62899999999999
 31
0.0
  0
LINE
  5
75A
330
1E
100
AcDbEntity
  8
0
100
AcDbLine
 10
228.7112
 20
33.62899999999999
 30
0.0
 11
228.0
 21
33.62899999999999
 31
0.0
  0
LINE
  5
75B
330
1E
100
AcDbEntity
  8
0
100
AcDbLine
 10
229.3336
 20
33.62899999999999
 30
0.0
 11
228.7112
 21
33.62899999999999
 31
0.0
  0
LINE
  5
75C
330
1E
100
AcDbEntity
  8
0
100
AcDbLine
 10
228.0
 20
33.62899999999999
 30
0.0
 11
227.2888
 21
33.62899999999999
 31
0.0
  0
LINE
  5
75D
330
1E
100
AcDbEntity
  8
0
100
AcDbLine
 10
224.7994999999999
 20
33.62899999999999
 30
0.0
 11
224.2659999999999
 21
33.62899999999999
 31
0.0
  0
LINE
  5
75E
330
1E
100
AcDbEntity
  8
0
100
AcDbLine
 10
225.9551999999999
 20
33.62899999999999
 30
0.0
 11
225.3328999999999
 21
33.62899999999999
 31
0.0
  0
LINE
  5
75F
330
1E
100
AcDbEntity
  8
0
100
AcDbLine
 10
226.6664
 20
33.62899999999999
 30
0.0
 11
225.9551999999999
 21
33.62899999999999
 31
0.0
  0
LINE
  5
760
330
1E
100
AcDbEntity
  8
0
100
AcDbLine
 10
225.3328999999999
 20
33.62899999999999
 30
0.0
 11
224.7994999999999
 21
33.62899999999999
 31
0.0
  0
LINE
  5
761
330
1E
100
AcDbEntity
  8
0
100
AcDbLine
 10
223.377
 20
33.62899999999999
 30
0.0
 11
223.1103
 21
33.62899999999999
 31
0.0
  0
LINE
  5
762
330
1E
100
AcDbEntity
  8
0
100
AcDbLine
 10
223.7325999999999
 20
33.62899999999999
 30
0.0
 11
223.377
 21
33.62899999999999
 31
0.0
  0
LINE
  5
763
330
1E
100
AcDbEntity
  8
0
100
AcDbLine
 10
222.7547
 20
33.62899999999999
 30
0.0
 11
222.6658
 21
33.62899999999999
 31
0.0
  0
LINE
  5
764
330
1E
100
AcDbEntity
  8
0
100
AcDbLine
 10
222.8436
 20
33.62899999999999
 30
0.0
 11
222.7547
 21
33.62899999999999
 31
0.0
  0
LINE
  5
765
330
1E
100
AcDbEntity
  8
0
100
AcDbLine
 10
223.1103
 20
33.62899999999999
 30
0.0
 11
222.8436
 21
33.62899999999999
 31
0.0
  0
LINE
  5
766
330
1E
100
AcDbEntity
  8
0
100
AcDbLine
 10
217.3315
 20
33.5202
 30
0.0
 11
214.6644
 21
33.3569
 31
0.0
  0
LINE
  5
767
330
1E
100
AcDbEntity
  8
0
100
AcDbLine
 10
214.6644
 20
33.3569
 30
0.0
 11
213.7754
 21
33.0848
 31
0.0
  0
LINE
  5
768
330
1E
100
AcDbEntity
  8
0
100
AcDbLine
 10
213.7754
 20
33.0848
 30
0.0
 11
213.3308999999999
 21
32.54059999999999
 31
0.0
  0
LINE
  5
769
330
1E
100
AcDbEntity
  8
0
100
AcDbLine
 10
146.199
 20
25.599
 30
0.0
 11
144.802
 21
94.737
 31
0.0
  0
LINE
  5
76A
330
1E
100
AcDbEntity
  8
0
100
AcDbLine
 10
154.2629999999999
 20
0.128999999999988
 30
0.0
 11
128.0
 21
0.0
 31
0.0
  0
LINE
  5
76B
330
1E
100
AcDbEntity
  8
0
100
AcDbLine
 10
152.16
 20
4.22799999999999
 30
0.0
 11
137.6249999999999
 21
4.22699999999999
 31
0.0
  0
LINE
  5
76C
330
1E
100
AcDbEntity
  8
0
  6
Continuous
100
AcDbLine
 10
153.0848841386913
 20
5.228708647671055
 30
0.0
 11
149.571
 21
6.31099999999999
 31
0.0
  0
LINE
  5
76D
330
1E
100
AcDbEntity
  8
0
100
AcDbLine
 10
155.956
 20
0.128999999999988
 30
0.0
 11
155.4549999999999
 21
4.22699999999999
 31
0.0
  0
LINE
  5
76E
330
1E
100
AcDbEntity
  8
0
100
AcDbLine
 10
155.956
 20
0.128999999999988
 30
0.0
 11
155.4549999999999
 21
4.22699999999999
 31
0.0
  0
LINE
  5
76F
330
1E
100
AcDbEntity
  8
0
100
AcDbLine
 10
155.389
 20
0.128999999999988
 30
0.0
 11
154.2629999999999
 21
0.128999999999988
 31
0.0
  0
LINE
  5
770
330
1E
100
AcDbEntity
  8
0
100
AcDbLine
 10
155.386
 20
0.128999999999987
 30
0.0
 11
154.259
 21
0.128999999999987
 31
0.0
  0
LINE
  5
771
330
1E
100
AcDbEntity
  8
0
100
AcDbLine
 10
155.956
 20
0.128999999999988
 30
0.0
 11
155.389
 21
0.128999999999988
 31
0.0
  0
LINE
  5
772
330
1E
100
AcDbEntity
  8
0
100
AcDbLine
 10
155.956
 20
0.128999999999988
 30
0.0
 11
155.386
 21
0.128999999999987
 31
0.0
  0
LINE
  5
773
330
1E
100
AcDbEntity
  8
0
100
AcDbLine
 10
154.259
 20
0.128999999999987
 30
0.0
 11
152.597
 21
0.128999999999987
 31
0.0
  0
LINE
  5
774
330
1E
100
AcDbEntity
  8
0
100
AcDbLine
 10
155.4549999999999
 20
4.22699999999999
 30
0.0
 11
153.791
 21
4.22699999999999
 31
0.0
  0
LINE
  5
775
330
1E
100
AcDbEntity
  8
0
  6
Continuous
100
AcDbLine
 10
155.0042655509096
 20
4.615494020121275
 30
0.0
 11
153.0848841386913
 21
5.228708647671055
 31
0.0
  0
LINE
  5
776
330
1E
100
AcDbEntity
  8
0
  6
Continuous
100
AcDbLine
 10
155.4549999999999
 20
4.22699999999999
 30
0.0
 11
155.0042655509096
 21
4.615494020121275
 31
0.0
  0
LINE
  5
777
330
1E
100
AcDbEntity
  8
0
100
AcDbLine
 10
153.791
 20
4.22699999999999
 30
0.0
 11
152.16
 21
4.22799999999999
 31
0.0
  0
LINE
  5
778
330
1E
100
AcDbEntity
  8
0
100
AcDbLine
 10
146.216
 20
14.547
 30
0.0
 11
146.199
 21
25.599
 31
0.0
  0
LINE
  5
779
330
1E
100
AcDbEntity
  8
0
100
AcDbLine
 10
137.6249999999999
 20
4.22699999999999
 30
0.0
 11
129.97
 21
4.22699999999999
 31
0.0
  0
LINE
  5
77A
330
1E
100
AcDbEntity
  8
0
100
AcDbLine
 10
146.4079999999999
 20
9.94099999999999
 30
0.0
 11
146.216
 21
14.547
 31
0.0
  0
LINE
  5
77B
330
1E
100
AcDbEntity
  8
0
100
AcDbLine
 10
147.4
 20
7.57799999999999
 30
0.0
 11
146.7309999999999
 21
8.643999999999991
 31
0.0
  0
LINE
  5
77C
330
1E
100
AcDbEntity
  8
0
100
AcDbLine
 10
149.571
 20
6.31099999999999
 30
0.0
 11
148.3699999999999
 21
6.78099999999999
 31
0.0
  0
LINE
  5
77D
330
1E
100
AcDbEntity
  8
0
100
AcDbLine
 10
148.3699999999999
 20
6.78099999999999
 30
0.0
 11
147.4
 21
7.57799999999999
 31
0.0
  0
LINE
  5
77E
330
1E
100
AcDbEntity
  8
0
100
AcDbLine
 10
146.7309999999999
 20
8.643999999999991
 30
0.0
 11
146.4079999999999
 21
9.94099999999999
 31
0.0
  0
LINE
  5
77F
330
1E
100
AcDbEntity
  8
0
100
AcDbLine
 10
129.97
 20
4.22699999999999
 30
0.0
 11
128.0
 21
4.14699999999999
 31
0.0
  0
LINE
  5
780
330
1E
100
AcDbEntity
  8
0
100
AcDbLine
 10
138.972
 20
104.644
 30
0.0
 11
137.3539999999999
 21
102.8089999999999
 31
0.0
  0
LINE
  5
781
330
1E
100
AcDbEntity
  8
0
100
AcDbLine
 10
139.785
 20
104.536
 30
0.0
 11
138.1539999999999
 21
102.3949999999999
 31
0.0
  0
LINE
  5
782
330
1E
100
AcDbEntity
  8
0
100
AcDbLine
 10
137.1439999999999
 20
103.8229999999999
 30
0.0
 11
135.1449999999999
 21
102.2929999999999
 31
0.0
  0
LINE
  5
783
330
1E
100
AcDbEntity
  8
0
100
AcDbLine
 10
144.802
 20
94.737
 30
0.0
 11
144.347
 21
106.1099999999999
 31
0.0
  0
LINE
  5
784
330
1E
100
AcDbEntity
  8
0
100
AcDbLine
 10
132.896
 20
100.0135999999999
 30
0.0
 11
129.834
 21
99.24280000000001
 31
0.0
  0
LINE
  5
785
330
1E
100
AcDbEntity
  8
0
100
AcDbLine
 10
132.509
 20
98.846
 30
0.0
 11
130.2029999999999
 21
98.37700000000001
 31
0.0
  0
LINE
  5
786
330
1E
100
AcDbEntity
  8
0
100
AcDbLine
 10
135.1449999999999
 20
102.2929999999999
 30
0.0
 11
131.756
 21
100.5679999999999
 31
0.0
  0
LINE
  5
787
330
1E
100
AcDbEntity
  8
0
100
AcDbLine
 10
137.3539999999999
 20
102.8089999999999
 30
0.0
 11
135.5199999999999
 21
101.383
 31
0.0
  0
LINE
  5
788
330
1E
100
AcDbEntity
  8
0
100
AcDbLine
 10
138.1539999999999
 20
102.3949999999999
 30
0.0
 11
136.094
 21
100.669
 31
0.0
  0
LINE
  5
789
330
1E
100
AcDbEntity
  8
0
100
AcDbLine
 10
136.094
 20
100.669
 30
0.0
 11
134.22
 21
99.59600000000001
 31
0.0
  0
LINE
  5
78A
330
1E
100
AcDbEntity
  8
0
100
AcDbLine
 10
135.5199999999999
 20
101.383
 30
0.0
 11
132.896
 21
100.0135999999999
 31
0.0
  0
LINE
  5
78B
330
1E
100
AcDbEntity
  8
0
100
AcDbLine
 10
134.22
 20
99.59600000000001
 30
0.0
 11
132.509
 21
98.846
 31
0.0
  0
LINE
  5
78C
330
1E
100
AcDbEntity
  8
0
100
AcDbLine
 10
130.2029999999999
 20
98.37700000000001
 30
0.0
 11
128.0
 21
98.12899999999999
 31
0.0
  0
LINE
  5
78D
330
1E
100
AcDbEntity
  8
0
100
AcDbLine
 10
129.834
 20
99.24280000000001
 30
0.0
 11
128.0
 21
99.15649999999999
 31
0.0
  0
LINE
  5
78E
330
1E
100
AcDbEntity
  8
0
100
AcDbLine
 10
131.756
 20
100.5679999999999
 30
0.0
 11
128.0
 21
100.1659999999999
 31
0.0
  0
LINE
  5
78F
330
1E
100
AcDbEntity
  8
0
100
AcDbLine
 10
132.163
 20
126.246
 30
0.0
 11
130.011
 21
126.807
 31
0.0
  0
LINE
  5
790
330
1E
100
AcDbEntity
  8
0
100
AcDbLine
 10
134.222
 20
124.7239999999999
 30
0.0
 11
130.0219999999999
 21
126.28
 31
0.0
  0
LINE
  5
791
330
1E
100
AcDbEntity
  8
0
100
AcDbLine
 10
133.266
 20
121.391
 30
0.0
 11
131.68
 21
122.184
 31
0.0
  0
LINE
  5
792
330
1E
100
AcDbEntity
  8
0
100
AcDbLine
 10
132.634
 20
104.3779999999999
 30
0.0
 11
130.4939999999999
 21
103.5409999999999
 31
0.0
  0
LINE
  5
793
330
1E
100
AcDbEntity
  8
0
100
AcDbLine
 10
138.2939999999999
 20
122.3449999999999
 30
0.0
 11
137.204
 21
123.411
 31
0.0
  0
LINE
  5
794
330
1E
100
AcDbEntity
  8
0
100
AcDbLine
 10
136.826
 20
122.831
 30
0.0
 11
134.222
 21
124.7239999999999
 31
0.0
  0
LINE
  5
795
330
1E
100
AcDbEntity
  8
0
100
AcDbLine
 10
139.473
 20
120.571
 30
0.0
 11
137.163
 21
123.164
 31
0.0
  0
LINE
  5
796
330
1E
100
AcDbEntity
  8
0
100
AcDbLine
 10
142.415
 20
117.154
 30
0.0
 11
141.687
 21
118.5089999999999
 31
0.0
  0
LINE
  5
797
330
1E
100
AcDbEntity
  8
0
100
AcDbLine
 10
143.918
 20
111.596
 30
0.0
 11
143.427
 21
114.325
 31
0.0
  0
LINE
  5
798
330
1E
100
AcDbEntity
  8
0
100
AcDbLine
 10
144.347
 20
106.1099999999999
 30
0.0
 11
143.918
 21
111.596
 31
0.0
  0
LINE
  5
799
330
1E
100
AcDbEntity
  8
0
100
AcDbLine
 10
143.427
 20
114.325
 30
0.0
 11
143.0439999999999
 21
115.592
 31
0.0
  0
LINE
  5
79A
330
1E
100
AcDbEntity
  8
0
100
AcDbLine
 10
143.0439999999999
 20
115.592
 30
0.0
 11
142.415
 21
117.154
 31
0.0
  0
LINE
  5
79B
330
1E
100
AcDbEntity
  8
0
100
AcDbLine
 10
141.122
 20
113.7639999999999
 30
0.0
 11
140.557
 21
109.458
 31
0.0
  0
LINE
  5
79C
330
1E
100
AcDbEntity
  8
0
100
AcDbLine
 10
137.841
 20
112.724
 30
0.0
 11
137.735
 21
114.439
 31
0.0
  0
LINE
  5
79D
330
1E
100
AcDbEntity
  8
0
100
AcDbLine
 10
141.721
 20
112.358
 30
0.0
 11
141.692
 21
113.607
 31
0.0
  0
LINE
  5
79E
330
1E
100
AcDbEntity
  8
0
100
AcDbLine
 10
141.9479999999999
 20
112.04
 30
0.0
 11
141.7528057258779
 21
114.0614437327619
 31
0.0
  0
LINE
  5
79F
330
1E
100
AcDbEntity
  8
0
100
AcDbLine
 10
137.4979999999999
 20
110.4689999999999
 30
0.0
 11
136.6429999999999
 21
108.347
 31
0.0
  0
LINE
  5
7A0
330
1E
100
AcDbEntity
  8
0
100
AcDbLine
 10
141.1329999999999
 20
108.7529999999999
 30
0.0
 11
140.3299999999999
 21
106.8289999999999
 31
0.0
  0
LINE
  5
7A1
330
1E
100
AcDbEntity
  8
0
100
AcDbLine
 10
140.557
 20
109.458
 30
0.0
 11
139.589
 21
106.9039999999999
 31
0.0
  0
LINE
  5
7A2
330
1E
100
AcDbEntity
  8
0
100
AcDbLine
 10
141.753
 20
109.79
 30
0.0
 11
140.9429999999999
 21
106.7829999999999
 31
0.0
  0
LINE
  5
7A3
330
1E
100
AcDbEntity
  8
0
100
AcDbLine
 10
140.3299999999999
 20
106.8289999999999
 30
0.0
 11
138.972
 21
104.644
 31
0.0
  0
LINE
  5
7A4
330
1E
100
AcDbEntity
  8
0
100
AcDbLine
 10
139.589
 20
106.9039999999999
 30
0.0
 11
137.1439999999999
 21
103.8229999999999
 31
0.0
  0
LINE
  5
7A5
330
1E
100
AcDbEntity
  8
0
100
AcDbLine
 10
140.9429999999999
 20
106.7829999999999
 30
0.0
 11
139.785
 21
104.536
 31
0.0
  0
LINE
  5
7A6
330
1E
100
AcDbEntity
  8
0
100
AcDbLine
 10
141.9479999999999
 20
112.04
 30
0.0
 11
141.753
 21
109.79
 31
0.0
  0
LINE
  5
7A7
330
1E
100
AcDbEntity
  8
0
100
AcDbLine
 10
141.5729999999999
 20
110.851
 30
0.0
 11
141.1329999999999
 21
108.7529999999999
 31
0.0
  0
LINE
  5
7A8
330
1E
100
AcDbEntity
  8
0
100
AcDbLine
 10
141.721
 20
112.358
 30
0.0
 11
141.5729999999999
 21
110.851
 31
0.0
  0
LINE
  5
7A9
330
1E
100
AcDbEntity
  8
0
100
AcDbLine
 10
137.841
 20
112.724
 30
0.0
 11
137.4979999999999
 21
110.4689999999999
 31
0.0
  0
LINE
  5
7AA
330
1E
100
AcDbEntity
  8
0
100
AcDbLine
 10
136.6429999999999
 20
108.347
 30
0.0
 11
135.678
 21
106.928
 31
0.0
  0
LINE
  5
7AB
330
1E
100
AcDbEntity
  8
0
100
AcDbLine
 10
134.5079999999999
 20
105.6769999999999
 30
0.0
 11
132.634
 21
104.3779999999999
 31
0.0
  0
LINE
  5
7AC
330
1E
100
AcDbEntity
  8
0
100
AcDbLine
 10
135.678
 20
106.928
 30
0.0
 11
134.5079999999999
 21
105.6769999999999
 31
0.0
  0
LINE
  5
7AD
330
1E
100
AcDbEntity
  8
0
100
AcDbLine
 10
137.3489999999999
 20
116.175
 30
0.0
 11
136.4109999999999
 21
118.1889999999999
 31
0.0
  0
LINE
  5
7AE
330
1E
100
AcDbEntity
  8
0
100
AcDbLine
 10
138.562
 20
120.877
 30
0.0
 11
136.826
 21
122.831
 31
0.0
  0
LINE
  5
7AF
330
1E
100
AcDbEntity
  8
0
100
AcDbLine
 10
141.122
 20
113.7639999999999
 30
0.0
 11
140.137
 21
118.0929999999999
 31
0.0
  0
LINE
  5
7B0
330
1E
100
AcDbEntity
  8
0
100
AcDbLine
 10
140.9389999999999
 20
117.0179999999999
 30
0.0
 11
139.473
 21
120.571
 31
0.0
  0
LINE
  5
7B1
330
1E
100
AcDbEntity
  8
0
100
AcDbLine
 10
141.6239999999999
 20
114.4349999999999
 30
0.0
 11
140.9389999999999
 21
117.0179999999999
 31
0.0
  0
LINE
  5
7B2
330
1E
100
AcDbEntity
  8
0
100
AcDbLine
 10
141.7528057258779
 20
114.0614437327619
 30
0.0
 11
141.684
 21
114.7739999999999
 31
0.0
  0
LINE
  5
7B3
330
1E
100
AcDbEntity
  8
0
100
AcDbLine
 10
141.692
 20
113.607
 30
0.0
 11
141.6239999999999
 21
114.4349999999999
 31
0.0
  0
LINE
  5
7B4
330
1E
100
AcDbEntity
  8
0
100
AcDbLine
 10
137.735
 20
114.439
 30
0.0
 11
137.3489999999999
 21
116.175
 31
0.0
  0
LINE
  5
7B5
330
1E
100
AcDbEntity
  8
0
100
AcDbLine
 10
140.137
 20
118.0929999999999
 30
0.0
 11
138.562
 21
120.877
 31
0.0
  0
LINE
  5
7B6
330
1E
100
AcDbEntity
  8
0
100
AcDbLine
 10
140.365
 20
120.399
 30
0.0
 11
138.761
 21
122.001
 31
0.0
  0
LINE
  5
7B7
330
1E
100
AcDbEntity
  8
0
100
AcDbLine
 10
141.687
 20
118.5089999999999
 30
0.0
 11
140.365
 21
120.399
 31
0.0
  0
LINE
  5
7B8
330
1E
100
AcDbEntity
  8
0
100
AcDbLine
 10
138.761
 20
122.001
 30
0.0
 11
138.33011149901
 21
122.295369371963
 31
0.0
  0
LINE
  5
7B9
330
1E
100
AcDbEntity
  8
0
100
AcDbLine
 10
135.0039999999999
 20
119.9899999999999
 30
0.0
 11
133.266
 21
121.391
 31
0.0
  0
LINE
  5
7BA
330
1E
100
AcDbEntity
  8
0
100
AcDbLine
 10
136.4109999999999
 20
118.1889999999999
 30
0.0
 11
135.0039999999999
 21
119.9899999999999
 31
0.0
  0
LINE
  5
7BB
330
1E
100
AcDbEntity
  8
0
100
AcDbLine
 10
137.204
 20
123.411
 30
0.0
 11
135.0269999999999
 21
125.039
 31
0.0
  0
LINE
  5
7BC
330
1E
100
AcDbEntity
  8
0
100
AcDbLine
 10
137.163
 20
123.164
 30
0.0
 11
133.969
 21
125.4739999999999
 31
0.0
  0
LINE
  5
7BD
330
1E
100
AcDbEntity
  8
0
100
AcDbLine
 10
135.0269999999999
 20
125.039
 30
0.0
 11
133.969
 21
125.4739999999999
 31
0.0
  0
LINE
  5
7BE
330
1E
100
AcDbEntity
  8
0
100
AcDbLine
 10
133.969
 20
125.4739999999999
 30
0.0
 11
132.163
 21
126.246
 31
0.0
  0
LINE
  5
7BF
330
1E
100
AcDbEntity
  8
0
100
AcDbLine
 10
130.4939999999999
 20
103.5409999999999
 30
0.0
 11
128.0
 21
103.2259999999999
 31
0.0
  0
LINE
  5
7C0
330
1E
100
AcDbEntity
  8
0
100
AcDbLine
 10
130.0459999999999
 20
122.7
 30
0.0
 11
128.0
 21
122.8849999999999
 31
0.0
  0
LINE
  5
7C1
330
1E
100
AcDbEntity
  8
0
100
AcDbLine
 10
131.68
 20
122.184
 30
0.0
 11
130.0459999999999
 21
122.7
 31
0.0
  0
LINE
  5
7C2
330
1E
100
AcDbEntity
  8
0
100
AcDbLine
 10
130.011
 20
126.807
 30
0.0
 11
128.0
 21
126.926
 31
0.0
  0
LINE
  5
7C3
330
1E
100
AcDbEntity
  8
0
100
AcDbLine
 10
130.0219999999999
 20
126.28
 30
0.0
 11
128.0
 21
126.235
 31
0.0
  0
ENDSEC
  0
SECTION
  2
OBJECTS
  0
DICTIONARY
  5
C
330
0
100
AcDbDictionary
281
     1
  3
ACAD_GROUP
350
D
  3
ACAD_LAYOUT
350
19
  3
ACAD_MLINESTYLE
350
16
  3
ACAD_PLOTSETTINGS
350
18
  3
ACAD_PLOTSTYLENAME
350
E
  3
AcDbVariableDictionary
350
7C5
  0
DICTIONARY
  5
D
102
{ACAD_REACTORS
330
C
102
}
330
C
100
AcDbDictionary
281
     1
  0
DICTIONARY
  5
19
102
{ACAD_REACTORS
330
C
102
}
330
C
100
AcDbDictionary
281
     1
  3
Layout1
350
1D
  3
Model
350
21
  0
DICTIONARY
  5
16
102
{ACAD_REACTORS
330
C
102
}
330
C
100
AcDbDictionary
281
     1
  3
Standard
350
17
  0
DICTIONARY
  5
18
102
{ACAD_REACTORS
330
C
102
}
330
C
100
AcDbDictionary
281
     1
  0
ACDBDICTIONARYWDFLT
  5
E
102
{ACAD_REACTORS
330
C
102
}
330
C
100
AcDbDictionary
281
     1
  3
Normal
350
F
100
AcDbDictionaryWithDefault
340
F
  0
DICTIONARY
  5
7C5
102
{ACAD_REACTORS
330
C
102
}
330
C
100
AcDbDictionary
281
     1
  3
DIMASSOC
350
7C6
  0
LAYOUT
  5
1D
102
{ACAD_REACTORS
330
19
102
}
330
19
100
AcDbPlotSettings
  1

  2
C:\Programme\AutoCAD LT 2002 Deu\plotters\DWF ePlot (optimized for plotting).pc3
  4

  6

 40
0.0
 41
0.0
 42
0.0
 43
0.0
 44
0.0
 45
0.0
 46
0.0
 47
0.0
 48
0.0
 49
0.0
140
0.0
141
0.0
142
1.0
143
1.0
 70
   688
 72
     0
 73
     0
 74
     5
  7

 75
    16
147
1.0
148
0.0
149
0.0
100
AcDbLayout
  1
Layout1
 70
     1
 71
     1
 10
0.0
 20
0.0
 11
12.0
 21
9.0
 12
0.0
 22
0.0
 32
0.0
 14
1.000000000000000E+20
 24
1.000000000000000E+20
 34
1.000000000000000E+20
 15
-1.000000000000000E+20
 25
-1.000000000000000E+20
 35
-1.000000000000000E+20
146
0.0
 13
0.0
 23
0.0
 33
0.0
 16
1.0
 26
0.0
 36
0.0
 17
0.0
 27
1.0
 37
0.0
 76
     0
330
1A
  0
LAYOUT
  5
21
102
{ACAD_REACTORS
330
19
102
}
330
19
100
AcDbPlotSettings
  1

  2
C:\Programme\AutoCAD LT 2002 Deu\plotters\DWF ePlot (optimized for plotting).pc3
  4

  6

 40
0.0
 41
0.0
 42
0.0
 43
0.0
 44
0.0
 45
0.0
 46
0.0
 47
0.0
 48
0.0
 49
0.0
140
0.0
141
0.0
142
1.0
143
1.0
 70
  1712
 72
     0
 73
     0
 74
     0
  7

 75
     0
147
1.0
148
0.0
149
0.0
100
AcDbLayout
  1
Model
 70
     1
 71
     0
 10
0.0
 20
0.0
 11
12.0
 21
9.0
 12
0.0
 22
0.0
 32
0.0
 14
0.0
 24
0.0
 34
0.0
 15
0.0
 25
0.0
 35
0.0
146
0.0
 13
0.0
 23
0.0
 33
0.0
 16
1.0
 26
0.0
 36
0.0
 17
0.0
 27
1.0
 37
0.0
 76
     0
330
1E
  0
MLINESTYLE
  5
17
102
{ACAD_REACTORS
330
16
102
}
330
16
100
AcDbMlineStyle
  2
STANDARD
 70
     0
  3

 62
   256
 51
90.0
 52
90.0
 71
     2
 49
0.5
 62
   256
  6
BYLAYER
 49
-0.5
 62
   256
  6
BYLAYER
  0
ACDBPLACEHOLDER
  5
F
102
{ACAD_REACTORS
330
E
102
}
330
E
  0
DICTIONARYVAR
  5
7C6
102
{ACAD_REACTORS
330
7C5
102
}
330
7C5
100
DictionaryVariables
280
     0
  1
1
  0
ENDSEC
  0
EOF
