  0
SECTION
  2
HEADER
  9
$ACADVER
  1
AC1015
  9
$ACADMAINTVER
 70
    13
  9
$DWGCODEPAGE
  3
ANSI_1252
  9
$INSBASE
 10
0.0
 20
0.0
 30
0.0
  9
$EXTMIN
 10
0.0
 20
0.216499999999995
 30
0.0
  9
$EXTMAX
 10
256.0
 20
160.7835
 30
0.0
  9
$LIMMIN
 10
0.0
 20
0.0
  9
$LIMMAX
 10
12.0
 20
9.0
  9
$ORTHOMODE
 70
     0
  9
$REGENMODE
 70
     1
  9
$FILLMODE
 70
     1
  9
$QTEXTMODE
 70
     0
  9
$MIRRTEXT
 70
     1
  9
$LTSCALE
 40
1.0
  9
$ATTMODE
 70
     1
  9
$TEXTSIZE
 40
0.2
  9
$TRACEWID
 40
0.05
  9
$TEXTSTYLE
  7
Standard
  9
$CLAYER
  8
0
  9
$CELTYPE
  6
Continuous
  9
$CECOLOR
 62
   256
  9
$CELTSCALE
 40
1.0
  9
$DISPSILH
 70
     0
  9
$DIMSCALE
 40
1.0
  9
$DIMASZ
 40
0.18
  9
$DIMEXO
 40
0.0625
  9
$DIMDLI
 40
0.38
  9
$DIMRND
 40
0.0
  9
$DIMDLE
 40
0.0
  9
$DIMEXE
 40
0.18
  9
$DIMTP
 40
0.0
  9
$DIMTM
 40
0.0
  9
$DIMTXT
 40
0.18
  9
$DIMCEN
 40
0.09
  9
$DIMTSZ
 40
0.0
  9
$DIMTOL
 70
     0
  9
$DIMLIM
 70
     0
  9
$DIMTIH
 70
     1
  9
$DIMTOH
 70
     1
  9
$DIMSE1
 70
     0
  9
$DIMSE2
 70
     0
  9
$DIMTAD
 70
     0
  9
$DIMZIN
 70
     0
  9
$DIMBLK
  1

  9
$DIMASO
 70
     1
  9
$DIMSHO
 70
     1
  9
$DIMPOST
  1

  9
$DIMAPOST
  1

  9
$DIMALT
 70
     0
  9
$DIMALTD
 70
     2
  9
$DIMALTF
 40
25.4
  9
$DIMLFAC
 40
1.0
  9
$DIMTOFL
 70
     0
  9
$DIMTVP
 40
0.0
  9
$DIMTIX
 70
     0
  9
$DIMSOXD
 70
     0
  9
$DIMSAH
 70
     0
  9
$DIMBLK1
  1

  9
$DIMBLK2
  1

  9
$DIMSTYLE
  2
Standard
  9
$DIMCLRD
 70
     0
  9
$DIMCLRE
 70
     0
  9
$DIMCLRT
 70
     0
  9
$DIMTFAC
 40
1.0
  9
$DIMGAP
 40
0.09
  9
$DIMJUST
 70
     0
  9
$DIMSD1
 70
     0
  9
$DIMSD2
 70
     0
  9
$DIMTOLJ
 70
     1
  9
$DIMTZIN
 70
     0
  9
$DIMALTZ
 70
     0
  9
$DIMALTTZ
 70
     0
  9
$DIMUPT
 70
     0
  9
$DIMDEC
 70
     4
  9
$DIMTDEC
 70
     4
  9
$DIMALTU
 70
     2
  9
$DIMALTTD
 70
     2
  9
$DIMTXSTY
  7
Standard
  9
$DIMAUNIT
 70
     0
  9
$DIMADEC
 70
     0
  9
$DIMALTRND
 40
0.0
  9
$DIMAZIN
 70
     0
  9
$DIMDSEP
 70
    46
  9
$DIMATFIT
 70
     3
  9
$DIMFRAC
 70
     0
  9
$DIMLDRBLK
  1

  9
$DIMLUNIT
 70
     2
  9
$DIMLWD
 70
    -2
  9
$DIMLWE
 70
    -2
  9
$DIMTMOVE
 70
     0
  9
$LUNITS
 70
     2
  9
$LUPREC
 70
     4
  9
$SKETCHINC
 40
0.1
  9
$FILLETRAD
 40
0.0
  9
$AUNITS
 70
     0
  9
$AUPREC
 70
     0
  9
$MENU
  1
.
  9
$ELEVATION
 40
0.0
  9
$PELEVATION
 40
0.0
  9
$THICKNESS
 40
0.0
  9
$LIMCHECK
 70
     0
  9
$CHAMFERA
 40
0.0
  9
$CHAMFERB
 40
0.0
  9
$CHAMFERC
 40
0.0
  9
$CHAMFERD
 40
0.0
  9
$SKPOLY
 70
     0
  9
$TDCREATE
 40
2455509.971204965
  9
$TDUCREATE
 40
2455509.929538298
  9
$TDUPDATE
 40
2455509.980292418
  9
$TDUUPDATE
 40
2455509.938625752
  9
$TDINDWG
 40
0.0090874537
  9
$TDUSRTIMER
 40
0.0090874537
  9
$USRTIMER
 70
     1
  9
$ANGBASE
 50
0.0
  9
$ANGDIR
 70
     0
  9
$PDMODE
 70
     0
  9
$PDSIZE
 40
0.0
  9
$PLINEWID
 40
0.0
  9
$SPLFRAME
 70
     0
  9
$SPLINETYPE
 70
     6
  9
$SPLINESEGS
 70
     8
  9
$HANDSEED
  5
862
  9
$SURFTAB1
 70
     6
  9
$SURFTAB2
 70
     6
  9
$SURFTYPE
 70
     6
  9
$SURFU
 70
     6
  9
$SURFV
 70
     6
  9
$UCSBASE
  2

  9
$UCSNAME
  2

  9
$UCSORG
 10
0.0
 20
0.0
 30
0.0
  9
$UCSXDIR
 10
1.0
 20
0.0
 30
0.0
  9
$UCSYDIR
 10
0.0
 20
1.0
 30
0.0
  9
$UCSORTHOREF
  2

  9
$UCSORTHOVIEW
 70
     1
  9
$UCSORGTOP
 10
0.0
 20
0.0
 30
0.0
  9
$UCSORGBOTTOM
 10
0.0
 20
0.0
 30
0.0
  9
$UCSORGLEFT
 10
0.0
 20
0.0
 30
0.0
  9
$UCSORGRIGHT
 10
0.0
 20
0.0
 30
0.0
  9
$UCSORGFRONT
 10
0.0
 20
0.0
 30
0.0
  9
$UCSORGBACK
 10
0.0
 20
0.0
 30
0.0
  9
$PUCSBASE
  2

  9
$PUCSNAME
  2

  9
$PUCSORG
 10
0.0
 20
0.0
 30
0.0
  9
$PUCSXDIR
 10
1.0
 20
0.0
 30
0.0
  9
$PUCSYDIR
 10
0.0
 20
1.0
 30
0.0
  9
$PUCSORTHOREF
  2

  9
$PUCSORTHOVIEW
 70
     0
  9
$PUCSORGTOP
 10
0.0
 20
0.0
 30
0.0
  9
$PUCSORGBOTTOM
 10
0.0
 20
0.0
 30
0.0
  9
$PUCSORGLEFT
 10
0.0
 20
0.0
 30
0.0
  9
$PUCSORGRIGHT
 10
0.0
 20
0.0
 30
0.0
  9
$PUCSORGFRONT
 10
0.0
 20
0.0
 30
0.0
  9
$PUCSORGBACK
 10
0.0
 20
0.0
 30
0.0
  9
$USERI1
 70
     0
  9
$USERI2
 70
     0
  9
$USERI3
 70
     0
  9
$USERI4
 70
     0
  9
$USERI5
 70
     0
  9
$USERR1
 40
0.0
  9
$USERR2
 40
0.0
  9
$USERR3
 40
0.0
  9
$USERR4
 40
0.0
  9
$USERR5
 40
0.0
  9
$WORLDVIEW
 70
     1
  9
$SHADEDGE
 70
     3
  9
$SHADEDIF
 70
    70
  9
$TILEMODE
 70
     1
  9
$MAXACTVP
 70
    64
  9
$PINSBASE
 10
0.0
 20
0.0
 30
0.0
  9
$PLIMCHECK
 70
     0
  9
$PEXTMIN
 10
1.000000000000000E+20
 20
1.000000000000000E+20
 30
1.000000000000000E+20
  9
$PEXTMAX
 10
-1.000000000000000E+20
 20
-1.000000000000000E+20
 30
-1.000000000000000E+20
  9
$PLIMMIN
 10
0.0
 20
0.0
  9
$PLIMMAX
 10
12.0
 20
9.0
  9
$UNITMODE
 70
     0
  9
$VISRETAIN
 70
     1
  9
$PLINEGEN
 70
     0
  9
$PSLTSCALE
 70
     1
  9
$TREEDEPTH
 70
  3020
  9
$CMLSTYLE
  2
Standard
  9
$CMLJUST
 70
     0
  9
$CMLSCALE
 40
1.0
  9
$PROXYGRAPHICS
 70
     1
  9
$MEASUREMENT
 70
     0
  9
$CELWEIGHT
370
    -1
  9
$ENDCAPS
280
     0
  9
$JOINSTYLE
280
     0
  9
$LWDISPLAY
290
     0
  9
$INSUNITS
 70
     0
  9
$HYPERLINKBASE
  1

  9
$STYLESHEET
  1

  9
$XEDIT
290
     1
  9
$CEPSNTYPE
380
     0
  9
$PSTYLEMODE
290
     1
  9
$FINGERPRINTGUID
  2
{BDCE2F8D-1880-4486-913F-BBC1C9BC209F}
  9
$VERSIONGUID
  2
{3719907C-FB92-46E3-9486-80EABF962CE7}
  9
$EXTNAMES
290
     1
  9
$PSVPSCALE
 40
0.0
  9
$OLESTARTUP
290
     0
  0
ENDSEC
  0
SECTION
  2
CLASSES
  0
CLASS
  1
ACDBDICTIONARYWDFLT
  2
AcDbDictionaryWithDefault
  3
AutoCAD 2000
 90
        0
280
     0
281
     0
  0
CLASS
  1
ACDBPLACEHOLDER
  2
AcDbPlaceHolder
  3
AutoCAD 2000
 90
        0
280
     0
281
     0
  0
CLASS
  1
LAYOUT
  2
AcDbLayout
  3
AutoCAD 2000
 90
        0
280
     0
281
     0
  0
CLASS
  1
DICTIONARYVAR
  2
AcDbDictionaryVar
  3
AutoCAD 2000
 90
        0
280
     0
281
     0
  0
ENDSEC
  0
SECTION
  2
TABLES
  0
TABLE
  2
VPORT
  5
8
330
0
100
AcDbSymbolTable
 70
     3
  0
VPORT
  5
861
330
8
100
AcDbSymbolTableRecord
100
AcDbViewportTableRecord
  2
*Active
 70
     0
 10
0.0
 20
0.0
 11
1.0
 21
1.0
 12
128.0
 22
80.5
 13
0.0
 23
0.0
 14
1.0
 24
1.0
 15
0.0
 25
0.0
 16
0.0
 26
0.0
 36
1.0
 17
0.0
 27
0.0
 37
0.0
 40
161.6531352874859
 41
2.073363431151241
 42
50.0
 43
0.0
 44
0.0
 50
0.0
 51
0.0
 71
     0
 72
   100
 73
     1
 74
     3
 75
     0
 76
     0
 77
     0
 78
     0
281
     0
 65
     1
110
0.0
120
0.0
130
0.0
111
1.0
121
0.0
131
0.0
112
0.0
122
1.0
132
0.0
 79
     1
146
0.0
  0
ENDTAB
  0
TABLE
  2
LTYPE
  5
5
330
0
100
AcDbSymbolTable
 70
     1
  0
LTYPE
  5
13
330
5
100
AcDbSymbolTableRecord
100
AcDbLinetypeTableRecord
  2
ByBlock
 70
     0
  3

 72
    65
 73
     0
 40
0.0
  0
LTYPE
  5
14
330
5
100
AcDbSymbolTableRecord
100
AcDbLinetypeTableRecord
  2
ByLayer
 70
     0
  3

 72
    65
 73
     0
 40
0.0
  0
LTYPE
  5
15
330
5
100
AcDbSymbolTableRecord
100
AcDbLinetypeTableRecord
  2
Continuous
 70
     0
  3
Solid line
 72
    65
 73
     0
 40
0.0
  0
ENDTAB
  0
TABLE
  2
LAYER
  5
2
330
0
100
AcDbSymbolTable
 70
     1
  0
LAYER
  5
10
330
2
100
AcDbSymbolTableRecord
100
AcDbLayerTableRecord
  2
0
 70
     0
 62
     7
  6
Continuous
370
    -3
390
F
  0
ENDTAB
  0
TABLE
  2
STYLE
  5
3
330
0
100
AcDbSymbolTable
 70
     1
  0
STYLE
  5
11
330
3
100
AcDbSymbolTableRecord
100
AcDbTextStyleTableRecord
  2
Standard
 70
     0
 40
0.0
 41
1.0
 50
0.0
 71
     0
 42
0.2
  3
txt
  4

  0
ENDTAB
  0
TABLE
  2
VIEW
  5
6
330
0
100
AcDbSymbolTable
 70
     0
  0
ENDTAB
  0
TABLE
  2
UCS
  5
7
330
0
100
AcDbSymbolTable
 70
     0
  0
ENDTAB
  0
TABLE
  2
APPID
  5
9
330
0
100
AcDbSymbolTable
 70
     1
  0
APPID
  5
12
330
9
100
AcDbSymbolTableRecord
100
AcDbRegAppTableRecord
  2
ACAD
 70
     0
  0
ENDTAB
  0
TABLE
  2
DIMSTYLE
  5
A
330
0
100
AcDbSymbolTable
 70
     1
100
AcDbDimStyleTable
 71
     0
  0
DIMSTYLE
105
67F
330
A
100
AcDbSymbolTableRecord
100
AcDbDimStyleTableRecord
  2
Standard
 70
     0
340
11
  0
ENDTAB
  0
TABLE
  2
BLOCK_RECORD
  5
1
330
0
100
AcDbSymbolTable
 70
     0
  0
BLOCK_RECORD
  5
1E
330
1
100
AcDbSymbolTableRecord
100
AcDbBlockTableRecord
  2
*Model_Space
340
21
  0
BLOCK_RECORD
  5
1A
330
1
100
AcDbSymbolTableRecord
100
AcDbBlockTableRecord
  2
*Paper_Space
340
1D
  0
ENDTAB
  0
ENDSEC
  0
SECTION
  2
BLOCKS
  0
BLOCK
  5
1F
330
1E
100
AcDbEntity
  8
0
100
AcDbBlockBegin
  2
*Model_Space
 70
     0
 10
0.0
 20
0.0
 30
0.0
  3
*Model_Space
  1

  0
ENDBLK
  5
20
330
1E
100
AcDbEntity
  8
0
100
AcDbBlockEnd
  0
BLOCK
  5
1B
330
1A
100
AcDbEntity
 67
     1
  8
0
100
AcDbBlockBegin
  2
*Paper_Space
 70
     0
 10
0.0
 20
0.0
 30
0.0
  3
*Paper_Space
  1

  0
ENDBLK
  5
1C
330
1A
100
AcDbEntity
 67
     1
  8
0
100
AcDbBlockEnd
  0
ENDSEC
  0
SECTION
  2
ENTITIES
  0
LINE
  5
25
330
1E
100
AcDbEntity
  8
0
100
AcDbLine
 10
8.199999999999999
 20
96.7875
 30
0.0
 11
11.0
 21
94.3875
 31
0.0
  0
LINE
  5
26
330
1E
100
AcDbEntity
  8
0
100
AcDbLine
 10
5.799999999999999
 20
99.58750000000001
 30
0.0
 11
8.199999999999999
 21
96.7875
 31
0.0
  0
LINE
  5
2B
330
1E
100
AcDbEntity
  8
0
100
AcDbLine
 10
5.799999999999999
 20
99.58750000000001
 30
0.0
 11
8.199999999999999
 21
96.7875
 31
0.0
  0
LINE
  5
2D
330
1E
100
AcDbEntity
  8
0
100
AcDbLine
 10
3.7
 20
102.6874999999999
 30
0.0
 11
5.799999999999999
 21
99.58750000000001
 31
0.0
  0
LINE
  5
34
330
1E
100
AcDbEntity
  8
0
100
AcDbLine
 10
2.2
 20
105.8875
 30
0.0
 11
3.7
 21
102.6874999999999
 31
0.0
  0
LINE
  5
38
330
1E
100
AcDbEntity
  8
0
100
AcDbLine
 10
11.0
 20
94.3875
 30
0.0
 11
14.1
 21
92.28749999999999
 31
0.0
  0
LINE
  5
3E
330
1E
100
AcDbEntity
  8
0
100
AcDbLine
 10
16.8
 20
101.8874999999999
 30
0.0
 11
18.8
 21
100.5875
 31
0.0
  0
LINE
  5
44
330
1E
100
AcDbEntity
  8
0
100
AcDbLine
 10
14.1
 20
92.28749999999999
 30
0.0
 11
17.3
 21
90.78749999999999
 31
0.0
  0
LINE
  5
46
330
1E
100
AcDbEntity
  8
0
100
AcDbLine
 10
19.5
 20
101.8874999999999
 30
0.0
 11
21.49999999999999
 21
100.8874999999999
 31
0.0
  0
LINE
  5
49
330
1E
100
AcDbEntity
  8
0
100
AcDbLine
 10
18.8
 20
100.5875
 30
0.0
 11
20.89999999999999
 21
99.4875
 31
0.0
  0
LINE
  5
4D
330
1E
100
AcDbEntity
  8
0
100
AcDbLine
 10
21.49999999999999
 20
100.8874999999999
 30
0.0
 11
23.6
 21
100.1875
 31
0.0
  0
LINE
  5
4E
330
1E
100
AcDbEntity
  8
0
100
AcDbLine
 10
23.6
 20
100.1875
 30
0.0
 11
25.8
 21
99.78749999999999
 31
0.0
  0
LINE
  5
53
330
1E
100
AcDbEntity
  8
0
100
AcDbLine
 10
20.89999999999999
 20
99.4875
 30
0.0
 11
23.19999999999999
 21
98.7875
 31
0.0
  0
LINE
  5
55
330
1E
100
AcDbEntity
  8
0
100
AcDbLine
 10
23.19999999999999
 20
98.7875
 30
0.0
 11
25.6
 21
98.28749999999999
 31
0.0
  0
LINE
  5
5F
330
1E
100
AcDbEntity
  8
0
100
AcDbLine
 10
17.3
 20
90.78749999999999
 30
0.0
 11
20.8
 21
89.5875
 31
0.0
  0
LINE
  5
61
330
1E
100
AcDbEntity
  8
0
100
AcDbLine
 10
20.8
 20
89.5875
 30
0.0
 11
24.19999999999999
 21
88.88749999999999
 31
0.0
  0
LINE
  5
63
330
1E
100
AcDbEntity
  8
0
100
AcDbLine
 10
112.501
 20
78.7205
 30
0.0
 11
113.936
 21
27.43149999999999
 31
0.0
  0
LINE
  5
64
330
1E
100
AcDbEntity
  8
0
100
AcDbLine
 10
113.936
 20
27.43149999999999
 30
0.0
 11
114.052
 21
27.1795
 31
0.0
  0
LINE
  5
65
330
1E
100
AcDbEntity
  8
0
100
AcDbLine
 10
114.247
 20
27.1005
 30
0.0
 11
114.893756788666
 21
27.03342892561989
 31
0.0
  0
LINE
  5
66
330
1E
100
AcDbEntity
  8
0
100
AcDbLine
 10
114.052
 20
27.1795
 30
0.0
 11
114.247
 21
27.1005
 31
0.0
  0
LINE
  5
74
330
1E
100
AcDbEntity
  8
0
100
AcDbLine
 10
112.057
 20
94.6325
 30
0.0
 11
112.501
 21
78.7205
 31
0.0
  0
LINE
  5
75
330
1E
100
AcDbEntity
  8
0
100
AcDbLine
 10
111.2779999999999
 20
94.69050000000001
 30
0.0
 11
112.070539940913
 21
94.1472577932417
 31
0.0
  0
LINE
  5
82
330
1E
100
AcDbEntity
  8
0
100
AcDbLine
 10
108.1779999999999
 20
97.1875
 30
0.0
 11
111.2779999999999
 21
94.69050000000001
 31
0.0
  0
LINE
  5
AE
330
1E
100
AcDbEntity
  8
0
100
AcDbLine
 10
105.559
 20
100.1894999999999
 30
0.0
 11
108.1779999999999
 21
97.1875
 31
0.0
  0
LINE
  5
B6
330
1E
100
AcDbEntity
  8
0
100
AcDbLine
 10
25.8
 20
99.78749999999999
 30
0.0
 11
28.0
 21
99.58750000000001
 31
0.0
  0
LINE
  5
B9
330
1E
100
AcDbEntity
  8
0
100
AcDbLine
 10
25.6
 20
98.28749999999999
 30
0.0
 11
28.0
 21
98.08750000000001
 31
0.0
  0
LINE
  5
C1
330
1E
100
AcDbEntity
  8
0
100
AcDbLine
 10
24.19999999999999
 20
88.88749999999999
 30
0.0
 11
28.0
 21
88.5875
 31
0.0
  0
LINE
  5
CE
330
1E
100
AcDbEntity
  8
0
100
AcDbLine
 10
17.7
 20
103.0874999999999
 30
0.0
 11
19.5
 21
101.8874999999999
 31
0.0
  0
LINE
  5
D1
330
1E
100
AcDbEntity
  8
0
100
AcDbLine
 10
103.3979999999999
 20
103.5285
 30
0.0
 11
105.559
 21
100.1894999999999
 31
0.0
  0
LINE
  5
D5
330
1E
100
AcDbEntity
  8
0
100
AcDbLine
 10
20.88769999999999
 20
104.2294999999999
 30
0.0
 11
22.57689999999999
 21
103.4294999999999
 31
0.0
  0
LINE
  5
DC
330
1E
100
AcDbEntity
  8
0
100
AcDbLine
 10
19.3763
 20
105.2964999999999
 30
0.0
 11
20.88769999999999
 21
104.2294999999999
 31
0.0
  0
LINE
  5
E4
330
1E
100
AcDbEntity
  8
0
100
AcDbLine
 10
17.9539
 20
106.5415
 30
0.0
 11
19.3763
 21
105.2964999999999
 31
0.0
  0
LINE
  5
EB
330
1E
100
AcDbEntity
  8
0
100
AcDbLine
 10
111.653
 20
106.7015
 30
0.0
 11
112.057
 21
94.6325
 31
0.0
  0
LINE
  5
ED
330
1E
100
AcDbEntity
  8
0
100
AcDbLine
 10
16.0
 20
104.5875
 30
0.0
 11
17.7
 21
103.0874999999999
 31
0.0
  0
LINE
  5
EE
330
1E
100
AcDbEntity
  8
0
100
AcDbLine
 10
14.5
 20
106.2875
 30
0.0
 11
16.0
 21
104.5875
 31
0.0
  0
LINE
  5
F4
330
1E
100
AcDbEntity
  8
0
100
AcDbLine
 10
14.9
 20
103.4874999999999
 30
0.0
 11
16.8
 21
101.8874999999999
 31
0.0
  0
LINE
  5
F5
330
1E
100
AcDbEntity
  8
0
100
AcDbLine
 10
13.3
 20
105.3875
 30
0.0
 11
14.9
 21
103.4874999999999
 31
0.0
  0
LINE
  5
FB
330
1E
100
AcDbEntity
  8
0
100
AcDbLine
 10
101.737
 20
107.1425
 30
0.0
 11
103.3979999999999
 21
103.5285
 31
0.0
  0
LINE
  5
101
330
1E
100
AcDbEntity
  8
0
100
AcDbLine
 10
16.70919999999999
 20
107.9634999999999
 30
0.0
 11
17.9539
 21
106.5415
 31
0.0
  0
LINE
  5
109
330
1E
100
AcDbEntity
  8
0
100
AcDbLine
 10
13.3
 20
108.0875
 30
0.0
 11
14.5
 21
106.2875
 31
0.0
  0
LINE
  5
10C
330
1E
100
AcDbEntity
  8
0
100
AcDbLine
 10
12.0
 20
107.3875
 30
0.0
 11
13.3
 21
105.3875
 31
0.0
  0
LINE
  5
110
330
1E
100
AcDbEntity
  8
0
100
AcDbLine
 10
15.6424
 20
109.4754999999999
 30
0.0
 11
16.70919999999999
 21
107.9634999999999
 31
0.0
  0
LINE
  5
115
330
1E
100
AcDbEntity
  8
0
100
AcDbLine
 10
10.9
 20
109.4875
 30
0.0
 11
12.0
 21
107.3875
 31
0.0
  0
LINE
  5
11F
330
1E
100
AcDbEntity
  8
0
100
AcDbLine
 10
14.8422
 20
111.1644999999999
 30
0.0
 11
15.6424
 21
109.4754999999999
 31
0.0
  0
LINE
  5
121
330
1E
100
AcDbEntity
  8
0
100
AcDbLine
 10
100.611
 20
110.9515
 30
0.0
 11
101.737
 21
107.1425
 31
0.0
  0
LINE
  5
124
330
1E
100
AcDbEntity
  8
0
100
AcDbLine
 10
12.3
 20
110.0875
 30
0.0
 11
13.3
 21
108.0875
 31
0.0
  0
LINE
  5
134
330
1E
100
AcDbEntity
  8
0
100
AcDbLine
 10
110.146
 20
112.9604999999999
 30
0.0
 11
110.532
 21
111.5734999999999
 31
0.0
  0
LINE
  5
139
330
1E
100
AcDbEntity
  8
0
100
AcDbLine
 10
11.59999999999999
 20
112.1874999999999
 30
0.0
 11
12.3
 21
110.0875
 31
0.0
  0
LINE
  5
13C
330
1E
100
AcDbEntity
  8
0
100
AcDbLine
 10
10.2
 20
111.7874999999999
 30
0.0
 11
10.9
 21
109.4875
 31
0.0
  0
LINE
  5
146
330
1E
100
AcDbEntity
  8
0
100
AcDbLine
 10
1.0
 20
109.3875
 30
0.0
 11
2.2
 21
105.8875
 31
0.0
  0
LINE
  5
148
330
1E
100
AcDbEntity
  8
0
100
AcDbLine
 10
0.3
 20
112.7874999999999
 30
0.0
 11
1.0
 21
109.3875
 31
0.0
  0
LINE
  5
14C
330
1E
100
AcDbEntity
  8
0
100
AcDbLine
 10
109.9329999999999
 20
114.1485
 30
0.0
 11
110.146
 21
112.9604999999999
 31
0.0
  0
LINE
  5
15E
330
1E
100
AcDbEntity
  8
0
100
AcDbLine
 10
109.801
 20
115.8725
 30
0.0
 11
109.854
 21
117.9615
 31
0.0
  0
LINE
  5
15F
330
1E
100
AcDbEntity
  8
0
100
AcDbLine
 10
111.1979999999999
 20
115.6725
 30
0.0
 11
111.653
 21
106.7015
 31
0.0
  0
LINE
  5
161
330
1E
100
AcDbEntity
  8
0
100
AcDbLine
 10
100.0439999999999
 20
114.8815
 30
0.0
 11
100.611
 21
110.9515
 31
0.0
  0
LINE
  5
162
330
1E
100
AcDbEntity
  8
0
100
AcDbLine
 10
100.0439999999999
 20
114.8815
 30
0.0
 11
100.0439999999999
 21
118.8534999999999
 31
0.0
  0
LINE
  5
165
330
1E
100
AcDbEntity
  8
0
100
AcDbLine
 10
11.19999999999999
 20
114.3874999999999
 30
0.0
 11
11.59999999999999
 21
112.1874999999999
 31
0.0
  0
LINE
  5
166
330
1E
100
AcDbEntity
  8
0
100
AcDbLine
 10
11.0
 20
116.5874999999999
 30
0.0
 11
11.19999999999999
 21
114.3874999999999
 31
0.0
  0
LINE
  5
16D
330
1E
100
AcDbEntity
  8
0
100
AcDbLine
 10
9.699999999999999
 20
114.1874999999999
 30
0.0
 11
10.2
 21
111.7874999999999
 31
0.0
  0
LINE
  5
16F
330
1E
100
AcDbEntity
  8
0
100
AcDbLine
 10
9.5
 20
116.5874999999999
 30
0.0
 11
9.699999999999999
 21
114.1874999999999
 31
0.0
  0
LINE
  5
20C
330
1E
100
AcDbEntity
  8
0
100
AcDbLine
 10
109.854
 20
117.9615
 30
0.0
 11
109.958
 21
119.1915
 31
0.0
  0
LINE
  5
20F
330
1E
100
AcDbEntity
  8
0
100
AcDbLine
 10
100.6139999999999
 20
122.7824999999999
 30
0.0
 11
101.7409999999999
 21
126.5924999999999
 31
0.0
  0
LINE
  5
210
330
1E
100
AcDbEntity
  8
0
100
AcDbLine
 10
110.284
 20
121.0215
 30
0.0
 11
110.6879999999999
 21
122.5125
 31
0.0
  0
LINE
  5
211
330
1E
100
AcDbEntity
  8
0
100
AcDbLine
 10
109.958
 20
119.1915
 30
0.0
 11
110.284
 21
121.0215
 31
0.0
  0
LINE
  5
213
330
1E
100
AcDbEntity
  8
0
100
AcDbLine
 10
100.0439999999999
 20
118.8534999999999
 30
0.0
 11
100.0439999999999
 21
114.8815
 31
0.0
  0
LINE
  5
214
330
1E
100
AcDbEntity
  8
0
100
AcDbLine
 10
100.0439999999999
 20
118.8534999999999
 30
0.0
 11
100.6139999999999
 21
122.7824999999999
 31
0.0
  0
LINE
  5
252
330
1E
100
AcDbEntity
  8
0
100
AcDbLine
 10
101.7409999999999
 20
126.5924999999999
 30
0.0
 11
103.403
 21
130.2044999999999
 31
0.0
  0
LINE
  5
262
330
1E
100
AcDbEntity
  8
0
100
AcDbLine
 10
105.5649999999999
 20
133.5434999999999
 30
0.0
 11
108.1839999999999
 21
136.5424999999999
 31
0.0
  0
LINE
  5
264
330
1E
100
AcDbEntity
  8
0
100
AcDbLine
 10
103.403
 20
130.2044999999999
 30
0.0
 11
105.5649999999999
 21
133.5434999999999
 31
0.0
  0
LINE
  5
293
330
1E
100
AcDbEntity
  8
0
100
AcDbLine
 10
108.1839999999999
 20
136.5424999999999
 30
0.0
 11
111.209
 21
139.1434999999999
 31
0.0
  0
LINE
  5
296
330
1E
100
AcDbEntity
  8
0
100
AcDbLine
 10
111.209
 20
139.1434999999999
 30
0.0
 11
114.571
 21
141.2884999999999
 31
0.0
  0
LINE
  5
2AC
330
1E
100
AcDbEntity
  8
0
100
AcDbLine
 10
0.0
 20
116.5874999999999
 30
0.0
 11
0.3
 21
112.7874999999999
 31
0.0
  0
LINE
  5
2AF
330
1E
100
AcDbEntity
  8
0
100
AcDbLine
 10
114.247
 20
11.1575
 30
0.0
 11
114.3399999999999
 21
11.0525
 31
0.0
  0
LINE
  5
2B0
330
1E
100
AcDbEntity
  8
0
100
AcDbLine
 10
114.247
 20
11.1575
 30
0.0
 11
114.251
 21
22.3415
 31
0.0
  0
LINE
  5
2B1
330
1E
100
AcDbEntity
  8
0
100
AcDbLine
 10
114.247
 20
11.1575
 30
0.0
 11
114.9769999999999
 21
11.2725
 31
0.0
  0
LINE
  5
2B2
330
1E
100
AcDbEntity
  8
0
100
AcDbLine
 10
114.2789999999999
 20
0.9485000000000091
 30
0.0
 11
114.3079999999999
 21
10.6685
 31
0.0
  0
LINE
  5
2B3
330
1E
100
AcDbEntity
  8
0
100
AcDbLine
 10
114.2789999999999
 20
0.9485000000000091
 30
0.0
 11
114.376
 21
0.852500000000009
 31
0.0
  0
LINE
  5
2B5
330
1E
100
AcDbEntity
  8
0
100
AcDbLine
 10
114.3079999999999
 20
10.6685
 30
0.0
 11
115.546
 21
10.8665
 31
0.0
  0
LINE
  5
2B7
330
1E
100
AcDbEntity
  8
0
100
AcDbLine
 10
114.8939999999999
 20
0.6125000000000009
 30
0.0
 11
115.443
 21
0.53250000000001
 31
0.0
  0
LINE
  5
2BA
330
1E
100
AcDbEntity
  8
0
100
AcDbLine
 10
114.8779999999999
 20
0.6915000000000092
 30
0.0
 11
115.863
 21
0.864499999999998
 31
0.0
  0
LINE
  5
2BC
330
1E
100
AcDbEntity
  8
0
100
AcDbLine
 10
115.443
 20
0.53250000000001
 30
0.0
 11
116.4109999999999
 21
0.447499999999999
 31
0.0
  0
LINE
  5
2BF
330
1E
100
AcDbEntity
  8
0
100
AcDbLine
 10
114.376
 20
0.852500000000009
 30
0.0
 11
114.8939999999999
 21
0.6125000000000009
 31
0.0
  0
LINE
  5
2C2
330
1E
100
AcDbEntity
  8
0
100
AcDbLine
 10
115.863
 20
0.864499999999998
 30
0.0
 11
117.4379999999999
 21
0.9554999999999949
 31
0.0
  0
LINE
  5
2C6
330
1E
100
AcDbEntity
  8
0
100
AcDbLine
 10
115.471
 20
10.9085
 30
0.0
 11
115.9159467696389
 21
10.8791975278353
 31
0.0
  0
LINE
  5
2CA
330
1E
100
AcDbEntity
  8
0
100
AcDbLine
 10
114.736
 20
10.9785
 30
0.0
 11
115.471
 21
10.9085
 31
0.0
  0
LINE
  5
2CB
330
1E
100
AcDbEntity
  8
0
100
AcDbLine
 10
114.3399999999999
 20
11.0525
 30
0.0
 11
114.736
 21
10.9785
 31
0.0
  0
LINE
  5
2CC
330
1E
100
AcDbEntity
  8
0
100
AcDbLine
 10
114.9769999999999
 20
11.2725
 30
0.0
 11
116.1529999999999
 21
11.3625
 31
0.0
  0
LINE
  5
2CD
330
1E
100
AcDbEntity
  8
0
100
AcDbLine
 10
116.4109999999999
 20
0.447499999999999
 30
0.0
 11
118.856
 21
0.336500000000008
 31
0.0
  0
LINE
  5
2D0
330
1E
100
AcDbEntity
  8
0
100
AcDbLine
 10
117.4379999999999
 20
0.9554999999999949
 30
0.0
 11
119.174
 21
1.026500000000019
 31
0.0
  0
LINE
  5
2D3
330
1E
100
AcDbEntity
  8
0
100
AcDbLine
 10
115.9159467696389
 20
10.8791975278353
 30
0.0
 11
119.469
 21
11.0065
 31
0.0
  0
LINE
  5
2D5
330
1E
100
AcDbEntity
  8
0
100
AcDbLine
 10
116.1529999999999
 20
11.3625
 30
0.0
 11
117.368
 21
11.4235
 31
0.0
  0
LINE
  5
2D6
330
1E
100
AcDbEntity
  8
0
100
AcDbLine
 10
117.368
 20
11.4235
 30
0.0
 11
118.797
 21
11.4775
 31
0.0
  0
LINE
  5
2D7
330
1E
100
AcDbEntity
  8
0
100
AcDbLine
 10
118.856
 20
0.336500000000008
 30
0.0
 11
120.855
 21
0.294500000000003
 31
0.0
  0
LINE
  5
2D8
330
1E
100
AcDbEntity
  8
0
100
AcDbLine
 10
120.855
 20
0.294500000000003
 30
0.0
 11
124.2439999999999
 21
0.221499999999998
 31
0.0
  0
LINE
  5
2D9
330
1E
100
AcDbEntity
  8
0
100
AcDbLine
 10
119.174
 20
1.026500000000019
 30
0.0
 11
121.7779999999999
 21
1.08250000000001
 31
0.0
  0
LINE
  5
2DC
330
1E
100
AcDbEntity
  8
0
100
AcDbLine
 10
121.7779999999999
 20
1.08250000000001
 30
0.0
 11
125.9779999999999
 21
1.10650000000001
 31
0.0
  0
LINE
  5
2DE
330
1E
100
AcDbEntity
  8
0
100
AcDbLine
 10
119.469
 20
11.0065
 30
0.0
 11
121.4159999999999
 21
11.0725
 31
0.0
  0
LINE
  5
2E2
330
1E
100
AcDbEntity
  8
0
100
AcDbLine
 10
121.4159999999999
 20
11.0725
 30
0.0
 11
125.956
 21
11.1525
 31
0.0
  0
LINE
  5
2E4
330
1E
100
AcDbEntity
  8
0
100
AcDbLine
 10
118.797
 20
11.4775
 30
0.0
 11
121.047
 21
11.5355
 31
0.0
  0
LINE
  5
2E5
330
1E
100
AcDbEntity
  8
0
100
AcDbLine
 10
114.6519999999999
 20
24.89349999999999
 30
0.0
 11
115.337
 21
26.9035
 31
0.0
  0
LINE
  5
2E6
330
1E
100
AcDbEntity
  8
0
100
AcDbLine
 10
121.047
 20
11.5355
 30
0.0
 11
123.5899999999999
 21
11.5775
 31
0.0
  0
LINE
  5
2E8
330
1E
100
AcDbEntity
  8
0
100
AcDbLine
 10
125.626
 20
11.5955
 30
0.0
 11
128.0
 21
11.6025
 31
0.0
  0
LINE
  5
2EA
330
1E
100
AcDbEntity
  8
0
100
AcDbLine
 10
123.5899999999999
 20
11.5775
 30
0.0
 11
125.626
 21
11.5955
 31
0.0
  0
LINE
  5
2EE
330
1E
100
AcDbEntity
  8
0
100
AcDbLine
 10
114.571
 20
141.2884999999999
 30
0.0
 11
118.2039999999999
 21
142.9565
 31
0.0
  0
LINE
  5
2EF
330
1E
100
AcDbEntity
  8
0
100
AcDbLine
 10
114.893756788666
 20
27.03342892561989
 30
0.0
 11
115.371592113647
 21
26.9715347489588
 31
0.0
  0
LINE
  5
2F2
330
1E
100
AcDbEntity
  8
0
100
AcDbLine
 10
116.9939999999999
 20
27.41649999999999
 30
0.0
 11
119.47
 21
27.4815
 31
0.0
  0
LINE
  5
2F5
330
1E
100
AcDbEntity
  8
0
100
AcDbLine
 10
119.47
 20
27.4815
 30
0.0
 11
122.5989999999999
 21
27.5735
 31
0.0
  0
LINE
  5
2FB
330
1E
100
AcDbEntity
  8
0
100
AcDbLine
 10
122.5989999999999
 20
27.5735
 30
0.0
 11
125.895
 21
27.5855
 31
0.0
  0
LINE
  5
2FC
330
1E
100
AcDbEntity
  8
0
100
AcDbLine
 10
121.8839999999999
 20
144.0124999999999
 30
0.0
 11
126.0
 21
144.6498805825239
 31
0.0
  0
LINE
  5
2FD
330
1E
100
AcDbEntity
  8
0
100
AcDbLine
 10
118.2039999999999
 20
142.9565
 30
0.0
 11
121.8839999999999
 21
144.0124999999999
 31
0.0
  0
LINE
  5
300
330
1E
100
AcDbEntity
  8
0
100
AcDbLine
 10
124.0
 20
160.5335
 30
0.0
 11
124.096
 21
160.7835
 31
0.0
  0
LINE
  5
301
330
1E
100
AcDbEntity
  8
0
100
AcDbLine
 10
124.0
 20
160.5335
 30
0.0
 11
124.0
 21
148.7835
 31
0.0
  0
LINE
  5
306
330
1E
100
AcDbEntity
  8
0
100
AcDbLine
 10
125.895
 20
27.5855
 30
0.0
 11
128.0
 21
27.6085
 31
0.0
  0
LINE
  5
30D
330
1E
100
AcDbEntity
  8
0
100
AcDbLine
 10
124.096
 20
160.7835
 30
0.0
 11
124.2399999999999
 21
160.7835
 31
0.0
  0
LINE
  5
30E
330
1E
100
AcDbEntity
  8
0
100
AcDbLine
 10
124.2399999999999
 20
160.7835
 30
0.0
 11
124.624
 21
160.7835
 31
0.0
  0
LINE
  5
30F
330
1E
100
AcDbEntity
  8
0
100
AcDbLine
 10
124.624
 20
160.7835
 30
0.0
 11
125.248
 21
160.7835
 31
0.0
  0
LINE
  5
313
330
1E
100
AcDbEntity
  8
0
100
AcDbLine
 10
125.248
 20
160.7835
 30
0.0
 11
126.0639999999999
 21
160.7835
 31
0.0
  0
LINE
  5
318
330
1E
100
AcDbEntity
  8
0
100
AcDbLine
 10
124.0
 20
148.7835
 30
0.0
 11
126.0
 21
145.7835
 31
0.0
  0
LINE
  5
319
330
1E
100
AcDbEntity
  8
0
100
AcDbLine
 10
124.0
 20
148.7835
 30
0.0
 11
124.0
 21
160.5335
 31
0.0
  0
LINE
  5
31A
330
1E
100
AcDbEntity
  8
0
100
AcDbLine
 10
115.337
 20
26.9035
 30
0.0
 11
115.5455273920699
 21
27.3136255250049
 31
0.0
  0
LINE
  5
31B
330
1E
100
AcDbEntity
  8
0
100
AcDbLine
 10
114.251
 20
22.3415
 30
0.0
 11
114.6519999999999
 21
24.89349999999999
 31
0.0
  0
LINE
  5
31C
330
1E
100
AcDbEntity
  8
0
100
AcDbLine
 10
124.2439999999999
 20
0.221499999999998
 30
0.0
 11
128.0
 21
0.218499999999996
 31
0.0
  0
LINE
  5
31D
330
1E
100
AcDbEntity
  8
0
100
AcDbLine
 10
124.2439999999999
 20
0.221499999999998
 30
0.0
 11
128.0
 21
0.216499999999995
 31
0.0
  0
LINE
  5
31F
330
1E
100
AcDbEntity
  8
0
100
AcDbLine
 10
127.9364258804259
 20
0.218550778050774
 30
0.0
 11
128.0
 21
0.216499999999995
 31
0.0
  0
LINE
  5
320
330
1E
100
AcDbEntity
  8
0
100
AcDbLine
 10
127.9364258804259
 20
0.218550778050774
 30
0.0
 11
128.0
 21
0.216499999999995
 31
0.0
  0
LINE
  5
322
330
1E
100
AcDbEntity
  8
0
100
AcDbLine
 10
128.0
 20
0.216499999999995
 30
0.0
 11
128.0635741195739
 21
0.218550778050774
 31
0.0
  0
LINE
  5
325
330
1E
100
AcDbEntity
  8
0
100
AcDbLine
 10
125.9779999999999
 20
1.10650000000001
 30
0.0
 11
128.0
 21
1.147500000000009
 31
0.0
  0
LINE
  5
341
330
1E
100
AcDbEntity
  8
0
100
AcDbLine
 10
126.0
 20
134.8213126681339
 30
0.0
 11
126.0
 21
137.9875
 31
0.0
  0
LINE
  5
342
330
1E
100
AcDbEntity
  8
0
100
AcDbLine
 10
126.0
 20
138.5865
 30
0.0
 11
126.0
 21
137.9875
 31
0.0
  0
LINE
  5
343
330
1E
100
AcDbEntity
  8
0
100
AcDbLine
 10
126.0
 20
138.5865
 30
0.0
 11
126.0
 21
139.5405
 31
0.0
  0
LINE
  5
344
330
1E
100
AcDbEntity
  8
0
100
AcDbLine
 10
126.0
 20
137.9875
 30
0.0
 11
126.0
 21
138.5865
 31
0.0
  0
LINE
  5
345
330
1E
100
AcDbEntity
  8
0
100
AcDbLine
 10
126.0
 20
137.9875
 30
0.0
 11
126.0
 21
134.8213126681339
 31
0.0
  0
LINE
  5
346
330
1E
100
AcDbEntity
  8
0
100
AcDbLine
 10
126.0
 20
142.2305
 30
0.0
 11
126.0
 21
143.7834999999999
 31
0.0
  0
LINE
  5
347
330
1E
100
AcDbEntity
  8
0
100
AcDbLine
 10
126.0
 20
142.2305
 30
0.0
 11
126.0
 21
140.7835
 31
0.0
  0
LINE
  5
348
330
1E
100
AcDbEntity
  8
0
100
AcDbLine
 10
126.0
 20
143.7834999999999
 30
0.0
 11
126.0
 21
145.7835
 31
0.0
  0
LINE
  5
349
330
1E
100
AcDbEntity
  8
0
100
AcDbLine
 10
126.0
 20
143.7834999999999
 30
0.0
 11
126.0
 21
142.2305
 31
0.0
  0
LINE
  5
34C
330
1E
100
AcDbEntity
  8
0
100
AcDbLine
 10
126.0
 20
145.7835
 30
0.0
 11
126.0
 21
143.7834999999999
 31
0.0
  0
LINE
  5
34D
330
1E
100
AcDbEntity
  8
0
100
AcDbLine
 10
126.0
 20
140.7835
 30
0.0
 11
126.0
 21
139.5405
 31
0.0
  0
LINE
  5
34E
330
1E
100
AcDbEntity
  8
0
100
AcDbLine
 10
126.0
 20
140.7835
 30
0.0
 11
126.0
 21
142.2305
 31
0.0
  0
LINE
  5
363
330
1E
100
AcDbEntity
  8
0
100
AcDbLine
 10
126.0639999999999
 20
160.7835
 30
0.0
 11
126.992
 21
160.7835
 31
0.0
  0
LINE
  5
36D
330
1E
100
AcDbEntity
  8
0
100
AcDbLine
 10
126.992
 20
160.7835
 30
0.0
 11
128.0
 21
160.7835
 31
0.0
  0
LINE
  5
375
330
1E
100
AcDbEntity
  8
0
100
AcDbLine
 10
126.0
 20
139.5405
 30
0.0
 11
126.0
 21
140.7835
 31
0.0
  0
LINE
  5
376
330
1E
100
AcDbEntity
  8
0
100
AcDbLine
 10
126.0
 20
139.5405
 30
0.0
 11
126.0
 21
138.5865
 31
0.0
  0
LINE
  5
67E
330
1E
100
AcDbEntity
  8
0
100
AcDbLine
 10
125.956
 20
11.1525
 30
0.0
 11
128.0
 21
11.1685
 31
0.0
  0
LINE
  5
683
330
1E
100
AcDbEntity
  8
0
  6
Continuous
100
AcDbLine
 10
14.8422
 20
111.1644999999999
 30
0.0
 11
14.31412425381791
 21
112.8004658756357
 31
0.0
  0
LINE
  5
684
330
1E
100
AcDbEntity
  8
0
  6
Continuous
100
AcDbLine
 10
14.31412425381791
 20
112.8004658756357
 30
0.0
 11
13.86818738209603
 21
114.7781548029485
 31
0.0
  0
LINE
  5
685
330
1E
100
AcDbEntity
  8
0
  6
Continuous
100
AcDbLine
 10
13.86818738209603
 20
114.7781548029485
 30
0.0
 11
13.64
 21
116.5
 31
0.0
  0
LINE
  5
686
330
1E
100
AcDbEntity
  8
0
  6
Continuous
100
AcDbLine
 10
22.57689999999999
 20
103.4294999999999
 30
0.0
 11
24.15260316961598
 21
103.023438547098
 31
0.0
  0
LINE
  5
687
330
1E
100
AcDbEntity
  8
0
  6
Continuous
100
AcDbLine
 10
24.15260316961598
 20
103.023438547098
 30
0.0
 11
26.159318311996
 21
102.6891813537272
 31
0.0
  0
LINE
  5
688
330
1E
100
AcDbEntity
  8
0
  6
Continuous
100
AcDbLine
 10
26.159318311996
 20
102.6891813537272
 30
0.0
 11
28.0
 21
102.4999999999999
 31
0.0
  0
LINE
  5
689
330
1E
100
AcDbEntity
  8
0
100
AcDbLine
 10
5.799999999999999
 20
133.5724999999999
 30
0.0
 11
8.199999999999999
 21
136.3725
 31
0.0
  0
LINE
  5
68A
330
1E
100
AcDbEntity
  8
0
100
AcDbLine
 10
5.799999999999999
 20
133.5724999999999
 30
0.0
 11
8.199999999999999
 21
136.3725
 31
0.0
  0
LINE
  5
68B
330
1E
100
AcDbEntity
  8
0
100
AcDbLine
 10
2.2
 20
127.2724999999999
 30
0.0
 11
3.7
 21
130.4724999999999
 31
0.0
  0
LINE
  5
68C
330
1E
100
AcDbEntity
  8
0
100
AcDbLine
 10
3.7
 20
130.4724999999999
 30
0.0
 11
5.799999999999999
 21
133.5724999999999
 31
0.0
  0
LINE
  5
68D
330
1E
100
AcDbEntity
  8
0
100
AcDbLine
 10
0.3
 20
120.3725
 30
0.0
 11
1.0
 21
123.7724999999999
 31
0.0
  0
LINE
  5
68E
330
1E
100
AcDbEntity
  8
0
100
AcDbLine
 10
1.0
 20
123.7724999999999
 30
0.0
 11
2.2
 21
127.2724999999999
 31
0.0
  0
LINE
  5
68F
330
1E
100
AcDbEntity
  8
0
100
AcDbLine
 10
0.0
 20
116.5724999999999
 30
0.0
 11
0.3
 21
120.3725
 31
0.0
  0
LINE
  5
690
330
1E
100
AcDbEntity
  8
0
100
AcDbLine
 10
17.9539
 20
126.6184999999999
 30
0.0
 11
19.3763
 21
127.8634999999999
 31
0.0
  0
LINE
  5
691
330
1E
100
AcDbEntity
  8
0
100
AcDbLine
 10
12.0
 20
125.7724999999999
 30
0.0
 11
13.3
 21
127.7724999999999
 31
0.0
  0
LINE
  5
692
330
1E
100
AcDbEntity
  8
0
100
AcDbLine
 10
14.5
 20
126.8725
 30
0.0
 11
16.0
 21
128.5725
 31
0.0
  0
LINE
  5
693
330
1E
100
AcDbEntity
  8
0
100
AcDbLine
 10
11.0
 20
138.7724999999999
 30
0.0
 11
14.1
 21
140.8725
 31
0.0
  0
LINE
  5
694
330
1E
100
AcDbEntity
  8
0
100
AcDbLine
 10
17.3
 20
142.3725
 30
0.0
 11
20.8
 21
143.5724999999999
 31
0.0
  0
LINE
  5
695
330
1E
100
AcDbEntity
  8
0
100
AcDbLine
 10
14.1
 20
140.8725
 30
0.0
 11
17.3
 21
142.3725
 31
0.0
  0
LINE
  5
696
330
1E
100
AcDbEntity
  8
0
100
AcDbLine
 10
20.8
 20
143.5724999999999
 30
0.0
 11
24.19999999999999
 21
144.2724999999999
 31
0.0
  0
LINE
  5
697
330
1E
100
AcDbEntity
  8
0
100
AcDbLine
 10
24.19999999999999
 20
144.2724999999999
 30
0.0
 11
28.0
 21
144.5724999999999
 31
0.0
  0
LINE
  5
698
330
1E
100
AcDbEntity
  8
0
100
AcDbLine
 10
17.7
 20
130.0724999999999
 30
0.0
 11
19.5
 21
131.2724999999999
 31
0.0
  0
LINE
  5
699
330
1E
100
AcDbEntity
  8
0
100
AcDbLine
 10
16.8
 20
131.2724999999999
 30
0.0
 11
18.8
 21
132.5725
 31
0.0
  0
LINE
  5
69A
330
1E
100
AcDbEntity
  8
0
100
AcDbLine
 10
8.199999999999999
 20
136.3725
 30
0.0
 11
11.0
 21
138.7724999999999
 31
0.0
  0
LINE
  5
69B
330
1E
100
AcDbEntity
  8
0
100
AcDbLine
 10
14.9
 20
129.6725
 30
0.0
 11
16.8
 21
131.2724999999999
 31
0.0
  0
LINE
  5
69C
330
1E
100
AcDbEntity
  8
0
100
AcDbLine
 10
13.3
 20
127.7724999999999
 30
0.0
 11
14.9
 21
129.6725
 31
0.0
  0
LINE
  5
69D
330
1E
100
AcDbEntity
  8
0
100
AcDbLine
 10
16.0
 20
128.5725
 30
0.0
 11
17.7
 21
130.0724999999999
 31
0.0
  0
LINE
  5
69E
330
1E
100
AcDbEntity
  8
0
100
AcDbLine
 10
20.89999999999999
 20
133.6725
 30
0.0
 11
23.19999999999999
 21
134.3725
 31
0.0
  0
LINE
  5
69F
330
1E
100
AcDbEntity
  8
0
100
AcDbLine
 10
23.19999999999999
 20
134.3725
 30
0.0
 11
25.6
 21
134.8724999999999
 31
0.0
  0
LINE
  5
6A0
330
1E
100
AcDbEntity
  8
0
100
AcDbLine
 10
25.6
 20
134.8724999999999
 30
0.0
 11
28.0
 21
135.0724999999999
 31
0.0
  0
LINE
  5
6A1
330
1E
100
AcDbEntity
  8
0
  6
Continuous
100
AcDbLine
 10
22.57689999999999
 20
129.7305
 30
0.0
 11
24.15260316961598
 21
130.1365614529019
 31
0.0
  0
LINE
  5
6A2
330
1E
100
AcDbEntity
  8
0
100
AcDbLine
 10
21.49999999999999
 20
132.2724999999999
 30
0.0
 11
23.6
 21
132.9725
 31
0.0
  0
LINE
  5
6A3
330
1E
100
AcDbEntity
  8
0
100
AcDbLine
 10
18.8
 20
132.5725
 30
0.0
 11
20.89999999999999
 21
133.6725
 31
0.0
  0
LINE
  5
6A4
330
1E
100
AcDbEntity
  8
0
100
AcDbLine
 10
19.5
 20
131.2724999999999
 30
0.0
 11
21.49999999999999
 21
132.2724999999999
 31
0.0
  0
LINE
  5
6A5
330
1E
100
AcDbEntity
  8
0
100
AcDbLine
 10
19.3763
 20
127.8634999999999
 30
0.0
 11
20.88769999999999
 21
128.9304999999999
 31
0.0
  0
LINE
  5
6A6
330
1E
100
AcDbEntity
  8
0
100
AcDbLine
 10
20.88769999999999
 20
128.9304999999999
 30
0.0
 11
22.57689999999999
 21
129.7305
 31
0.0
  0
LINE
  5
6A7
330
1E
100
AcDbEntity
  8
0
100
AcDbLine
 10
23.6
 20
132.9725
 30
0.0
 11
25.8
 21
133.3725
 31
0.0
  0
LINE
  5
6A8
330
1E
100
AcDbEntity
  8
0
100
AcDbLine
 10
25.8
 20
133.3725
 30
0.0
 11
28.0
 21
133.5724999999999
 31
0.0
  0
LINE
  5
6A9
330
1E
100
AcDbEntity
  8
0
  6
Continuous
100
AcDbLine
 10
24.15260316961598
 20
130.1365614529019
 30
0.0
 11
26.159318311996
 21
130.4708186462727
 31
0.0
  0
LINE
  5
6AA
330
1E
100
AcDbEntity
  8
0
  6
Continuous
100
AcDbLine
 10
26.159318311996
 20
130.4708186462727
 30
0.0
 11
28.0
 21
130.6599999999999
 31
0.0
  0
LINE
  5
6AB
330
1E
100
AcDbEntity
  8
0
  6
Continuous
100
AcDbLine
 10
14.8422
 20
121.9954999999999
 30
0.0
 11
14.31412425381791
 21
120.3595341243642
 31
0.0
  0
LINE
  5
6AC
330
1E
100
AcDbEntity
  8
0
100
AcDbLine
 10
9.699999999999999
 20
118.9724999999999
 30
0.0
 11
10.2
 21
121.3724999999999
 31
0.0
  0
LINE
  5
6AD
330
1E
100
AcDbEntity
  8
0
100
AcDbLine
 10
11.59999999999999
 20
120.9724999999999
 30
0.0
 11
12.3
 21
123.0724999999999
 31
0.0
  0
LINE
  5
6AE
330
1E
100
AcDbEntity
  8
0
100
AcDbLine
 10
12.3
 20
123.0724999999999
 30
0.0
 11
13.3
 21
125.0724999999999
 31
0.0
  0
LINE
  5
6AF
330
1E
100
AcDbEntity
  8
0
100
AcDbLine
 10
10.9
 20
123.6725
 30
0.0
 11
12.0
 21
125.7724999999999
 31
0.0
  0
LINE
  5
6B0
330
1E
100
AcDbEntity
  8
0
100
AcDbLine
 10
10.2
 20
121.3724999999999
 30
0.0
 11
10.9
 21
123.6725
 31
0.0
  0
LINE
  5
6B1
330
1E
100
AcDbEntity
  8
0
100
AcDbLine
 10
15.6424
 20
123.6844999999999
 30
0.0
 11
16.70919999999999
 21
125.1964999999999
 31
0.0
  0
LINE
  5
6B2
330
1E
100
AcDbEntity
  8
0
100
AcDbLine
 10
13.3
 20
125.0724999999999
 30
0.0
 11
14.5
 21
126.8725
 31
0.0
  0
LINE
  5
6B3
330
1E
100
AcDbEntity
  8
0
100
AcDbLine
 10
16.70919999999999
 20
125.1964999999999
 30
0.0
 11
17.9539
 21
126.6184999999999
 31
0.0
  0
LINE
  5
6B4
330
1E
100
AcDbEntity
  8
0
100
AcDbLine
 10
14.8422
 20
121.9954999999999
 30
0.0
 11
15.6424
 21
123.6844999999999
 31
0.0
  0
LINE
  5
6B5
330
1E
100
AcDbEntity
  8
0
100
AcDbLine
 10
9.5
 20
116.5724999999999
 30
0.0
 11
9.699999999999999
 21
118.9724999999999
 31
0.0
  0
LINE
  5
6B6
330
1E
100
AcDbEntity
  8
0
100
AcDbLine
 10
11.0
 20
116.5724999999999
 30
0.0
 11
11.19999999999999
 21
118.7724999999999
 31
0.0
  0
LINE
  5
6B7
330
1E
100
AcDbEntity
  8
0
100
AcDbLine
 10
11.19999999999999
 20
118.7724999999999
 30
0.0
 11
11.59999999999999
 21
120.9724999999999
 31
0.0
  0
LINE
  5
6B8
330
1E
100
AcDbEntity
  8
0
  6
Continuous
100
AcDbLine
 10
13.86818738209603
 20
118.3818451970514
 30
0.0
 11
13.64
 21
116.66
 31
0.0
  0
LINE
  5
6B9
330
1E
100
AcDbEntity
  8
0
  6
Continuous
100
AcDbLine
 10
14.31412425381791
 20
120.3595341243642
 30
0.0
 11
13.86818738209603
 21
118.3818451970514
 31
0.0
  0
LINE
  5
6BA
330
1E
100
AcDbEntity
  8
0
  6
Continuous
100
AcDbLine
 10
29.840681688004
 20
130.4708186462727
 30
0.0
 11
28.0
 21
130.6599999999999
 31
0.0
  0
LINE
  5
6BB
330
1E
100
AcDbEntity
  8
0
100
AcDbLine
 10
41.1
 20
129.6725
 30
0.0
 11
39.2
 21
131.2724999999999
 31
0.0
  0
LINE
  5
6BC
330
1E
100
AcDbEntity
  8
0
100
AcDbLine
 10
38.3
 20
130.0724999999999
 30
0.0
 11
36.5
 21
131.2724999999999
 31
0.0
  0
LINE
  5
6BD
330
1E
100
AcDbEntity
  8
0
100
AcDbLine
 10
52.3
 20
130.4724999999999
 30
0.0
 11
50.2
 21
133.5724999999999
 31
0.0
  0
LINE
  5
6BE
330
1E
100
AcDbEntity
  8
0
100
AcDbLine
 10
50.2
 20
99.58750000000001
 30
0.0
 11
47.8
 21
96.7875
 31
0.0
  0
LINE
  5
6BF
330
1E
100
AcDbEntity
  8
0
100
AcDbLine
 10
50.2
 20
99.58750000000001
 30
0.0
 11
47.8
 21
96.7875
 31
0.0
  0
LINE
  5
6C0
330
1E
100
AcDbEntity
  8
0
100
AcDbLine
 10
53.79999999999999
 20
105.8875
 30
0.0
 11
52.3
 21
102.6874999999999
 31
0.0
  0
LINE
  5
6C1
330
1E
100
AcDbEntity
  8
0
100
AcDbLine
 10
52.3
 20
102.6874999999999
 30
0.0
 11
50.2
 21
99.58750000000001
 31
0.0
  0
LINE
  5
6C2
330
1E
100
AcDbEntity
  8
0
100
AcDbLine
 10
56.0
 20
116.5724999999999
 30
0.0
 11
55.7
 21
120.3725
 31
0.0
  0
LINE
  5
6C3
330
1E
100
AcDbEntity
  8
0
100
AcDbLine
 10
55.7
 20
112.7874999999999
 30
0.0
 11
55.0
 21
109.3875
 31
0.0
  0
LINE
  5
6C4
330
1E
100
AcDbEntity
  8
0
100
AcDbLine
 10
55.0
 20
109.3875
 30
0.0
 11
53.79999999999999
 21
105.8875
 31
0.0
  0
LINE
  5
6C5
330
1E
100
AcDbEntity
  8
0
100
AcDbLine
 10
56.0
 20
116.5874999999999
 30
0.0
 11
55.7
 21
112.7874999999999
 31
0.0
  0
LINE
  5
6C6
330
1E
100
AcDbEntity
  8
0
100
AcDbLine
 10
55.0
 20
123.7724999999999
 30
0.0
 11
53.79999999999999
 21
127.2724999999999
 31
0.0
  0
LINE
  5
6C7
330
1E
100
AcDbEntity
  8
0
100
AcDbLine
 10
55.7
 20
120.3725
 30
0.0
 11
55.0
 21
123.7724999999999
 31
0.0
  0
LINE
  5
6C8
330
1E
100
AcDbEntity
  8
0
100
AcDbLine
 10
53.79999999999999
 20
127.2724999999999
 30
0.0
 11
52.3
 21
130.4724999999999
 31
0.0
  0
LINE
  5
6C9
330
1E
100
AcDbEntity
  8
0
100
AcDbLine
 10
38.04609999999999
 20
106.5415
 30
0.0
 11
36.6237
 21
105.2964999999999
 31
0.0
  0
LINE
  5
6CA
330
1E
100
AcDbEntity
  8
0
100
AcDbLine
 10
44.0
 20
107.3875
 30
0.0
 11
42.7
 21
105.3875
 31
0.0
  0
LINE
  5
6CB
330
1E
100
AcDbEntity
  8
0
100
AcDbLine
 10
41.5
 20
106.2875
 30
0.0
 11
40.0
 21
104.5875
 31
0.0
  0
LINE
  5
6CC
330
1E
100
AcDbEntity
  8
0
100
AcDbLine
 10
45.0
 20
94.3875
 30
0.0
 11
41.9
 21
92.28749999999999
 31
0.0
  0
LINE
  5
6CD
330
1E
100
AcDbEntity
  8
0
100
AcDbLine
 10
38.7
 20
90.78749999999999
 30
0.0
 11
35.2
 21
89.5875
 31
0.0
  0
LINE
  5
6CE
330
1E
100
AcDbEntity
  8
0
100
AcDbLine
 10
41.9
 20
92.28749999999999
 30
0.0
 11
38.7
 21
90.78749999999999
 31
0.0
  0
LINE
  5
6CF
330
1E
100
AcDbEntity
  8
0
100
AcDbLine
 10
35.2
 20
89.5875
 30
0.0
 11
31.8
 21
88.88749999999999
 31
0.0
  0
LINE
  5
6D0
330
1E
100
AcDbEntity
  8
0
100
AcDbLine
 10
31.8
 20
88.88749999999999
 30
0.0
 11
28.0
 21
88.5875
 31
0.0
  0
LINE
  5
6D1
330
1E
100
AcDbEntity
  8
0
100
AcDbLine
 10
38.3
 20
103.0874999999999
 30
0.0
 11
36.5
 21
101.8874999999999
 31
0.0
  0
LINE
  5
6D2
330
1E
100
AcDbEntity
  8
0
100
AcDbLine
 10
39.2
 20
101.8874999999999
 30
0.0
 11
37.2
 21
100.5875
 31
0.0
  0
LINE
  5
6D3
330
1E
100
AcDbEntity
  8
0
100
AcDbLine
 10
47.8
 20
96.7875
 30
0.0
 11
45.0
 21
94.3875
 31
0.0
  0
LINE
  5
6D4
330
1E
100
AcDbEntity
  8
0
100
AcDbLine
 10
41.1
 20
103.4874999999999
 30
0.0
 11
39.2
 21
101.8874999999999
 31
0.0
  0
LINE
  5
6D5
330
1E
100
AcDbEntity
  8
0
100
AcDbLine
 10
42.7
 20
105.3875
 30
0.0
 11
41.1
 21
103.4874999999999
 31
0.0
  0
LINE
  5
6D6
330
1E
100
AcDbEntity
  8
0
100
AcDbLine
 10
40.0
 20
104.5875
 30
0.0
 11
38.3
 21
103.0874999999999
 31
0.0
  0
LINE
  5
6D7
330
1E
100
AcDbEntity
  8
0
100
AcDbLine
 10
35.1
 20
99.4875
 30
0.0
 11
32.79999999999999
 21
98.7875
 31
0.0
  0
LINE
  5
6D8
330
1E
100
AcDbEntity
  8
0
100
AcDbLine
 10
32.79999999999999
 20
98.7875
 30
0.0
 11
30.4
 21
98.28749999999999
 31
0.0
  0
LINE
  5
6D9
330
1E
100
AcDbEntity
  8
0
100
AcDbLine
 10
30.4
 20
98.28749999999999
 30
0.0
 11
28.0
 21
98.08750000000001
 31
0.0
  0
LINE
  5
6DA
330
1E
100
AcDbEntity
  8
0
  6
Continuous
100
AcDbLine
 10
33.4231
 20
103.4294999999999
 30
0.0
 11
31.84739683038401
 21
103.023438547098
 31
0.0
  0
LINE
  5
6DB
330
1E
100
AcDbEntity
  8
0
100
AcDbLine
 10
34.5
 20
100.8874999999999
 30
0.0
 11
32.4
 21
100.1875
 31
0.0
  0
LINE
  5
6DC
330
1E
100
AcDbEntity
  8
0
100
AcDbLine
 10
37.2
 20
100.5875
 30
0.0
 11
35.1
 21
99.4875
 31
0.0
  0
LINE
  5
6DD
330
1E
100
AcDbEntity
  8
0
100
AcDbLine
 10
36.5
 20
101.8874999999999
 30
0.0
 11
34.5
 21
100.8874999999999
 31
0.0
  0
LINE
  5
6DE
330
1E
100
AcDbEntity
  8
0
100
AcDbLine
 10
36.6237
 20
105.2964999999999
 30
0.0
 11
35.1123
 21
104.2294999999999
 31
0.0
  0
LINE
  5
6DF
330
1E
100
AcDbEntity
  8
0
100
AcDbLine
 10
35.1123
 20
104.2294999999999
 30
0.0
 11
33.4231
 21
103.4294999999999
 31
0.0
  0
LINE
  5
6E0
330
1E
100
AcDbEntity
  8
0
100
AcDbLine
 10
32.4
 20
100.1875
 30
0.0
 11
30.2
 21
99.78749999999999
 31
0.0
  0
LINE
  5
6E1
330
1E
100
AcDbEntity
  8
0
100
AcDbLine
 10
30.2
 20
99.78749999999999
 30
0.0
 11
28.0
 21
99.58750000000001
 31
0.0
  0
LINE
  5
6E2
330
1E
100
AcDbEntity
  8
0
  6
Continuous
100
AcDbLine
 10
31.84739683038401
 20
103.023438547098
 30
0.0
 11
29.840681688004
 21
102.6891813537272
 31
0.0
  0
LINE
  5
6E3
330
1E
100
AcDbEntity
  8
0
  6
Continuous
100
AcDbLine
 10
29.840681688004
 20
102.6891813537272
 30
0.0
 11
28.0
 21
102.4999999999999
 31
0.0
  0
LINE
  5
6E4
330
1E
100
AcDbEntity
  8
0
  6
Continuous
100
AcDbLine
 10
42.13181261790396
 20
118.3818451970514
 30
0.0
 11
42.35999999999999
 21
116.66
 31
0.0
  0
LINE
  5
6E5
330
1E
100
AcDbEntity
  8
0
100
AcDbLine
 10
45.0
 20
116.5724999999999
 30
0.0
 11
44.79999999999999
 21
118.7724999999999
 31
0.0
  0
LINE
  5
6E6
330
1E
100
AcDbEntity
  8
0
100
AcDbLine
 10
46.5
 20
116.5724999999999
 30
0.0
 11
46.29999999999999
 21
118.9724999999999
 31
0.0
  0
LINE
  5
6E7
330
1E
100
AcDbEntity
  8
0
  6
Continuous
100
AcDbLine
 10
41.15779999999999
 20
111.1644999999999
 30
0.0
 11
41.68587574618209
 21
112.8004658756357
 31
0.0
  0
LINE
  5
6E8
330
1E
100
AcDbEntity
  8
0
100
AcDbLine
 10
46.29999999999999
 20
114.1874999999999
 30
0.0
 11
45.8
 21
111.7874999999999
 31
0.0
  0
LINE
  5
6E9
330
1E
100
AcDbEntity
  8
0
100
AcDbLine
 10
44.4
 20
112.1874999999999
 30
0.0
 11
43.7
 21
110.0875
 31
0.0
  0
LINE
  5
6EA
330
1E
100
AcDbEntity
  8
0
100
AcDbLine
 10
43.7
 20
110.0875
 30
0.0
 11
42.7
 21
108.0875
 31
0.0
  0
LINE
  5
6EB
330
1E
100
AcDbEntity
  8
0
100
AcDbLine
 10
45.1
 20
109.4875
 30
0.0
 11
44.0
 21
107.3875
 31
0.0
  0
LINE
  5
6EC
330
1E
100
AcDbEntity
  8
0
100
AcDbLine
 10
45.8
 20
111.7874999999999
 30
0.0
 11
45.1
 21
109.4875
 31
0.0
  0
LINE
  5
6ED
330
1E
100
AcDbEntity
  8
0
100
AcDbLine
 10
40.35759999999999
 20
109.4754999999999
 30
0.0
 11
39.2908
 21
107.9634999999999
 31
0.0
  0
LINE
  5
6EE
330
1E
100
AcDbEntity
  8
0
100
AcDbLine
 10
42.7
 20
108.0875
 30
0.0
 11
41.5
 21
106.2875
 31
0.0
  0
LINE
  5
6EF
330
1E
100
AcDbEntity
  8
0
100
AcDbLine
 10
39.2908
 20
107.9634999999999
 30
0.0
 11
38.04609999999999
 21
106.5415
 31
0.0
  0
LINE
  5
6F0
330
1E
100
AcDbEntity
  8
0
100
AcDbLine
 10
41.15779999999999
 20
111.1644999999999
 30
0.0
 11
40.35759999999999
 21
109.4754999999999
 31
0.0
  0
LINE
  5
6F1
330
1E
100
AcDbEntity
  8
0
100
AcDbLine
 10
46.5
 20
116.5874999999999
 30
0.0
 11
46.29999999999999
 21
114.1874999999999
 31
0.0
  0
LINE
  5
6F2
330
1E
100
AcDbEntity
  8
0
100
AcDbLine
 10
45.0
 20
116.5874999999999
 30
0.0
 11
44.79999999999999
 21
114.3874999999999
 31
0.0
  0
LINE
  5
6F3
330
1E
100
AcDbEntity
  8
0
100
AcDbLine
 10
44.79999999999999
 20
114.3874999999999
 30
0.0
 11
44.4
 21
112.1874999999999
 31
0.0
  0
LINE
  5
6F4
330
1E
100
AcDbEntity
  8
0
  6
Continuous
100
AcDbLine
 10
42.13181261790396
 20
114.7781548029485
 30
0.0
 11
42.35999999999999
 21
116.5
 31
0.0
  0
LINE
  5
6F5
330
1E
100
AcDbEntity
  8
0
  6
Continuous
100
AcDbLine
 10
41.68587574618209
 20
112.8004658756357
 30
0.0
 11
42.13181261790396
 21
114.7781548029485
 31
0.0
  0
LINE
  5
6F6
330
1E
100
AcDbEntity
  8
0
100
AcDbLine
 10
38.04609999999999
 20
126.6184999999999
 30
0.0
 11
36.6237
 21
127.8634999999999
 31
0.0
  0
LINE
  5
6F7
330
1E
100
AcDbEntity
  8
0
100
AcDbLine
 10
40.35759999999999
 20
123.6844999999999
 30
0.0
 11
39.2908
 21
125.1964999999999
 31
0.0
  0
LINE
  5
6F8
330
1E
100
AcDbEntity
  8
0
100
AcDbLine
 10
45.1
 20
123.6725
 30
0.0
 11
44.0
 21
125.7724999999999
 31
0.0
  0
LINE
  5
6F9
330
1E
100
AcDbEntity
  8
0
100
AcDbLine
 10
43.7
 20
123.0724999999999
 30
0.0
 11
42.7
 21
125.0724999999999
 31
0.0
  0
LINE
  5
6FA
330
1E
100
AcDbEntity
  8
0
100
AcDbLine
 10
44.4
 20
120.9724999999999
 30
0.0
 11
43.7
 21
123.0724999999999
 31
0.0
  0
LINE
  5
6FB
330
1E
100
AcDbEntity
  8
0
100
AcDbLine
 10
46.29999999999999
 20
118.9724999999999
 30
0.0
 11
45.8
 21
121.3724999999999
 31
0.0
  0
LINE
  5
6FC
330
1E
100
AcDbEntity
  8
0
100
AcDbLine
 10
44.79999999999999
 20
118.7724999999999
 30
0.0
 11
44.4
 21
120.9724999999999
 31
0.0
  0
LINE
  5
6FD
330
1E
100
AcDbEntity
  8
0
100
AcDbLine
 10
45.8
 20
121.3724999999999
 30
0.0
 11
45.1
 21
123.6725
 31
0.0
  0
LINE
  5
6FE
330
1E
100
AcDbEntity
  8
0
  6
Continuous
100
AcDbLine
 10
41.15779999999999
 20
121.9954999999999
 30
0.0
 11
41.68587574618209
 21
120.3595341243642
 31
0.0
  0
LINE
  5
6FF
330
1E
100
AcDbEntity
  8
0
  6
Continuous
100
AcDbLine
 10
41.68587574618209
 20
120.3595341243642
 30
0.0
 11
42.13181261790396
 21
118.3818451970514
 31
0.0
  0
LINE
  5
700
330
1E
100
AcDbEntity
  8
0
100
AcDbLine
 10
41.15779999999999
 20
121.9954999999999
 30
0.0
 11
40.35759999999999
 21
123.6844999999999
 31
0.0
  0
LINE
  5
701
330
1E
100
AcDbEntity
  8
0
100
AcDbLine
 10
44.0
 20
125.7724999999999
 30
0.0
 11
42.7
 21
127.7724999999999
 31
0.0
  0
LINE
  5
702
330
1E
100
AcDbEntity
  8
0
100
AcDbLine
 10
41.5
 20
126.8725
 30
0.0
 11
40.0
 21
128.5725
 31
0.0
  0
LINE
  5
703
330
1E
100
AcDbEntity
  8
0
100
AcDbLine
 10
42.7
 20
125.0724999999999
 30
0.0
 11
41.5
 21
126.8725
 31
0.0
  0
LINE
  5
704
330
1E
100
AcDbEntity
  8
0
100
AcDbLine
 10
39.2908
 20
125.1964999999999
 30
0.0
 11
38.04609999999999
 21
126.6184999999999
 31
0.0
  0
LINE
  5
705
330
1E
100
AcDbEntity
  8
0
100
AcDbLine
 10
42.7
 20
127.7724999999999
 30
0.0
 11
41.1
 21
129.6725
 31
0.0
  0
LINE
  5
706
330
1E
100
AcDbEntity
  8
0
100
AcDbLine
 10
40.0
 20
128.5725
 30
0.0
 11
38.3
 21
130.0724999999999
 31
0.0
  0
LINE
  5
707
330
1E
100
AcDbEntity
  8
0
  6
Continuous
100
AcDbLine
 10
33.4231
 20
129.7305
 30
0.0
 11
31.84739683038401
 21
130.1365614529019
 31
0.0
  0
LINE
  5
708
330
1E
100
AcDbEntity
  8
0
100
AcDbLine
 10
36.6237
 20
127.8634999999999
 30
0.0
 11
35.1123
 21
128.9304999999999
 31
0.0
  0
LINE
  5
709
330
1E
100
AcDbEntity
  8
0
100
AcDbLine
 10
35.1123
 20
128.9304999999999
 30
0.0
 11
33.4231
 21
129.7305
 31
0.0
  0
LINE
  5
70A
330
1E
100
AcDbEntity
  8
0
  6
Continuous
100
AcDbLine
 10
31.84739683038401
 20
130.1365614529019
 30
0.0
 11
29.840681688004
 21
130.4708186462727
 31
0.0
  0
LINE
  5
70B
330
1E
100
AcDbEntity
  8
0
100
AcDbLine
 10
50.2
 20
133.5724999999999
 30
0.0
 11
47.8
 21
136.3725
 31
0.0
  0
LINE
  5
70C
330
1E
100
AcDbEntity
  8
0
100
AcDbLine
 10
50.2
 20
133.5724999999999
 30
0.0
 11
47.8
 21
136.3725
 31
0.0
  0
LINE
  5
70D
330
1E
100
AcDbEntity
  8
0
100
AcDbLine
 10
38.7
 20
142.3725
 30
0.0
 11
35.2
 21
143.5724999999999
 31
0.0
  0
LINE
  5
70E
330
1E
100
AcDbEntity
  8
0
100
AcDbLine
 10
39.2
 20
131.2724999999999
 30
0.0
 11
37.2
 21
132.5725
 31
0.0
  0
LINE
  5
70F
330
1E
100
AcDbEntity
  8
0
100
AcDbLine
 10
47.8
 20
136.3725
 30
0.0
 11
45.0
 21
138.7724999999999
 31
0.0
  0
LINE
  5
710
330
1E
100
AcDbEntity
  8
0
100
AcDbLine
 10
45.0
 20
138.7724999999999
 30
0.0
 11
41.9
 21
140.8725
 31
0.0
  0
LINE
  5
711
330
1E
100
AcDbEntity
  8
0
100
AcDbLine
 10
41.9
 20
140.8725
 30
0.0
 11
38.7
 21
142.3725
 31
0.0
  0
LINE
  5
712
330
1E
100
AcDbEntity
  8
0
100
AcDbLine
 10
34.5
 20
132.2724999999999
 30
0.0
 11
32.4
 21
132.9725
 31
0.0
  0
LINE
  5
713
330
1E
100
AcDbEntity
  8
0
100
AcDbLine
 10
35.1
 20
133.6725
 30
0.0
 11
32.79999999999999
 21
134.3725
 31
0.0
  0
LINE
  5
714
330
1E
100
AcDbEntity
  8
0
100
AcDbLine
 10
36.5
 20
131.2724999999999
 30
0.0
 11
34.5
 21
132.2724999999999
 31
0.0
  0
LINE
  5
715
330
1E
100
AcDbEntity
  8
0
100
AcDbLine
 10
37.2
 20
132.5725
 30
0.0
 11
35.1
 21
133.6725
 31
0.0
  0
LINE
  5
716
330
1E
100
AcDbEntity
  8
0
100
AcDbLine
 10
32.4
 20
132.9725
 30
0.0
 11
30.2
 21
133.3725
 31
0.0
  0
LINE
  5
717
330
1E
100
AcDbEntity
  8
0
100
AcDbLine
 10
30.2
 20
133.3725
 30
0.0
 11
28.0
 21
133.5724999999999
 31
0.0
  0
LINE
  5
718
330
1E
100
AcDbEntity
  8
0
100
AcDbLine
 10
32.79999999999999
 20
134.3725
 30
0.0
 11
30.4
 21
134.8724999999999
 31
0.0
  0
LINE
  5
719
330
1E
100
AcDbEntity
  8
0
100
AcDbLine
 10
30.4
 20
134.8724999999999
 30
0.0
 11
28.0
 21
135.0724999999999
 31
0.0
  0
LINE
  5
71A
330
1E
100
AcDbEntity
  8
0
100
AcDbLine
 10
35.2
 20
143.5724999999999
 30
0.0
 11
31.8
 21
144.2724999999999
 31
0.0
  0
LINE
  5
71B
330
1E
100
AcDbEntity
  8
0
100
AcDbLine
 10
31.8
 20
144.2724999999999
 30
0.0
 11
28.0
 21
144.5724999999999
 31
0.0
  0
LINE
  5
71C
330
1E
100
AcDbEntity
  8
0
  6
Continuous
100
AcDbLine
 10
115.5455273920699
 20
27.3136255250049
 30
0.0
 11
116.9939999999999
 21
27.41649999999999
 31
0.0
  0
LINE
  5
71D
330
1E
100
AcDbEntity
  8
0
  6
Continuous
100
AcDbLine
 10
109.801
 20
115.8725
 30
0.0
 11
109.9329999999999
 21
114.1485
 31
0.0
  0
LINE
  5
71E
330
1E
100
AcDbEntity
  8
0
  6
Continuous
100
AcDbLine
 10
110.532
 20
111.5734999999999
 30
0.0
 11
111.0587123612067
 21
110.4079552836487
 31
0.0
  0
LINE
  5
71F
330
1E
100
AcDbEntity
  8
0
  6
Continuous
100
AcDbLine
 10
111.0587123612067
 20
110.4079552836487
 30
0.0
 11
111.4807231360809
 21
109.7433567339908
 31
0.0
  0
LINE
  5
720
330
1E
100
AcDbEntity
  8
0
  6
Continuous
100
AcDbLine
 10
110.6879999999999
 20
122.5125
 30
0.0
 11
112.2878886640416
 21
126.2288637445375
 31
0.0
  0
LINE
  5
721
330
1E
100
AcDbEntity
  8
0
  6
Continuous
100
AcDbLine
 10
112.2878886640416
 20
126.2288637445375
 30
0.0
 11
114.3535981009254
 21
129.251887714889
 31
0.0
  0
LINE
  5
722
330
1E
100
AcDbEntity
  8
0
  6
Continuous
100
AcDbLine
 10
114.3535981009254
 20
129.251887714889
 30
0.0
 11
116.4193083181777
 21
131.3163919999225
 31
0.0
  0
LINE
  5
724
330
1E
100
AcDbEntity
  8
0
  6
Continuous
100
AcDbLine
 10
116.4193083181777
 20
131.3163919999225
 30
0.0
 11
119.0752205627952
 21
133.0859672089164
 31
0.0
  0
LINE
  5
725
330
1E
100
AcDbEntity
  8
0
  6
Continuous
100
AcDbLine
 10
119.0752205627952
 20
133.0859672089164
 30
0.0
 11
122.1737858886736
 21
134.265683889453
 31
0.0
  0
LINE
  5
726
330
1E
100
AcDbEntity
  8
0
  6
Continuous
100
AcDbLine
 10
122.1737858886736
 20
134.265683889453
 30
0.0
 11
125.0212426921833
 21
134.9222599412794
 31
0.0
  0
LINE
  5
727
330
1E
100
AcDbEntity
  8
0
  6
Continuous
100
AcDbLine
 10
125.0212426921833
 20
134.9222599412794
 30
0.0
 11
126.6623544327627
 21
135.1370419492572
 31
0.0
  0
LINE
  5
728
330
1E
100
AcDbEntity
  8
0
  6
Continuous
100
AcDbLine
 10
126.6623544327627
 20
135.1370419492572
 30
0.0
 11
128.0690224193421
 21
135.1370419492572
 31
0.0
  0
LINE
  5
729
330
1E
100
AcDbEntity
  8
0
100
AcDbLine
 10
235.1999999999999
 20
143.5724999999999
 30
0.0
 11
231.8
 21
144.2724999999999
 31
0.0
  0
LINE
  5
72A
330
1E
100
AcDbEntity
  8
0
100
AcDbLine
 10
232.8
 20
134.3725
 30
0.0
 11
230.4
 21
134.8724999999999
 31
0.0
  0
LINE
  5
72B
330
1E
100
AcDbEntity
  8
0
100
AcDbLine
 10
232.4
 20
132.9725
 30
0.0
 11
230.2
 21
133.3725
 31
0.0
  0
LINE
  5
72C
330
1E
100
AcDbEntity
  8
0
  6
Continuous
100
AcDbLine
 10
233.4230999999999
 20
129.7305
 30
0.0
 11
231.847396830384
 21
130.1365614529019
 31
0.0
  0
LINE
  5
72D
330
1E
100
AcDbEntity
  8
0
100
AcDbLine
 10
232.4
 20
100.1875
 30
0.0
 11
230.2
 21
99.78749999999999
 31
0.0
  0
LINE
  5
72E
330
1E
100
AcDbEntity
  8
0
  6
Continuous
100
AcDbLine
 10
233.4230999999999
 20
103.4294999999999
 30
0.0
 11
231.847396830384
 21
103.023438547098
 31
0.0
  0
LINE
  5
72F
330
1E
100
AcDbEntity
  8
0
100
AcDbLine
 10
232.8
 20
98.7875
 30
0.0
 11
230.4
 21
98.28749999999999
 31
0.0
  0
LINE
  5
730
330
1E
100
AcDbEntity
  8
0
100
AcDbLine
 10
235.1999999999999
 20
89.5875
 30
0.0
 11
231.8
 21
88.88749999999999
 31
0.0
  0
LINE
  5
731
330
1E
100
AcDbEntity
  8
0
100
AcDbLine
 10
241.1
 20
129.6725
 30
0.0
 11
239.1999999999999
 21
131.2724999999999
 31
0.0
  0
LINE
  5
732
330
1E
100
AcDbEntity
  8
0
100
AcDbLine
 10
238.3
 20
130.0724999999999
 30
0.0
 11
236.5
 21
131.2724999999999
 31
0.0
  0
LINE
  5
733
330
1E
100
AcDbEntity
  8
0
100
AcDbLine
 10
252.3
 20
130.4724999999999
 30
0.0
 11
250.1999999999999
 21
133.5724999999999
 31
0.0
  0
LINE
  5
734
330
1E
100
AcDbEntity
  8
0
100
AcDbLine
 10
252.3
 20
102.6874999999999
 30
0.0
 11
250.1999999999999
 21
99.58750000000001
 31
0.0
  0
LINE
  5
735
330
1E
100
AcDbEntity
  8
0
100
AcDbLine
 10
253.8
 20
105.8875
 30
0.0
 11
252.3
 21
102.6874999999999
 31
0.0
  0
LINE
  5
736
330
1E
100
AcDbEntity
  8
0
100
AcDbLine
 10
256.0
 20
116.5724999999999
 30
0.0
 11
255.6999999999999
 21
120.3725
 31
0.0
  0
LINE
  5
737
330
1E
100
AcDbEntity
  8
0
100
AcDbLine
 10
255.6999999999999
 20
112.7874999999999
 30
0.0
 11
255.0
 21
109.3875
 31
0.0
  0
LINE
  5
738
330
1E
100
AcDbEntity
  8
0
100
AcDbLine
 10
255.0
 20
109.3875
 30
0.0
 11
253.8
 21
105.8875
 31
0.0
  0
LINE
  5
739
330
1E
100
AcDbEntity
  8
0
100
AcDbLine
 10
256.0
 20
116.5874999999999
 30
0.0
 11
255.6999999999999
 21
112.7874999999999
 31
0.0
  0
LINE
  5
73A
330
1E
100
AcDbEntity
  8
0
100
AcDbLine
 10
255.0
 20
123.7724999999999
 30
0.0
 11
253.8
 21
127.2724999999999
 31
0.0
  0
LINE
  5
73B
330
1E
100
AcDbEntity
  8
0
100
AcDbLine
 10
255.6999999999999
 20
120.3725
 30
0.0
 11
255.0
 21
123.7724999999999
 31
0.0
  0
LINE
  5
73C
330
1E
100
AcDbEntity
  8
0
100
AcDbLine
 10
253.8
 20
127.2724999999999
 30
0.0
 11
252.3
 21
130.4724999999999
 31
0.0
  0
LINE
  5
73D
330
1E
100
AcDbEntity
  8
0
100
AcDbLine
 10
238.0460999999999
 20
106.5415
 30
0.0
 11
236.6236999999999
 21
105.2964999999999
 31
0.0
  0
LINE
  5
73E
330
1E
100
AcDbEntity
  8
0
100
AcDbLine
 10
244.0
 20
107.3875
 30
0.0
 11
242.7
 21
105.3875
 31
0.0
  0
LINE
  5
73F
330
1E
100
AcDbEntity
  8
0
100
AcDbLine
 10
241.5
 20
106.2875
 30
0.0
 11
240.0
 21
104.5875
 31
0.0
  0
LINE
  5
740
330
1E
100
AcDbEntity
  8
0
100
AcDbLine
 10
242.7
 20
105.3875
 30
0.0
 11
241.1
 21
103.4874999999999
 31
0.0
  0
LINE
  5
741
330
1E
100
AcDbEntity
  8
0
100
AcDbLine
 10
245.0
 20
94.3875
 30
0.0
 11
241.9
 21
92.28749999999999
 31
0.0
  0
LINE
  5
742
330
1E
100
AcDbEntity
  8
0
100
AcDbLine
 10
247.8
 20
96.7875
 30
0.0
 11
245.0
 21
94.3875
 31
0.0
  0
LINE
  5
743
330
1E
100
AcDbEntity
  8
0
100
AcDbLine
 10
250.1999999999999
 20
99.58750000000001
 30
0.0
 11
247.8
 21
96.7875
 31
0.0
  0
LINE
  5
744
330
1E
100
AcDbEntity
  8
0
100
AcDbLine
 10
250.1999999999999
 20
99.58750000000001
 30
0.0
 11
247.8
 21
96.7875
 31
0.0
  0
LINE
  5
745
330
1E
100
AcDbEntity
  8
0
100
AcDbLine
 10
238.7
 20
90.78749999999999
 30
0.0
 11
235.1999999999999
 21
89.5875
 31
0.0
  0
LINE
  5
746
330
1E
100
AcDbEntity
  8
0
100
AcDbLine
 10
241.9
 20
92.28749999999999
 30
0.0
 11
238.7
 21
90.78749999999999
 31
0.0
  0
LINE
  5
747
330
1E
100
AcDbEntity
  8
0
100
AcDbLine
 10
237.1999999999999
 20
100.5875
 30
0.0
 11
235.0999999999999
 21
99.4875
 31
0.0
  0
LINE
  5
748
330
1E
100
AcDbEntity
  8
0
100
AcDbLine
 10
238.3
 20
103.0874999999999
 30
0.0
 11
236.5
 21
101.8874999999999
 31
0.0
  0
LINE
  5
749
330
1E
100
AcDbEntity
  8
0
100
AcDbLine
 10
240.0
 20
104.5875
 30
0.0
 11
238.3
 21
103.0874999999999
 31
0.0
  0
LINE
  5
74A
330
1E
100
AcDbEntity
  8
0
100
AcDbLine
 10
241.1
 20
103.4874999999999
 30
0.0
 11
239.1999999999999
 21
101.8874999999999
 31
0.0
  0
LINE
  5
74B
330
1E
100
AcDbEntity
  8
0
100
AcDbLine
 10
239.1999999999999
 20
101.8874999999999
 30
0.0
 11
237.1999999999999
 21
100.5875
 31
0.0
  0
LINE
  5
74C
330
1E
100
AcDbEntity
  8
0
100
AcDbLine
 10
235.0999999999999
 20
99.4875
 30
0.0
 11
232.8
 21
98.7875
 31
0.0
  0
LINE
  5
74D
330
1E
100
AcDbEntity
  8
0
100
AcDbLine
 10
235.1123
 20
104.2294999999999
 30
0.0
 11
233.4230999999999
 21
103.4294999999999
 31
0.0
  0
LINE
  5
74E
330
1E
100
AcDbEntity
  8
0
100
AcDbLine
 10
234.5
 20
100.8874999999999
 30
0.0
 11
232.4
 21
100.1875
 31
0.0
  0
LINE
  5
74F
330
1E
100
AcDbEntity
  8
0
100
AcDbLine
 10
236.5
 20
101.8874999999999
 30
0.0
 11
234.5
 21
100.8874999999999
 31
0.0
  0
LINE
  5
750
330
1E
100
AcDbEntity
  8
0
100
AcDbLine
 10
236.6236999999999
 20
105.2964999999999
 30
0.0
 11
235.1123
 21
104.2294999999999
 31
0.0
  0
LINE
  5
751
330
1E
100
AcDbEntity
  8
0
100
AcDbLine
 10
242.7
 20
127.7724999999999
 30
0.0
 11
241.1
 21
129.6725
 31
0.0
  0
LINE
  5
752
330
1E
100
AcDbEntity
  8
0
100
AcDbLine
 10
242.7
 20
125.0724999999999
 30
0.0
 11
241.5
 21
126.8725
 31
0.0
  0
LINE
  5
753
330
1E
100
AcDbEntity
  8
0
  6
Continuous
100
AcDbLine
 10
241.685875746182
 20
120.3595341243642
 30
0.0
 11
242.1318126179039
 21
118.3818451970514
 31
0.0
  0
LINE
  5
754
330
1E
100
AcDbEntity
  8
0
  6
Continuous
100
AcDbLine
 10
241.685875746182
 20
112.8004658756357
 30
0.0
 11
242.1318126179039
 21
114.7781548029485
 31
0.0
  0
LINE
  5
755
330
1E
100
AcDbEntity
  8
0
100
AcDbLine
 10
242.7
 20
108.0875
 30
0.0
 11
241.5
 21
106.2875
 31
0.0
  0
LINE
  5
756
330
1E
100
AcDbEntity
  8
0
  6
Continuous
100
AcDbLine
 10
242.1318126179039
 20
118.3818451970514
 30
0.0
 11
242.3599999999999
 21
116.66
 31
0.0
  0
LINE
  5
757
330
1E
100
AcDbEntity
  8
0
100
AcDbLine
 10
245.0
 20
116.5724999999999
 30
0.0
 11
244.7999999999999
 21
118.7724999999999
 31
0.0
  0
LINE
  5
758
330
1E
100
AcDbEntity
  8
0
100
AcDbLine
 10
246.4999999999999
 20
116.5724999999999
 30
0.0
 11
246.3
 21
118.9724999999999
 31
0.0
  0
LINE
  5
759
330
1E
100
AcDbEntity
  8
0
100
AcDbLine
 10
246.3
 20
114.1874999999999
 30
0.0
 11
245.8
 21
111.7874999999999
 31
0.0
  0
LINE
  5
75A
330
1E
100
AcDbEntity
  8
0
100
AcDbLine
 10
244.3999999999999
 20
112.1874999999999
 30
0.0
 11
243.6999999999999
 21
110.0875
 31
0.0
  0
LINE
  5
75B
330
1E
100
AcDbEntity
  8
0
100
AcDbLine
 10
245.1
 20
109.4875
 30
0.0
 11
244.0
 21
107.3875
 31
0.0
  0
LINE
  5
75C
330
1E
100
AcDbEntity
  8
0
100
AcDbLine
 10
245.8
 20
111.7874999999999
 30
0.0
 11
245.1
 21
109.4875
 31
0.0
  0
LINE
  5
75D
330
1E
100
AcDbEntity
  8
0
100
AcDbLine
 10
243.6999999999999
 20
110.0875
 30
0.0
 11
242.7
 21
108.0875
 31
0.0
  0
LINE
  5
75E
330
1E
100
AcDbEntity
  8
0
100
AcDbLine
 10
244.7999999999999
 20
114.3874999999999
 30
0.0
 11
244.3999999999999
 21
112.1874999999999
 31
0.0
  0
LINE
  5
75F
330
1E
100
AcDbEntity
  8
0
100
AcDbLine
 10
246.4999999999999
 20
116.5874999999999
 30
0.0
 11
246.3
 21
114.1874999999999
 31
0.0
  0
LINE
  5
760
330
1E
100
AcDbEntity
  8
0
100
AcDbLine
 10
245.0
 20
116.5874999999999
 30
0.0
 11
244.7999999999999
 21
114.3874999999999
 31
0.0
  0
LINE
  5
761
330
1E
100
AcDbEntity
  8
0
  6
Continuous
100
AcDbLine
 10
242.1318126179039
 20
114.7781548029485
 30
0.0
 11
242.3599999999999
 21
116.5
 31
0.0
  0
LINE
  5
762
330
1E
100
AcDbEntity
  8
0
100
AcDbLine
 10
245.1
 20
123.6725
 30
0.0
 11
244.0
 21
125.7724999999999
 31
0.0
  0
LINE
  5
763
330
1E
100
AcDbEntity
  8
0
100
AcDbLine
 10
243.6999999999999
 20
123.0724999999999
 30
0.0
 11
242.7
 21
125.0724999999999
 31
0.0
  0
LINE
  5
764
330
1E
100
AcDbEntity
  8
0
100
AcDbLine
 10
244.7999999999999
 20
118.7724999999999
 30
0.0
 11
244.3999999999999
 21
120.9724999999999
 31
0.0
  0
LINE
  5
765
330
1E
100
AcDbEntity
  8
0
100
AcDbLine
 10
246.3
 20
118.9724999999999
 30
0.0
 11
245.8
 21
121.3724999999999
 31
0.0
  0
LINE
  5
766
330
1E
100
AcDbEntity
  8
0
100
AcDbLine
 10
245.8
 20
121.3724999999999
 30
0.0
 11
245.1
 21
123.6725
 31
0.0
  0
LINE
  5
767
330
1E
100
AcDbEntity
  8
0
100
AcDbLine
 10
244.3999999999999
 20
120.9724999999999
 30
0.0
 11
243.6999999999999
 21
123.0724999999999
 31
0.0
  0
LINE
  5
768
330
1E
100
AcDbEntity
  8
0
100
AcDbLine
 10
244.0
 20
125.7724999999999
 30
0.0
 11
242.7
 21
127.7724999999999
 31
0.0
  0
LINE
  5
769
330
1E
100
AcDbEntity
  8
0
  6
Continuous
100
AcDbLine
 10
241.1577999999999
 20
111.1644999999999
 30
0.0
 11
241.685875746182
 21
112.8004658756357
 31
0.0
  0
LINE
  5
76A
330
1E
100
AcDbEntity
  8
0
100
AcDbLine
 10
240.3576
 20
109.4754999999999
 30
0.0
 11
239.2907999999999
 21
107.9634999999999
 31
0.0
  0
LINE
  5
76B
330
1E
100
AcDbEntity
  8
0
100
AcDbLine
 10
241.1577999999999
 20
111.1644999999999
 30
0.0
 11
240.3576
 21
109.4754999999999
 31
0.0
  0
LINE
  5
76C
330
1E
100
AcDbEntity
  8
0
100
AcDbLine
 10
239.2907999999999
 20
107.9634999999999
 30
0.0
 11
238.0460999999999
 21
106.5415
 31
0.0
  0
LINE
  5
76D
330
1E
100
AcDbEntity
  8
0
100
AcDbLine
 10
238.0460999999999
 20
126.6184999999999
 30
0.0
 11
236.6236999999999
 21
127.8634999999999
 31
0.0
  0
LINE
  5
76E
330
1E
100
AcDbEntity
  8
0
100
AcDbLine
 10
240.3576
 20
123.6844999999999
 30
0.0
 11
239.2907999999999
 21
125.1964999999999
 31
0.0
  0
LINE
  5
76F
330
1E
100
AcDbEntity
  8
0
  6
Continuous
100
AcDbLine
 10
241.1577999999999
 20
121.9954999999999
 30
0.0
 11
241.685875746182
 21
120.3595341243642
 31
0.0
  0
LINE
  5
770
330
1E
100
AcDbEntity
  8
0
100
AcDbLine
 10
241.1577999999999
 20
121.9954999999999
 30
0.0
 11
240.3576
 21
123.6844999999999
 31
0.0
  0
LINE
  5
771
330
1E
100
AcDbEntity
  8
0
100
AcDbLine
 10
240.0
 20
128.5725
 30
0.0
 11
238.3
 21
130.0724999999999
 31
0.0
  0
LINE
  5
772
330
1E
100
AcDbEntity
  8
0
100
AcDbLine
 10
241.5
 20
126.8725
 30
0.0
 11
240.0
 21
128.5725
 31
0.0
  0
LINE
  5
773
330
1E
100
AcDbEntity
  8
0
100
AcDbLine
 10
239.2907999999999
 20
125.1964999999999
 30
0.0
 11
238.0460999999999
 21
126.6184999999999
 31
0.0
  0
LINE
  5
774
330
1E
100
AcDbEntity
  8
0
100
AcDbLine
 10
235.1123
 20
128.9304999999999
 30
0.0
 11
233.4230999999999
 21
129.7305
 31
0.0
  0
LINE
  5
775
330
1E
100
AcDbEntity
  8
0
100
AcDbLine
 10
236.6236999999999
 20
127.8634999999999
 30
0.0
 11
235.1123
 21
128.9304999999999
 31
0.0
  0
LINE
  5
776
330
1E
100
AcDbEntity
  8
0
100
AcDbLine
 10
245.0
 20
138.7724999999999
 30
0.0
 11
241.9
 21
140.8725
 31
0.0
  0
LINE
  5
777
330
1E
100
AcDbEntity
  8
0
100
AcDbLine
 10
247.8
 20
136.3725
 30
0.0
 11
245.0
 21
138.7724999999999
 31
0.0
  0
LINE
  5
778
330
1E
100
AcDbEntity
  8
0
100
AcDbLine
 10
250.1999999999999
 20
133.5724999999999
 30
0.0
 11
247.8
 21
136.3725
 31
0.0
  0
LINE
  5
779
330
1E
100
AcDbEntity
  8
0
100
AcDbLine
 10
250.1999999999999
 20
133.5724999999999
 30
0.0
 11
247.8
 21
136.3725
 31
0.0
  0
LINE
  5
77A
330
1E
100
AcDbEntity
  8
0
100
AcDbLine
 10
238.7
 20
142.3725
 30
0.0
 11
235.1999999999999
 21
143.5724999999999
 31
0.0
  0
LINE
  5
77B
330
1E
100
AcDbEntity
  8
0
100
AcDbLine
 10
237.1999999999999
 20
132.5725
 30
0.0
 11
235.0999999999999
 21
133.6725
 31
0.0
  0
LINE
  5
77C
330
1E
100
AcDbEntity
  8
0
100
AcDbLine
 10
239.1999999999999
 20
131.2724999999999
 30
0.0
 11
237.1999999999999
 21
132.5725
 31
0.0
  0
LINE
  5
77D
330
1E
100
AcDbEntity
  8
0
100
AcDbLine
 10
241.9
 20
140.8725
 30
0.0
 11
238.7
 21
142.3725
 31
0.0
  0
LINE
  5
77E
330
1E
100
AcDbEntity
  8
0
100
AcDbLine
 10
234.5
 20
132.2724999999999
 30
0.0
 11
232.4
 21
132.9725
 31
0.0
  0
LINE
  5
77F
330
1E
100
AcDbEntity
  8
0
100
AcDbLine
 10
235.0999999999999
 20
133.6725
 30
0.0
 11
232.8
 21
134.3725
 31
0.0
  0
LINE
  5
780
330
1E
100
AcDbEntity
  8
0
100
AcDbLine
 10
236.5
 20
131.2724999999999
 30
0.0
 11
234.5
 21
132.2724999999999
 31
0.0
  0
LINE
  5
781
330
1E
100
AcDbEntity
  8
0
100
AcDbLine
 10
203.6999999999999
 20
130.4724999999999
 30
0.0
 11
205.8
 21
133.5724999999999
 31
0.0
  0
LINE
  5
782
330
1E
100
AcDbEntity
  8
0
100
AcDbLine
 10
217.7
 20
130.0724999999999
 30
0.0
 11
219.4999999999999
 21
131.2724999999999
 31
0.0
  0
LINE
  5
783
330
1E
100
AcDbEntity
  8
0
100
AcDbLine
 10
214.9
 20
129.6725
 30
0.0
 11
216.8
 21
131.2724999999999
 31
0.0
  0
LINE
  5
784
330
1E
100
AcDbEntity
  8
0
  6
Continuous
100
AcDbLine
 10
226.159318311996
 20
130.4708186462727
 30
0.0
 11
228.0
 21
130.6599999999999
 31
0.0
  0
LINE
  5
785
330
1E
100
AcDbEntity
  8
0
  6
Continuous
100
AcDbLine
 10
229.840681688004
 20
130.4708186462727
 30
0.0
 11
228.0
 21
130.6599999999999
 31
0.0
  0
LINE
  5
786
330
1E
100
AcDbEntity
  8
0
100
AcDbLine
 10
211.6
 20
120.9724999999999
 30
0.0
 11
212.3
 21
123.0724999999999
 31
0.0
  0
LINE
  5
787
330
1E
100
AcDbEntity
  8
0
100
AcDbLine
 10
210.8999999999999
 20
123.6725
 30
0.0
 11
212.0
 21
125.7724999999999
 31
0.0
  0
LINE
  5
788
330
1E
100
AcDbEntity
  8
0
100
AcDbLine
 10
210.8999999999999
 20
109.4875
 30
0.0
 11
212.0
 21
107.3875
 31
0.0
  0
LINE
  5
789
330
1E
100
AcDbEntity
  8
0
100
AcDbLine
 10
211.6
 20
112.1874999999999
 30
0.0
 11
212.3
 21
110.0875
 31
0.0
  0
LINE
  5
78A
330
1E
100
AcDbEntity
  8
0
100
AcDbLine
 10
211.0
 20
94.3875
 30
0.0
 11
214.1
 21
92.28749999999999
 31
0.0
  0
LINE
  5
78B
330
1E
100
AcDbEntity
  8
0
100
AcDbLine
 10
214.5
 20
106.2875
 30
0.0
 11
216.0
 21
104.5875
 31
0.0
  0
LINE
  5
78C
330
1E
100
AcDbEntity
  8
0
100
AcDbLine
 10
212.0
 20
107.3875
 30
0.0
 11
213.3
 21
105.3875
 31
0.0
  0
LINE
  5
78D
330
1E
100
AcDbEntity
  8
0
100
AcDbLine
 10
217.9539
 20
106.5415
 30
0.0
 11
219.3763
 21
105.2964999999999
 31
0.0
  0
LINE
  5
78E
330
1E
100
AcDbEntity
  8
0
100
AcDbLine
 10
220.8877
 20
104.2294999999999
 30
0.0
 11
222.5769
 21
103.4294999999999
 31
0.0
  0
LINE
  5
78F
330
1E
100
AcDbEntity
  8
0
100
AcDbLine
 10
221.4999999999999
 20
100.8874999999999
 30
0.0
 11
223.6
 21
100.1875
 31
0.0
  0
LINE
  5
790
330
1E
100
AcDbEntity
  8
0
100
AcDbLine
 10
220.9
 20
99.4875
 30
0.0
 11
223.1999999999999
 21
98.7875
 31
0.0
  0
LINE
  5
791
330
1E
100
AcDbEntity
  8
0
100
AcDbLine
 10
220.8
 20
89.5875
 30
0.0
 11
224.1999999999999
 21
88.88749999999999
 31
0.0
  0
LINE
  5
792
330
1E
100
AcDbEntity
  8
0
100
AcDbLine
 10
224.1999999999999
 20
88.88749999999999
 30
0.0
 11
228.0
 21
88.5875
 31
0.0
  0
LINE
  5
793
330
1E
100
AcDbEntity
  8
0
100
AcDbLine
 10
231.8
 20
88.88749999999999
 30
0.0
 11
228.0
 21
88.5875
 31
0.0
  0
LINE
  5
794
330
1E
100
AcDbEntity
  8
0
  6
Continuous
100
AcDbLine
 10
226.159318311996
 20
102.6891813537272
 30
0.0
 11
228.0
 21
102.4999999999999
 31
0.0
  0
LINE
  5
795
330
1E
100
AcDbEntity
  8
0
100
AcDbLine
 10
225.8
 20
99.78749999999999
 30
0.0
 11
228.0
 21
99.58750000000001
 31
0.0
  0
LINE
  5
796
330
1E
100
AcDbEntity
  8
0
100
AcDbLine
 10
225.5999999999999
 20
98.28749999999999
 30
0.0
 11
228.0
 21
98.08750000000001
 31
0.0
  0
LINE
  5
797
330
1E
100
AcDbEntity
  8
0
100
AcDbLine
 10
230.4
 20
98.28749999999999
 30
0.0
 11
228.0
 21
98.08750000000001
 31
0.0
  0
LINE
  5
798
330
1E
100
AcDbEntity
  8
0
  6
Continuous
100
AcDbLine
 10
229.840681688004
 20
102.6891813537272
 30
0.0
 11
228.0
 21
102.4999999999999
 31
0.0
  0
LINE
  5
799
330
1E
100
AcDbEntity
  8
0
100
AcDbLine
 10
230.2
 20
99.78749999999999
 30
0.0
 11
228.0
 21
99.58750000000001
 31
0.0
  0
LINE
  5
79A
330
1E
100
AcDbEntity
  8
0
  6
Continuous
100
AcDbLine
 10
231.847396830384
 20
103.023438547098
 30
0.0
 11
229.840681688004
 21
102.6891813537272
 31
0.0
  0
LINE
  5
79B
330
1E
100
AcDbEntity
  8
0
100
AcDbLine
 10
223.1999999999999
 20
98.7875
 30
0.0
 11
225.5999999999999
 21
98.28749999999999
 31
0.0
  0
LINE
  5
79C
330
1E
100
AcDbEntity
  8
0
  6
Continuous
100
AcDbLine
 10
224.1526031696159
 20
103.023438547098
 30
0.0
 11
226.159318311996
 21
102.6891813537272
 31
0.0
  0
LINE
  5
79D
330
1E
100
AcDbEntity
  8
0
100
AcDbLine
 10
223.6
 20
100.1875
 30
0.0
 11
225.8
 21
99.78749999999999
 31
0.0
  0
LINE
  5
79E
330
1E
100
AcDbEntity
  8
0
  6
Continuous
100
AcDbLine
 10
222.5769
 20
103.4294999999999
 30
0.0
 11
224.1526031696159
 21
103.023438547098
 31
0.0
  0
LINE
  5
79F
330
1E
100
AcDbEntity
  8
0
100
AcDbLine
 10
214.1
 20
92.28749999999999
 30
0.0
 11
217.3
 21
90.78749999999999
 31
0.0
  0
LINE
  5
7A0
330
1E
100
AcDbEntity
  8
0
100
AcDbLine
 10
217.3
 20
90.78749999999999
 30
0.0
 11
220.8
 21
89.5875
 31
0.0
  0
LINE
  5
7A1
330
1E
100
AcDbEntity
  8
0
100
AcDbLine
 10
216.0
 20
104.5875
 30
0.0
 11
217.7
 21
103.0874999999999
 31
0.0
  0
LINE
  5
7A2
330
1E
100
AcDbEntity
  8
0
100
AcDbLine
 10
216.8
 20
101.8874999999999
 30
0.0
 11
218.8
 21
100.5875
 31
0.0
  0
LINE
  5
7A3
330
1E
100
AcDbEntity
  8
0
100
AcDbLine
 10
219.3763
 20
105.2964999999999
 30
0.0
 11
220.8877
 21
104.2294999999999
 31
0.0
  0
LINE
  5
7A4
330
1E
100
AcDbEntity
  8
0
100
AcDbLine
 10
218.8
 20
100.5875
 30
0.0
 11
220.9
 21
99.4875
 31
0.0
  0
LINE
  5
7A5
330
1E
100
AcDbEntity
  8
0
100
AcDbLine
 10
217.7
 20
103.0874999999999
 30
0.0
 11
219.4999999999999
 21
101.8874999999999
 31
0.0
  0
LINE
  5
7A6
330
1E
100
AcDbEntity
  8
0
100
AcDbLine
 10
219.4999999999999
 20
101.8874999999999
 30
0.0
 11
221.4999999999999
 21
100.8874999999999
 31
0.0
  0
LINE
  5
7A7
330
1E
100
AcDbEntity
  8
0
100
AcDbLine
 10
213.3
 20
105.3875
 30
0.0
 11
214.9
 21
103.4874999999999
 31
0.0
  0
LINE
  5
7A8
330
1E
100
AcDbEntity
  8
0
100
AcDbLine
 10
214.9
 20
103.4874999999999
 30
0.0
 11
216.8
 21
101.8874999999999
 31
0.0
  0
LINE
  5
7A9
330
1E
100
AcDbEntity
  8
0
100
AcDbLine
 10
220.8877
 20
128.9304999999999
 30
0.0
 11
222.5769
 21
129.7305
 31
0.0
  0
LINE
  5
7AA
330
1E
100
AcDbEntity
  8
0
  6
Continuous
100
AcDbLine
 10
231.847396830384
 20
130.1365614529019
 30
0.0
 11
229.840681688004
 21
130.4708186462727
 31
0.0
  0
LINE
  5
7AB
330
1E
100
AcDbEntity
  8
0
  6
Continuous
100
AcDbLine
 10
224.1526031696159
 20
130.1365614529019
 30
0.0
 11
226.159318311996
 21
130.4708186462727
 31
0.0
  0
LINE
  5
7AC
330
1E
100
AcDbEntity
  8
0
  6
Continuous
100
AcDbLine
 10
222.5769
 20
129.7305
 30
0.0
 11
224.1526031696159
 21
130.1365614529019
 31
0.0
  0
LINE
  5
7AD
330
1E
100
AcDbEntity
  8
0
  6
Continuous
100
AcDbLine
 10
213.868187382096
 20
118.3818451970514
 30
0.0
 11
213.64
 21
116.66
 31
0.0
  0
LINE
  5
7AE
330
1E
100
AcDbEntity
  8
0
100
AcDbLine
 10
216.7092
 20
107.9634999999999
 30
0.0
 11
217.9539
 21
106.5415
 31
0.0
  0
LINE
  5
7AF
330
1E
100
AcDbEntity
  8
0
  6
Continuous
100
AcDbLine
 10
214.8422
 20
111.1644999999999
 30
0.0
 11
214.3141242538179
 21
112.8004658756357
 31
0.0
  0
LINE
  5
7B0
330
1E
100
AcDbEntity
  8
0
100
AcDbLine
 10
213.3
 20
108.0875
 30
0.0
 11
214.5
 21
106.2875
 31
0.0
  0
LINE
  5
7B1
330
1E
100
AcDbEntity
  8
0
100
AcDbLine
 10
215.6424
 20
109.4754999999999
 30
0.0
 11
216.7092
 21
107.9634999999999
 31
0.0
  0
LINE
  5
7B2
330
1E
100
AcDbEntity
  8
0
100
AcDbLine
 10
214.8422
 20
111.1644999999999
 30
0.0
 11
215.6424
 21
109.4754999999999
 31
0.0
  0
LINE
  5
7B3
330
1E
100
AcDbEntity
  8
0
100
AcDbLine
 10
212.3
 20
110.0875
 30
0.0
 11
213.3
 21
108.0875
 31
0.0
  0
LINE
  5
7B4
330
1E
100
AcDbEntity
  8
0
  6
Continuous
100
AcDbLine
 10
213.868187382096
 20
114.7781548029485
 30
0.0
 11
213.64
 21
116.5
 31
0.0
  0
LINE
  5
7B5
330
1E
100
AcDbEntity
  8
0
  6
Continuous
100
AcDbLine
 10
214.3141242538179
 20
112.8004658756357
 30
0.0
 11
213.868187382096
 21
114.7781548029485
 31
0.0
  0
LINE
  5
7B6
330
1E
100
AcDbEntity
  8
0
100
AcDbLine
 10
216.0
 20
128.5725
 30
0.0
 11
217.7
 21
130.0724999999999
 31
0.0
  0
LINE
  5
7B7
330
1E
100
AcDbEntity
  8
0
100
AcDbLine
 10
216.7092
 20
125.1964999999999
 30
0.0
 11
217.9539
 21
126.6184999999999
 31
0.0
  0
LINE
  5
7B8
330
1E
100
AcDbEntity
  8
0
100
AcDbLine
 10
219.3763
 20
127.8634999999999
 30
0.0
 11
220.8877
 21
128.9304999999999
 31
0.0
  0
LINE
  5
7B9
330
1E
100
AcDbEntity
  8
0
100
AcDbLine
 10
217.9539
 20
126.6184999999999
 30
0.0
 11
219.3763
 21
127.8634999999999
 31
0.0
  0
LINE
  5
7BA
330
1E
100
AcDbEntity
  8
0
100
AcDbLine
 10
212.3
 20
123.0724999999999
 30
0.0
 11
213.3
 21
125.0724999999999
 31
0.0
  0
LINE
  5
7BB
330
1E
100
AcDbEntity
  8
0
100
AcDbLine
 10
215.6424
 20
123.6844999999999
 30
0.0
 11
216.7092
 21
125.1964999999999
 31
0.0
  0
LINE
  5
7BC
330
1E
100
AcDbEntity
  8
0
  6
Continuous
100
AcDbLine
 10
214.8422
 20
121.9954999999999
 30
0.0
 11
214.3141242538179
 21
120.3595341243642
 31
0.0
  0
LINE
  5
7BD
330
1E
100
AcDbEntity
  8
0
100
AcDbLine
 10
214.8422
 20
121.9954999999999
 30
0.0
 11
215.6424
 21
123.6844999999999
 31
0.0
  0
LINE
  5
7BE
330
1E
100
AcDbEntity
  8
0
  6
Continuous
100
AcDbLine
 10
214.3141242538179
 20
120.3595341243642
 30
0.0
 11
213.868187382096
 21
118.3818451970514
 31
0.0
  0
LINE
  5
7BF
330
1E
100
AcDbEntity
  8
0
100
AcDbLine
 10
213.3
 20
127.7724999999999
 30
0.0
 11
214.9
 21
129.6725
 31
0.0
  0
LINE
  5
7C0
330
1E
100
AcDbEntity
  8
0
100
AcDbLine
 10
213.3
 20
125.0724999999999
 30
0.0
 11
214.5
 21
126.8725
 31
0.0
  0
LINE
  5
7C1
330
1E
100
AcDbEntity
  8
0
100
AcDbLine
 10
214.5
 20
126.8725
 30
0.0
 11
216.0
 21
128.5725
 31
0.0
  0
LINE
  5
7C2
330
1E
100
AcDbEntity
  8
0
100
AcDbLine
 10
212.0
 20
125.7724999999999
 30
0.0
 11
213.3
 21
127.7724999999999
 31
0.0
  0
LINE
  5
7C3
330
1E
100
AcDbEntity
  8
0
100
AcDbLine
 10
202.1999999999999
 20
105.8875
 30
0.0
 11
203.6999999999999
 21
102.6874999999999
 31
0.0
  0
LINE
  5
7C4
330
1E
100
AcDbEntity
  8
0
100
AcDbLine
 10
205.8
 20
99.58750000000001
 30
0.0
 11
208.1999999999999
 21
96.7875
 31
0.0
  0
LINE
  5
7C5
330
1E
100
AcDbEntity
  8
0
100
AcDbLine
 10
205.8
 20
99.58750000000001
 30
0.0
 11
208.1999999999999
 21
96.7875
 31
0.0
  0
LINE
  5
7C6
330
1E
100
AcDbEntity
  8
0
100
AcDbLine
 10
208.1999999999999
 20
96.7875
 30
0.0
 11
211.0
 21
94.3875
 31
0.0
  0
LINE
  5
7C7
330
1E
100
AcDbEntity
  8
0
100
AcDbLine
 10
203.6999999999999
 20
102.6874999999999
 30
0.0
 11
205.8
 21
99.58750000000001
 31
0.0
  0
LINE
  5
7C8
330
1E
100
AcDbEntity
  8
0
100
AcDbLine
 10
201.0
 20
123.7724999999999
 30
0.0
 11
202.1999999999999
 21
127.2724999999999
 31
0.0
  0
LINE
  5
7C9
330
1E
100
AcDbEntity
  8
0
100
AcDbLine
 10
201.0
 20
109.3875
 30
0.0
 11
202.1999999999999
 21
105.8875
 31
0.0
  0
LINE
  5
7CA
330
1E
100
AcDbEntity
  8
0
100
AcDbLine
 10
209.5
 20
116.5724999999999
 30
0.0
 11
209.6999999999999
 21
118.9724999999999
 31
0.0
  0
LINE
  5
7CB
330
1E
100
AcDbEntity
  8
0
100
AcDbLine
 10
211.0
 20
116.5724999999999
 30
0.0
 11
211.2
 21
118.7724999999999
 31
0.0
  0
LINE
  5
7CC
330
1E
100
AcDbEntity
  8
0
100
AcDbLine
 10
209.6999999999999
 20
114.1874999999999
 30
0.0
 11
210.1999999999999
 21
111.7874999999999
 31
0.0
  0
LINE
  5
7CD
330
1E
100
AcDbEntity
  8
0
100
AcDbLine
 10
210.1999999999999
 20
111.7874999999999
 30
0.0
 11
210.8999999999999
 21
109.4875
 31
0.0
  0
LINE
  5
7CE
330
1E
100
AcDbEntity
  8
0
100
AcDbLine
 10
211.0
 20
116.5874999999999
 30
0.0
 11
211.2
 21
114.3874999999999
 31
0.0
  0
LINE
  5
7CF
330
1E
100
AcDbEntity
  8
0
100
AcDbLine
 10
209.5
 20
116.5874999999999
 30
0.0
 11
209.6999999999999
 21
114.1874999999999
 31
0.0
  0
LINE
  5
7D0
330
1E
100
AcDbEntity
  8
0
100
AcDbLine
 10
211.2
 20
114.3874999999999
 30
0.0
 11
211.6
 21
112.1874999999999
 31
0.0
  0
LINE
  5
7D1
330
1E
100
AcDbEntity
  8
0
100
AcDbLine
 10
209.6999999999999
 20
118.9724999999999
 30
0.0
 11
210.1999999999999
 21
121.3724999999999
 31
0.0
  0
LINE
  5
7D2
330
1E
100
AcDbEntity
  8
0
100
AcDbLine
 10
211.2
 20
118.7724999999999
 30
0.0
 11
211.6
 21
120.9724999999999
 31
0.0
  0
LINE
  5
7D3
330
1E
100
AcDbEntity
  8
0
100
AcDbLine
 10
210.1999999999999
 20
121.3724999999999
 30
0.0
 11
210.8999999999999
 21
123.6725
 31
0.0
  0
LINE
  5
7D4
330
1E
100
AcDbEntity
  8
0
100
AcDbLine
 10
202.1999999999999
 20
127.2724999999999
 30
0.0
 11
203.6999999999999
 21
130.4724999999999
 31
0.0
  0
LINE
  5
7D5
330
1E
100
AcDbEntity
  8
0
100
AcDbLine
 10
200.0
 20
116.5724999999999
 30
0.0
 11
200.3
 21
120.3725
 31
0.0
  0
LINE
  5
7D6
330
1E
100
AcDbEntity
  8
0
100
AcDbLine
 10
200.3
 20
112.7874999999999
 30
0.0
 11
201.0
 21
109.3875
 31
0.0
  0
LINE
  5
7D7
330
1E
100
AcDbEntity
  8
0
100
AcDbLine
 10
200.0
 20
116.5874999999999
 30
0.0
 11
200.3
 21
112.7874999999999
 31
0.0
  0
LINE
  5
7D8
330
1E
100
AcDbEntity
  8
0
100
AcDbLine
 10
200.3
 20
120.3725
 30
0.0
 11
201.0
 21
123.7724999999999
 31
0.0
  0
LINE
  5
7D9
330
1E
100
AcDbEntity
  8
0
100
AcDbLine
 10
211.0
 20
138.7724999999999
 30
0.0
 11
214.1
 21
140.8725
 31
0.0
  0
LINE
  5
7DA
330
1E
100
AcDbEntity
  8
0
100
AcDbLine
 10
220.8
 20
143.5724999999999
 30
0.0
 11
224.1999999999999
 21
144.2724999999999
 31
0.0
  0
LINE
  5
7DB
330
1E
100
AcDbEntity
  8
0
100
AcDbLine
 10
220.9
 20
133.6725
 30
0.0
 11
223.1999999999999
 21
134.3725
 31
0.0
  0
LINE
  5
7DC
330
1E
100
AcDbEntity
  8
0
100
AcDbLine
 10
221.4999999999999
 20
132.2724999999999
 30
0.0
 11
223.6
 21
132.9725
 31
0.0
  0
LINE
  5
7DD
330
1E
100
AcDbEntity
  8
0
100
AcDbLine
 10
225.5999999999999
 20
134.8724999999999
 30
0.0
 11
228.0
 21
135.0724999999999
 31
0.0
  0
LINE
  5
7DE
330
1E
100
AcDbEntity
  8
0
100
AcDbLine
 10
225.8
 20
133.3725
 30
0.0
 11
228.0
 21
133.5724999999999
 31
0.0
  0
LINE
  5
7DF
330
1E
100
AcDbEntity
  8
0
100
AcDbLine
 10
230.4
 20
134.8724999999999
 30
0.0
 11
228.0
 21
135.0724999999999
 31
0.0
  0
LINE
  5
7E0
330
1E
100
AcDbEntity
  8
0
100
AcDbLine
 10
230.2
 20
133.3725
 30
0.0
 11
228.0
 21
133.5724999999999
 31
0.0
  0
LINE
  5
7E1
330
1E
100
AcDbEntity
  8
0
100
AcDbLine
 10
223.1999999999999
 20
134.3725
 30
0.0
 11
225.5999999999999
 21
134.8724999999999
 31
0.0
  0
LINE
  5
7E2
330
1E
100
AcDbEntity
  8
0
100
AcDbLine
 10
223.6
 20
132.9725
 30
0.0
 11
225.8
 21
133.3725
 31
0.0
  0
LINE
  5
7E3
330
1E
100
AcDbEntity
  8
0
100
AcDbLine
 10
224.1999999999999
 20
144.2724999999999
 30
0.0
 11
228.0
 21
144.5724999999999
 31
0.0
  0
LINE
  5
7E4
330
1E
100
AcDbEntity
  8
0
100
AcDbLine
 10
231.8
 20
144.2724999999999
 30
0.0
 11
228.0
 21
144.5724999999999
 31
0.0
  0
LINE
  5
7E5
330
1E
100
AcDbEntity
  8
0
100
AcDbLine
 10
217.3
 20
142.3725
 30
0.0
 11
220.8
 21
143.5724999999999
 31
0.0
  0
LINE
  5
7E6
330
1E
100
AcDbEntity
  8
0
100
AcDbLine
 10
214.1
 20
140.8725
 30
0.0
 11
217.3
 21
142.3725
 31
0.0
  0
LINE
  5
7E7
330
1E
100
AcDbEntity
  8
0
100
AcDbLine
 10
216.8
 20
131.2724999999999
 30
0.0
 11
218.8
 21
132.5725
 31
0.0
  0
LINE
  5
7E8
330
1E
100
AcDbEntity
  8
0
100
AcDbLine
 10
218.8
 20
132.5725
 30
0.0
 11
220.9
 21
133.6725
 31
0.0
  0
LINE
  5
7E9
330
1E
100
AcDbEntity
  8
0
100
AcDbLine
 10
219.4999999999999
 20
131.2724999999999
 30
0.0
 11
221.4999999999999
 21
132.2724999999999
 31
0.0
  0
LINE
  5
7EA
330
1E
100
AcDbEntity
  8
0
100
AcDbLine
 10
205.8
 20
133.5724999999999
 30
0.0
 11
208.1999999999999
 21
136.3725
 31
0.0
  0
LINE
  5
7EB
330
1E
100
AcDbEntity
  8
0
100
AcDbLine
 10
205.8
 20
133.5724999999999
 30
0.0
 11
208.1999999999999
 21
136.3725
 31
0.0
  0
LINE
  5
7EC
330
1E
100
AcDbEntity
  8
0
100
AcDbLine
 10
208.1999999999999
 20
136.3725
 30
0.0
 11
211.0
 21
138.7724999999999
 31
0.0
  0
LINE
  5
7ED
330
1E
100
AcDbEntity
  8
0
100
AcDbLine
 10
143.9429999999999
 20
94.6325
 30
0.0
 11
143.4989999999999
 21
78.7205
 31
0.0
  0
LINE
  5
7EE
330
1E
100
AcDbEntity
  8
0
100
AcDbLine
 10
143.4989999999999
 20
78.7205
 30
0.0
 11
142.0639999999999
 21
27.43149999999999
 31
0.0
  0
LINE
  5
7EF
330
1E
100
AcDbEntity
  8
0
100
AcDbLine
 10
133.401
 20
27.5735
 30
0.0
 11
130.105
 21
27.5855
 31
0.0
  0
LINE
  5
7F0
330
1E
100
AcDbEntity
  8
0
100
AcDbLine
 10
132.41
 20
11.5775
 30
0.0
 11
130.3739999999999
 21
11.5955
 31
0.0
  0
LINE
  5
7F1
330
1E
100
AcDbEntity
  8
0
100
AcDbLine
 10
134.584
 20
11.0725
 30
0.0
 11
130.0439999999999
 21
11.1525
 31
0.0
  0
LINE
  5
7F2
330
1E
100
AcDbEntity
  8
0
100
AcDbLine
 10
134.222
 20
1.08250000000001
 30
0.0
 11
130.0219999999999
 21
1.10650000000001
 31
0.0
  0
LINE
  5
7F3
330
1E
100
AcDbEntity
  8
0
100
AcDbLine
 10
135.1449999999999
 20
0.294500000000003
 30
0.0
 11
131.756
 21
0.221499999999998
 31
0.0
  0
LINE
  5
7F4
330
1E
100
AcDbEntity
  8
0
100
AcDbLine
 10
141.721
 20
0.9485000000000091
 30
0.0
 11
141.692
 21
10.6685
 31
0.0
  0
LINE
  5
7F5
330
1E
100
AcDbEntity
  8
0
100
AcDbLine
 10
137.1439999999999
 20
0.336500000000008
 30
0.0
 11
135.1449999999999
 21
0.294500000000003
 31
0.0
  0
LINE
  5
7F6
330
1E
100
AcDbEntity
  8
0
100
AcDbLine
 10
138.562
 20
0.9554999999999949
 30
0.0
 11
136.826
 21
1.026500000000019
 31
0.0
  0
LINE
  5
7F7
330
1E
100
AcDbEntity
  8
0
100
AcDbLine
 10
140.137
 20
0.864499999999998
 30
0.0
 11
138.562
 21
0.9554999999999949
 31
0.0
  0
LINE
  5
7F8
330
1E
100
AcDbEntity
  8
0
100
AcDbLine
 10
139.589
 20
0.447499999999999
 30
0.0
 11
137.1439999999999
 21
0.336500000000008
 31
0.0
  0
LINE
  5
7F9
330
1E
100
AcDbEntity
  8
0
100
AcDbLine
 10
141.1059999999999
 20
0.6125000000000009
 30
0.0
 11
140.557
 21
0.53250000000001
 31
0.0
  0
LINE
  5
7FA
330
1E
100
AcDbEntity
  8
0
100
AcDbLine
 10
141.122
 20
0.6915000000000092
 30
0.0
 11
140.137
 21
0.864499999999998
 31
0.0
  0
LINE
  5
7FB
330
1E
100
AcDbEntity
  8
0
100
AcDbLine
 10
141.6239999999999
 20
0.852500000000009
 30
0.0
 11
141.1059999999999
 21
0.6125000000000009
 31
0.0
  0
LINE
  5
7FC
330
1E
100
AcDbEntity
  8
0
100
AcDbLine
 10
141.721
 20
0.9485000000000091
 30
0.0
 11
141.6239999999999
 21
0.852500000000009
 31
0.0
  0
LINE
  5
7FD
330
1E
100
AcDbEntity
  8
0
100
AcDbLine
 10
140.557
 20
0.53250000000001
 30
0.0
 11
139.589
 21
0.447499999999999
 31
0.0
  0
LINE
  5
7FE
330
1E
100
AcDbEntity
  8
0
100
AcDbLine
 10
136.826
 20
1.026500000000019
 30
0.0
 11
134.222
 21
1.08250000000001
 31
0.0
  0
LINE
  5
7FF
330
1E
100
AcDbEntity
  8
0
100
AcDbLine
 10
141.9479999999999
 20
27.1795
 30
0.0
 11
141.753
 21
27.1005
 31
0.0
  0
LINE
  5
800
330
1E
100
AcDbEntity
  8
0
100
AcDbLine
 10
142.0639999999999
 20
27.43149999999999
 30
0.0
 11
141.9479999999999
 21
27.1795
 31
0.0
  0
LINE
  5
801
330
1E
100
AcDbEntity
  8
0
100
AcDbLine
 10
141.753
 20
11.1575
 30
0.0
 11
141.7489999999999
 21
22.3415
 31
0.0
  0
LINE
  5
802
330
1E
100
AcDbEntity
  8
0
100
AcDbLine
 10
137.2029999999999
 20
11.4775
 30
0.0
 11
134.9529999999999
 21
11.5355
 31
0.0
  0
LINE
  5
803
330
1E
100
AcDbEntity
  8
0
100
AcDbLine
 10
140.084053230361
 20
10.8791975278353
 30
0.0
 11
136.531
 21
11.0065
 31
0.0
  0
LINE
  5
804
330
1E
100
AcDbEntity
  8
0
100
AcDbLine
 10
141.023
 20
11.2725
 30
0.0
 11
139.847
 21
11.3625
 31
0.0
  0
LINE
  5
805
330
1E
100
AcDbEntity
  8
0
100
AcDbLine
 10
141.264
 20
10.9785
 30
0.0
 11
140.5289999999999
 21
10.9085
 31
0.0
  0
LINE
  5
806
330
1E
100
AcDbEntity
  8
0
100
AcDbLine
 10
141.692
 20
10.6685
 30
0.0
 11
140.454
 21
10.8665
 31
0.0
  0
LINE
  5
807
330
1E
100
AcDbEntity
  8
0
100
AcDbLine
 10
141.66
 20
11.0525
 30
0.0
 11
141.264
 21
10.9785
 31
0.0
  0
LINE
  5
808
330
1E
100
AcDbEntity
  8
0
100
AcDbLine
 10
141.753
 20
11.1575
 30
0.0
 11
141.023
 21
11.2725
 31
0.0
  0
LINE
  5
809
330
1E
100
AcDbEntity
  8
0
100
AcDbLine
 10
141.753
 20
11.1575
 30
0.0
 11
141.66
 21
11.0525
 31
0.0
  0
LINE
  5
80A
330
1E
100
AcDbEntity
  8
0
100
AcDbLine
 10
140.5289999999999
 20
10.9085
 30
0.0
 11
140.084053230361
 21
10.8791975278353
 31
0.0
  0
LINE
  5
80B
330
1E
100
AcDbEntity
  8
0
100
AcDbLine
 10
139.847
 20
11.3625
 30
0.0
 11
138.6319999999999
 21
11.4235
 31
0.0
  0
LINE
  5
80C
330
1E
100
AcDbEntity
  8
0
100
AcDbLine
 10
138.6319999999999
 20
11.4235
 30
0.0
 11
137.2029999999999
 21
11.4775
 31
0.0
  0
LINE
  5
80D
330
1E
100
AcDbEntity
  8
0
100
AcDbLine
 10
136.531
 20
11.0065
 30
0.0
 11
134.584
 21
11.0725
 31
0.0
  0
LINE
  5
80E
330
1E
100
AcDbEntity
  8
0
100
AcDbLine
 10
134.9529999999999
 20
11.5355
 30
0.0
 11
132.41
 21
11.5775
 31
0.0
  0
LINE
  5
80F
330
1E
100
AcDbEntity
  8
0
100
AcDbLine
 10
139.006
 20
27.41649999999999
 30
0.0
 11
136.5299999999999
 21
27.4815
 31
0.0
  0
LINE
  5
810
330
1E
100
AcDbEntity
  8
0
100
AcDbLine
 10
141.7489999999999
 20
22.3415
 30
0.0
 11
141.348
 21
24.89349999999999
 31
0.0
  0
LINE
  5
811
330
1E
100
AcDbEntity
  8
0
  6
Continuous
100
AcDbLine
 10
140.45447260793
 20
27.3136255250049
 30
0.0
 11
139.006
 21
27.41649999999999
 31
0.0
  0
LINE
  5
812
330
1E
100
AcDbEntity
  8
0
100
AcDbLine
 10
141.106243211334
 20
27.03342892561989
 30
0.0
 11
140.628407886353
 21
26.9715347489588
 31
0.0
  0
LINE
  5
813
330
1E
100
AcDbEntity
  8
0
100
AcDbLine
 10
140.663
 20
26.9035
 30
0.0
 11
140.45447260793
 21
27.3136255250049
 31
0.0
  0
LINE
  5
814
330
1E
100
AcDbEntity
  8
0
100
AcDbLine
 10
141.348
 20
24.89349999999999
 30
0.0
 11
140.663
 21
26.9035
 31
0.0
  0
LINE
  5
815
330
1E
100
AcDbEntity
  8
0
100
AcDbLine
 10
141.753
 20
27.1005
 30
0.0
 11
141.106243211334
 21
27.03342892561989
 31
0.0
  0
LINE
  5
816
330
1E
100
AcDbEntity
  8
0
100
AcDbLine
 10
136.5299999999999
 20
27.4815
 30
0.0
 11
133.401
 21
27.5735
 31
0.0
  0
LINE
  5
817
330
1E
100
AcDbEntity
  8
0
100
AcDbLine
 10
130.0219999999999
 20
1.10650000000001
 30
0.0
 11
128.0
 21
1.147500000000009
 31
0.0
  0
LINE
  5
818
330
1E
100
AcDbEntity
  8
0
100
AcDbLine
 10
131.756
 20
0.221499999999998
 30
0.0
 11
128.0
 21
0.216499999999995
 31
0.0
  0
LINE
  5
819
330
1E
100
AcDbEntity
  8
0
100
AcDbLine
 10
131.756
 20
0.221499999999998
 30
0.0
 11
128.0
 21
0.218499999999996
 31
0.0
  0
LINE
  5
81A
330
1E
100
AcDbEntity
  8
0
100
AcDbLine
 10
128.063574119574
 20
0.218550778050774
 30
0.0
 11
128.0
 21
0.216499999999995
 31
0.0
  0
LINE
  5
81B
330
1E
100
AcDbEntity
  8
0
100
AcDbLine
 10
128.063574119574
 20
0.218550778050774
 30
0.0
 11
128.0
 21
0.216499999999995
 31
0.0
  0
LINE
  5
81C
330
1E
100
AcDbEntity
  8
0
100
AcDbLine
 10
128.0
 20
0.216499999999995
 30
0.0
 11
127.936425880426
 21
0.218550778050774
 31
0.0
  0
LINE
  5
81D
330
1E
100
AcDbEntity
  8
0
100
AcDbLine
 10
130.0439999999999
 20
11.1525
 30
0.0
 11
128.0
 21
11.1685
 31
0.0
  0
LINE
  5
81E
330
1E
100
AcDbEntity
  8
0
100
AcDbLine
 10
130.3739999999999
 20
11.5955
 30
0.0
 11
128.0
 21
11.6025
 31
0.0
  0
LINE
  5
81F
330
1E
100
AcDbEntity
  8
0
100
AcDbLine
 10
130.105
 20
27.5855
 30
0.0
 11
128.0
 21
27.6085
 31
0.0
  0
LINE
  5
820
330
1E
100
AcDbEntity
  8
0
100
AcDbLine
 10
152.602
 20
103.5285
 30
0.0
 11
150.441
 21
100.1894999999999
 31
0.0
  0
LINE
  5
821
330
1E
100
AcDbEntity
  8
0
100
AcDbLine
 10
152.597
 20
130.2044999999999
 30
0.0
 11
150.435
 21
133.5434999999999
 31
0.0
  0
LINE
  5
822
330
1E
100
AcDbEntity
  8
0
100
AcDbLine
 10
154.2629999999999
 20
107.1425
 30
0.0
 11
152.602
 21
103.5285
 31
0.0
  0
LINE
  5
823
330
1E
100
AcDbEntity
  8
0
100
AcDbLine
 10
155.956
 20
118.8534999999999
 30
0.0
 11
155.956
 21
114.8815
 31
0.0
  0
LINE
  5
824
330
1E
100
AcDbEntity
  8
0
100
AcDbLine
 10
155.956
 20
114.8815
 30
0.0
 11
155.956
 21
118.8534999999999
 31
0.0
  0
LINE
  5
825
330
1E
100
AcDbEntity
  8
0
100
AcDbLine
 10
155.956
 20
114.8815
 30
0.0
 11
155.389
 21
110.9515
 31
0.0
  0
LINE
  5
826
330
1E
100
AcDbEntity
  8
0
100
AcDbLine
 10
155.389
 20
110.9515
 30
0.0
 11
154.2629999999999
 21
107.1425
 31
0.0
  0
LINE
  5
827
330
1E
100
AcDbEntity
  8
0
100
AcDbLine
 10
155.386
 20
122.7824999999999
 30
0.0
 11
154.259
 21
126.5924999999999
 31
0.0
  0
LINE
  5
828
330
1E
100
AcDbEntity
  8
0
100
AcDbLine
 10
155.956
 20
118.8534999999999
 30
0.0
 11
155.386
 21
122.7824999999999
 31
0.0
  0
LINE
  5
829
330
1E
100
AcDbEntity
  8
0
100
AcDbLine
 10
154.259
 20
126.5924999999999
 30
0.0
 11
152.597
 21
130.2044999999999
 31
0.0
  0
LINE
  5
82A
330
1E
100
AcDbEntity
  8
0
  6
Continuous
100
AcDbLine
 10
141.6464018990746
 20
129.251887714889
 30
0.0
 11
139.5806916818222
 21
131.3163919999225
 31
0.0
  0
LINE
  5
82B
330
1E
100
AcDbEntity
  8
0
100
AcDbLine
 10
144.347
 20
106.7015
 30
0.0
 11
143.9429999999999
 21
94.6325
 31
0.0
  0
LINE
  5
82C
330
1E
100
AcDbEntity
  8
0
100
AcDbLine
 10
147.822
 20
97.1875
 30
0.0
 11
144.722
 21
94.69050000000001
 31
0.0
  0
LINE
  5
82D
330
1E
100
AcDbEntity
  8
0
100
AcDbLine
 10
150.441
 20
100.1894999999999
 30
0.0
 11
147.822
 21
97.1875
 31
0.0
  0
LINE
  5
82E
330
1E
100
AcDbEntity
  8
0
100
AcDbLine
 10
144.722
 20
94.69050000000001
 30
0.0
 11
143.9294600590869
 21
94.1472577932417
 31
0.0
  0
LINE
  5
82F
330
1E
100
AcDbEntity
  8
0
  6
Continuous
100
AcDbLine
 10
143.7121113359584
 20
126.2288637445375
 30
0.0
 11
141.6464018990746
 21
129.251887714889
 31
0.0
  0
LINE
  5
830
330
1E
100
AcDbEntity
  8
0
100
AcDbLine
 10
146.146
 20
117.9615
 30
0.0
 11
146.042
 21
119.1915
 31
0.0
  0
LINE
  5
831
330
1E
100
AcDbEntity
  8
0
100
AcDbLine
 10
144.802
 20
115.6725
 30
0.0
 11
144.347
 21
106.7015
 31
0.0
  0
LINE
  5
832
330
1E
100
AcDbEntity
  8
0
100
AcDbLine
 10
145.8539999999999
 20
112.9604999999999
 30
0.0
 11
145.4679999999999
 21
111.5734999999999
 31
0.0
  0
LINE
  5
833
330
1E
100
AcDbEntity
  8
0
  6
Continuous
100
AcDbLine
 10
144.9412876387932
 20
110.4079552836487
 30
0.0
 11
144.519276863919
 21
109.7433567339908
 31
0.0
  0
LINE
  5
834
330
1E
100
AcDbEntity
  8
0
  6
Continuous
100
AcDbLine
 10
145.4679999999999
 20
111.5734999999999
 30
0.0
 11
144.9412876387932
 21
110.4079552836487
 31
0.0
  0
LINE
  5
835
330
1E
100
AcDbEntity
  8
0
  6
Continuous
100
AcDbLine
 10
146.199
 20
115.8725
 30
0.0
 11
146.067
 21
114.1485
 31
0.0
  0
LINE
  5
836
330
1E
100
AcDbEntity
  8
0
100
AcDbLine
 10
146.067
 20
114.1485
 30
0.0
 11
145.8539999999999
 21
112.9604999999999
 31
0.0
  0
LINE
  5
837
330
1E
100
AcDbEntity
  8
0
100
AcDbLine
 10
146.199
 20
115.8725
 30
0.0
 11
146.146
 21
117.9615
 31
0.0
  0
LINE
  5
838
330
1E
100
AcDbEntity
  8
0
  6
Continuous
100
AcDbLine
 10
145.312
 20
122.5125
 30
0.0
 11
143.7121113359584
 21
126.2288637445375
 31
0.0
  0
LINE
  5
839
330
1E
100
AcDbEntity
  8
0
100
AcDbLine
 10
145.716
 20
121.0215
 30
0.0
 11
145.312
 21
122.5125
 31
0.0
  0
LINE
  5
83A
330
1E
100
AcDbEntity
  8
0
100
AcDbLine
 10
146.042
 20
119.1915
 30
0.0
 11
145.716
 21
121.0215
 31
0.0
  0
LINE
  5
83B
330
1E
100
AcDbEntity
  8
0
100
AcDbLine
 10
132.0
 20
160.5335
 30
0.0
 11
131.9039999999999
 21
160.7835
 31
0.0
  0
LINE
  5
83C
330
1E
100
AcDbEntity
  8
0
100
AcDbLine
 10
132.0
 20
148.7835
 30
0.0
 11
130.0
 21
145.7835
 31
0.0
  0
LINE
  5
83D
330
1E
100
AcDbEntity
  8
0
100
AcDbLine
 10
134.1159999999999
 20
144.0124999999999
 30
0.0
 11
130.0
 21
144.6498805825239
 31
0.0
  0
LINE
  5
83E
330
1E
100
AcDbEntity
  8
0
  6
Continuous
100
AcDbLine
 10
133.8262141113264
 20
134.265683889453
 30
0.0
 11
130.9787573078166
 21
134.9222599412794
 31
0.0
  0
LINE
  5
83F
330
1E
100
AcDbEntity
  8
0
100
AcDbLine
 10
132.0
 20
148.7835
 30
0.0
 11
132.0
 21
160.5335
 31
0.0
  0
LINE
  5
840
330
1E
100
AcDbEntity
  8
0
100
AcDbLine
 10
132.0
 20
160.5335
 30
0.0
 11
132.0
 21
148.7835
 31
0.0
  0
LINE
  5
841
330
1E
100
AcDbEntity
  8
0
100
AcDbLine
 10
144.791
 20
139.1434999999999
 30
0.0
 11
141.429
 21
141.2884999999999
 31
0.0
  0
LINE
  5
842
330
1E
100
AcDbEntity
  8
0
100
AcDbLine
 10
147.816
 20
136.5424999999999
 30
0.0
 11
144.791
 21
139.1434999999999
 31
0.0
  0
LINE
  5
843
330
1E
100
AcDbEntity
  8
0
100
AcDbLine
 10
150.435
 20
133.5434999999999
 30
0.0
 11
147.816
 21
136.5424999999999
 31
0.0
  0
LINE
  5
844
330
1E
100
AcDbEntity
  8
0
100
AcDbLine
 10
137.7959999999999
 20
142.9565
 30
0.0
 11
134.1159999999999
 21
144.0124999999999
 31
0.0
  0
LINE
  5
845
330
1E
100
AcDbEntity
  8
0
  6
Continuous
100
AcDbLine
 10
139.5806916818222
 20
131.3163919999225
 30
0.0
 11
136.9247794372047
 21
133.0859672089164
 31
0.0
  0
LINE
  5
846
330
1E
100
AcDbEntity
  8
0
100
AcDbLine
 10
141.429
 20
141.2884999999999
 30
0.0
 11
137.7959999999999
 21
142.9565
 31
0.0
  0
LINE
  5
847
330
1E
100
AcDbEntity
  8
0
  6
Continuous
100
AcDbLine
 10
136.9247794372047
 20
133.0859672089164
 30
0.0
 11
133.8262141113264
 21
134.265683889453
 31
0.0
  0
LINE
  5
848
330
1E
100
AcDbEntity
  8
0
100
AcDbLine
 10
130.0
 20
143.7834999999999
 30
0.0
 11
130.0
 21
142.2305
 31
0.0
  0
LINE
  5
849
330
1E
100
AcDbEntity
  8
0
100
AcDbLine
 10
130.0
 20
142.2305
 30
0.0
 11
130.0
 21
143.7834999999999
 31
0.0
  0
LINE
  5
84A
330
1E
100
AcDbEntity
  8
0
100
AcDbLine
 10
130.0
 20
137.9875
 30
0.0
 11
130.0
 21
134.8213126681339
 31
0.0
  0
LINE
  5
84B
330
1E
100
AcDbEntity
  8
0
100
AcDbLine
 10
130.0
 20
134.8213126681339
 30
0.0
 11
130.0
 21
137.9875
 31
0.0
  0
LINE
  5
84C
330
1E
100
AcDbEntity
  8
0
  6
Continuous
100
AcDbLine
 10
130.9787573078166
 20
134.9222599412794
 30
0.0
 11
129.3376455672372
 21
135.1370419492572
 31
0.0
  0
LINE
  5
84D
330
1E
100
AcDbEntity
  8
0
  6
Continuous
100
AcDbLine
 10
129.3376455672372
 20
135.1370419492572
 30
0.0
 11
127.9309775806579
 21
135.1370419492572
 31
0.0
  0
LINE
  5
84E
330
1E
100
AcDbEntity
  8
0
100
AcDbLine
 10
130.0
 20
139.5405
 30
0.0
 11
130.0
 21
140.7835
 31
0.0
  0
LINE
  5
84F
330
1E
100
AcDbEntity
  8
0
100
AcDbLine
 10
130.0
 20
140.7835
 30
0.0
 11
130.0
 21
139.5405
 31
0.0
  0
LINE
  5
850
330
1E
100
AcDbEntity
  8
0
100
AcDbLine
 10
130.0
 20
139.5405
 30
0.0
 11
130.0
 21
138.5865
 31
0.0
  0
LINE
  5
851
330
1E
100
AcDbEntity
  8
0
100
AcDbLine
 10
130.0
 20
137.9875
 30
0.0
 11
130.0
 21
138.5865
 31
0.0
  0
LINE
  5
852
330
1E
100
AcDbEntity
  8
0
100
AcDbLine
 10
130.0
 20
138.5865
 30
0.0
 11
130.0
 21
139.5405
 31
0.0
  0
LINE
  5
853
330
1E
100
AcDbEntity
  8
0
100
AcDbLine
 10
130.0
 20
138.5865
 30
0.0
 11
130.0
 21
137.9875
 31
0.0
  0
LINE
  5
854
330
1E
100
AcDbEntity
  8
0
100
AcDbLine
 10
130.0
 20
140.7835
 30
0.0
 11
130.0
 21
142.2305
 31
0.0
  0
LINE
  5
855
330
1E
100
AcDbEntity
  8
0
100
AcDbLine
 10
130.0
 20
142.2305
 30
0.0
 11
130.0
 21
140.7835
 31
0.0
  0
LINE
  5
856
330
1E
100
AcDbEntity
  8
0
100
AcDbLine
 10
130.0
 20
145.7835
 30
0.0
 11
130.0
 21
143.7834999999999
 31
0.0
  0
LINE
  5
857
330
1E
100
AcDbEntity
  8
0
100
AcDbLine
 10
130.0
 20
143.7834999999999
 30
0.0
 11
130.0
 21
145.7835
 31
0.0
  0
LINE
  5
858
330
1E
100
AcDbEntity
  8
0
100
AcDbLine
 10
129.936
 20
160.7835
 30
0.0
 11
129.0079999999999
 21
160.7835
 31
0.0
  0
LINE
  5
859
330
1E
100
AcDbEntity
  8
0
100
AcDbLine
 10
130.752
 20
160.7835
 30
0.0
 11
129.936
 21
160.7835
 31
0.0
  0
LINE
  5
85A
330
1E
100
AcDbEntity
  8
0
100
AcDbLine
 10
131.376
 20
160.7835
 30
0.0
 11
130.752
 21
160.7835
 31
0.0
  0
LINE
  5
85B
330
1E
100
AcDbEntity
  8
0
100
AcDbLine
 10
131.7599999999999
 20
160.7835
 30
0.0
 11
131.376
 21
160.7835
 31
0.0
  0
LINE
  5
85C
330
1E
100
AcDbEntity
  8
0
100
AcDbLine
 10
131.9039999999999
 20
160.7835
 30
0.0
 11
131.7599999999999
 21
160.7835
 31
0.0
  0
LINE
  5
85D
330
1E
100
AcDbEntity
  8
0
100
AcDbLine
 10
129.0079999999999
 20
160.7835
 30
0.0
 11
128.0
 21
160.7835
 31
0.0
  0
ENDSEC
  0
SECTION
  2
OBJECTS
  0
DICTIONARY
  5
C
330
0
100
AcDbDictionary
281
     1
  3
ACAD_GROUP
350
D
  3
ACAD_LAYOUT
350
19
  3
ACAD_MLINESTYLE
350
16
  3
ACAD_PLOTSETTINGS
350
18
  3
ACAD_PLOTSTYLENAME
350
E
  3
AcDbVariableDictionary
350
85F
  0
DICTIONARY
  5
D
102
{ACAD_REACTORS
330
C
102
}
330
C
100
AcDbDictionary
281
     1
  0
DICTIONARY
  5
19
102
{ACAD_REACTORS
330
C
102
}
330
C
100
AcDbDictionary
281
     1
  3
Layout1
350
1D
  3
Model
350
21
  0
DICTIONARY
  5
16
102
{ACAD_REACTORS
330
C
102
}
330
C
100
AcDbDictionary
281
     1
  3
Standard
350
17
  0
DICTIONARY
  5
18
102
{ACAD_REACTORS
330
C
102
}
330
C
100
AcDbDictionary
281
     1
  0
ACDBDICTIONARYWDFLT
  5
E
102
{ACAD_REACTORS
330
C
102
}
330
C
100
AcDbDictionary
281
     1
  3
Normal
350
F
100
AcDbDictionaryWithDefault
340
F
  0
DICTIONARY
  5
85F
102
{ACAD_REACTORS
330
C
102
}
330
C
100
AcDbDictionary
281
     1
  3
DIMASSOC
350
860
  0
LAYOUT
  5
1D
102
{ACAD_REACTORS
330
19
102
}
330
19
100
AcDbPlotSettings
  1

  2
C:\Programme\AutoCAD LT 2002 Deu\plotters\DWF ePlot (optimized for plotting).pc3
  4

  6

 40
0.0
 41
0.0
 42
0.0
 43
0.0
 44
0.0
 45
0.0
 46
0.0
 47
0.0
 48
0.0
 49
0.0
140
0.0
141
0.0
142
1.0
143
1.0
 70
   688
 72
     0
 73
     0
 74
     5
  7

 75
    16
147
1.0
148
0.0
149
0.0
100
AcDbLayout
  1
Layout1
 70
     1
 71
     1
 10
0.0
 20
0.0
 11
12.0
 21
9.0
 12
0.0
 22
0.0
 32
0.0
 14
1.000000000000000E+20
 24
1.000000000000000E+20
 34
1.000000000000000E+20
 15
-1.000000000000000E+20
 25
-1.000000000000000E+20
 35
-1.000000000000000E+20
146
0.0
 13
0.0
 23
0.0
 33
0.0
 16
1.0
 26
0.0
 36
0.0
 17
0.0
 27
1.0
 37
0.0
 76
     0
330
1A
  0
LAYOUT
  5
21
102
{ACAD_REACTORS
330
19
102
}
330
19
100
AcDbPlotSettings
  1

  2
C:\Programme\AutoCAD LT 2002 Deu\plotters\DWF ePlot (optimized for plotting).pc3
  4

  6

 40
0.0
 41
0.0
 42
0.0
 43
0.0
 44
0.0
 45
0.0
 46
0.0
 47
0.0
 48
0.0
 49
0.0
140
0.0
141
0.0
142
1.0
143
1.0
 70
  1712
 72
     0
 73
     0
 74
     0
  7

 75
     0
147
1.0
148
0.0
149
0.0
100
AcDbLayout
  1
Model
 70
     1
 71
     0
 10
0.0
 20
0.0
 11
12.0
 21
9.0
 12
0.0
 22
0.0
 32
0.0
 14
0.0
 24
0.0
 34
0.0
 15
0.0
 25
0.0
 35
0.0
146
0.0
 13
0.0
 23
0.0
 33
0.0
 16
1.0
 26
0.0
 36
0.0
 17
0.0
 27
1.0
 37
0.0
 76
     0
330
1E
  0
MLINESTYLE
  5
17
102
{ACAD_REACTORS
330
16
102
}
330
16
100
AcDbMlineStyle
  2
STANDARD
 70
     0
  3

 62
   256
 51
90.0
 52
90.0
 71
     2
 49
0.5
 62
   256
  6
BYLAYER
 49
-0.5
 62
   256
  6
BYLAYER
  0
ACDBPLACEHOLDER
  5
F
102
{ACAD_REACTORS
330
E
102
}
330
E
  0
DICTIONARYVAR
  5
860
102
{ACAD_REACTORS
330
85F
102
}
330
85F
100
DictionaryVariables
280
     0
  1
1
  0
ENDSEC
  0
EOF
