  0
SECTION
  2
HEADER
  9
$ACADVER
  1
AC1015
  9
$ACADMAINTVER
 70
    13
  9
$DWGCODEPAGE
  3
ANSI_1252
  9
$INSBASE
 10
0.0
 20
0.0
 30
0.0
  9
$EXTMIN
 10
0.216499999999995
 20
0.128999999999986
 30
0.0
  9
$EXTMAX
 10
160.7835
 20
126.926
 30
0.0
  9
$LIMMIN
 10
0.0
 20
0.0
  9
$LIMMAX
 10
12.0
 20
9.0
  9
$ORTHOMODE
 70
     0
  9
$REGENMODE
 70
     1
  9
$FILLMODE
 70
     1
  9
$QTEXTMODE
 70
     0
  9
$MIRRTEXT
 70
     1
  9
$LTSCALE
 40
1.0
  9
$ATTMODE
 70
     1
  9
$TEXTSIZE
 40
0.2
  9
$TRACEWID
 40
0.05
  9
$TEXTSTYLE
  7
Standard
  9
$CLAYER
  8
0
  9
$CELTYPE
  6
Continuous
  9
$CECOLOR
 62
   256
  9
$CELTSCALE
 40
1.0
  9
$DISPSILH
 70
     0
  9
$DIMSCALE
 40
1.0
  9
$DIMASZ
 40
0.18
  9
$DIMEXO
 40
0.0625
  9
$DIMDLI
 40
0.38
  9
$DIMRND
 40
0.0
  9
$DIMDLE
 40
0.0
  9
$DIMEXE
 40
0.18
  9
$DIMTP
 40
0.0
  9
$DIMTM
 40
0.0
  9
$DIMTXT
 40
0.18
  9
$DIMCEN
 40
0.09
  9
$DIMTSZ
 40
0.0
  9
$DIMTOL
 70
     0
  9
$DIMLIM
 70
     0
  9
$DIMTIH
 70
     1
  9
$DIMTOH
 70
     1
  9
$DIMSE1
 70
     0
  9
$DIMSE2
 70
     0
  9
$DIMTAD
 70
     0
  9
$DIMZIN
 70
     0
  9
$DIMBLK
  1

  9
$DIMASO
 70
     1
  9
$DIMSHO
 70
     1
  9
$DIMPOST
  1

  9
$DIMAPOST
  1

  9
$DIMALT
 70
     0
  9
$DIMALTD
 70
     2
  9
$DIMALTF
 40
25.4
  9
$DIMLFAC
 40
1.0
  9
$DIMTOFL
 70
     0
  9
$DIMTVP
 40
0.0
  9
$DIMTIX
 70
     0
  9
$DIMSOXD
 70
     0
  9
$DIMSAH
 70
     0
  9
$DIMBLK1
  1

  9
$DIMBLK2
  1

  9
$DIMSTYLE
  2
Standard
  9
$DIMCLRD
 70
     0
  9
$DIMCLRE
 70
     0
  9
$DIMCLRT
 70
     0
  9
$DIMTFAC
 40
1.0
  9
$DIMGAP
 40
0.09
  9
$DIMJUST
 70
     0
  9
$DIMSD1
 70
     0
  9
$DIMSD2
 70
     0
  9
$DIMTOLJ
 70
     1
  9
$DIMTZIN
 70
     0
  9
$DIMALTZ
 70
     0
  9
$DIMALTTZ
 70
     0
  9
$DIMUPT
 70
     0
  9
$DIMDEC
 70
     4
  9
$DIMTDEC
 70
     4
  9
$DIMALTU
 70
     2
  9
$DIMALTTD
 70
     2
  9
$DIMTXSTY
  7
Standard
  9
$DIMAUNIT
 70
     0
  9
$DIMADEC
 70
     0
  9
$DIMALTRND
 40
0.0
  9
$DIMAZIN
 70
     0
  9
$DIMDSEP
 70
    46
  9
$DIMATFIT
 70
     3
  9
$DIMFRAC
 70
     0
  9
$DIMLDRBLK
  1

  9
$DIMLUNIT
 70
     2
  9
$DIMLWD
 70
    -2
  9
$DIMLWE
 70
    -2
  9
$DIMTMOVE
 70
     0
  9
$LUNITS
 70
     2
  9
$LUPREC
 70
     4
  9
$SKETCHINC
 40
0.1
  9
$FILLETRAD
 40
0.0
  9
$AUNITS
 70
     0
  9
$AUPREC
 70
     0
  9
$MENU
  1
.
  9
$ELEVATION
 40
0.0
  9
$PELEVATION
 40
0.0
  9
$THICKNESS
 40
0.0
  9
$LIMCHECK
 70
     0
  9
$CHAMFERA
 40
0.0
  9
$CHAMFERB
 40
0.0
  9
$CHAMFERC
 40
0.0
  9
$CHAMFERD
 40
0.0
  9
$SKPOLY
 70
     0
  9
$TDCREATE
 40
2455509.971211655
  9
$TDUCREATE
 40
2455509.929544988
  9
$TDUPDATE
 40
2455509.974114757
  9
$TDUUPDATE
 40
2455509.932448090
  9
$TDINDWG
 40
0.0029031019
  9
$TDUSRTIMER
 40
0.0029031019
  9
$USRTIMER
 70
     1
  9
$ANGBASE
 50
0.0
  9
$ANGDIR
 70
     0
  9
$PDMODE
 70
     0
  9
$PDSIZE
 40
0.0
  9
$PLINEWID
 40
0.0
  9
$SPLFRAME
 70
     0
  9
$SPLINETYPE
 70
     6
  9
$SPLINESEGS
 70
     8
  9
$HANDSEED
  5
3CC
  9
$SURFTAB1
 70
     6
  9
$SURFTAB2
 70
     6
  9
$SURFTYPE
 70
     6
  9
$SURFU
 70
     6
  9
$SURFV
 70
     6
  9
$UCSBASE
  2

  9
$UCSNAME
  2

  9
$UCSORG
 10
0.0
 20
0.0
 30
0.0
  9
$UCSXDIR
 10
1.0
 20
0.0
 30
0.0
  9
$UCSYDIR
 10
0.0
 20
1.0
 30
0.0
  9
$UCSORTHOREF
  2

  9
$UCSORTHOVIEW
 70
     1
  9
$UCSORGTOP
 10
0.0
 20
0.0
 30
0.0
  9
$UCSORGBOTTOM
 10
0.0
 20
0.0
 30
0.0
  9
$UCSORGLEFT
 10
0.0
 20
0.0
 30
0.0
  9
$UCSORGRIGHT
 10
0.0
 20
0.0
 30
0.0
  9
$UCSORGFRONT
 10
0.0
 20
0.0
 30
0.0
  9
$UCSORGBACK
 10
0.0
 20
0.0
 30
0.0
  9
$PUCSBASE
  2

  9
$PUCSNAME
  2

  9
$PUCSORG
 10
0.0
 20
0.0
 30
0.0
  9
$PUCSXDIR
 10
1.0
 20
0.0
 30
0.0
  9
$PUCSYDIR
 10
0.0
 20
1.0
 30
0.0
  9
$PUCSORTHOREF
  2

  9
$PUCSORTHOVIEW
 70
     0
  9
$PUCSORGTOP
 10
0.0
 20
0.0
 30
0.0
  9
$PUCSORGBOTTOM
 10
0.0
 20
0.0
 30
0.0
  9
$PUCSORGLEFT
 10
0.0
 20
0.0
 30
0.0
  9
$PUCSORGRIGHT
 10
0.0
 20
0.0
 30
0.0
  9
$PUCSORGFRONT
 10
0.0
 20
0.0
 30
0.0
  9
$PUCSORGBACK
 10
0.0
 20
0.0
 30
0.0
  9
$USERI1
 70
     0
  9
$USERI2
 70
     0
  9
$USERI3
 70
     0
  9
$USERI4
 70
     0
  9
$USERI5
 70
     0
  9
$USERR1
 40
0.0
  9
$USERR2
 40
0.0
  9
$USERR3
 40
0.0
  9
$USERR4
 40
0.0
  9
$USERR5
 40
0.0
  9
$WORLDVIEW
 70
     1
  9
$SHADEDGE
 70
     3
  9
$SHADEDIF
 70
    70
  9
$TILEMODE
 70
     1
  9
$MAXACTVP
 70
    64
  9
$PINSBASE
 10
0.0
 20
0.0
 30
0.0
  9
$PLIMCHECK
 70
     0
  9
$PEXTMIN
 10
1.000000000000000E+20
 20
1.000000000000000E+20
 30
1.000000000000000E+20
  9
$PEXTMAX
 10
-1.000000000000000E+20
 20
-1.000000000000000E+20
 30
-1.000000000000000E+20
  9
$PLIMMIN
 10
0.0
 20
0.0
  9
$PLIMMAX
 10
12.0
 20
9.0
  9
$UNITMODE
 70
     0
  9
$VISRETAIN
 70
     1
  9
$PLINEGEN
 70
     0
  9
$PSLTSCALE
 70
     1
  9
$TREEDEPTH
 70
  3020
  9
$CMLSTYLE
  2
Standard
  9
$CMLJUST
 70
     0
  9
$CMLSCALE
 40
1.0
  9
$PROXYGRAPHICS
 70
     1
  9
$MEASUREMENT
 70
     0
  9
$CELWEIGHT
370
    -1
  9
$ENDCAPS
280
     0
  9
$JOINSTYLE
280
     0
  9
$LWDISPLAY
290
     0
  9
$INSUNITS
 70
     0
  9
$HYPERLINKBASE
  1

  9
$STYLESHEET
  1

  9
$XEDIT
290
     1
  9
$CEPSNTYPE
380
     0
  9
$PSTYLEMODE
290
     1
  9
$FINGERPRINTGUID
  2
{D988497E-6EC3-48E0-99FA-E70F39BA042C}
  9
$VERSIONGUID
  2
{222F7B05-2B5F-4091-853F-3612BD386527}
  9
$EXTNAMES
290
     1
  9
$PSVPSCALE
 40
0.0
  9
$OLESTARTUP
290
     0
  0
ENDSEC
  0
SECTION
  2
CLASSES
  0
CLASS
  1
ACDBDICTIONARYWDFLT
  2
AcDbDictionaryWithDefault
  3
AutoCAD 2000
 90
        0
280
     0
281
     0
  0
CLASS
  1
ACDBPLACEHOLDER
  2
AcDbPlaceHolder
  3
AutoCAD 2000
 90
        0
280
     0
281
     0
  0
CLASS
  1
LAYOUT
  2
AcDbLayout
  3
AutoCAD 2000
 90
        0
280
     0
281
     0
  0
CLASS
  1
DICTIONARYVAR
  2
AcDbDictionaryVar
  3
AutoCAD 2000
 90
        0
280
     0
281
     0
  0
ENDSEC
  0
SECTION
  2
TABLES
  0
TABLE
  2
VPORT
  5
8
330
0
100
AcDbSymbolTable
 70
     3
  0
VPORT
  5
3CB
330
8
100
AcDbSymbolTableRecord
100
AcDbViewportTableRecord
  2
*Active
 70
     0
 10
0.0
 20
0.0
 11
1.0
 21
1.0
 12
80.5
 22
63.52749999999999
 13
0.0
 23
0.0
 14
1.0
 24
1.0
 15
0.0
 25
0.0
 16
0.0
 26
0.0
 36
1.0
 17
0.0
 27
0.0
 37
0.0
 40
127.654702367531
 41
2.073363431151241
 42
50.0
 43
0.0
 44
0.0
 50
0.0
 51
0.0
 71
     0
 72
   100
 73
     1
 74
     3
 75
     0
 76
     0
 77
     0
 78
     0
281
     0
 65
     1
110
0.0
120
0.0
130
0.0
111
1.0
121
0.0
131
0.0
112
0.0
122
1.0
132
0.0
 79
     1
146
0.0
  0
ENDTAB
  0
TABLE
  2
LTYPE
  5
5
330
0
100
AcDbSymbolTable
 70
     1
  0
LTYPE
  5
13
330
5
100
AcDbSymbolTableRecord
100
AcDbLinetypeTableRecord
  2
ByBlock
 70
     0
  3

 72
    65
 73
     0
 40
0.0
  0
LTYPE
  5
14
330
5
100
AcDbSymbolTableRecord
100
AcDbLinetypeTableRecord
  2
ByLayer
 70
     0
  3

 72
    65
 73
     0
 40
0.0
  0
LTYPE
  5
15
330
5
100
AcDbSymbolTableRecord
100
AcDbLinetypeTableRecord
  2
Continuous
 70
     0
  3
Solid line
 72
    65
 73
     0
 40
0.0
  0
ENDTAB
  0
TABLE
  2
LAYER
  5
2
330
0
100
AcDbSymbolTable
 70
     1
  0
LAYER
  5
10
330
2
100
AcDbSymbolTableRecord
100
AcDbLayerTableRecord
  2
0
 70
     0
 62
     7
  6
Continuous
370
    -3
390
F
  0
ENDTAB
  0
TABLE
  2
STYLE
  5
3
330
0
100
AcDbSymbolTable
 70
     1
  0
STYLE
  5
11
330
3
100
AcDbSymbolTableRecord
100
AcDbTextStyleTableRecord
  2
Standard
 70
     0
 40
0.0
 41
1.0
 50
0.0
 71
     0
 42
0.2
  3
txt
  4

  0
ENDTAB
  0
TABLE
  2
VIEW
  5
6
330
0
100
AcDbSymbolTable
 70
     0
  0
ENDTAB
  0
TABLE
  2
UCS
  5
7
330
0
100
AcDbSymbolTable
 70
     0
  0
ENDTAB
  0
TABLE
  2
APPID
  5
9
330
0
100
AcDbSymbolTable
 70
     1
  0
APPID
  5
12
330
9
100
AcDbSymbolTableRecord
100
AcDbRegAppTableRecord
  2
ACAD
 70
     0
  0
ENDTAB
  0
TABLE
  2
DIMSTYLE
  5
A
330
0
100
AcDbSymbolTable
 70
     1
100
AcDbDimStyleTable
 71
     0
  0
DIMSTYLE
105
3BA
330
A
100
AcDbSymbolTableRecord
100
AcDbDimStyleTableRecord
  2
Standard
 70
     0
340
11
  0
ENDTAB
  0
TABLE
  2
BLOCK_RECORD
  5
1
330
0
100
AcDbSymbolTable
 70
     0
  0
BLOCK_RECORD
  5
1E
330
1
100
AcDbSymbolTableRecord
100
AcDbBlockTableRecord
  2
*Model_Space
340
21
  0
BLOCK_RECORD
  5
1A
330
1
100
AcDbSymbolTableRecord
100
AcDbBlockTableRecord
  2
*Paper_Space
340
1D
  0
ENDTAB
  0
ENDSEC
  0
SECTION
  2
BLOCKS
  0
BLOCK
  5
1F
330
1E
100
AcDbEntity
  8
0
100
AcDbBlockBegin
  2
*Model_Space
 70
     0
 10
0.0
 20
0.0
 30
0.0
  3
*Model_Space
  1

  0
ENDBLK
  5
20
330
1E
100
AcDbEntity
  8
0
100
AcDbBlockEnd
  0
BLOCK
  5
1B
330
1A
100
AcDbEntity
 67
     1
  8
0
100
AcDbBlockBegin
  2
*Paper_Space
 70
     0
 10
0.0
 20
0.0
 30
0.0
  3
*Paper_Space
  1

  0
ENDBLK
  5
1C
330
1A
100
AcDbEntity
 67
     1
  8
0
100
AcDbBlockEnd
  0
ENDSEC
  0
SECTION
  2
ENTITIES
  0
LINE
  5
22
330
1E
100
AcDbEntity
  8
0
100
AcDbLine
 10
0.216499999999995
 20
99.73650000000001
 30
0.0
 11
0.526500000000007
 21
99.4564
 31
0.0
  0
LINE
  5
3A
330
1E
100
AcDbEntity
  8
0
100
AcDbLine
 10
1.178500000000009
 20
126.566
 30
0.0
 11
1.43650000000001
 21
126.926
 31
0.0
  0
LINE
  5
3B
330
1E
100
AcDbEntity
  8
0
100
AcDbLine
 10
1.10650000000001
 20
126.28
 30
0.0
 11
1.178500000000009
 21
126.566
 31
0.0
  0
LINE
  5
3E
330
1E
100
AcDbEntity
  8
0
100
AcDbLine
 10
0.526500000000007
 20
99.4564
 30
0.0
 11
10.1835
 21
99.15649999999999
 31
0.0
  0
LINE
  5
7C
330
1E
100
AcDbEntity
  8
0
100
AcDbLine
 10
10.9895
 20
126.612
 30
0.0
 11
11.1685
 21
126.451
 31
0.0
  0
LINE
  5
7F
330
1E
100
AcDbEntity
  8
0
100
AcDbLine
 10
11.6025
 20
126.606
 30
0.0
 11
22.6795
 21
126.1349999999999
 31
0.0
  0
LINE
  5
80
330
1E
100
AcDbEntity
  8
0
100
AcDbLine
 10
11.5955
 20
126.401
 30
0.0
 11
11.6025
 21
126.606
 31
0.0
  0
LINE
  5
82
330
1E
100
AcDbEntity
  8
0
100
AcDbLine
 10
1.43650000000001
 20
126.926
 30
0.0
 11
10.9895
 21
126.612
 31
0.0
  0
LINE
  5
84
330
1E
100
AcDbEntity
  8
0
100
AcDbLine
 10
10.62149999999999
 20
99.0764
 30
0.0
 11
10.6295
 21
99.29020000000001
 31
0.0
  0
LINE
  5
85
330
1E
100
AcDbEntity
  8
0
100
AcDbLine
 10
10.62149999999999
 20
99.0764
 30
0.0
 11
21.5985
 21
98.7265
 31
0.0
  0
LINE
  5
86
330
1E
100
AcDbEntity
  8
0
100
AcDbLine
 10
23.6775
 20
98.93869999999999
 30
0.0
 11
25.6605
 21
99.37649999999999
 31
0.0
  0
LINE
  5
B6
330
1E
100
AcDbEntity
  8
0
100
AcDbLine
 10
144.5875
 20
0.128999999999986
 30
0.0
 11
144.5875
 21
3.62899999999999
 31
0.0
  0
LINE
  5
D6
330
1E
100
AcDbEntity
  8
0
100
AcDbLine
 10
26.7045
 20
98.37700000000001
 30
0.0
 11
26.7275
 21
98.12899999999999
 31
0.0
  0
LINE
  5
DA
330
1E
100
AcDbEntity
  8
0
100
AcDbLine
 10
26.7275
 20
98.12899999999999
 30
0.0
 11
90.10049999999999
 21
95.899
 31
0.0
  0
LINE
  5
DD
330
1E
100
AcDbEntity
  8
0
100
AcDbLine
 10
88.5875
 20
3.62899999999999
 30
0.0
 11
89.08750000000001
 21
4.12899999999999
 31
0.0
  0
LINE
  5
115
330
1E
100
AcDbEntity
  8
0
100
AcDbLine
 10
102.8874999999999
 20
4.12899999999999
 30
0.0
 11
106.0875
 21
4.12899999999999
 31
0.0
  0
LINE
  5
117
330
1E
100
AcDbEntity
  8
0
100
AcDbLine
 10
106.0875
 20
4.12899999999999
 30
0.0
 11
109.4875
 21
4.12899999999999
 31
0.0
  0
LINE
  5
119
330
1E
100
AcDbEntity
  8
0
100
AcDbLine
 10
99.88750000000001
 20
4.12899999999999
 30
0.0
 11
102.8874999999999
 21
4.12899999999999
 31
0.0
  0
LINE
  5
11B
330
1E
100
AcDbEntity
  8
0
100
AcDbLine
 10
109.4875
 20
4.12899999999999
 30
0.0
 11
112.9874999999999
 21
4.12899999999999
 31
0.0
  0
LINE
  5
11E
330
1E
100
AcDbEntity
  8
0
100
AcDbLine
 10
138.3874999999999
 20
4.12899999999999
 30
0.0
 11
140.3875
 21
4.12899999999999
 31
0.0
  0
LINE
  5
120
330
1E
100
AcDbEntity
  8
0
100
AcDbLine
 10
140.3875
 20
4.12899999999999
 30
0.0
 11
141.9875
 21
4.12899999999999
 31
0.0
  0
LINE
  5
122
330
1E
100
AcDbEntity
  8
0
100
AcDbLine
 10
143.0875
 20
4.12899999999999
 30
0.0
 11
143.7875
 21
4.12899999999999
 31
0.0
  0
LINE
  5
124
330
1E
100
AcDbEntity
  8
0
100
AcDbLine
 10
143.7875
 20
4.12899999999999
 30
0.0
 11
144.0875
 21
4.12899999999999
 31
0.0
  0
LINE
  5
126
330
1E
100
AcDbEntity
  8
0
100
AcDbLine
 10
141.9875
 20
4.12899999999999
 30
0.0
 11
143.0875
 21
4.12899999999999
 31
0.0
  0
LINE
  5
127
330
1E
100
AcDbEntity
  8
0
100
AcDbLine
 10
144.0875
 20
4.12899999999999
 30
0.0
 11
144.5875
 21
3.62899999999999
 31
0.0
  0
LINE
  5
129
330
1E
100
AcDbEntity
  8
0
100
AcDbLine
 10
135.9875
 20
4.12899999999999
 30
0.0
 11
138.3874999999999
 21
4.12899999999999
 31
0.0
  0
LINE
  5
12B
330
1E
100
AcDbEntity
  8
0
100
AcDbLine
 10
133.2875
 20
4.12899999999999
 30
0.0
 11
135.9875
 21
4.12899999999999
 31
0.0
  0
LINE
  5
12D
330
1E
100
AcDbEntity
  8
0
100
AcDbLine
 10
130.2875
 20
4.12899999999999
 30
0.0
 11
133.2875
 21
4.12899999999999
 31
0.0
  0
LINE
  5
12F
330
1E
100
AcDbEntity
  8
0
100
AcDbLine
 10
127.0874999999999
 20
4.12899999999999
 30
0.0
 11
130.2875
 21
4.12899999999999
 31
0.0
  0
LINE
  5
131
330
1E
100
AcDbEntity
  8
0
100
AcDbLine
 10
123.6874999999999
 20
4.12899999999999
 30
0.0
 11
127.0874999999999
 21
4.12899999999999
 31
0.0
  0
LINE
  5
133
330
1E
100
AcDbEntity
  8
0
100
AcDbLine
 10
120.1875
 20
4.12899999999999
 30
0.0
 11
123.6874999999999
 21
4.12899999999999
 31
0.0
  0
LINE
  5
135
330
1E
100
AcDbEntity
  8
0
100
AcDbLine
 10
116.5874999999999
 20
4.12899999999999
 30
0.0
 11
120.1875
 21
4.12899999999999
 31
0.0
  0
LINE
  5
136
330
1E
100
AcDbEntity
  8
0
100
AcDbLine
 10
112.9874999999999
 20
4.12899999999999
 30
0.0
 11
116.5874999999999
 21
4.12899999999999
 31
0.0
  0
LINE
  5
139
330
1E
100
AcDbEntity
  8
0
100
AcDbLine
 10
97.1875
 20
4.12899999999999
 30
0.0
 11
99.88750000000001
 21
4.12899999999999
 31
0.0
  0
LINE
  5
13A
330
1E
100
AcDbEntity
  8
0
100
AcDbLine
 10
94.78749999999999
 20
4.12899999999999
 30
0.0
 11
97.1875
 21
4.12899999999999
 31
0.0
  0
LINE
  5
13C
330
1E
100
AcDbEntity
  8
0
100
AcDbLine
 10
92.7875
 20
4.12899999999999
 30
0.0
 11
94.78749999999999
 21
4.12899999999999
 31
0.0
  0
LINE
  5
13E
330
1E
100
AcDbEntity
  8
0
100
AcDbLine
 10
91.1875
 20
4.12899999999999
 30
0.0
 11
92.7875
 21
4.12899999999999
 31
0.0
  0
LINE
  5
140
330
1E
100
AcDbEntity
  8
0
100
AcDbLine
 10
90.0875
 20
4.12899999999999
 30
0.0
 11
91.1875
 21
4.12899999999999
 31
0.0
  0
LINE
  5
142
330
1E
100
AcDbEntity
  8
0
100
AcDbLine
 10
89.3875
 20
4.12899999999999
 30
0.0
 11
90.0875
 21
4.12899999999999
 31
0.0
  0
LINE
  5
14E
330
1E
100
AcDbEntity
  8
0
100
AcDbLine
 10
96.58750000000001
 20
4.62899999999999
 30
0.0
 11
98.08750000000001
 21
5.12899999999999
 31
0.0
  0
LINE
  5
154
330
1E
100
AcDbEntity
  8
0
100
AcDbLine
 10
90.37350000000001
 20
5.10499999999999
 30
0.0
 11
91.1565
 21
5.35299999999999
 31
0.0
  0
LINE
  5
155
330
1E
100
AcDbEntity
  8
0
100
AcDbLine
 10
91.1565
 20
5.35299999999999
 30
0.0
 11
96.26750000000001
 21
6.55299999999999
 31
0.0
  0
LINE
  5
156
330
1E
100
AcDbEntity
  8
0
100
AcDbLine
 10
95.55750000000001
 20
94.25299999999998
 30
0.0
 11
98.0075
 21
91.889
 31
0.0
  0
LINE
  5
157
330
1E
100
AcDbEntity
  8
0
100
AcDbLine
 10
92.8175
 20
95.51100000000001
 30
0.0
 11
95.55750000000001
 21
94.25299999999998
 31
0.0
  0
LINE
  5
158
330
1E
100
AcDbEntity
  8
0
100
AcDbLine
 10
90.10049999999999
 20
95.899
 30
0.0
 11
92.8175
 21
95.51100000000001
 31
0.0
  0
LINE
  5
159
330
1E
100
AcDbEntity
  8
0
100
AcDbLine
 10
97.6275
 20
7.57799999999999
 30
0.0
 11
98.27750000000001
 21
8.653999999999991
 31
0.0
  0
LINE
  5
15A
330
1E
100
AcDbEntity
  8
0
100
AcDbLine
 10
98.27750000000001
 20
8.653999999999991
 30
0.0
 11
98.59850000000001
 21
9.854999999999989
 31
0.0
  0
LINE
  5
15B
330
1E
100
AcDbEntity
  8
0
100
AcDbLine
 10
98.0075
 20
91.889
 30
0.0
 11
99.36750000000001
 21
89.335
 31
0.0
  0
LINE
  5
15C
330
1E
100
AcDbEntity
  8
0
100
AcDbLine
 10
96.26750000000001
 20
6.55299999999999
 30
0.0
 11
97.6275
 21
7.57799999999999
 31
0.0
  0
LINE
  5
15D
330
1E
100
AcDbEntity
  8
0
100
AcDbLine
 10
98.08750000000001
 20
5.12899999999999
 30
0.0
 11
99.08750000000001
 21
6.12899999999999
 31
0.0
  0
LINE
  5
165
330
1E
100
AcDbEntity
  8
0
100
AcDbLine
 10
98.78350000000001
 20
28.14199999999999
 30
0.0
 11
99.94750000000001
 21
86.829
 31
0.0
  0
LINE
  5
166
330
1E
100
AcDbEntity
  8
0
100
AcDbLine
 10
98.76750000000001
 20
13.697
 30
0.0
 11
98.78350000000001
 21
28.14199999999999
 31
0.0
  0
LINE
  5
167
330
1E
100
AcDbEntity
  8
0
100
AcDbLine
 10
98.59850000000001
 20
9.854999999999989
 30
0.0
 11
98.76750000000001
 21
13.697
 31
0.0
  0
LINE
  5
168
330
1E
100
AcDbEntity
  8
0
100
AcDbLine
 10
99.36750000000001
 20
89.335
 30
0.0
 11
99.94750000000001
 21
86.829
 31
0.0
  0
LINE
  5
169
330
1E
100
AcDbEntity
  8
0
100
AcDbLine
 10
98.78350000000001
 20
28.14199999999999
 30
0.0
 11
99.94750000000001
 21
86.829
 31
0.0
  0
LINE
  5
16A
330
1E
100
AcDbEntity
  8
0
100
AcDbLine
 10
99.58750000000001
 20
8.12899999999999
 30
0.0
 11
100.0875
 21
8.62899999999999
 31
0.0
  0
LINE
  5
16B
330
1E
100
AcDbEntity
  8
0
100
AcDbLine
 10
99.58750000000001
 20
8.12899999999999
 30
0.0
 11
99.78749999999999
 21
8.12899999999999
 31
0.0
  0
LINE
  5
16C
330
1E
100
AcDbEntity
  8
0
100
AcDbLine
 10
99.58750000000001
 20
7.62899999999999
 30
0.0
 11
99.58750000000001
 21
8.12899999999999
 31
0.0
  0
LINE
  5
16E
330
1E
100
AcDbEntity
  8
0
100
AcDbLine
 10
99.08750000000001
 20
6.12899999999999
 30
0.0
 11
99.58750000000001
 21
7.62899999999999
 31
0.0
  0
LINE
  5
175
330
1E
100
AcDbEntity
  8
0
100
AcDbLine
 10
99.78749999999999
 20
8.12899999999999
 30
0.0
 11
100.1875
 21
8.12899999999999
 31
0.0
  0
LINE
  5
176
330
1E
100
AcDbEntity
  8
0
100
AcDbLine
 10
100.0875
 20
8.62899999999999
 30
0.0
 11
100.2874999999999
 21
8.62899999999999
 31
0.0
  0
LINE
  5
177
330
1E
100
AcDbEntity
  8
0
100
AcDbLine
 10
100.0875
 20
8.62899999999999
 30
0.0
 11
100.0875
 21
9.62899999999999
 31
0.0
  0
LINE
  5
178
330
1E
100
AcDbEntity
  8
0
100
AcDbLine
 10
100.2874999999999
 20
8.62899999999999
 30
0.0
 11
100.6874999999999
 21
8.62899999999999
 31
0.0
  0
LINE
  5
17A
330
1E
100
AcDbEntity
  8
0
100
AcDbLine
 10
100.1875
 20
8.12899999999999
 30
0.0
 11
100.8874999999999
 21
8.12899999999999
 31
0.0
  0
LINE
  5
183
330
1E
100
AcDbEntity
  8
0
100
AcDbLine
 10
100.6874999999999
 20
8.62899999999999
 30
0.0
 11
101.3875
 21
8.62899999999999
 31
0.0
  0
LINE
  5
185
330
1E
100
AcDbEntity
  8
0
100
AcDbLine
 10
100.8874999999999
 20
8.12899999999999
 30
0.0
 11
101.8874999999999
 21
8.12899999999999
 31
0.0
  0
LINE
  5
186
330
1E
100
AcDbEntity
  8
0
100
AcDbLine
 10
101.3875
 20
8.62899999999999
 30
0.0
 11
102.2874999999999
 21
8.62899999999999
 31
0.0
  0
LINE
  5
190
330
1E
100
AcDbEntity
  8
0
100
AcDbLine
 10
101.8874999999999
 20
8.12899999999999
 30
0.0
 11
103.0874999999999
 21
8.12899999999999
 31
0.0
  0
LINE
  5
193
330
1E
100
AcDbEntity
  8
0
100
AcDbLine
 10
102.2874999999999
 20
8.62899999999999
 30
0.0
 11
103.4874999999999
 21
8.62899999999999
 31
0.0
  0
LINE
  5
194
330
1E
100
AcDbEntity
  8
0
100
AcDbLine
 10
103.4874999999999
 20
8.62899999999999
 30
0.0
 11
104.9874999999999
 21
8.62899999999999
 31
0.0
  0
LINE
  5
196
330
1E
100
AcDbEntity
  8
0
100
AcDbLine
 10
103.0874999999999
 20
8.12899999999999
 30
0.0
 11
104.5875
 21
8.12899999999999
 31
0.0
  0
LINE
  5
1A4
330
1E
100
AcDbEntity
  8
0
100
AcDbLine
 10
104.9874999999999
 20
8.62899999999999
 30
0.0
 11
106.5875
 21
8.62899999999999
 31
0.0
  0
LINE
  5
1A7
330
1E
100
AcDbEntity
  8
0
100
AcDbLine
 10
104.5875
 20
8.12899999999999
 30
0.0
 11
106.2875
 21
8.12899999999999
 31
0.0
  0
LINE
  5
1AA
330
1E
100
AcDbEntity
  8
0
100
AcDbLine
 10
103.4874999999999
 20
9.62899999999999
 30
0.0
 11
104.9874999999999
 21
9.62899999999999
 31
0.0
  0
LINE
  5
1AB
330
1E
100
AcDbEntity
  8
0
100
AcDbLine
 10
102.2874999999999
 20
9.62899999999999
 30
0.0
 11
103.4874999999999
 21
9.62899999999999
 31
0.0
  0
LINE
  5
1AC
330
1E
100
AcDbEntity
  8
0
100
AcDbLine
 10
101.3875
 20
9.62899999999999
 30
0.0
 11
102.2874999999999
 21
9.62899999999999
 31
0.0
  0
LINE
  5
1AD
330
1E
100
AcDbEntity
  8
0
100
AcDbLine
 10
100.6874999999999
 20
9.62899999999999
 30
0.0
 11
101.3875
 21
9.62899999999999
 31
0.0
  0
LINE
  5
1AE
330
1E
100
AcDbEntity
  8
0
100
AcDbLine
 10
100.2874999999999
 20
9.62899999999999
 30
0.0
 11
100.6874999999999
 21
9.62899999999999
 31
0.0
  0
LINE
  5
1AF
330
1E
100
AcDbEntity
  8
0
100
AcDbLine
 10
103.0874999999999
 20
10.1188
 30
0.0
 11
104.5875
 21
10.1188
 31
0.0
  0
LINE
  5
1B0
330
1E
100
AcDbEntity
  8
0
100
AcDbLine
 10
101.8874999999999
 20
10.1188
 30
0.0
 11
103.0874999999999
 21
10.1188
 31
0.0
  0
LINE
  5
1B1
330
1E
100
AcDbEntity
  8
0
100
AcDbLine
 10
100.1875
 20
10.1188
 30
0.0
 11
100.8874999999999
 21
10.1188
 31
0.0
  0
LINE
  5
1B3
330
1E
100
AcDbEntity
  8
0
100
AcDbLine
 10
100.8874999999999
 20
10.1188
 30
0.0
 11
101.8874999999999
 21
10.1188
 31
0.0
  0
LINE
  5
1B4
330
1E
100
AcDbEntity
  8
0
100
AcDbLine
 10
99.78749999999999
 20
10.1188
 30
0.0
 11
100.1875
 21
10.1188
 31
0.0
  0
LINE
  5
1B6
330
1E
100
AcDbEntity
  8
0
100
AcDbLine
 10
100.0875
 20
9.62899999999999
 30
0.0
 11
100.2874999999999
 21
9.62899999999999
 31
0.0
  0
LINE
  5
1B7
330
1E
100
AcDbEntity
  8
0
100
AcDbLine
 10
100.0875
 20
9.62899999999999
 30
0.0
 11
100.0875
 21
8.62899999999999
 31
0.0
  0
LINE
  5
1B9
330
1E
100
AcDbEntity
  8
0
100
AcDbLine
 10
106.2875
 20
8.12899999999999
 30
0.0
 11
108.0875
 21
8.12899999999999
 31
0.0
  0
LINE
  5
1BA
330
1E
100
AcDbEntity
  8
0
100
AcDbLine
 10
106.5875
 20
8.62899999999999
 30
0.0
 11
108.3875
 21
8.62899999999999
 31
0.0
  0
LINE
  5
1C3
330
1E
100
AcDbEntity
  8
0
100
AcDbLine
 10
104.9874999999999
 20
9.62899999999999
 30
0.0
 11
106.5875
 21
9.62899999999999
 31
0.0
  0
LINE
  5
1C5
330
1E
100
AcDbEntity
  8
0
100
AcDbLine
 10
104.5875
 20
10.1188
 30
0.0
 11
106.2875
 21
10.1188
 31
0.0
  0
LINE
  5
1C7
330
1E
100
AcDbEntity
  8
0
100
AcDbLine
 10
108.3875
 20
8.62899999999999
 30
0.0
 11
110.2875
 21
8.62899999999999
 31
0.0
  0
LINE
  5
1C9
330
1E
100
AcDbEntity
  8
0
100
AcDbLine
 10
108.0875
 20
8.12899999999999
 30
0.0
 11
110.0875
 21
8.12899999999999
 31
0.0
  0
LINE
  5
1D0
330
1E
100
AcDbEntity
  8
0
100
AcDbLine
 10
106.5875
 20
9.62899999999999
 30
0.0
 11
108.3875
 21
9.62899999999999
 31
0.0
  0
LINE
  5
1D1
330
1E
100
AcDbEntity
  8
0
100
AcDbLine
 10
106.2875
 20
10.1188
 30
0.0
 11
108.0875
 21
10.1188
 31
0.0
  0
LINE
  5
1D3
330
1E
100
AcDbEntity
  8
0
100
AcDbLine
 10
110.0875
 20
8.12899999999999
 30
0.0
 11
112.1874999999999
 21
8.12899999999999
 31
0.0
  0
LINE
  5
1D4
330
1E
100
AcDbEntity
  8
0
100
AcDbLine
 10
110.2875
 20
8.62899999999999
 30
0.0
 11
112.2875
 21
8.62899999999999
 31
0.0
  0
LINE
  5
1DD
330
1E
100
AcDbEntity
  8
0
100
AcDbLine
 10
108.3875
 20
9.62899999999999
 30
0.0
 11
110.2875
 21
9.62899999999999
 31
0.0
  0
LINE
  5
1DE
330
1E
100
AcDbEntity
  8
0
100
AcDbLine
 10
108.0875
 20
10.1188
 30
0.0
 11
110.0875
 21
10.1188
 31
0.0
  0
LINE
  5
1E0
330
1E
100
AcDbEntity
  8
0
100
AcDbLine
 10
112.1874999999999
 20
8.12899999999999
 30
0.0
 11
114.3874999999999
 21
8.12899999999999
 31
0.0
  0
LINE
  5
1E1
330
1E
100
AcDbEntity
  8
0
100
AcDbLine
 10
112.2875
 20
8.62899999999999
 30
0.0
 11
114.4875
 21
8.62899999999999
 31
0.0
  0
LINE
  5
1EA
330
1E
100
AcDbEntity
  8
0
100
AcDbLine
 10
110.2875
 20
9.62899999999999
 30
0.0
 11
112.2875
 21
9.62899999999999
 31
0.0
  0
LINE
  5
1EB
330
1E
100
AcDbEntity
  8
0
100
AcDbLine
 10
110.0875
 20
10.1188
 30
0.0
 11
112.1874999999999
 21
10.1188
 31
0.0
  0
LINE
  5
1EF
330
1E
100
AcDbEntity
  8
0
100
AcDbLine
 10
114.3874999999999
 20
8.12899999999999
 30
0.0
 11
116.5874999999999
 21
8.12899999999999
 31
0.0
  0
LINE
  5
1F0
330
1E
100
AcDbEntity
  8
0
100
AcDbLine
 10
114.4875
 20
8.62899999999999
 30
0.0
 11
116.5874999999999
 21
8.62899999999999
 31
0.0
  0
LINE
  5
1F9
330
1E
100
AcDbEntity
  8
0
100
AcDbLine
 10
112.2875
 20
9.62899999999999
 30
0.0
 11
114.4875
 21
9.62899999999999
 31
0.0
  0
LINE
  5
1FA
330
1E
100
AcDbEntity
  8
0
100
AcDbLine
 10
112.1874999999999
 20
10.1188
 30
0.0
 11
114.3874999999999
 21
10.1188
 31
0.0
  0
LINE
  5
1FB
330
1E
100
AcDbEntity
  8
0
100
AcDbLine
 10
116.5874999999999
 20
8.62899999999999
 30
0.0
 11
118.6875
 21
8.62899999999999
 31
0.0
  0
LINE
  5
1FC
330
1E
100
AcDbEntity
  8
0
100
AcDbLine
 10
116.5874999999999
 20
9.62899999999999
 30
0.0
 11
118.6875
 21
9.62899999999999
 31
0.0
  0
LINE
  5
1FE
330
1E
100
AcDbEntity
  8
0
100
AcDbLine
 10
116.5874999999999
 20
8.12899999999999
 30
0.0
 11
118.7875
 21
8.12899999999999
 31
0.0
  0
LINE
  5
205
330
1E
100
AcDbEntity
  8
0
100
AcDbLine
 10
118.6875
 20
8.62899999999999
 30
0.0
 11
120.8875
 21
8.62899999999999
 31
0.0
  0
LINE
  5
207
330
1E
100
AcDbEntity
  8
0
100
AcDbLine
 10
118.7875
 20
8.12899999999999
 30
0.0
 11
120.9875
 21
8.12899999999999
 31
0.0
  0
LINE
  5
20D
330
1E
100
AcDbEntity
  8
0
100
AcDbLine
 10
120.8875
 20
8.62899999999999
 30
0.0
 11
122.8875
 21
8.62899999999999
 31
0.0
  0
LINE
  5
215
330
1E
100
AcDbEntity
  8
0
100
AcDbLine
 10
120.9875
 20
8.12899999999999
 30
0.0
 11
123.0875
 21
8.12899999999999
 31
0.0
  0
LINE
  5
21B
330
1E
100
AcDbEntity
  8
0
100
AcDbLine
 10
122.8875
 20
8.62899999999999
 30
0.0
 11
124.7875
 21
8.62899999999999
 31
0.0
  0
LINE
  5
21D
330
1E
100
AcDbEntity
  8
0
100
AcDbLine
 10
123.0875
 20
8.12899999999999
 30
0.0
 11
125.0875
 21
8.12899999999999
 31
0.0
  0
LINE
  5
221
330
1E
100
AcDbEntity
  8
0
100
AcDbLine
 10
124.7875
 20
8.62899999999999
 30
0.0
 11
126.5875
 21
8.62899999999999
 31
0.0
  0
LINE
  5
22B
330
1E
100
AcDbEntity
  8
0
100
AcDbLine
 10
125.0875
 20
8.12899999999999
 30
0.0
 11
126.8874999999999
 21
8.12899999999999
 31
0.0
  0
LINE
  5
231
330
1E
100
AcDbEntity
  8
0
100
AcDbLine
 10
126.5875
 20
8.62899999999999
 30
0.0
 11
128.1875
 21
8.62899999999999
 31
0.0
  0
LINE
  5
233
330
1E
100
AcDbEntity
  8
0
100
AcDbLine
 10
126.8874999999999
 20
8.12899999999999
 30
0.0
 11
128.5875
 21
8.12899999999999
 31
0.0
  0
LINE
  5
238
330
1E
100
AcDbEntity
  8
0
100
AcDbLine
 10
128.1875
 20
8.62899999999999
 30
0.0
 11
129.6875
 21
8.62899999999999
 31
0.0
  0
LINE
  5
242
330
1E
100
AcDbEntity
  8
0
100
AcDbLine
 10
128.5875
 20
8.12899999999999
 30
0.0
 11
130.0875
 21
8.12899999999999
 31
0.0
  0
LINE
  5
243
330
1E
100
AcDbEntity
  8
0
100
AcDbLine
 10
129.6875
 20
8.62899999999999
 30
0.0
 11
130.8875
 21
8.62899999999999
 31
0.0
  0
LINE
  5
24D
330
1E
100
AcDbEntity
  8
0
100
AcDbLine
 10
130.0875
 20
8.12899999999999
 30
0.0
 11
131.2875
 21
8.12899999999999
 31
0.0
  0
LINE
  5
251
330
1E
100
AcDbEntity
  8
0
100
AcDbLine
 10
130.8875
 20
8.62899999999999
 30
0.0
 11
131.7874999999999
 21
8.62899999999999
 31
0.0
  0
LINE
  5
252
330
1E
100
AcDbEntity
  8
0
100
AcDbLine
 10
131.7874999999999
 20
8.62899999999999
 30
0.0
 11
132.4875
 21
8.62899999999999
 31
0.0
  0
LINE
  5
254
330
1E
100
AcDbEntity
  8
0
100
AcDbLine
 10
131.2875
 20
8.12899999999999
 30
0.0
 11
132.2875
 21
8.12899999999999
 31
0.0
  0
LINE
  5
260
330
1E
100
AcDbEntity
  8
0
100
AcDbLine
 10
129.6875
 20
9.62899999999999
 30
0.0
 11
130.8875
 21
9.62899999999999
 31
0.0
  0
LINE
  5
261
330
1E
100
AcDbEntity
  8
0
100
AcDbLine
 10
130.8875
 20
9.62899999999999
 30
0.0
 11
131.7874999999999
 21
9.62899999999999
 31
0.0
  0
LINE
  5
262
330
1E
100
AcDbEntity
  8
0
100
AcDbLine
 10
132.4875
 20
8.62899999999999
 30
0.0
 11
132.8874999999999
 21
8.62899999999999
 31
0.0
  0
LINE
  5
264
330
1E
100
AcDbEntity
  8
0
100
AcDbLine
 10
132.2875
 20
8.12899999999999
 30
0.0
 11
132.9875
 21
8.12899999999999
 31
0.0
  0
LINE
  5
268
330
1E
100
AcDbEntity
  8
0
100
AcDbLine
 10
132.8874999999999
 20
8.62899999999999
 30
0.0
 11
133.0875
 21
8.62899999999999
 31
0.0
  0
LINE
  5
26F
330
1E
100
AcDbEntity
  8
0
100
AcDbLine
 10
131.7874999999999
 20
9.62899999999999
 30
0.0
 11
132.4875
 21
9.62899999999999
 31
0.0
  0
LINE
  5
270
330
1E
100
AcDbEntity
  8
0
100
AcDbLine
 10
132.4875
 20
9.62899999999999
 30
0.0
 11
132.8874999999999
 21
9.62899999999999
 31
0.0
  0
LINE
  5
277
330
1E
100
AcDbEntity
  8
0
100
AcDbLine
 10
144.1225
 20
4.22699999999999
 30
0.0
 11
144.165441704036
 21
4.0510582959641
 31
0.0
  0
LINE
  5
279
330
1E
100
AcDbEntity
  8
0
100
AcDbLine
 10
144.0025
 20
4.41399999999999
 30
0.0
 11
144.1225
 21
4.22699999999999
 31
0.0
  0
LINE
  5
287
330
1E
100
AcDbEntity
  8
0
100
AcDbLine
 10
132.9875
 20
8.12899999999999
 30
0.0
 11
133.3874999999999
 21
8.12899999999999
 31
0.0
  0
LINE
  5
289
330
1E
100
AcDbEntity
  8
0
100
AcDbLine
 10
133.3874999999999
 20
8.12899999999999
 30
0.0
 11
133.5875
 21
8.12899999999999
 31
0.0
  0
LINE
  5
290
330
1E
100
AcDbEntity
  8
0
100
AcDbLine
 10
133.0875
 20
8.62899999999999
 30
0.0
 11
133.5875
 21
8.12899999999999
 31
0.0
  0
LINE
  5
291
330
1E
100
AcDbEntity
  8
0
100
AcDbLine
 10
133.0875
 20
8.62899999999999
 30
0.0
 11
133.0875
 21
9.62899999999999
 31
0.0
  0
LINE
  5
292
330
1E
100
AcDbEntity
  8
0
100
AcDbLine
 10
133.5875
 20
7.62899999999999
 30
0.0
 11
134.0875
 21
6.12899999999999
 31
0.0
  0
LINE
  5
293
330
1E
100
AcDbEntity
  8
0
100
AcDbLine
 10
133.5875
 20
7.62899999999999
 30
0.0
 11
133.5875
 21
8.12899999999999
 31
0.0
  0
LINE
  5
294
330
1E
100
AcDbEntity
  8
0
100
AcDbLine
 10
134.0875
 20
6.12899999999999
 30
0.0
 11
135.0875
 21
5.12899999999999
 31
0.0
  0
LINE
  5
295
330
1E
100
AcDbEntity
  8
0
100
AcDbLine
 10
143.1384999999999
 20
5.22799999999999
 30
0.0
 11
144.0025
 21
4.41399999999999
 31
0.0
  0
LINE
  5
296
330
1E
100
AcDbEntity
  8
0
100
AcDbLine
 10
137.4074999999999
 20
6.59699999999999
 30
0.0
 11
143.1384999999999
 21
5.22799999999999
 31
0.0
  0
LINE
  5
297
330
1E
100
AcDbEntity
  8
0
100
AcDbLine
 10
135.4474999999999
 20
8.649999999999989
 30
0.0
 11
136.1225
 21
7.57499999999999
 31
0.0
  0
LINE
  5
298
330
1E
100
AcDbEntity
  8
0
100
AcDbLine
 10
136.1225
 20
7.57499999999999
 30
0.0
 11
137.4074999999999
 21
6.59699999999999
 31
0.0
  0
LINE
  5
299
330
1E
100
AcDbEntity
  8
0
100
AcDbLine
 10
135.0875
 20
5.12899999999999
 30
0.0
 11
136.5875
 21
4.62899999999999
 31
0.0
  0
LINE
  5
29A
330
1E
100
AcDbEntity
  8
0
100
AcDbLine
 10
136.5875
 20
4.62899999999999
 30
0.0
 11
144.0875
 21
4.12899999999999
 31
0.0
  0
LINE
  5
29B
330
1E
100
AcDbEntity
  8
0
100
AcDbLine
 10
132.8874999999999
 20
9.62899999999999
 30
0.0
 11
133.0875
 21
9.62899999999999
 31
0.0
  0
LINE
  5
29C
330
1E
100
AcDbEntity
  8
0
100
AcDbLine
 10
133.0875
 20
9.62899999999999
 30
0.0
 11
133.5875
 21
10.1188
 31
0.0
  0
LINE
  5
29D
330
1E
100
AcDbEntity
  8
0
100
AcDbLine
 10
133.0875
 20
9.62899999999999
 30
0.0
 11
133.0875
 21
8.62899999999999
 31
0.0
  0
LINE
  5
29F
330
1E
100
AcDbEntity
  8
0
100
AcDbLine
 10
128.1875
 20
9.62899999999999
 30
0.0
 11
129.6875
 21
9.62899999999999
 31
0.0
  0
LINE
  5
2A0
330
1E
100
AcDbEntity
  8
0
100
AcDbLine
 10
126.5875
 20
9.62899999999999
 30
0.0
 11
128.1875
 21
9.62899999999999
 31
0.0
  0
LINE
  5
2A1
330
1E
100
AcDbEntity
  8
0
100
AcDbLine
 10
124.7875
 20
9.62899999999999
 30
0.0
 11
126.5875
 21
9.62899999999999
 31
0.0
  0
LINE
  5
2A3
330
1E
100
AcDbEntity
  8
0
100
AcDbLine
 10
122.8875
 20
9.62899999999999
 30
0.0
 11
124.7875
 21
9.62899999999999
 31
0.0
  0
LINE
  5
2A4
330
1E
100
AcDbEntity
  8
0
100
AcDbLine
 10
120.8875
 20
9.62899999999999
 30
0.0
 11
122.8875
 21
9.62899999999999
 31
0.0
  0
LINE
  5
2A5
330
1E
100
AcDbEntity
  8
0
100
AcDbLine
 10
128.5875
 20
10.1188
 30
0.0
 11
130.0875
 21
10.1188
 31
0.0
  0
LINE
  5
2A6
330
1E
100
AcDbEntity
  8
0
100
AcDbLine
 10
130.0875
 20
10.1188
 30
0.0
 11
131.2875
 21
10.1188
 31
0.0
  0
LINE
  5
2A7
330
1E
100
AcDbEntity
  8
0
100
AcDbLine
 10
131.2875
 20
10.1188
 30
0.0
 11
132.2875
 21
10.1188
 31
0.0
  0
LINE
  5
2A8
330
1E
100
AcDbEntity
  8
0
100
AcDbLine
 10
132.2875
 20
10.1188
 30
0.0
 11
132.9875
 21
10.1188
 31
0.0
  0
LINE
  5
2A9
330
1E
100
AcDbEntity
  8
0
100
AcDbLine
 10
132.9875
 20
10.1188
 30
0.0
 11
133.3874999999999
 21
10.1188
 31
0.0
  0
LINE
  5
2AA
330
1E
100
AcDbEntity
  8
0
100
AcDbLine
 10
133.3874999999999
 20
10.1188
 30
0.0
 11
133.5875
 21
10.1188
 31
0.0
  0
LINE
  5
2AB
330
1E
100
AcDbEntity
  8
0
100
AcDbLine
 10
126.8874999999999
 20
10.1188
 30
0.0
 11
128.5875
 21
10.1188
 31
0.0
  0
LINE
  5
2AC
330
1E
100
AcDbEntity
  8
0
100
AcDbLine
 10
125.0875
 20
10.1188
 30
0.0
 11
126.8874999999999
 21
10.1188
 31
0.0
  0
LINE
  5
2AD
330
1E
100
AcDbEntity
  8
0
100
AcDbLine
 10
123.0875
 20
10.1188
 30
0.0
 11
125.0875
 21
10.1188
 31
0.0
  0
LINE
  5
2AE
330
1E
100
AcDbEntity
  8
0
100
AcDbLine
 10
120.9875
 20
10.1188
 30
0.0
 11
123.0875
 21
10.1188
 31
0.0
  0
LINE
  5
2AF
330
1E
100
AcDbEntity
  8
0
100
AcDbLine
 10
118.7875
 20
10.1188
 30
0.0
 11
120.9875
 21
10.1188
 31
0.0
  0
LINE
  5
2B0
330
1E
100
AcDbEntity
  8
0
100
AcDbLine
 10
118.6875
 20
9.62899999999999
 30
0.0
 11
120.8875
 21
9.62899999999999
 31
0.0
  0
LINE
  5
2B4
330
1E
100
AcDbEntity
  8
0
100
AcDbLine
 10
116.5874999999999
 20
10.1188
 30
0.0
 11
118.7875
 21
10.1188
 31
0.0
  0
LINE
  5
2B5
330
1E
100
AcDbEntity
  8
0
100
AcDbLine
 10
114.4875
 20
9.62899999999999
 30
0.0
 11
116.5874999999999
 21
9.62899999999999
 31
0.0
  0
LINE
  5
2C7
330
1E
100
AcDbEntity
  8
0
100
AcDbLine
 10
111.2535
 20
33.62899999999999
 30
0.0
 11
113.9205
 21
33.62899999999999
 31
0.0
  0
LINE
  5
2C8
330
1E
100
AcDbEntity
  8
0
100
AcDbLine
 10
113.9205
 20
33.62899999999999
 30
0.0
 11
120.3214999999999
 21
33.62899999999999
 31
0.0
  0
LINE
  5
2CC
330
1E
100
AcDbEntity
  8
0
100
AcDbLine
 10
105.9195
 20
33.5202
 30
0.0
 11
111.2535
 21
33.62899999999999
 31
0.0
  0
LINE
  5
2CD
330
1E
100
AcDbEntity
  8
0
100
AcDbLine
 10
103.2514999999999
 20
33.3569
 30
0.0
 11
105.9195
 21
33.5202
 31
0.0
  0
LINE
  5
2CE
330
1E
100
AcDbEntity
  8
0
100
AcDbLine
 10
102.3625
 20
33.0848
 30
0.0
 11
103.2514999999999
 21
33.3569
 31
0.0
  0
LINE
  5
2D0
330
1E
100
AcDbEntity
  8
0
100
AcDbLine
 10
101.9185
 20
32.54059999999999
 30
0.0
 11
102.3625
 21
33.0848
 31
0.0
  0
LINE
  5
2D1
330
1E
100
AcDbEntity
  8
0
100
AcDbLine
 10
135.1275
 20
10.18999999999999
 30
0.0
 11
135.4474999999999
 21
8.649999999999989
 31
0.0
  0
LINE
  5
2D2
330
1E
100
AcDbEntity
  8
0
100
AcDbLine
 10
135.113488008639
 20
10.99577804667299
 30
0.0
 11
135.1275
 21
10.18999999999999
 31
0.0
  0
LINE
  5
2D3
330
1E
100
AcDbEntity
  8
0
100
AcDbLine
 10
135.113488008639
 20
10.99577804667299
 30
0.0
 11
135.1275
 21
10.18999999999999
 31
0.0
  0
LINE
  5
2D4
330
1E
100
AcDbEntity
  8
0
100
AcDbLine
 10
135.1018152441739
 20
10.8822164784903
 30
0.0
 11
139.9194999999999
 21
30.8392
 31
0.0
  0
LINE
  5
2D5
330
1E
100
AcDbEntity
  8
0
100
AcDbLine
 10
134.8221077549199
 20
26.671446715035
 30
0.0
 11
136.0554999999999
 21
31.8744
 31
0.0
  0
LINE
  5
2D6
330
1E
100
AcDbEntity
  8
0
100
AcDbLine
 10
140.3185
 20
31.8039
 30
0.0
 11
140.9545
 21
32.6323
 31
0.0
  0
LINE
  5
2D7
330
1E
100
AcDbEntity
  8
0
100
AcDbLine
 10
139.9194999999999
 20
30.8392
 30
0.0
 11
140.3185
 21
31.8039
 31
0.0
  0
LINE
  5
2D8
330
1E
100
AcDbEntity
  8
0
100
AcDbLine
 10
136.0554999999999
 20
31.8744
 30
0.0
 11
136.8545
 21
33.8039
 31
0.0
  0
LINE
  5
2DE
330
1E
100
AcDbEntity
  8
0
100
AcDbLine
 10
160.7835
 20
32.4279
 30
0.0
 11
160.7835
 21
33.0519
 31
0.0
  0
LINE
  5
2DF
330
1E
100
AcDbEntity
  8
0
100
AcDbLine
 10
160.7835
 20
32.4279
 30
0.0
 11
160.7835
 21
32.0439
 31
0.0
  0
LINE
  5
2E0
330
1E
100
AcDbEntity
  8
0
100
AcDbLine
 10
160.7835
 20
32.0439
 30
0.0
 11
160.7835
 21
32.4279
 31
0.0
  0
LINE
  5
2E1
330
1E
100
AcDbEntity
  8
0
100
AcDbLine
 10
160.7835
 20
32.0439
 30
0.0
 11
160.7835
 21
31.89989999999999
 31
0.0
  0
LINE
  5
2E2
330
1E
100
AcDbEntity
  8
0
100
AcDbLine
 10
160.7835
 20
31.89989999999999
 30
0.0
 11
160.7835
 21
32.0439
 31
0.0
  0
LINE
  5
2E6
330
1E
100
AcDbEntity
  8
0
100
AcDbLine
 10
160.5335
 20
31.8039
 30
0.0
 11
160.7835
 21
31.89989999999999
 31
0.0
  0
LINE
  5
2E8
330
1E
100
AcDbEntity
  8
0
100
AcDbLine
 10
148.7835
 20
31.8039
 30
0.0
 11
160.5335
 21
31.8039
 31
0.0
  0
LINE
  5
2E9
330
1E
100
AcDbEntity
  8
0
100
AcDbLine
 10
131.2564999999999
 20
32.54059999999999
 30
0.0
 11
133.5875
 21
10.1188
 31
0.0
  0
LINE
  5
2F6
330
1E
100
AcDbEntity
  8
0
100
AcDbLine
 10
120.3214999999999
 20
33.62899999999999
 30
0.0
 11
120.8544999999999
 21
33.62899999999999
 31
0.0
  0
LINE
  5
2FA
330
1E
100
AcDbEntity
  8
0
100
AcDbLine
 10
120.8544999999999
 20
33.62899999999999
 30
0.0
 11
121.2104999999999
 21
33.62899999999999
 31
0.0
  0
LINE
  5
2FB
330
1E
100
AcDbEntity
  8
0
100
AcDbLine
 10
121.2104999999999
 20
33.62899999999999
 30
0.0
 11
121.4775
 21
33.62899999999999
 31
0.0
  0
LINE
  5
2FC
330
1E
100
AcDbEntity
  8
0
100
AcDbLine
 10
121.4775
 20
33.62899999999999
 30
0.0
 11
121.7435
 21
33.62899999999999
 31
0.0
  0
LINE
  5
2FE
330
1E
100
AcDbEntity
  8
0
100
AcDbLine
 10
121.7435
 20
33.62899999999999
 30
0.0
 11
121.8324999999999
 21
33.62899999999999
 31
0.0
  0
LINE
  5
300
330
1E
100
AcDbEntity
  8
0
100
AcDbLine
 10
121.9214999999999
 20
33.62899999999999
 30
0.0
 11
127.2555
 21
33.5202
 31
0.0
  0
LINE
  5
301
330
1E
100
AcDbEntity
  8
0
100
AcDbLine
 10
121.8324999999999
 20
33.62899999999999
 30
0.0
 11
121.9214999999999
 21
33.62899999999999
 31
0.0
  0
LINE
  5
302
330
1E
100
AcDbEntity
  8
0
100
AcDbLine
 10
127.2555
 20
33.5202
 30
0.0
 11
129.9234999999999
 21
33.3569
 31
0.0
  0
LINE
  5
303
330
1E
100
AcDbEntity
  8
0
100
AcDbLine
 10
129.9234999999999
 20
33.3569
 30
0.0
 11
130.8124999999999
 21
33.0848
 31
0.0
  0
LINE
  5
304
330
1E
100
AcDbEntity
  8
0
100
AcDbLine
 10
136.8545
 20
33.8039
 30
0.0
 11
138.1264999999999
 21
35.4607
 31
0.0
  0
LINE
  5
305
330
1E
100
AcDbEntity
  8
0
100
AcDbLine
 10
141.7835
 20
33.268
 30
0.0
 11
142.7475
 21
33.6676
 31
0.0
  0
LINE
  5
306
330
1E
100
AcDbEntity
  8
0
100
AcDbLine
 10
142.7475
 20
33.6676
 30
0.0
 11
143.7834999999999
 21
33.8039
 31
0.0
  0
LINE
  5
308
330
1E
100
AcDbEntity
  8
0
100
AcDbLine
 10
143.7834999999999
 20
33.8039
 30
0.0
 11
145.7835
 21
33.8039
 31
0.0
  0
LINE
  5
30A
330
1E
100
AcDbEntity
  8
0
100
AcDbLine
 10
145.7835
 20
33.8039
 30
0.0
 11
148.7835
 21
31.8039
 31
0.0
  0
LINE
  5
31B
330
1E
100
AcDbEntity
  8
0
100
AcDbLine
 10
160.7835
 20
33.0519
 30
0.0
 11
160.7835
 21
33.86789999999999
 31
0.0
  0
LINE
  5
31C
330
1E
100
AcDbEntity
  8
0
100
AcDbLine
 10
160.7835
 20
33.0519
 30
0.0
 11
160.7835
 21
32.4279
 31
0.0
  0
LINE
  5
31D
330
1E
100
AcDbEntity
  8
0
100
AcDbLine
 10
160.7835
 20
34.7959
 30
0.0
 11
160.7835
 21
35.80389999999999
 31
0.0
  0
LINE
  5
31E
330
1E
100
AcDbEntity
  8
0
100
AcDbLine
 10
160.7835
 20
34.7959
 30
0.0
 11
160.7835
 21
33.86789999999999
 31
0.0
  0
LINE
  5
31F
330
1E
100
AcDbEntity
  8
0
100
AcDbLine
 10
160.7835
 20
33.86789999999999
 30
0.0
 11
160.7835
 21
34.7959
 31
0.0
  0
LINE
  5
320
330
1E
100
AcDbEntity
  8
0
100
AcDbLine
 10
160.7835
 20
33.86789999999999
 30
0.0
 11
160.7835
 21
33.0519
 31
0.0
  0
LINE
  5
330
330
1E
100
AcDbEntity
  8
0
100
AcDbLine
 10
140.9545
 20
32.6323
 30
0.0
 11
141.7835
 21
33.268
 31
0.0
  0
LINE
  5
337
330
1E
100
AcDbEntity
  8
0
100
AcDbLine
 10
139.7835
 20
36.7321
 30
0.0
 11
141.7125
 21
37.5313
 31
0.0
  0
LINE
  5
33A
330
1E
100
AcDbEntity
  8
0
100
AcDbLine
 10
141.7125
 20
37.5313
 30
0.0
 11
143.7834999999999
 21
37.8039
 31
0.0
  0
LINE
  5
33B
330
1E
100
AcDbEntity
  8
0
100
AcDbLine
 10
133.6235
 20
89.00200000000001
 30
0.0
 11
133.8615
 21
82.993
 31
0.0
  0
LINE
  5
33C
330
1E
100
AcDbEntity
  8
0
100
AcDbLine
 10
132.4775
 20
94.60799999999998
 30
0.0
 11
133.6235
 21
89.00200000000001
 31
0.0
  0
LINE
  5
33D
330
1E
100
AcDbEntity
  8
0
100
AcDbLine
 10
133.8615
 20
82.993
 30
0.0
 11
134.840587296482
 21
26.68929348672079
 31
0.0
  0
LINE
  5
33E
330
1E
100
AcDbEntity
  8
0
100
AcDbLine
 10
133.8615
 20
82.993
 30
0.0
 11
134.840587296482
 21
26.68929348672079
 31
0.0
  0
LINE
  5
340
330
1E
100
AcDbEntity
  8
0
100
AcDbLine
 10
143.7834999999999
 20
37.8039
 30
0.0
 11
145.7835
 21
37.8039
 31
0.0
  0
LINE
  5
368
330
1E
100
AcDbEntity
  8
0
100
AcDbLine
 10
160.7835
 20
35.80389999999999
 30
0.0
 11
160.7835
 21
36.8119
 31
0.0
  0
LINE
  5
369
330
1E
100
AcDbEntity
  8
0
100
AcDbLine
 10
160.7835
 20
35.80389999999999
 30
0.0
 11
160.7835
 21
34.7959
 31
0.0
  0
LINE
  5
36A
330
1E
100
AcDbEntity
  8
0
100
AcDbLine
 10
160.7835
 20
36.8119
 30
0.0
 11
160.7835
 21
37.73989999999999
 31
0.0
  0
LINE
  5
36B
330
1E
100
AcDbEntity
  8
0
100
AcDbLine
 10
160.7835
 20
36.8119
 30
0.0
 11
160.7835
 21
35.80389999999999
 31
0.0
  0
LINE
  5
36C
330
1E
100
AcDbEntity
  8
0
100
AcDbLine
 10
160.7835
 20
37.73989999999999
 30
0.0
 11
160.7835
 21
38.5559
 31
0.0
  0
LINE
  5
36D
330
1E
100
AcDbEntity
  8
0
100
AcDbLine
 10
160.7835
 20
37.73989999999999
 30
0.0
 11
160.7835
 21
36.8119
 31
0.0
  0
LINE
  5
36E
330
1E
100
AcDbEntity
  8
0
100
AcDbLine
 10
160.7835
 20
38.5559
 30
0.0
 11
160.7835
 21
39.1799
 31
0.0
  0
LINE
  5
36F
330
1E
100
AcDbEntity
  8
0
100
AcDbLine
 10
160.7835
 20
38.5559
 30
0.0
 11
160.7835
 21
37.73989999999999
 31
0.0
  0
LINE
  5
370
330
1E
100
AcDbEntity
  8
0
100
AcDbLine
 10
160.7835
 20
39.1799
 30
0.0
 11
160.7835
 21
39.56389999999999
 31
0.0
  0
LINE
  5
371
330
1E
100
AcDbEntity
  8
0
100
AcDbLine
 10
160.7835
 20
39.1799
 30
0.0
 11
160.7835
 21
38.5559
 31
0.0
  0
LINE
  5
372
330
1E
100
AcDbEntity
  8
0
100
AcDbLine
 10
160.7835
 20
39.7079
 30
0.0
 11
160.7835
 21
39.56389999999999
 31
0.0
  0
LINE
  5
373
330
1E
100
AcDbEntity
  8
0
100
AcDbLine
 10
160.7835
 20
39.56389999999999
 30
0.0
 11
160.7835
 21
39.7079
 31
0.0
  0
LINE
  5
374
330
1E
100
AcDbEntity
  8
0
100
AcDbLine
 10
160.7835
 20
39.56389999999999
 30
0.0
 11
160.7835
 21
39.1799
 31
0.0
  0
LINE
  5
375
330
1E
100
AcDbEntity
  8
0
100
AcDbLine
 10
160.5335
 20
39.80389999999999
 30
0.0
 11
160.7835
 21
39.7079
 31
0.0
  0
LINE
  5
377
330
1E
100
AcDbEntity
  8
0
100
AcDbLine
 10
148.7835
 20
39.80389999999999
 30
0.0
 11
160.5335
 21
39.80389999999999
 31
0.0
  0
LINE
  5
378
330
1E
100
AcDbEntity
  8
0
100
AcDbLine
 10
145.7835
 20
37.8039
 30
0.0
 11
148.7835
 21
39.80389999999999
 31
0.0
  0
LINE
  5
37A
330
1E
100
AcDbEntity
  8
0
100
AcDbLine
 10
138.1264999999999
 20
35.4607
 30
0.0
 11
139.7835
 21
36.7321
 31
0.0
  0
LINE
  5
37B
330
1E
100
AcDbEntity
  8
0
100
AcDbLine
 10
130.8124999999999
 20
33.0848
 30
0.0
 11
131.2564999999999
 21
32.54059999999999
 31
0.0
  0
LINE
  5
37E
330
1E
100
AcDbEntity
  8
0
100
AcDbLine
 10
114.3874999999999
 20
10.1188
 30
0.0
 11
116.5874999999999
 21
10.1188
 31
0.0
  0
LINE
  5
37F
330
1E
100
AcDbEntity
  8
0
100
AcDbLine
 10
99.58750000000001
 20
10.1188
 30
0.0
 11
100.0875
 21
9.62899999999999
 31
0.0
  0
LINE
  5
380
330
1E
100
AcDbEntity
  8
0
100
AcDbLine
 10
99.58750000000001
 20
10.1188
 30
0.0
 11
101.9185
 21
32.54059999999999
 31
0.0
  0
LINE
  5
381
330
1E
100
AcDbEntity
  8
0
100
AcDbLine
 10
99.58750000000001
 20
10.1188
 30
0.0
 11
99.78749999999999
 21
10.1188
 31
0.0
  0
LINE
  5
382
330
1E
100
AcDbEntity
  8
0
100
AcDbLine
 10
89.08750000000001
 20
4.12899999999999
 30
0.0
 11
96.58750000000001
 21
4.62899999999999
 31
0.0
  0
LINE
  5
384
330
1E
100
AcDbEntity
  8
0
100
AcDbLine
 10
89.08750000000001
 20
4.12899999999999
 30
0.0
 11
89.3875
 21
4.12899999999999
 31
0.0
  0
LINE
  5
385
330
1E
100
AcDbEntity
  8
0
100
AcDbLine
 10
88.5875
 20
0.128999999999989
 30
0.0
 11
88.5875
 21
3.62899999999999
 31
0.0
  0
LINE
  5
386
330
1E
100
AcDbEntity
  8
0
100
AcDbLine
 10
88.5875
 20
0.128999999999989
 30
0.0
 11
88.88749999999999
 21
0.128999999999989
 31
0.0
  0
LINE
  5
387
330
1E
100
AcDbEntity
  8
0
100
AcDbLine
 10
88.88749999999999
 20
0.128999999999989
 30
0.0
 11
144.5875
 21
0.128999999999986
 31
0.0
  0
LINE
  5
388
330
1E
100
AcDbEntity
  8
0
100
AcDbLine
 10
88.88749999999999
 20
0.128999999999989
 30
0.0
 11
144.5875
 21
0.128999999999986
 31
0.0
  0
LINE
  5
3A2
330
1E
100
AcDbEntity
  8
0
100
AcDbLine
 10
99.0735
 20
124.4169999999999
 30
0.0
 11
104.4085
 21
123.4199999999999
 31
0.0
  0
LINE
  5
3A3
330
1E
100
AcDbEntity
  8
0
100
AcDbLine
 10
117.6574999999999
 20
116.741
 30
0.0
 11
120.9575
 21
113.949
 31
0.0
  0
LINE
  5
3A4
330
1E
100
AcDbEntity
  8
0
100
AcDbLine
 10
112.3574999999999
 20
120.1259999999999
 30
0.0
 11
117.6574999999999
 21
116.741
 31
0.0
  0
LINE
  5
3A5
330
1E
100
AcDbEntity
  8
0
100
AcDbLine
 10
120.9575
 20
113.949
 30
0.0
 11
124.9344999999999
 21
109.5639999999999
 31
0.0
  0
LINE
  5
3A6
330
1E
100
AcDbEntity
  8
0
100
AcDbLine
 10
127.8094999999999
 20
105.4729999999999
 30
0.0
 11
128.9314999999999
 21
103.359
 31
0.0
  0
LINE
  5
3A7
330
1E
100
AcDbEntity
  8
0
100
AcDbLine
 10
128.9314999999999
 20
103.359
 30
0.0
 11
130.5225
 21
100.3039999999999
 31
0.0
  0
LINE
  5
3A8
330
1E
100
AcDbEntity
  8
0
100
AcDbLine
 10
124.9344999999999
 20
109.5639999999999
 30
0.0
 11
127.8094999999999
 21
105.4729999999999
 31
0.0
  0
LINE
  5
3AA
330
1E
100
AcDbEntity
  8
0
100
AcDbLine
 10
96.5075
 20
124.812
 30
0.0
 11
99.0735
 21
124.4169999999999
 31
0.0
  0
LINE
  5
3AB
330
1E
100
AcDbEntity
  8
0
100
AcDbLine
 10
83.5735
 20
125.1039999999999
 30
0.0
 11
96.5075
 21
124.812
 31
0.0
  0
LINE
  5
3AD
330
1E
100
AcDbEntity
  8
0
100
AcDbLine
 10
130.5225
 20
100.3039999999999
 30
0.0
 11
132.4775
 21
94.60799999999998
 31
0.0
  0
LINE
  5
3AE
330
1E
100
AcDbEntity
  8
0
100
AcDbLine
 10
25.6605
 20
99.37649999999999
 30
0.0
 11
26.7015833474085
 21
99.81538003155442
 31
0.0
  0
LINE
  5
3AF
330
1E
100
AcDbEntity
  8
0
100
AcDbLine
 10
23.4695
 20
98.90309999999999
 30
0.0
 11
23.5955536685844
 21
98.93033587709169
 31
0.0
  0
LINE
  5
3B0
330
1E
100
AcDbEntity
  8
0
100
AcDbLine
 10
23.4695
 20
98.90309999999999
 30
0.0
 11
23.6775
 21
98.93869999999999
 31
0.0
  0
LINE
  5
3B1
330
1E
100
AcDbEntity
  8
0
100
AcDbLine
 10
23.4695
 20
98.90309999999999
 30
0.0
 11
23.5955536685844
 21
98.93033587709169
 31
0.0
  0
LINE
  5
3B2
330
1E
100
AcDbEntity
  8
0
100
AcDbLine
 10
22.6795
 20
126.1349999999999
 30
0.0
 11
23.8305
 21
126.046
 31
0.0
  0
LINE
  5
3B4
330
1E
100
AcDbEntity
  8
0
100
AcDbLine
 10
27.6495
 20
125.917
 30
0.0
 11
27.91949999999999
 21
126.0529999999999
 31
0.0
  0
LINE
  5
3B5
330
1E
100
AcDbEntity
  8
0
100
AcDbLine
 10
27.6085
 20
125.5439999999999
 30
0.0
 11
27.6495
 21
125.917
 31
0.0
  0
LINE
  5
3B6
330
1E
100
AcDbEntity
  8
0
100
AcDbLine
 10
27.5855
 20
125.4469999999999
 30
0.0
 11
27.6085
 21
125.5439999999999
 31
0.0
  0
LINE
  5
3B7
330
1E
100
AcDbEntity
  8
0
100
AcDbLine
 10
23.8305
 20
126.046
 30
0.0
 11
26.8415
 21
125.167
 31
0.0
  0
LINE
  5
3B8
330
1E
100
AcDbEntity
  8
0
100
AcDbLine
 10
26.8415
 20
125.167
 30
0.0
 11
27.5768153941664
 21
124.777561633658
 31
0.0
  0
LINE
  5
3B9
330
1E
100
AcDbEntity
  8
0
100
AcDbLine
 10
21.5985
 20
98.7265
 30
0.0
 11
23.4695
 21
98.90309999999999
 31
0.0
  0
LINE
  5
3BE
330
1E
100
AcDbEntity
  8
0
  6
Continuous
100
AcDbLine
 10
1.10650000000001
 20
126.28
 30
0.0
 11
0.216499999999995
 21
99.73650000000001
 31
0.0
  0
LINE
  5
3BF
330
1E
100
AcDbEntity
  8
0
  6
Continuous
100
AcDbLine
 10
10.1835
 20
99.15649999999999
 30
0.0
 11
11.1685
 21
126.451
 31
0.0
  0
LINE
  5
3C0
330
1E
100
AcDbEntity
  8
0
  6
Continuous
100
AcDbLine
 10
11.5955
 20
126.401
 30
0.0
 11
10.6295
 21
99.29020000000001
 31
0.0
  0
LINE
  5
3C1
330
1E
100
AcDbEntity
  8
0
  6
Continuous
100
AcDbLine
 10
26.7045
 20
98.37700000000001
 30
0.0
 11
26.7015833474085
 21
99.81538003155442
 31
0.0
  0
LINE
  5
3C2
330
1E
100
AcDbEntity
  8
0
  6
Continuous
100
AcDbLine
 10
26.7015833474085
 20
99.81538003155442
 30
0.0
 11
27.5768153941664
 21
124.777561633658
 31
0.0
  0
LINE
  5
3C3
330
1E
100
AcDbEntity
  8
0
  6
Continuous
100
AcDbLine
 10
27.5768153941664
 20
124.777561633658
 30
0.0
 11
27.5855
 21
125.4469999999999
 31
0.0
  0
LINE
  5
3C4
330
1E
100
AcDbEntity
  8
0
  6
Continuous
100
AcDbLine
 10
27.91949999999999
 20
126.0529999999999
 30
0.0
 11
83.5735
 21
125.1039999999999
 31
0.0
  0
LINE
  5
3C5
330
1E
100
AcDbEntity
  8
0
  6
Continuous
100
AcDbLine
 10
104.4085
 20
123.4199999999999
 30
0.0
 11
112.3574999999999
 21
120.1259999999999
 31
0.0
  0
LINE
  5
3C6
330
1E
100
AcDbEntity
  8
0
  6
Continuous
100
AcDbLine
 10
135.1018152441739
 20
10.8822164784903
 30
0.0
 11
134.8396134971736
 21
26.74529310050365
 31
0.0
  0
LINE
  5
3C7
330
1E
100
AcDbEntity
  8
0
  6
Continuous
100
AcDbLine
 10
90.37350000000001
 20
5.10499999999999
 30
0.0
 11
89.08750000000001
 21
4.12899999999999
 31
0.0
  0
ENDSEC
  0
SECTION
  2
OBJECTS
  0
DICTIONARY
  5
C
330
0
100
AcDbDictionary
281
     1
  3
ACAD_GROUP
350
D
  3
ACAD_LAYOUT
350
19
  3
ACAD_MLINESTYLE
350
16
  3
ACAD_PLOTSETTINGS
350
18
  3
ACAD_PLOTSTYLENAME
350
E
  3
AcDbVariableDictionary
350
3C9
  0
DICTIONARY
  5
D
102
{ACAD_REACTORS
330
C
102
}
330
C
100
AcDbDictionary
281
     1
  0
DICTIONARY
  5
19
102
{ACAD_REACTORS
330
C
102
}
330
C
100
AcDbDictionary
281
     1
  3
Layout1
350
1D
  3
Model
350
21
  0
DICTIONARY
  5
16
102
{ACAD_REACTORS
330
C
102
}
330
C
100
AcDbDictionary
281
     1
  3
Standard
350
17
  0
DICTIONARY
  5
18
102
{ACAD_REACTORS
330
C
102
}
330
C
100
AcDbDictionary
281
     1
  0
ACDBDICTIONARYWDFLT
  5
E
102
{ACAD_REACTORS
330
C
102
}
330
C
100
AcDbDictionary
281
     1
  3
Normal
350
F
100
AcDbDictionaryWithDefault
340
F
  0
DICTIONARY
  5
3C9
102
{ACAD_REACTORS
330
C
102
}
330
C
100
AcDbDictionary
281
     1
  3
DIMASSOC
350
3CA
  0
LAYOUT
  5
1D
102
{ACAD_REACTORS
330
19
102
}
330
19
100
AcDbPlotSettings
  1

  2
C:\Programme\AutoCAD LT 2002 Deu\plotters\DWF ePlot (optimized for plotting).pc3
  4

  6

 40
0.0
 41
0.0
 42
0.0
 43
0.0
 44
0.0
 45
0.0
 46
0.0
 47
0.0
 48
0.0
 49
0.0
140
0.0
141
0.0
142
1.0
143
1.0
 70
   688
 72
     0
 73
     0
 74
     5
  7

 75
    16
147
1.0
148
0.0
149
0.0
100
AcDbLayout
  1
Layout1
 70
     1
 71
     1
 10
0.0
 20
0.0
 11
12.0
 21
9.0
 12
0.0
 22
0.0
 32
0.0
 14
1.000000000000000E+20
 24
1.000000000000000E+20
 34
1.000000000000000E+20
 15
-1.000000000000000E+20
 25
-1.000000000000000E+20
 35
-1.000000000000000E+20
146
0.0
 13
0.0
 23
0.0
 33
0.0
 16
1.0
 26
0.0
 36
0.0
 17
0.0
 27
1.0
 37
0.0
 76
     0
330
1A
  0
LAYOUT
  5
21
102
{ACAD_REACTORS
330
19
102
}
330
19
100
AcDbPlotSettings
  1

  2
C:\Programme\AutoCAD LT 2002 Deu\plotters\DWF ePlot (optimized for plotting).pc3
  4

  6

 40
0.0
 41
0.0
 42
0.0
 43
0.0
 44
0.0
 45
0.0
 46
0.0
 47
0.0
 48
0.0
 49
0.0
140
0.0
141
0.0
142
1.0
143
1.0
 70
  1712
 72
     0
 73
     0
 74
     0
  7

 75
     0
147
1.0
148
0.0
149
0.0
100
AcDbLayout
  1
Model
 70
     1
 71
     0
 10
0.0
 20
0.0
 11
12.0
 21
9.0
 12
0.0
 22
0.0
 32
0.0
 14
0.0
 24
0.0
 34
0.0
 15
0.0
 25
0.0
 35
0.0
146
0.0
 13
0.0
 23
0.0
 33
0.0
 16
1.0
 26
0.0
 36
0.0
 17
0.0
 27
1.0
 37
0.0
 76
     0
330
1E
  0
MLINESTYLE
  5
17
102
{ACAD_REACTORS
330
16
102
}
330
16
100
AcDbMlineStyle
  2
STANDARD
 70
     0
  3

 62
   256
 51
90.0
 52
90.0
 71
     2
 49
0.5
 62
   256
  6
BYLAYER
 49
-0.5
 62
   256
  6
BYLAYER
  0
ACDBPLACEHOLDER
  5
F
102
{ACAD_REACTORS
330
E
102
}
330
E
  0
DICTIONARYVAR
  5
3CA
102
{ACAD_REACTORS
330
3C9
102
}
330
3C9
100
DictionaryVariables
280
     0
  1
1
  0
ENDSEC
  0
EOF
