  0
SECTION
  2
HEADER
  9
$ACADVER
  1
AC1015
  9
$ACADMAINTVER
 70
    13
  9
$DWGCODEPAGE
  3
ANSI_1252
  9
$INSBASE
 10
0.0
 20
0.0
 30
0.0
  9
$EXTMIN
 10
0.0000000000000013
 20
-0.0265499999999873
 30
0.0
  9
$EXTMAX
 10
134.0
 20
249.02655
 30
0.0
  9
$LIMMIN
 10
0.0
 20
0.0
  9
$LIMMAX
 10
12.0
 20
9.0
  9
$ORTHOMODE
 70
     0
  9
$REGENMODE
 70
     1
  9
$FILLMODE
 70
     1
  9
$QTEXTMODE
 70
     0
  9
$MIRRTEXT
 70
     1
  9
$LTSCALE
 40
1.0
  9
$ATTMODE
 70
     1
  9
$TEXTSIZE
 40
0.2
  9
$TRACEWID
 40
0.05
  9
$TEXTSTYLE
  7
Standard
  9
$CLAYER
  8
0
  9
$CELTYPE
  6
Continuous
  9
$CECOLOR
 62
   256
  9
$CELTSCALE
 40
1.0
  9
$DISPSILH
 70
     0
  9
$DIMSCALE
 40
1.0
  9
$DIMASZ
 40
0.18
  9
$DIMEXO
 40
0.0625
  9
$DIMDLI
 40
0.38
  9
$DIMRND
 40
0.0
  9
$DIMDLE
 40
0.0
  9
$DIMEXE
 40
0.18
  9
$DIMTP
 40
0.0
  9
$DIMTM
 40
0.0
  9
$DIMTXT
 40
0.18
  9
$DIMCEN
 40
0.09
  9
$DIMTSZ
 40
0.0
  9
$DIMTOL
 70
     0
  9
$DIMLIM
 70
     0
  9
$DIMTIH
 70
     1
  9
$DIMTOH
 70
     1
  9
$DIMSE1
 70
     0
  9
$DIMSE2
 70
     0
  9
$DIMTAD
 70
     0
  9
$DIMZIN
 70
     0
  9
$DIMBLK
  1

  9
$DIMASO
 70
     1
  9
$DIMSHO
 70
     1
  9
$DIMPOST
  1

  9
$DIMAPOST
  1

  9
$DIMALT
 70
     0
  9
$DIMALTD
 70
     2
  9
$DIMALTF
 40
25.4
  9
$DIMLFAC
 40
1.0
  9
$DIMTOFL
 70
     0
  9
$DIMTVP
 40
0.0
  9
$DIMTIX
 70
     0
  9
$DIMSOXD
 70
     0
  9
$DIMSAH
 70
     0
  9
$DIMBLK1
  1

  9
$DIMBLK2
  1

  9
$DIMSTYLE
  2
Standard
  9
$DIMCLRD
 70
     0
  9
$DIMCLRE
 70
     0
  9
$DIMCLRT
 70
     0
  9
$DIMTFAC
 40
1.0
  9
$DIMGAP
 40
0.09
  9
$DIMJUST
 70
     0
  9
$DIMSD1
 70
     0
  9
$DIMSD2
 70
     0
  9
$DIMTOLJ
 70
     1
  9
$DIMTZIN
 70
     0
  9
$DIMALTZ
 70
     0
  9
$DIMALTTZ
 70
     0
  9
$DIMUPT
 70
     0
  9
$DIMDEC
 70
     4
  9
$DIMTDEC
 70
     4
  9
$DIMALTU
 70
     2
  9
$DIMALTTD
 70
     2
  9
$DIMTXSTY
  7
Standard
  9
$DIMAUNIT
 70
     0
  9
$DIMADEC
 70
     0
  9
$DIMALTRND
 40
0.0
  9
$DIMAZIN
 70
     0
  9
$DIMDSEP
 70
    46
  9
$DIMATFIT
 70
     3
  9
$DIMFRAC
 70
     0
  9
$DIMLDRBLK
  1

  9
$DIMLUNIT
 70
     2
  9
$DIMLWD
 70
    -2
  9
$DIMLWE
 70
    -2
  9
$DIMTMOVE
 70
     0
  9
$LUNITS
 70
     2
  9
$LUPREC
 70
     4
  9
$SKETCHINC
 40
0.1
  9
$FILLETRAD
 40
0.0
  9
$AUNITS
 70
     0
  9
$AUPREC
 70
     0
  9
$MENU
  1
.
  9
$ELEVATION
 40
0.0
  9
$PELEVATION
 40
0.0
  9
$THICKNESS
 40
0.0
  9
$LIMCHECK
 70
     0
  9
$CHAMFERA
 40
0.0
  9
$CHAMFERB
 40
0.0
  9
$CHAMFERC
 40
0.0
  9
$CHAMFERD
 40
0.0
  9
$SKPOLY
 70
     0
  9
$TDCREATE
 40
2454636.804949178
  9
$TDUCREATE
 40
2454636.721615845
  9
$TDUPDATE
 40
2454636.813202939
  9
$TDUUPDATE
 40
2454636.729869606
  9
$TDINDWG
 40
0.0082539468
  9
$TDUSRTIMER
 40
0.0082539468
  9
$USRTIMER
 70
     1
  9
$ANGBASE
 50
0.0
  9
$ANGDIR
 70
     0
  9
$PDMODE
 70
     0
  9
$PDSIZE
 40
0.0
  9
$PLINEWID
 40
0.0
  9
$SPLFRAME
 70
     0
  9
$SPLINETYPE
 70
     6
  9
$SPLINESEGS
 70
     8
  9
$HANDSEED
  5
18E
  9
$SURFTAB1
 70
     6
  9
$SURFTAB2
 70
     6
  9
$SURFTYPE
 70
     6
  9
$SURFU
 70
     6
  9
$SURFV
 70
     6
  9
$UCSBASE
  2

  9
$UCSNAME
  2

  9
$UCSORG
 10
0.0
 20
0.0
 30
0.0
  9
$UCSXDIR
 10
1.0
 20
0.0
 30
0.0
  9
$UCSYDIR
 10
0.0
 20
1.0
 30
0.0
  9
$UCSORTHOREF
  2

  9
$UCSORTHOVIEW
 70
     1
  9
$UCSORGTOP
 10
0.0
 20
0.0
 30
0.0
  9
$UCSORGBOTTOM
 10
0.0
 20
0.0
 30
0.0
  9
$UCSORGLEFT
 10
0.0
 20
0.0
 30
0.0
  9
$UCSORGRIGHT
 10
0.0
 20
0.0
 30
0.0
  9
$UCSORGFRONT
 10
0.0
 20
0.0
 30
0.0
  9
$UCSORGBACK
 10
0.0
 20
0.0
 30
0.0
  9
$PUCSBASE
  2

  9
$PUCSNAME
  2

  9
$PUCSORG
 10
0.0
 20
0.0
 30
0.0
  9
$PUCSXDIR
 10
1.0
 20
0.0
 30
0.0
  9
$PUCSYDIR
 10
0.0
 20
1.0
 30
0.0
  9
$PUCSORTHOREF
  2

  9
$PUCSORTHOVIEW
 70
     0
  9
$PUCSORGTOP
 10
0.0
 20
0.0
 30
0.0
  9
$PUCSORGBOTTOM
 10
0.0
 20
0.0
 30
0.0
  9
$PUCSORGLEFT
 10
0.0
 20
0.0
 30
0.0
  9
$PUCSORGRIGHT
 10
0.0
 20
0.0
 30
0.0
  9
$PUCSORGFRONT
 10
0.0
 20
0.0
 30
0.0
  9
$PUCSORGBACK
 10
0.0
 20
0.0
 30
0.0
  9
$USERI1
 70
     0
  9
$USERI2
 70
     0
  9
$USERI3
 70
     0
  9
$USERI4
 70
     0
  9
$USERI5
 70
     0
  9
$USERR1
 40
0.0
  9
$USERR2
 40
0.0
  9
$USERR3
 40
0.0
  9
$USERR4
 40
0.0
  9
$USERR5
 40
0.0
  9
$WORLDVIEW
 70
     1
  9
$SHADEDGE
 70
     3
  9
$SHADEDIF
 70
    70
  9
$TILEMODE
 70
     1
  9
$MAXACTVP
 70
    64
  9
$PINSBASE
 10
0.0
 20
0.0
 30
0.0
  9
$PLIMCHECK
 70
     0
  9
$PEXTMIN
 10
1.000000000000000E+20
 20
1.000000000000000E+20
 30
1.000000000000000E+20
  9
$PEXTMAX
 10
-1.000000000000000E+20
 20
-1.000000000000000E+20
 30
-1.000000000000000E+20
  9
$PLIMMIN
 10
0.0
 20
0.0
  9
$PLIMMAX
 10
12.0
 20
9.0
  9
$UNITMODE
 70
     0
  9
$VISRETAIN
 70
     1
  9
$PLINEGEN
 70
     0
  9
$PSLTSCALE
 70
     1
  9
$TREEDEPTH
 70
  3020
  9
$CMLSTYLE
  2
Standard
  9
$CMLJUST
 70
     0
  9
$CMLSCALE
 40
1.0
  9
$PROXYGRAPHICS
 70
     1
  9
$MEASUREMENT
 70
     0
  9
$CELWEIGHT
370
    -1
  9
$ENDCAPS
280
     0
  9
$JOINSTYLE
280
     0
  9
$LWDISPLAY
290
     0
  9
$INSUNITS
 70
     0
  9
$HYPERLINKBASE
  1

  9
$STYLESHEET
  1

  9
$XEDIT
290
     1
  9
$CEPSNTYPE
380
     0
  9
$PSTYLEMODE
290
     1
  9
$FINGERPRINTGUID
  2
{001114EB-5E88-4924-A096-8E59A2CB54BD}
  9
$VERSIONGUID
  2
{FDB5AD6C-655D-4331-8349-1A779E71ADC4}
  9
$EXTNAMES
290
     1
  9
$PSVPSCALE
 40
0.0
  9
$OLESTARTUP
290
     0
  0
ENDSEC
  0
SECTION
  2
CLASSES
  0
CLASS
  1
ACDBDICTIONARYWDFLT
  2
AcDbDictionaryWithDefault
  3
AutoCAD 2000
 90
        0
280
     0
281
     0
  0
CLASS
  1
ACDBPLACEHOLDER
  2
AcDbPlaceHolder
  3
AutoCAD 2000
 90
        0
280
     0
281
     0
  0
CLASS
  1
LAYOUT
  2
AcDbLayout
  3
AutoCAD 2000
 90
        0
280
     0
281
     0
  0
CLASS
  1
DICTIONARYVAR
  2
AcDbDictionaryVar
  3
AutoCAD 2000
 90
        0
280
     0
281
     0
  0
ENDSEC
  0
SECTION
  2
TABLES
  0
TABLE
  2
VPORT
  5
8
330
0
100
AcDbSymbolTable
 70
     2
  0
VPORT
  5
18D
330
8
100
AcDbSymbolTableRecord
100
AcDbViewportTableRecord
  2
*Active
 70
     0
 10
0.0
 20
0.0
 11
1.0
 21
1.0
 12
67.0
 22
124.5
 13
0.0
 23
0.0
 14
1.0
 24
1.0
 15
0.0
 25
0.0
 16
0.0
 26
0.0
 36
1.0
 17
0.0
 27
0.0
 37
0.0
 40
250.9639933503836
 41
2.043533930857874
 42
50.0
 43
0.0
 44
0.0
 50
0.0
 51
0.0
 71
     0
 72
   100
 73
     1
 74
     3
 75
     0
 76
     0
 77
     0
 78
     0
281
     0
 65
     1
110
0.0
120
0.0
130
0.0
111
1.0
121
0.0
131
0.0
112
0.0
122
1.0
132
0.0
 79
     1
146
0.0
  0
ENDTAB
  0
TABLE
  2
LTYPE
  5
5
330
0
100
AcDbSymbolTable
 70
     1
  0
LTYPE
  5
13
330
5
100
AcDbSymbolTableRecord
100
AcDbLinetypeTableRecord
  2
ByBlock
 70
     0
  3

 72
    65
 73
     0
 40
0.0
  0
LTYPE
  5
14
330
5
100
AcDbSymbolTableRecord
100
AcDbLinetypeTableRecord
  2
ByLayer
 70
     0
  3

 72
    65
 73
     0
 40
0.0
  0
LTYPE
  5
15
330
5
100
AcDbSymbolTableRecord
100
AcDbLinetypeTableRecord
  2
Continuous
 70
     0
  3
Solid line
 72
    65
 73
     0
 40
0.0
  0
ENDTAB
  0
TABLE
  2
LAYER
  5
2
330
0
100
AcDbSymbolTable
 70
     1
  0
LAYER
  5
10
330
2
100
AcDbSymbolTableRecord
100
AcDbLayerTableRecord
  2
0
 70
     0
 62
     7
  6
Continuous
370
    -3
390
F
  0
ENDTAB
  0
TABLE
  2
STYLE
  5
3
330
0
100
AcDbSymbolTable
 70
     1
  0
STYLE
  5
11
330
3
100
AcDbSymbolTableRecord
100
AcDbTextStyleTableRecord
  2
Standard
 70
     0
 40
0.0
 41
1.0
 50
0.0
 71
     0
 42
0.2
  3
txt
  4

  0
ENDTAB
  0
TABLE
  2
VIEW
  5
6
330
0
100
AcDbSymbolTable
 70
     0
  0
ENDTAB
  0
TABLE
  2
UCS
  5
7
330
0
100
AcDbSymbolTable
 70
     0
  0
ENDTAB
  0
TABLE
  2
APPID
  5
9
330
0
100
AcDbSymbolTable
 70
     1
  0
APPID
  5
12
330
9
100
AcDbSymbolTableRecord
100
AcDbRegAppTableRecord
  2
ACAD
 70
     0
  0
ENDTAB
  0
TABLE
  2
DIMSTYLE
  5
A
330
0
100
AcDbSymbolTable
 70
     1
100
AcDbDimStyleTable
 71
     0
  0
DIMSTYLE
105
180
330
A
100
AcDbSymbolTableRecord
100
AcDbDimStyleTableRecord
  2
Standard
 70
     0
340
11
  0
ENDTAB
  0
TABLE
  2
BLOCK_RECORD
  5
1
330
0
100
AcDbSymbolTable
 70
     0
  0
BLOCK_RECORD
  5
1E
330
1
100
AcDbSymbolTableRecord
100
AcDbBlockTableRecord
  2
*Model_Space
340
21
  0
BLOCK_RECORD
  5
1A
330
1
100
AcDbSymbolTableRecord
100
AcDbBlockTableRecord
  2
*Paper_Space
340
1D
  0
ENDTAB
  0
ENDSEC
  0
SECTION
  2
BLOCKS
  0
BLOCK
  5
1F
330
1E
100
AcDbEntity
  8
0
100
AcDbBlockBegin
  2
*Model_Space
 70
     0
 10
0.0
 20
0.0
 30
0.0
  3
*Model_Space
  1

  0
ENDBLK
  5
20
330
1E
100
AcDbEntity
  8
0
100
AcDbBlockEnd
  0
BLOCK
  5
1B
330
1A
100
AcDbEntity
 67
     1
  8
0
100
AcDbBlockBegin
  2
*Paper_Space
 70
     0
 10
0.0
 20
0.0
 30
0.0
  3
*Paper_Space
  1

  0
ENDBLK
  5
1C
330
1A
100
AcDbEntity
 67
     1
  8
0
100
AcDbBlockEnd
  0
ENDSEC
  0
SECTION
  2
ENTITIES
  0
LINE
  5
22
330
1E
100
AcDbEntity
  8
0
100
AcDbLine
 10
32.0
 20
-0.0265499999999873
 30
0.0
 11
35.584
 21
0.4470500000000121
 31
0.0
  0
LINE
  5
23
330
1E
100
AcDbEntity
  8
0
100
AcDbLine
 10
35.584
 20
0.4470500000000121
 30
0.0
 11
38.944
 21
1.71005000000001
 31
0.0
  0
LINE
  5
24
330
1E
100
AcDbEntity
  8
0
100
AcDbLine
 10
35.584
 20
0.4470500000000121
 30
0.0
 11
38.944
 21
1.71005000000001
 31
0.0
  0
LINE
  5
25
330
1E
100
AcDbEntity
  8
0
100
AcDbLine
 10
32.0
 20
-0.0265499999999872
 30
0.0
 11
35.584
 21
0.4470500000000121
 31
0.0
  0
LINE
  5
26
330
1E
100
AcDbEntity
  8
0
100
AcDbLine
 10
18.0
 20
16.34414999999999
 30
0.0
 11
18.0153548511805
 21
16.44675483243719
 31
0.0
  0
LINE
  5
27
330
1E
100
AcDbEntity
  8
0
100
AcDbLine
 10
18.0
 20
16.34414999999999
 30
0.0
 11
18.0
 21
15.07867
 31
0.0
  0
LINE
  5
28
330
1E
100
AcDbEntity
  8
0
100
AcDbLine
 10
18.0
 20
16.34414999999999
 30
0.0
 11
18.504
 21
12.97628699999999
 31
0.0
  0
LINE
  5
29
330
1E
100
AcDbEntity
  8
0
100
AcDbLine
 10
18.0
 20
33.50484999999999
 30
0.0
 11
18.0
 21
30.37075
 31
0.0
  0
LINE
  5
2A
330
1E
100
AcDbEntity
  8
0
100
AcDbLine
 10
18.0
 20
33.50484999999999
 30
0.0
 11
18.0
 21
38.09035
 31
0.0
  0
LINE
  5
2B
330
1E
100
AcDbEntity
  8
0
100
AcDbLine
 10
18.0
 20
50.28795
 30
0.0
 11
18.0
 21
43.81475
 31
0.0
  0
LINE
  5
2C
330
1E
100
AcDbEntity
  8
0
100
AcDbLine
 10
18.0
 20
50.28795
 30
0.0
 11
18.0
 21
57.06884999999999
 31
0.0
  0
LINE
  5
2D
330
1E
100
AcDbEntity
  8
0
100
AcDbLine
 10
18.0
 20
185.75555
 30
0.0
 11
18.0
 21
63.69534999999999
 31
0.0
  0
LINE
  5
2E
330
1E
100
AcDbEntity
  8
0
100
AcDbLine
 10
18.0
 20
185.75555
 30
0.0
 11
18.0
 21
192.02655
 31
0.0
  0
LINE
  5
2F
330
1E
100
AcDbEntity
  8
0
100
AcDbLine
 10
18.0
 20
63.69534999999999
 30
0.0
 11
18.0
 21
57.06884999999999
 31
0.0
  0
LINE
  5
30
330
1E
100
AcDbEntity
  8
0
100
AcDbLine
 10
18.0
 20
63.69534999999999
 30
0.0
 11
18.0
 21
185.75555
 31
0.0
  0
LINE
  5
31
330
1E
100
AcDbEntity
  8
0
100
AcDbLine
 10
18.0
 20
57.06884999999999
 30
0.0
 11
18.0
 21
63.69534999999999
 31
0.0
  0
LINE
  5
32
330
1E
100
AcDbEntity
  8
0
100
AcDbLine
 10
18.0
 20
57.06884999999999
 30
0.0
 11
18.0
 21
50.28795
 31
0.0
  0
LINE
  5
33
330
1E
100
AcDbEntity
  8
0
100
AcDbLine
 10
18.0
 20
43.81475
 30
0.0
 11
18.0
 21
38.09035
 31
0.0
  0
LINE
  5
34
330
1E
100
AcDbEntity
  8
0
100
AcDbLine
 10
18.0
 20
43.81475
 30
0.0
 11
18.0
 21
50.28795
 31
0.0
  0
LINE
  5
35
330
1E
100
AcDbEntity
  8
0
100
AcDbLine
 10
18.0
 20
38.09035
 30
0.0
 11
18.0
 21
43.81475
 31
0.0
  0
LINE
  5
36
330
1E
100
AcDbEntity
  8
0
100
AcDbLine
 10
18.0
 20
38.09035
 30
0.0
 11
18.0
 21
33.50484999999999
 31
0.0
  0
LINE
  5
37
330
1E
100
AcDbEntity
  8
0
100
AcDbLine
 10
18.0
 20
30.37075
 30
0.0
 11
18.0
 21
16.54936
 31
0.0
  0
LINE
  5
38
330
1E
100
AcDbEntity
  8
0
100
AcDbLine
 10
18.0
 20
30.37075
 30
0.0
 11
18.0
 21
33.50484999999999
 31
0.0
  0
LINE
  5
39
330
1E
100
AcDbEntity
  8
0
100
AcDbLine
 10
18.0
 20
16.54936
 30
0.0
 11
18.0
 21
30.37075
 31
0.0
  0
LINE
  5
3A
330
1E
100
AcDbEntity
  8
0
100
AcDbLine
 10
18.0
 20
16.54936
 30
0.0
 11
18.504
 21
13.18149899999999
 31
0.0
  0
LINE
  5
3B
330
1E
100
AcDbEntity
  8
0
100
AcDbLine
 10
18.0
 20
15.07867
 30
0.0
 11
18.0
 21
13.129156
 31
0.0
  0
LINE
  5
3C
330
1E
100
AcDbEntity
  8
0
100
AcDbLine
 10
18.0
 20
15.07867
 30
0.0
 11
18.0
 21
16.34414999999999
 31
0.0
  0
LINE
  5
3D
330
1E
100
AcDbEntity
  8
0
100
AcDbLine
 10
19.84799999999999
 20
9.818920000000009
 30
0.0
 11
22.088
 21
7.029910000000009
 31
0.0
  0
LINE
  5
3E
330
1E
100
AcDbEntity
  8
0
100
AcDbLine
 10
18.504
 20
12.97628699999999
 30
0.0
 11
19.84799999999999
 21
9.818920000000009
 31
0.0
  0
LINE
  5
3F
330
1E
100
AcDbEntity
  8
0
100
AcDbLine
 10
18.504
 20
13.18149899999999
 30
0.0
 11
19.84799999999999
 21
10.02412999999999
 31
0.0
  0
LINE
  5
40
330
1E
100
AcDbEntity
  8
0
100
AcDbLine
 10
19.84799999999999
 20
10.02412999999999
 30
0.0
 11
22.088
 21
7.235120000000009
 31
0.0
  0
LINE
  5
41
330
1E
100
AcDbEntity
  8
0
100
AcDbLine
 10
18.0
 20
13.129156
 30
0.0
 11
18.504
 21
9.761300000000009
 31
0.0
  0
LINE
  5
42
330
1E
100
AcDbEntity
  8
0
100
AcDbLine
 10
18.0
 20
13.129156
 30
0.0
 11
18.0
 21
15.07867
 31
0.0
  0
LINE
  5
43
330
1E
100
AcDbEntity
  8
0
100
AcDbLine
 10
18.504
 20
9.761300000000009
 30
0.0
 11
19.84799999999999
 21
6.603930000000009
 31
0.0
  0
LINE
  5
44
330
1E
100
AcDbEntity
  8
0
100
AcDbLine
 10
25.05599999999999
 20
4.925000000000009
 30
0.0
 11
28.416
 21
3.662050000000009
 31
0.0
  0
LINE
  5
45
330
1E
100
AcDbEntity
  8
0
100
AcDbLine
 10
22.088
 20
7.029910000000009
 30
0.0
 11
25.05599999999999
 21
4.925000000000009
 31
0.0
  0
LINE
  5
46
330
1E
100
AcDbEntity
  8
0
100
AcDbLine
 10
22.088
 20
7.235120000000009
 30
0.0
 11
25.05599999999999
 21
5.130210000000009
 31
0.0
  0
LINE
  5
47
330
1E
100
AcDbEntity
  8
0
100
AcDbLine
 10
25.05599999999999
 20
5.130210000000009
 30
0.0
 11
28.416
 21
3.867270000000009
 31
0.0
  0
LINE
  5
48
330
1E
100
AcDbEntity
  8
0
100
AcDbLine
 10
19.84799999999999
 20
6.603930000000009
 30
0.0
 11
22.088
 21
3.814920000000009
 31
0.0
  0
LINE
  5
49
330
1E
100
AcDbEntity
  8
0
100
AcDbLine
 10
22.088
 20
3.814920000000009
 30
0.0
 11
25.05599999999999
 21
1.71005000000001
 31
0.0
  0
LINE
  5
4A
330
1E
100
AcDbEntity
  8
0
100
AcDbLine
 10
22.088
 20
3.814920000000009
 30
0.0
 11
25.05599999999999
 21
1.71005000000001
 31
0.0
  0
LINE
  5
4B
330
1E
100
AcDbEntity
  8
0
100
AcDbLine
 10
32.0
 20
3.188450000000009
 30
0.0
 11
35.584
 21
3.662050000000009
 31
0.0
  0
LINE
  5
4C
330
1E
100
AcDbEntity
  8
0
100
AcDbLine
 10
38.944
 20
1.71005000000001
 30
0.0
 11
41.912
 21
3.814920000000009
 31
0.0
  0
LINE
  5
4D
330
1E
100
AcDbEntity
  8
0
100
AcDbLine
 10
38.944
 20
1.71005000000001
 30
0.0
 11
41.912
 21
3.814920000000009
 31
0.0
  0
LINE
  5
4E
330
1E
100
AcDbEntity
  8
0
100
AcDbLine
 10
35.584
 20
3.662050000000009
 30
0.0
 11
38.944
 21
4.925000000000009
 31
0.0
  0
LINE
  5
4F
330
1E
100
AcDbEntity
  8
0
100
AcDbLine
 10
41.912
 20
3.814920000000009
 30
0.0
 11
44.152
 21
6.603930000000009
 31
0.0
  0
LINE
  5
50
330
1E
100
AcDbEntity
  8
0
100
AcDbLine
 10
35.584
 20
3.867270000000009
 30
0.0
 11
38.944
 21
5.130210000000009
 31
0.0
  0
LINE
  5
51
330
1E
100
AcDbEntity
  8
0
100
AcDbLine
 10
32.0
 20
3.393660000000009
 30
0.0
 11
35.584
 21
3.867270000000009
 31
0.0
  0
LINE
  5
52
330
1E
100
AcDbEntity
  8
0
100
AcDbLine
 10
28.416
 20
3.662050000000009
 30
0.0
 11
32.0
 21
3.188450000000009
 31
0.0
  0
LINE
  5
53
330
1E
100
AcDbEntity
  8
0
100
AcDbLine
 10
38.944
 20
4.925000000000009
 30
0.0
 11
41.912
 21
7.029910000000009
 31
0.0
  0
LINE
  5
54
330
1E
100
AcDbEntity
  8
0
100
AcDbLine
 10
41.912
 20
7.029910000000009
 30
0.0
 11
44.152
 21
9.818920000000009
 31
0.0
  0
LINE
  5
55
330
1E
100
AcDbEntity
  8
0
100
AcDbLine
 10
44.152
 20
6.603930000000009
 30
0.0
 11
45.496
 21
9.761300000000009
 31
0.0
  0
LINE
  5
56
330
1E
100
AcDbEntity
  8
0
100
AcDbLine
 10
44.152
 20
9.818920000000009
 30
0.0
 11
45.496
 21
12.97628699999999
 31
0.0
  0
LINE
  5
57
330
1E
100
AcDbEntity
  8
0
100
AcDbLine
 10
45.496
 20
12.97628699999999
 30
0.0
 11
46.0
 21
16.34414999999999
 31
0.0
  0
LINE
  5
58
330
1E
100
AcDbEntity
  8
0
100
AcDbLine
 10
46.0
 20
13.129156
 30
0.0
 11
46.0
 21
15.07867
 31
0.0
  0
LINE
  5
59
330
1E
100
AcDbEntity
  8
0
100
AcDbLine
 10
45.496
 20
9.761300000000009
 30
0.0
 11
46.0
 21
13.129156
 31
0.0
  0
LINE
  5
5A
330
1E
100
AcDbEntity
  8
0
100
AcDbLine
 10
45.9846451488195
 20
16.44675483243719
 30
0.0
 11
46.0
 21
16.34414999999999
 31
0.0
  0
LINE
  5
5B
330
1E
100
AcDbEntity
  8
0
100
AcDbLine
 10
46.0
 20
16.34414999999999
 30
0.0
 11
46.0
 21
15.07867
 31
0.0
  0
LINE
  5
5C
330
1E
100
AcDbEntity
  8
0
100
AcDbLine
 10
46.0
 20
15.07867
 30
0.0
 11
46.0
 21
13.129156
 31
0.0
  0
LINE
  5
5D
330
1E
100
AcDbEntity
  8
0
100
AcDbLine
 10
46.0
 20
15.07867
 30
0.0
 11
46.0
 21
16.34414999999999
 31
0.0
  0
LINE
  5
5E
330
1E
100
AcDbEntity
  8
0
100
AcDbLine
 10
46.0
 20
16.54936
 30
0.0
 11
46.0
 21
30.37075
 31
0.0
  0
LINE
  5
5F
330
1E
100
AcDbEntity
  8
0
100
AcDbLine
 10
45.496
 20
13.18149899999999
 30
0.0
 11
46.0
 21
16.54936
 31
0.0
  0
LINE
  5
60
330
1E
100
AcDbEntity
  8
0
100
AcDbLine
 10
44.152
 20
10.02412999999999
 30
0.0
 11
45.496
 21
13.18149899999999
 31
0.0
  0
LINE
  5
61
330
1E
100
AcDbEntity
  8
0
100
AcDbLine
 10
41.912
 20
7.235120000000009
 30
0.0
 11
44.152
 21
10.02412999999999
 31
0.0
  0
LINE
  5
62
330
1E
100
AcDbEntity
  8
0
100
AcDbLine
 10
38.944
 20
5.130210000000009
 30
0.0
 11
41.912
 21
7.235120000000009
 31
0.0
  0
LINE
  5
63
330
1E
100
AcDbEntity
  8
0
100
AcDbLine
 10
46.0
 20
38.09035
 30
0.0
 11
46.0
 21
33.50484999999999
 31
0.0
  0
LINE
  5
64
330
1E
100
AcDbEntity
  8
0
100
AcDbLine
 10
46.0
 20
38.09035
 30
0.0
 11
46.0
 21
43.81475
 31
0.0
  0
LINE
  5
65
330
1E
100
AcDbEntity
  8
0
100
AcDbLine
 10
46.0
 20
33.50484999999999
 30
0.0
 11
46.0
 21
30.37075
 31
0.0
  0
LINE
  5
66
330
1E
100
AcDbEntity
  8
0
100
AcDbLine
 10
46.0
 20
33.50484999999999
 30
0.0
 11
46.0
 21
38.09035
 31
0.0
  0
LINE
  5
67
330
1E
100
AcDbEntity
  8
0
100
AcDbLine
 10
46.0
 20
30.37075
 30
0.0
 11
46.0
 21
16.54936
 31
0.0
  0
LINE
  5
68
330
1E
100
AcDbEntity
  8
0
100
AcDbLine
 10
46.0
 20
30.37075
 30
0.0
 11
46.0
 21
33.50484999999999
 31
0.0
  0
LINE
  5
69
330
1E
100
AcDbEntity
  8
0
100
AcDbLine
 10
46.0
 20
43.81475
 30
0.0
 11
46.0
 21
50.28795
 31
0.0
  0
LINE
  5
6A
330
1E
100
AcDbEntity
  8
0
100
AcDbLine
 10
46.0
 20
43.81475
 30
0.0
 11
46.0
 21
38.09035
 31
0.0
  0
LINE
  5
6B
330
1E
100
AcDbEntity
  8
0
100
AcDbLine
 10
46.0
 20
50.28795
 30
0.0
 11
46.0
 21
57.06884999999999
 31
0.0
  0
LINE
  5
6C
330
1E
100
AcDbEntity
  8
0
100
AcDbLine
 10
46.0
 20
50.28795
 30
0.0
 11
46.0
 21
43.81475
 31
0.0
  0
LINE
  5
6D
330
1E
100
AcDbEntity
  8
0
100
AcDbLine
 10
46.0
 20
57.06884999999999
 30
0.0
 11
46.0
 21
63.69534999999999
 31
0.0
  0
LINE
  5
6E
330
1E
100
AcDbEntity
  8
0
100
AcDbLine
 10
46.0
 20
57.06884999999999
 30
0.0
 11
46.0
 21
50.28795
 31
0.0
  0
LINE
  5
6F
330
1E
100
AcDbEntity
  8
0
100
AcDbLine
 10
46.0
 20
63.69534999999999
 30
0.0
 11
46.0
 21
185.75555
 31
0.0
  0
LINE
  5
70
330
1E
100
AcDbEntity
  8
0
100
AcDbLine
 10
46.0
 20
63.69534999999999
 30
0.0
 11
46.0
 21
57.06884999999999
 31
0.0
  0
LINE
  5
71
330
1E
100
AcDbEntity
  8
0
100
AcDbLine
 10
46.0
 20
185.75555
 30
0.0
 11
46.0
 21
63.69534999999999
 31
0.0
  0
LINE
  5
72
330
1E
100
AcDbEntity
  8
0
100
AcDbLine
 10
46.0
 20
185.75555
 30
0.0
 11
46.0
 21
192.02655
 31
0.0
  0
LINE
  5
73
330
1E
100
AcDbEntity
  8
0
100
AcDbLine
 10
28.416
 20
3.867270000000009
 30
0.0
 11
32.0
 21
3.393660000000009
 31
0.0
  0
LINE
  5
74
330
1E
100
AcDbEntity
  8
0
100
AcDbLine
 10
25.05599999999999
 20
1.71005000000001
 30
0.0
 11
28.416
 21
0.4470500000000121
 31
0.0
  0
LINE
  5
75
330
1E
100
AcDbEntity
  8
0
100
AcDbLine
 10
25.05599999999999
 20
1.71005000000001
 30
0.0
 11
28.416
 21
0.4470500000000121
 31
0.0
  0
LINE
  5
76
330
1E
100
AcDbEntity
  8
0
100
AcDbLine
 10
28.416
 20
0.4470500000000121
 30
0.0
 11
32.0
 21
-0.0265499999999873
 31
0.0
  0
LINE
  5
77
330
1E
100
AcDbEntity
  8
0
100
AcDbLine
 10
28.416
 20
0.4470500000000121
 30
0.0
 11
32.0
 21
-0.0265499999999872
 31
0.0
  0
LINE
  5
78
330
1E
100
AcDbEntity
  8
0
100
AcDbLine
 10
16.128
 20
189.25055
 30
0.0
 11
18.0
 21
188.50175
 31
0.0
  0
LINE
  5
79
330
1E
100
AcDbEntity
  8
0
100
AcDbLine
 10
46.0
 20
192.02655
 30
0.0
 11
46.0
 21
185.75555
 31
0.0
  0
LINE
  5
7A
330
1E
100
AcDbEntity
  8
0
100
AcDbLine
 10
46.0
 20
192.02655
 30
0.0
 11
46.0
 21
197.41155
 31
0.0
  0
LINE
  5
7B
330
1E
100
AcDbEntity
  8
0
100
AcDbLine
 10
18.0
 20
192.02655
 30
0.0
 11
18.0
 21
185.75555
 31
0.0
  0
LINE
  5
7C
330
1E
100
AcDbEntity
  8
0
100
AcDbLine
 10
18.0
 20
192.02655
 30
0.0
 11
18.0
 21
197.41155
 31
0.0
  0
LINE
  5
7D
330
1E
100
AcDbEntity
  8
0
100
AcDbLine
 10
16.512
 20
190.01855
 30
0.0
 11
18.0
 21
189.402825862069
 31
0.0
  0
LINE
  5
7E
330
1E
100
AcDbEntity
  8
0
100
AcDbLine
 10
9.343999999999999
 20
194.37055
 30
0.0
 11
16.128
 21
189.25055
 31
0.0
  0
LINE
  5
7F
330
1E
100
AcDbEntity
  8
0
100
AcDbLine
 10
46.0
 20
189.402825862069
 30
0.0
 11
47.488
 21
190.01855
 31
0.0
  0
LINE
  5
80
330
1E
100
AcDbEntity
  8
0
100
AcDbLine
 10
47.488
 20
190.01855
 30
0.0
 11
54.01600000000001
 21
195.01055
 31
0.0
  0
LINE
  5
81
330
1E
100
AcDbEntity
  8
0
100
AcDbLine
 10
47.872
 20
189.25055
 30
0.0
 11
54.65600000000001
 21
194.37055
 31
0.0
  0
LINE
  5
82
330
1E
100
AcDbEntity
  8
0
100
AcDbLine
 10
46.0
 20
188.50175
 30
0.0
 11
47.872
 21
189.25055
 31
0.0
  0
LINE
  5
83
330
1E
100
AcDbEntity
  8
0
100
AcDbLine
 10
9.983999999999999
 20
195.01055
 30
0.0
 11
16.512
 21
190.01855
 31
0.0
  0
LINE
  5
84
330
1E
100
AcDbEntity
  8
0
100
AcDbLine
 10
54.01600000000001
 20
195.01055
 30
0.0
 11
54.79294117647061
 21
196.02655
 31
0.0
  0
LINE
  5
85
330
1E
100
AcDbEntity
  8
0
100
AcDbLine
 10
54.65600000000001
 20
194.37055
 30
0.0
 11
55.9058113207547
 21
196.02655
 31
0.0
  0
LINE
  5
86
330
1E
100
AcDbEntity
  8
0
100
AcDbLine
 10
78.4
 20
196.02655
 30
0.0
 11
79.0
 21
196.53055
 31
0.0
  0
LINE
  5
87
330
1E
100
AcDbEntity
  8
0
100
AcDbLine
 10
78.4
 20
196.02655
 30
0.0
 11
78.4
 21
196.78255
 31
0.0
  0
LINE
  5
88
330
1E
100
AcDbEntity
  8
0
100
AcDbLine
 10
79.0
 20
196.53055
 30
0.0
 11
79.0
 21
197.28655
 31
0.0
  0
LINE
  5
89
330
1E
100
AcDbEntity
  8
0
100
AcDbLine
 10
46.0
 20
196.02655
 30
0.0
 11
78.4
 21
196.02655
 31
0.0
  0
LINE
  5
8A
330
1E
100
AcDbEntity
  8
0
100
AcDbLine
 10
80.0
 20
196.02655
 30
0.0
 11
110.0
 21
196.02655
 31
0.0
  0
LINE
  5
8B
330
1E
100
AcDbEntity
  8
0
100
AcDbLine
 10
46.0
 20
197.41155
 30
0.0
 11
46.0
 21
192.02655
 31
0.0
  0
LINE
  5
8C
330
1E
100
AcDbEntity
  8
0
100
AcDbLine
 10
46.0
 20
197.41155
 30
0.0
 11
46.0
 21
201.54355
 31
0.0
  0
LINE
  5
8D
330
1E
100
AcDbEntity
  8
0
100
AcDbLine
 10
18.0
 20
197.41155
 30
0.0
 11
18.0
 21
192.02655
 31
0.0
  0
LINE
  5
8E
330
1E
100
AcDbEntity
  8
0
100
AcDbLine
 10
18.0
 20
197.41155
 30
0.0
 11
18.0
 21
201.54355
 31
0.0
  0
LINE
  5
8F
330
1E
100
AcDbEntity
  8
0
100
AcDbLine
 10
79.0
 20
198.0265499999999
 30
0.0
 11
80.0
 21
198.097898940914
 31
0.0
  0
LINE
  5
90
330
1E
100
AcDbEntity
  8
0
100
AcDbLine
 10
79.0
 20
197.28655
 30
0.0
 11
79.0
 21
196.53055
 31
0.0
  0
LINE
  5
91
330
1E
100
AcDbEntity
  8
0
100
AcDbLine
 10
79.0
 20
197.28655
 30
0.0
 11
79.0
 21
199.30255
 31
0.0
  0
LINE
  5
92
330
1E
100
AcDbEntity
  8
0
100
AcDbLine
 10
78.4
 20
196.78255
 30
0.0
 11
78.4
 21
196.02655
 31
0.0
  0
LINE
  5
93
330
1E
100
AcDbEntity
  8
0
100
AcDbLine
 10
78.4
 20
196.78255
 30
0.0
 11
78.4
 21
198.79855
 31
0.0
  0
LINE
  5
94
330
1E
100
AcDbEntity
  8
0
100
AcDbLine
 10
110.0
 20
196.78255
 30
0.0
 11
110.0
 21
198.79855
 31
0.0
  0
LINE
  5
95
330
1E
100
AcDbEntity
  8
0
100
AcDbLine
 10
80.0
 20
196.78255
 30
0.0
 11
80.0
 21
196.02655
 31
0.0
  0
LINE
  5
96
330
1E
100
AcDbEntity
  8
0
100
AcDbLine
 10
110.0
 20
196.72155
 30
0.0
 11
110.0
 21
196.02655
 31
0.0
  0
LINE
  5
97
330
1E
100
AcDbEntity
  8
0
100
AcDbLine
 10
110.0
 20
196.72155
 30
0.0
 11
110.0
 21
197.39455
 31
0.0
  0
LINE
  5
98
330
1E
100
AcDbEntity
  8
0
100
AcDbLine
 10
110.0
 20
197.39455
 30
0.0
 11
110.0
 21
196.72155
 31
0.0
  0
LINE
  5
99
330
1E
100
AcDbEntity
  8
0
100
AcDbLine
 10
110.0
 20
197.39455
 30
0.0
 11
110.0
 21
198.0265499999999
 31
0.0
  0
LINE
  5
9A
330
1E
100
AcDbEntity
  8
0
100
AcDbLine
 10
78.4
 20
198.79855
 30
0.0
 11
78.4
 21
196.78255
 31
0.0
  0
LINE
  5
9B
330
1E
100
AcDbEntity
  8
0
100
AcDbLine
 10
78.4
 20
198.79855
 30
0.0
 11
78.4
 21
202.15855
 31
0.0
  0
LINE
  5
9C
330
1E
100
AcDbEntity
  8
0
100
AcDbLine
 10
110.0
 20
198.79855
 30
0.0
 11
110.0
 21
202.15855
 31
0.0
  0
LINE
  5
9D
330
1E
100
AcDbEntity
  8
0
100
AcDbLine
 10
80.0
 20
198.79855
 30
0.0
 11
80.0
 21
196.78255
 31
0.0
  0
LINE
  5
9E
330
1E
100
AcDbEntity
  8
0
100
AcDbLine
 10
110.0
 20
198.0265499999999
 30
0.0
 11
110.0
 21
197.39455
 31
0.0
  0
LINE
  5
9F
330
1E
100
AcDbEntity
  8
0
100
AcDbLine
 10
110.0
 20
198.0265499999999
 30
0.0
 11
110.0
 21
198.59755
 31
0.0
  0
LINE
  5
A0
330
1E
100
AcDbEntity
  8
0
100
AcDbLine
 10
110.0
 20
198.59755
 30
0.0
 11
110.0
 21
198.0265499999999
 31
0.0
  0
LINE
  5
A1
330
1E
100
AcDbEntity
  8
0
100
AcDbLine
 10
79.0
 20
199.30255
 30
0.0
 11
79.0
 21
197.28655
 31
0.0
  0
LINE
  5
A2
330
1E
100
AcDbEntity
  8
0
100
AcDbLine
 10
79.0
 20
199.30255
 30
0.0
 11
79.0
 21
202.57855
 31
0.0
  0
LINE
  5
A3
330
1E
100
AcDbEntity
  8
0
100
AcDbLine
 10
110.0
 20
199.09055
 30
0.0
 11
110.0
 21
198.59755
 31
0.0
  0
LINE
  5
A4
330
1E
100
AcDbEntity
  8
0
100
AcDbLine
 10
110.0
 20
199.49055
 30
0.0
 11
110.0
 21
199.09055
 31
0.0
  0
LINE
  5
A5
330
1E
100
AcDbEntity
  8
0
100
AcDbLine
 10
110.0
 20
199.49055
 30
0.0
 11
110.0
 21
199.78555
 31
0.0
  0
LINE
  5
A6
330
1E
100
AcDbEntity
  8
0
100
AcDbLine
 10
110.0
 20
199.78555
 30
0.0
 11
110.0
 21
199.49055
 31
0.0
  0
LINE
  5
A7
330
1E
100
AcDbEntity
  8
0
100
AcDbLine
 10
110.0
 20
199.78555
 30
0.0
 11
110.0
 21
199.96555
 31
0.0
  0
LINE
  5
A8
330
1E
100
AcDbEntity
  8
0
100
AcDbLine
 10
110.0
 20
199.96555
 30
0.0
 11
110.0
 21
199.78555
 31
0.0
  0
LINE
  5
A9
330
1E
100
AcDbEntity
  8
0
100
AcDbLine
 10
110.0
 20
199.96555
 30
0.0
 11
110.0
 21
200.0265499999999
 31
0.0
  0
LINE
  5
AA
330
1E
100
AcDbEntity
  8
0
100
AcDbLine
 10
46.0
 20
201.54355
 30
0.0
 11
46.0
 21
197.41155
 31
0.0
  0
LINE
  5
AB
330
1E
100
AcDbEntity
  8
0
100
AcDbLine
 10
46.0
 20
201.54355
 30
0.0
 11
46.0
 21
204.1405499999999
 31
0.0
  0
LINE
  5
AC
330
1E
100
AcDbEntity
  8
0
100
AcDbLine
 10
18.0
 20
201.54355
 30
0.0
 11
18.0
 21
197.41155
 31
0.0
  0
LINE
  5
AD
330
1E
100
AcDbEntity
  8
0
100
AcDbLine
 10
18.0
 20
201.54355
 30
0.0
 11
18.0
 21
204.1405499999999
 31
0.0
  0
LINE
  5
AE
330
1E
100
AcDbEntity
  8
0
100
AcDbLine
 10
4.991999999999999
 20
201.5385499999999
 30
0.0
 11
9.983999999999999
 21
195.01055
 31
0.0
  0
LINE
  5
AF
330
1E
100
AcDbEntity
  8
0
100
AcDbLine
 10
4.224
 20
201.1545499999999
 30
0.0
 11
9.343999999999999
 21
194.37055
 31
0.0
  0
LINE
  5
B0
330
1E
100
AcDbEntity
  8
0
100
AcDbLine
 10
18.0
 20
206.01155
 30
0.0
 11
18.0
 21
205.02655
 31
0.0
  0
LINE
  5
B1
330
1E
100
AcDbEntity
  8
0
100
AcDbLine
 10
18.0
 20
206.01155
 30
0.0
 11
18.0
 21
208.4795499999999
 31
0.0
  0
LINE
  5
B2
330
1E
100
AcDbEntity
  8
0
100
AcDbLine
 10
18.0
 20
204.1405499999999
 30
0.0
 11
18.0
 21
205.02655
 31
0.0
  0
LINE
  5
B3
330
1E
100
AcDbEntity
  8
0
100
AcDbLine
 10
18.0
 20
204.1405499999999
 30
0.0
 11
18.0
 21
201.54355
 31
0.0
  0
LINE
  5
B4
330
1E
100
AcDbEntity
  8
0
100
AcDbLine
 10
46.0
 20
204.1405499999999
 30
0.0
 11
46.0
 21
205.02655
 31
0.0
  0
LINE
  5
B5
330
1E
100
AcDbEntity
  8
0
100
AcDbLine
 10
46.0
 20
204.1405499999999
 30
0.0
 11
46.0
 21
201.54355
 31
0.0
  0
LINE
  5
B6
330
1E
100
AcDbEntity
  8
0
100
AcDbLine
 10
46.0
 20
205.02655
 30
0.0
 11
46.0
 21
206.01155
 31
0.0
  0
LINE
  5
B7
330
1E
100
AcDbEntity
  8
0
100
AcDbLine
 10
46.0
 20
205.02655
 30
0.0
 11
46.0
 21
204.1405499999999
 31
0.0
  0
LINE
  5
B8
330
1E
100
AcDbEntity
  8
0
100
AcDbLine
 10
46.0
 20
206.01155
 30
0.0
 11
46.0
 21
205.02655
 31
0.0
  0
LINE
  5
B9
330
1E
100
AcDbEntity
  8
0
100
AcDbLine
 10
46.0
 20
206.01155
 30
0.0
 11
46.0
 21
208.4795499999999
 31
0.0
  0
LINE
  5
BA
330
1E
100
AcDbEntity
  8
0
100
AcDbLine
 10
18.0
 20
205.02655
 30
0.0
 11
18.504
 21
208.6105499999999
 31
0.0
  0
LINE
  5
BB
330
1E
100
AcDbEntity
  8
0
100
AcDbLine
 10
18.0
 20
205.02655
 30
0.0
 11
18.0
 21
204.1405499999999
 31
0.0
  0
LINE
  5
BC
330
1E
100
AcDbEntity
  8
0
100
AcDbLine
 10
18.0
 20
205.02655
 30
0.0
 11
18.0
 21
206.01155
 31
0.0
  0
LINE
  5
BD
330
1E
100
AcDbEntity
  8
0
100
AcDbLine
 10
78.4
 20
202.15855
 30
0.0
 11
78.4
 21
198.79855
 31
0.0
  0
LINE
  5
BE
330
1E
100
AcDbEntity
  8
0
100
AcDbLine
 10
78.4
 20
202.15855
 30
0.0
 11
78.4
 21
206.6105499999999
 31
0.0
  0
LINE
  5
BF
330
1E
100
AcDbEntity
  8
0
100
AcDbLine
 10
79.0
 20
202.57855
 30
0.0
 11
79.0
 21
199.30255
 31
0.0
  0
LINE
  5
C0
330
1E
100
AcDbEntity
  8
0
100
AcDbLine
 10
79.0
 20
202.57855
 30
0.0
 11
79.0
 21
206.86255
 31
0.0
  0
LINE
  5
C1
330
1E
100
AcDbEntity
  8
0
100
AcDbLine
 10
78.4
 20
206.6105499999999
 30
0.0
 11
78.4
 21
202.15855
 31
0.0
  0
LINE
  5
C2
330
1E
100
AcDbEntity
  8
0
100
AcDbLine
 10
78.4
 20
206.6105499999999
 30
0.0
 11
78.4
 21
211.65055
 31
0.0
  0
LINE
  5
C3
330
1E
100
AcDbEntity
  8
0
100
AcDbLine
 10
45.496
 20
208.6105499999999
 30
0.0
 11
46.0
 21
205.02655
 31
0.0
  0
LINE
  5
C4
330
1E
100
AcDbEntity
  8
0
100
AcDbLine
 10
46.0
 20
208.4795499999999
 30
0.0
 11
46.0
 21
206.01155
 31
0.0
  0
LINE
  5
C5
330
1E
100
AcDbEntity
  8
0
100
AcDbLine
 10
46.0
 20
208.4795499999999
 30
0.0
 11
46.0
 21
212.99255
 31
0.0
  0
LINE
  5
C6
330
1E
100
AcDbEntity
  8
0
100
AcDbLine
 10
18.0
 20
208.4795499999999
 30
0.0
 11
18.0
 21
206.01155
 31
0.0
  0
LINE
  5
C7
330
1E
100
AcDbEntity
  8
0
100
AcDbLine
 10
18.0
 20
208.4795499999999
 30
0.0
 11
18.0
 21
212.99255
 31
0.0
  0
LINE
  5
C8
330
1E
100
AcDbEntity
  8
0
100
AcDbLine
 10
18.504
 20
208.6105499999999
 30
0.0
 11
19.84799999999999
 21
211.97055
 31
0.0
  0
LINE
  5
C9
330
1E
100
AcDbEntity
  8
0
100
AcDbLine
 10
1.919999999999999
 20
208.9625499999999
 30
0.0
 11
4.991999999999999
 21
201.5385499999999
 31
0.0
  0
LINE
  5
CA
330
1E
100
AcDbEntity
  8
0
100
AcDbLine
 10
1.919999999999999
 20
208.9625499999999
 30
0.0
 11
4.991999999999999
 21
201.5385499999999
 31
0.0
  0
LINE
  5
CB
330
1E
100
AcDbEntity
  8
0
100
AcDbLine
 10
1.152
 20
208.8345499999999
 30
0.0
 11
4.224
 21
201.1545499999999
 31
0.0
  0
LINE
  5
CC
330
1E
100
AcDbEntity
  8
0
100
AcDbLine
 10
18.0
 20
212.99255
 30
0.0
 11
18.0
 21
208.4795499999999
 31
0.0
  0
LINE
  5
CD
330
1E
100
AcDbEntity
  8
0
100
AcDbLine
 10
18.0
 20
212.99255
 30
0.0
 11
18.0
 21
225.51155
 31
0.0
  0
LINE
  5
CE
330
1E
100
AcDbEntity
  8
0
100
AcDbLine
 10
41.912
 20
214.93855
 30
0.0
 11
44.152
 21
211.97055
 31
0.0
  0
LINE
  5
CF
330
1E
100
AcDbEntity
  8
0
100
AcDbLine
 10
46.0
 20
212.99255
 30
0.0
 11
46.0
 21
208.4795499999999
 31
0.0
  0
LINE
  5
D0
330
1E
100
AcDbEntity
  8
0
100
AcDbLine
 10
46.0
 20
212.99255
 30
0.0
 11
46.0
 21
217.0265499999999
 31
0.0
  0
LINE
  5
D1
330
1E
100
AcDbEntity
  8
0
100
AcDbLine
 10
19.84799999999999
 20
211.97055
 30
0.0
 11
22.088
 21
214.93855
 31
0.0
  0
LINE
  5
D2
330
1E
100
AcDbEntity
  8
0
100
AcDbLine
 10
22.088
 20
214.93855
 30
0.0
 11
25.05599999999999
 21
217.1785499999999
 31
0.0
  0
LINE
  5
D3
330
1E
100
AcDbEntity
  8
0
100
AcDbLine
 10
0.7680000000000011
 20
217.0265499999999
 30
0.0
 11
1.919999999999999
 21
225.09055
 31
0.0
  0
LINE
  5
D4
330
1E
100
AcDbEntity
  8
0
100
AcDbLine
 10
0.7680000000000011
 20
217.0265499999999
 30
0.0
 11
1.919999999999999
 21
208.9625499999999
 31
0.0
  0
LINE
  5
D5
330
1E
100
AcDbEntity
  8
0
100
AcDbLine
 10
46.0
 20
229.0265499999999
 30
0.0
 11
46.0
 21
212.99255
 31
0.0
  0
LINE
  5
D6
330
1E
100
AcDbEntity
  8
0
100
AcDbLine
 10
0.0000000000000014
 20
217.0265499999999
 30
0.0
 11
1.152
 21
225.2185499999999
 31
0.0
  0
LINE
  5
D7
330
1E
100
AcDbEntity
  8
0
100
AcDbLine
 10
0.0000000000000014
 20
217.0265499999999
 30
0.0
 11
1.152
 21
208.8345499999999
 31
0.0
  0
LINE
  5
D8
330
1E
100
AcDbEntity
  8
0
100
AcDbLine
 10
0.0000000000000013
 20
217.0265499999999
 30
0.0
 11
1.152
 21
225.2185499999999
 31
0.0
  0
LINE
  5
D9
330
1E
100
AcDbEntity
  8
0
100
AcDbLine
 10
0.0000000000000013
 20
217.0265499999999
 30
0.0
 11
1.152
 21
208.8345499999999
 31
0.0
  0
LINE
  5
DA
330
1E
100
AcDbEntity
  8
0
100
AcDbLine
 10
78.4
 20
211.65055
 30
0.0
 11
78.4
 21
206.6105499999999
 31
0.0
  0
LINE
  5
DB
330
1E
100
AcDbEntity
  8
0
100
AcDbLine
 10
78.4
 20
211.65055
 30
0.0
 11
78.4
 21
217.0265499999999
 31
0.0
  0
LINE
  5
DC
330
1E
100
AcDbEntity
  8
0
100
AcDbLine
 10
79.0
 20
206.86255
 30
0.0
 11
79.0
 21
202.57855
 31
0.0
  0
LINE
  5
DD
330
1E
100
AcDbEntity
  8
0
100
AcDbLine
 10
79.0
 20
206.86255
 30
0.0
 11
79.0
 21
211.73455
 31
0.0
  0
LINE
  5
DE
330
1E
100
AcDbEntity
  8
0
100
AcDbLine
 10
79.0
 20
211.73455
 30
0.0
 11
79.0
 21
206.86255
 31
0.0
  0
LINE
  5
DF
330
1E
100
AcDbEntity
  8
0
100
AcDbLine
 10
79.0
 20
211.73455
 30
0.0
 11
79.0
 21
217.0265499999999
 31
0.0
  0
LINE
  5
E0
330
1E
100
AcDbEntity
  8
0
100
AcDbLine
 10
79.0
 20
217.0265499999999
 30
0.0
 11
79.0
 21
211.73455
 31
0.0
  0
LINE
  5
E1
330
1E
100
AcDbEntity
  8
0
100
AcDbLine
 10
79.0
 20
217.0265499999999
 30
0.0
 11
79.0
 21
222.31855
 31
0.0
  0
LINE
  5
E2
330
1E
100
AcDbEntity
  8
0
100
AcDbLine
 10
78.4
 20
217.0265499999999
 30
0.0
 11
78.4
 21
211.65055
 31
0.0
  0
LINE
  5
E3
330
1E
100
AcDbEntity
  8
0
100
AcDbLine
 10
78.4
 20
217.0265499999999
 30
0.0
 11
78.4
 21
222.4025499999999
 31
0.0
  0
LINE
  5
E4
330
1E
100
AcDbEntity
  8
0
100
AcDbLine
 10
38.944
 20
217.1785499999999
 30
0.0
 11
41.912
 21
214.93855
 31
0.0
  0
LINE
  5
E5
330
1E
100
AcDbEntity
  8
0
100
AcDbLine
 10
35.584
 20
218.52255
 30
0.0
 11
38.944
 21
217.1785499999999
 31
0.0
  0
LINE
  5
E6
330
1E
100
AcDbEntity
  8
0
100
AcDbLine
 10
25.05599999999999
 20
217.1785499999999
 30
0.0
 11
28.416
 21
218.52255
 31
0.0
  0
LINE
  5
E7
330
1E
100
AcDbEntity
  8
0
100
AcDbLine
 10
32.0
 20
219.0265499999999
 30
0.0
 11
35.584
 21
218.52255
 31
0.0
  0
LINE
  5
E8
330
1E
100
AcDbEntity
  8
0
100
AcDbLine
 10
28.416
 20
218.52255
 30
0.0
 11
32.0
 21
219.0265499999999
 31
0.0
  0
LINE
  5
E9
330
1E
100
AcDbEntity
  8
0
100
AcDbLine
 10
79.0
 20
222.31855
 30
0.0
 11
79.0
 21
217.0265499999999
 31
0.0
  0
LINE
  5
EA
330
1E
100
AcDbEntity
  8
0
100
AcDbLine
 10
79.0
 20
222.31855
 30
0.0
 11
79.0
 21
227.1905499999999
 31
0.0
  0
LINE
  5
EB
330
1E
100
AcDbEntity
  8
0
100
AcDbLine
 10
78.4
 20
222.4025499999999
 30
0.0
 11
78.4
 21
217.0265499999999
 31
0.0
  0
LINE
  5
EC
330
1E
100
AcDbEntity
  8
0
100
AcDbLine
 10
78.4
 20
222.4025499999999
 30
0.0
 11
78.4
 21
227.4425499999999
 31
0.0
  0
LINE
  5
ED
330
1E
100
AcDbEntity
  8
0
100
AcDbLine
 10
80.0
 20
217.0265499999999
 30
0.0
 11
80.0
 21
211.65055
 31
0.0
  0
LINE
  5
EE
330
1E
100
AcDbEntity
  8
0
100
AcDbLine
 10
80.0
 20
211.65055
 30
0.0
 11
80.0
 21
206.6105499999999
 31
0.0
  0
LINE
  5
EF
330
1E
100
AcDbEntity
  8
0
100
AcDbLine
 10
80.0
 20
206.6105499999999
 30
0.0
 11
80.0
 21
202.15855
 31
0.0
  0
LINE
  5
F0
330
1E
100
AcDbEntity
  8
0
100
AcDbLine
 10
80.0
 20
202.15855
 30
0.0
 11
80.0
 21
198.79855
 31
0.0
  0
LINE
  5
F1
330
1E
100
AcDbEntity
  8
0
100
AcDbLine
 10
1.919999999999999
 20
225.09055
 30
0.0
 11
4.991999999999999
 21
232.51455
 31
0.0
  0
LINE
  5
F2
330
1E
100
AcDbEntity
  8
0
100
AcDbLine
 10
18.0
 20
225.51155
 30
0.0
 11
18.0
 21
212.99255
 31
0.0
  0
LINE
  5
F3
330
1E
100
AcDbEntity
  8
0
100
AcDbLine
 10
18.0
 20
225.51155
 30
0.0
 11
18.0
 21
227.41855
 31
0.0
  0
LINE
  5
F4
330
1E
100
AcDbEntity
  8
0
100
AcDbLine
 10
18.0
 20
228.61755
 30
0.0
 11
18.0
 21
227.41855
 31
0.0
  0
LINE
  5
F5
330
1E
100
AcDbEntity
  8
0
100
AcDbLine
 10
18.0
 20
228.61755
 30
0.0
 11
18.0
 21
229.0265499999999
 31
0.0
  0
LINE
  5
F6
330
1E
100
AcDbEntity
  8
0
100
AcDbLine
 10
18.0
 20
229.0265499999999
 30
0.0
 11
18.504
 21
232.61055
 31
0.0
  0
LINE
  5
F7
330
1E
100
AcDbEntity
  8
0
100
AcDbLine
 10
18.0
 20
229.0265499999999
 30
0.0
 11
18.0
 21
228.61755
 31
0.0
  0
LINE
  5
F8
330
1E
100
AcDbEntity
  8
0
100
AcDbLine
 10
18.0
 20
229.0265499999999
 30
0.0
 11
18.0
 21
205.02655
 31
0.0
  0
LINE
  5
F9
330
1E
100
AcDbEntity
  8
0
100
AcDbLine
 10
18.0
 20
227.41855
 30
0.0
 11
18.0
 21
225.51155
 31
0.0
  0
LINE
  5
FA
330
1E
100
AcDbEntity
  8
0
100
AcDbLine
 10
18.0
 20
227.41855
 30
0.0
 11
18.0
 21
228.61755
 31
0.0
  0
LINE
  5
FB
330
1E
100
AcDbEntity
  8
0
100
AcDbLine
 10
1.919999999999999
 20
225.09055
 30
0.0
 11
4.991999999999999
 21
232.51455
 31
0.0
  0
LINE
  5
FC
330
1E
100
AcDbEntity
  8
0
100
AcDbLine
 10
1.152
 20
225.2185499999999
 30
0.0
 11
4.224
 21
232.8985499999999
 31
0.0
  0
LINE
  5
FD
330
1E
100
AcDbEntity
  8
0
100
AcDbLine
 10
78.4
 20
231.89455
 30
0.0
 11
78.4
 21
227.4425499999999
 31
0.0
  0
LINE
  5
FE
330
1E
100
AcDbEntity
  8
0
100
AcDbLine
 10
78.4
 20
231.89455
 30
0.0
 11
78.4
 21
235.25455
 31
0.0
  0
LINE
  5
FF
330
1E
100
AcDbEntity
  8
0
100
AcDbLine
 10
79.0
 20
231.4745499999999
 30
0.0
 11
79.0
 21
227.1905499999999
 31
0.0
  0
LINE
  5
100
330
1E
100
AcDbEntity
  8
0
100
AcDbLine
 10
79.0
 20
231.4745499999999
 30
0.0
 11
79.0
 21
234.75055
 31
0.0
  0
LINE
  5
101
330
1E
100
AcDbEntity
  8
0
100
AcDbLine
 10
79.0
 20
227.1905499999999
 30
0.0
 11
79.0
 21
222.31855
 31
0.0
  0
LINE
  5
102
330
1E
100
AcDbEntity
  8
0
100
AcDbLine
 10
79.0
 20
227.1905499999999
 30
0.0
 11
79.0
 21
231.4745499999999
 31
0.0
  0
LINE
  5
103
330
1E
100
AcDbEntity
  8
0
100
AcDbLine
 10
78.4
 20
227.4425499999999
 30
0.0
 11
78.4
 21
222.4025499999999
 31
0.0
  0
LINE
  5
104
330
1E
100
AcDbEntity
  8
0
100
AcDbLine
 10
78.4
 20
227.4425499999999
 30
0.0
 11
78.4
 21
231.89455
 31
0.0
  0
LINE
  5
105
330
1E
100
AcDbEntity
  8
0
100
AcDbLine
 10
80.0
 20
222.4025499999999
 30
0.0
 11
80.0
 21
217.0265499999999
 31
0.0
  0
LINE
  5
106
330
1E
100
AcDbEntity
  8
0
100
AcDbLine
 10
80.0
 20
227.4425499999999
 30
0.0
 11
80.0
 21
222.4025499999999
 31
0.0
  0
LINE
  5
107
330
1E
100
AcDbEntity
  8
0
100
AcDbLine
 10
18.504
 20
232.61055
 30
0.0
 11
19.84799999999999
 21
235.97055
 31
0.0
  0
LINE
  5
108
330
1E
100
AcDbEntity
  8
0
100
AcDbLine
 10
4.991999999999999
 20
232.51455
 30
0.0
 11
9.983999999999999
 21
239.04255
 31
0.0
  0
LINE
  5
109
330
1E
100
AcDbEntity
  8
0
100
AcDbLine
 10
4.224
 20
232.8985499999999
 30
0.0
 11
9.343999999999999
 21
239.6825499999999
 31
0.0
  0
LINE
  5
10A
330
1E
100
AcDbEntity
  8
0
100
AcDbLine
 10
79.0
 20
234.75055
 30
0.0
 11
79.0
 21
231.4745499999999
 31
0.0
  0
LINE
  5
10B
330
1E
100
AcDbEntity
  8
0
100
AcDbLine
 10
79.0
 20
234.75055
 30
0.0
 11
79.0
 21
236.76655
 31
0.0
  0
LINE
  5
10C
330
1E
100
AcDbEntity
  8
0
100
AcDbLine
 10
78.4
 20
235.25455
 30
0.0
 11
78.4
 21
231.89455
 31
0.0
  0
LINE
  5
10D
330
1E
100
AcDbEntity
  8
0
100
AcDbLine
 10
78.4
 20
235.25455
 30
0.0
 11
78.4
 21
237.2705499999999
 31
0.0
  0
LINE
  5
10E
330
1E
100
AcDbEntity
  8
0
100
AcDbLine
 10
80.0
 20
231.89455
 30
0.0
 11
80.0
 21
227.4425499999999
 31
0.0
  0
LINE
  5
10F
330
1E
100
AcDbEntity
  8
0
100
AcDbLine
 10
110.0
 20
211.65055
 30
0.0
 11
110.0
 21
217.0265499999999
 31
0.0
  0
LINE
  5
110
330
1E
100
AcDbEntity
  8
0
100
AcDbLine
 10
110.0
 20
206.6105499999999
 30
0.0
 11
110.0
 21
211.65055
 31
0.0
  0
LINE
  5
111
330
1E
100
AcDbEntity
  8
0
100
AcDbLine
 10
110.0
 20
202.15855
 30
0.0
 11
110.0
 21
206.6105499999999
 31
0.0
  0
LINE
  5
112
330
1E
100
AcDbEntity
  8
0
100
AcDbLine
 10
110.0
 20
217.0265499999999
 30
0.0
 11
110.0
 21
222.4025499999999
 31
0.0
  0
LINE
  5
113
330
1E
100
AcDbEntity
  8
0
100
AcDbLine
 10
110.0
 20
222.4025499999999
 30
0.0
 11
110.0
 21
227.4425499999999
 31
0.0
  0
LINE
  5
114
330
1E
100
AcDbEntity
  8
0
100
AcDbLine
 10
110.0
 20
227.4425499999999
 30
0.0
 11
110.0
 21
231.89455
 31
0.0
  0
LINE
  5
115
330
1E
100
AcDbEntity
  8
0
100
AcDbLine
 10
110.0
 20
231.89455
 30
0.0
 11
110.0
 21
235.25455
 31
0.0
  0
LINE
  5
116
330
1E
100
AcDbEntity
  8
0
100
AcDbLine
 10
80.0
 20
235.25455
 30
0.0
 11
80.0
 21
231.89455
 31
0.0
  0
LINE
  5
117
330
1E
100
AcDbEntity
  8
0
100
AcDbLine
 10
19.84799999999999
 20
235.97055
 30
0.0
 11
22.088
 21
238.9385499999999
 31
0.0
  0
LINE
  5
119
330
1E
100
AcDbEntity
  8
0
100
AcDbLine
 10
79.0
 20
237.5225499999999
 30
0.0
 11
79.0
 21
236.76655
 31
0.0
  0
LINE
  5
11A
330
1E
100
AcDbEntity
  8
0
100
AcDbLine
 10
79.0
 20
236.76655
 30
0.0
 11
79.0
 21
234.75055
 31
0.0
  0
LINE
  5
11B
330
1E
100
AcDbEntity
  8
0
100
AcDbLine
 10
79.0
 20
236.76655
 30
0.0
 11
79.0
 21
237.5225499999999
 31
0.0
  0
LINE
  5
11C
330
1E
100
AcDbEntity
  8
0
100
AcDbLine
 10
78.4
 20
237.2705499999999
 30
0.0
 11
78.4
 21
235.25455
 31
0.0
  0
LINE
  5
11D
330
1E
100
AcDbEntity
  8
0
100
AcDbLine
 10
78.4
 20
237.2705499999999
 30
0.0
 11
78.4
 21
238.0265499999999
 31
0.0
  0
LINE
  5
11E
330
1E
100
AcDbEntity
  8
0
100
AcDbLine
 10
78.4
 20
238.0265499999999
 30
0.0
 11
79.0
 21
237.5225499999999
 31
0.0
  0
LINE
  5
11F
330
1E
100
AcDbEntity
  8
0
100
AcDbLine
 10
78.4
 20
238.0265499999999
 30
0.0
 11
78.4
 21
237.2705499999999
 31
0.0
  0
LINE
  5
120
330
1E
100
AcDbEntity
  8
0
100
AcDbLine
 10
42.6003018867925
 20
238.0265499999999
 30
0.0
 11
78.4
 21
238.0265499999999
 31
0.0
  0
LINE
  5
121
330
1E
100
AcDbEntity
  8
0
100
AcDbLine
 10
79.0
 20
236.02655
 30
0.0
 11
80.0
 21
235.955201059086
 31
0.0
  0
LINE
  5
122
330
1E
100
AcDbEntity
  8
0
100
AcDbLine
 10
80.0
 20
237.2705499999999
 30
0.0
 11
80.0
 21
235.25455
 31
0.0
  0
LINE
  5
123
330
1E
100
AcDbEntity
  8
0
100
AcDbLine
 10
110.0
 20
235.25455
 30
0.0
 11
110.0
 21
237.2705499999999
 31
0.0
  0
LINE
  5
124
330
1E
100
AcDbEntity
  8
0
100
AcDbLine
 10
110.0
 20
237.2705499999999
 30
0.0
 11
110.0
 21
225.30155
 31
0.0
  0
LINE
  5
125
330
1E
100
AcDbEntity
  8
0
100
AcDbLine
 10
22.088
 20
238.9385499999999
 30
0.0
 11
25.05599999999999
 21
241.17855
 31
0.0
  0
LINE
  5
126
330
1E
100
AcDbEntity
  8
0
100
AcDbLine
 10
9.983999999999999
 20
239.04255
 30
0.0
 11
16.512
 21
244.0345499999999
 31
0.0
  0
LINE
  5
127
330
1E
100
AcDbEntity
  8
0
100
AcDbLine
 10
16.512
 20
244.0345499999999
 30
0.0
 11
23.936
 21
247.1065499999999
 31
0.0
  0
LINE
  5
128
330
1E
100
AcDbEntity
  8
0
100
AcDbLine
 10
9.343999999999999
 20
239.6825499999999
 30
0.0
 11
16.128
 21
244.8025499999999
 31
0.0
  0
LINE
  5
129
330
1E
100
AcDbEntity
  8
0
100
AcDbLine
 10
16.128
 20
244.8025499999999
 30
0.0
 11
23.808
 21
247.87455
 31
0.0
  0
LINE
  5
12B
330
1E
100
AcDbEntity
  8
0
100
AcDbLine
 10
28.416
 20
242.5225499999999
 30
0.0
 11
32.0
 21
243.0265499999999
 31
0.0
  0
LINE
  5
12C
330
1E
100
AcDbEntity
  8
0
100
AcDbLine
 10
25.05599999999999
 20
241.17855
 30
0.0
 11
28.416
 21
242.5225499999999
 31
0.0
  0
LINE
  5
130
330
1E
100
AcDbEntity
  8
0
100
AcDbLine
 10
23.936
 20
247.1065499999999
 30
0.0
 11
32.0
 21
248.25855
 31
0.0
  0
LINE
  5
131
330
1E
100
AcDbEntity
  8
0
100
AcDbLine
 10
23.808
 20
247.87455
 30
0.0
 11
32.0
 21
249.02655
 31
0.0
  0
LINE
  5
132
330
1E
100
AcDbEntity
  8
0
100
AcDbLine
 10
32.0
 20
248.25855
 30
0.0
 11
40.064
 21
247.1065499999999
 31
0.0
  0
LINE
  5
134
330
1E
100
AcDbEntity
  8
0
100
AcDbLine
 10
54.01600000000001
 20
239.04255
 30
0.0
 11
54.79294117647061
 21
238.0265499999999
 31
0.0
  0
LINE
  5
137
330
1E
100
AcDbEntity
  8
0
100
AcDbLine
 10
40.064
 20
247.1065499999999
 30
0.0
 11
47.488
 21
244.0345499999999
 31
0.0
  0
LINE
  5
138
330
1E
100
AcDbEntity
  8
0
100
AcDbLine
 10
47.488
 20
244.0345499999999
 30
0.0
 11
54.01600000000001
 21
239.04255
 31
0.0
  0
LINE
  5
139
330
1E
100
AcDbEntity
  8
0
100
AcDbLine
 10
47.872
 20
244.8025499999999
 30
0.0
 11
54.65600000000001
 21
239.6825499999999
 31
0.0
  0
LINE
  5
13A
330
1E
100
AcDbEntity
  8
0
100
AcDbLine
 10
40.192
 20
247.87455
 30
0.0
 11
47.872
 21
244.8025499999999
 31
0.0
  0
LINE
  5
13B
330
1E
100
AcDbEntity
  8
0
100
AcDbLine
 10
54.65600000000001
 20
239.6825499999999
 30
0.0
 11
55.9058113207547
 21
238.0265499999999
 31
0.0
  0
LINE
  5
13C
330
1E
100
AcDbEntity
  8
0
100
AcDbLine
 10
54.65600000000001
 20
239.6825499999999
 30
0.0
 11
55.9058113207547
 21
238.0265499999999
 31
0.0
  0
LINE
  5
13D
330
1E
100
AcDbEntity
  8
0
100
AcDbLine
 10
32.0
 20
249.02655
 30
0.0
 11
40.192
 21
247.87455
 31
0.0
  0
LINE
  5
13E
330
1E
100
AcDbEntity
  8
0
100
AcDbLine
 10
80.0
 20
238.0265499999999
 30
0.0
 11
113.4
 21
238.0265499999999
 31
0.0
  0
LINE
  5
13F
330
1E
100
AcDbEntity
  8
0
100
AcDbLine
 10
80.0
 20
238.0265499999999
 30
0.0
 11
80.0
 21
237.2705499999999
 31
0.0
  0
LINE
  5
140
330
1E
100
AcDbEntity
  8
0
100
AcDbLine
 10
110.0
 20
225.30155
 30
0.0
 11
112.0489999999999
 21
222.8865499999999
 31
0.0
  0
LINE
  5
141
330
1E
100
AcDbEntity
  8
0
100
AcDbLine
 10
110.0
 20
225.30155
 30
0.0
 11
110.0
 21
196.02655
 31
0.0
  0
LINE
  5
142
330
1E
100
AcDbEntity
  8
0
100
AcDbLine
 10
110.0
 20
225.30155
 30
0.0
 11
110.0
 21
237.2705499999999
 31
0.0
  0
LINE
  5
143
330
1E
100
AcDbEntity
  8
0
100
AcDbLine
 10
110.0
 20
200.0265499999999
 30
0.0
 11
110.0
 21
196.02655
 31
0.0
  0
LINE
  5
144
330
1E
100
AcDbEntity
  8
0
100
AcDbLine
 10
110.0
 20
200.0265499999999
 30
0.0
 11
110.2999999999999
 21
200.0265499999999
 31
0.0
  0
LINE
  5
145
330
1E
100
AcDbEntity
  8
0
100
AcDbLine
 10
110.0
 20
200.0265499999999
 30
0.0
 11
110.0
 21
199.96555
 31
0.0
  0
LINE
  5
146
330
1E
100
AcDbEntity
  8
0
100
AcDbLine
 10
110.517
 20
196.02655
 30
0.0
 11
110.924
 21
196.02655
 31
0.0
  0
LINE
  5
147
330
1E
100
AcDbEntity
  8
0
100
AcDbLine
 10
113.4
 20
196.02655
 30
0.0
 11
114.0
 21
196.02655
 31
0.0
  0
LINE
  5
148
330
1E
100
AcDbEntity
  8
0
100
AcDbLine
 10
113.606
 20
196.02655
 30
0.0
 11
114.0
 21
196.02655
 31
0.0
  0
LINE
  5
149
330
1E
100
AcDbEntity
  8
0
100
AcDbLine
 10
113.365
 20
196.02655
 30
0.0
 11
113.606
 21
196.02655
 31
0.0
  0
LINE
  5
14A
330
1E
100
AcDbEntity
  8
0
100
AcDbLine
 10
112.822
 20
196.02655
 30
0.0
 11
113.365
 21
196.02655
 31
0.0
  0
LINE
  5
14B
330
1E
100
AcDbEntity
  8
0
100
AcDbLine
 10
112.416
 20
196.02655
 30
0.0
 11
112.822
 21
196.02655
 31
0.0
  0
LINE
  5
14C
330
1E
100
AcDbEntity
  8
0
100
AcDbLine
 10
111.873
 20
196.02655
 30
0.0
 11
112.416
 21
196.02655
 31
0.0
  0
LINE
  5
14D
330
1E
100
AcDbEntity
  8
0
100
AcDbLine
 10
111.466
 20
196.02655
 30
0.0
 11
111.873
 21
196.02655
 31
0.0
  0
LINE
  5
14E
330
1E
100
AcDbEntity
  8
0
100
AcDbLine
 10
110.924
 20
196.02655
 30
0.0
 11
111.466
 21
196.02655
 31
0.0
  0
LINE
  5
14F
330
1E
100
AcDbEntity
  8
0
100
AcDbLine
 10
112.0
 20
196.02655
 30
0.0
 11
132.0
 21
196.02655
 31
0.0
  0
LINE
  5
150
330
1E
100
AcDbEntity
  8
0
100
AcDbLine
 10
132.0
 20
196.02655
 30
0.0
 11
133.1999999999999
 21
196.02655
 31
0.0
  0
LINE
  5
151
330
1E
100
AcDbEntity
  8
0
100
AcDbLine
 10
133.1999999999999
 20
196.02655
 30
0.0
 11
133.6999999999999
 21
196.02655
 31
0.0
  0
LINE
  5
152
330
1E
100
AcDbEntity
  8
0
100
AcDbLine
 10
133.6999999999999
 20
196.02655
 30
0.0
 11
134.0
 21
196.02655
 31
0.0
  0
LINE
  5
153
330
1E
100
AcDbEntity
  8
0
100
AcDbLine
 10
134.0
 20
196.02655
 30
0.0
 11
134.0
 21
200.0265499999999
 31
0.0
  0
LINE
  5
154
330
1E
100
AcDbEntity
  8
0
100
AcDbLine
 10
110.8
 20
196.02655
 30
0.0
 11
112.0
 21
196.02655
 31
0.0
  0
LINE
  5
155
330
1E
100
AcDbEntity
  8
0
100
AcDbLine
 10
112.0
 20
200.0265499999999
 30
0.0
 11
132.0
 21
200.0265499999999
 31
0.0
  0
LINE
  5
156
330
1E
100
AcDbEntity
  8
0
100
AcDbLine
 10
132.0
 20
200.0265499999999
 30
0.0
 11
133.1999999999999
 21
200.0265499999999
 31
0.0
  0
LINE
  5
157
330
1E
100
AcDbEntity
  8
0
100
AcDbLine
 10
133.1999999999999
 20
200.0265499999999
 30
0.0
 11
133.6999999999999
 21
200.0265499999999
 31
0.0
  0
LINE
  5
158
330
1E
100
AcDbEntity
  8
0
100
AcDbLine
 10
133.6999999999999
 20
200.0265499999999
 30
0.0
 11
134.0
 21
200.0265499999999
 31
0.0
  0
LINE
  5
159
330
1E
100
AcDbEntity
  8
0
100
AcDbLine
 10
134.0
 20
200.0265499999999
 30
0.0
 11
134.0
 21
196.02655
 31
0.0
  0
LINE
  5
15E
330
1E
100
AcDbEntity
  8
0
100
AcDbLine
 10
123.475
 20
208.9975499999999
 30
0.0
 11
124.003180095881
 21
208.410661626991
 31
0.0
  0
LINE
  5
15F
330
1E
100
AcDbEntity
  8
0
100
AcDbLine
 10
114.0
 20
236.76655
 30
0.0
 11
114.0
 21
225.54255
 31
0.0
  0
LINE
  5
160
330
1E
100
AcDbEntity
  8
0
100
AcDbLine
 10
114.0
 20
236.76655
 30
0.0
 11
114.0
 21
237.5225499999999
 31
0.0
  0
LINE
  5
161
330
1E
100
AcDbEntity
  8
0
100
AcDbLine
 10
113.4
 20
237.2705499999999
 30
0.0
 11
114.0
 21
225.54255
 31
0.0
  0
LINE
  5
162
330
1E
100
AcDbEntity
  8
0
100
AcDbLine
 10
113.4
 20
237.2705499999999
 30
0.0
 11
113.4
 21
238.0265499999999
 31
0.0
  0
LINE
  5
163
330
1E
100
AcDbEntity
  8
0
100
AcDbLine
 10
114.0
 20
237.5225499999999
 30
0.0
 11
114.0
 21
236.76655
 31
0.0
  0
LINE
  5
164
330
1E
100
AcDbEntity
  8
0
100
AcDbLine
 10
113.4
 20
238.0265499999999
 30
0.0
 11
114.0
 21
237.5225499999999
 31
0.0
  0
LINE
  5
165
330
1E
100
AcDbEntity
  8
0
100
AcDbLine
 10
113.4
 20
238.0265499999999
 30
0.0
 11
113.4
 21
237.2705499999999
 31
0.0
  0
LINE
  5
166
330
1E
100
AcDbEntity
  8
0
100
AcDbLine
 10
114.0
 20
225.54255
 30
0.0
 11
115.112
 21
222.04055
 31
0.0
  0
LINE
  5
167
330
1E
100
AcDbEntity
  8
0
100
AcDbLine
 10
114.0
 20
225.54255
 30
0.0
 11
114.0
 21
236.76655
 31
0.0
  0
LINE
  5
168
330
1E
100
AcDbEntity
  8
0
100
AcDbLine
 10
112.0489999999999
 20
222.8865499999999
 30
0.0
 11
113.977
 21
220.10855
 31
0.0
  0
LINE
  5
169
330
1E
100
AcDbEntity
  8
0
100
AcDbLine
 10
115.112
 20
222.04055
 30
0.0
 11
116.586
 21
218.9005499999999
 31
0.0
  0
LINE
  5
16A
330
1E
100
AcDbEntity
  8
0
100
AcDbLine
 10
113.977
 20
220.10855
 30
0.0
 11
115.956
 21
217.1115499999999
 31
0.0
  0
LINE
  5
16B
330
1E
100
AcDbEntity
  8
0
100
AcDbLine
 10
116.586
 20
218.9005499999999
 30
0.0
 11
118.742
 21
215.39855
 31
0.0
  0
LINE
  5
16C
330
1E
100
AcDbEntity
  8
0
100
AcDbLine
 10
118.742
 20
215.39855
 30
0.0
 11
120.9679999999999
 21
212.25855
 31
0.0
  0
LINE
  5
16D
330
1E
100
AcDbEntity
  8
0
100
AcDbLine
 10
115.956
 20
217.1115499999999
 30
0.0
 11
118.01
 21
214.42355
 31
0.0
  0
LINE
  5
16E
330
1E
100
AcDbEntity
  8
0
100
AcDbLine
 10
118.01
 20
214.42355
 30
0.0
 11
120.602
 21
211.68655
 31
0.0
  0
LINE
  5
16F
330
1E
100
AcDbEntity
  8
0
100
AcDbLine
 10
120.9679999999999
 20
212.25855
 30
0.0
 11
123.475
 21
208.9975499999999
 31
0.0
  0
LINE
  5
170
330
1E
100
AcDbEntity
  8
0
100
AcDbLine
 10
120.602
 20
211.68655
 30
0.0
 11
123.2429999999999
 21
209.09555
 31
0.0
  0
LINE
  5
171
330
1E
100
AcDbEntity
  8
0
100
AcDbLine
 10
123.2429999999999
 20
209.09555
 30
0.0
 11
126.383
 21
206.26655
 31
0.0
  0
LINE
  5
172
330
1E
100
AcDbEntity
  8
0
100
AcDbLine
 10
126.383
 20
206.26655
 30
0.0
 11
130.1629999999999
 21
203.16255
 31
0.0
  0
LINE
  5
173
330
1E
100
AcDbEntity
  8
0
100
AcDbLine
 10
130.1629999999999
 20
203.16255
 30
0.0
 11
133.0329999999999
 21
201.0035499999999
 31
0.0
  0
LINE
  5
174
330
1E
100
AcDbEntity
  8
0
100
AcDbLine
 10
133.0329999999999
 20
201.0035499999999
 30
0.0
 11
134.0
 21
200.0265499999999
 31
0.0
  0
LINE
  5
175
330
1E
100
AcDbEntity
  8
0
100
AcDbLine
 10
110.8
 20
200.0265499999999
 30
0.0
 11
112.0
 21
200.0265499999999
 31
0.0
  0
LINE
  5
176
330
1E
100
AcDbEntity
  8
0
100
AcDbLine
 10
110.2999999999999
 20
200.0265499999999
 30
0.0
 11
110.8
 21
200.0265499999999
 31
0.0
  0
LINE
  5
177
330
1E
100
AcDbEntity
  8
0
100
AcDbLine
 10
110.2999999999999
 20
196.02655
 30
0.0
 11
110.8
 21
196.02655
 31
0.0
  0
LINE
  5
178
330
1E
100
AcDbEntity
  8
0
100
AcDbLine
 10
110.0
 20
196.02655
 30
0.0
 11
110.0
 21
200.0265499999999
 31
0.0
  0
LINE
  5
179
330
1E
100
AcDbEntity
  8
0
100
AcDbLine
 10
110.0
 20
196.02655
 30
0.0
 11
110.2999999999999
 21
196.02655
 31
0.0
  0
LINE
  5
17A
330
1E
100
AcDbEntity
  8
0
100
AcDbLine
 10
110.0
 20
196.02655
 30
0.0
 11
110.517
 21
196.02655
 31
0.0
  0
LINE
  5
17B
330
1E
100
AcDbEntity
  8
0
100
AcDbLine
 10
110.0
 20
196.02655
 30
0.0
 11
110.0
 21
196.72155
 31
0.0
  0
LINE
  5
17C
330
1E
100
AcDbEntity
  8
0
100
AcDbLine
 10
110.0
 20
196.02655
 30
0.0
 11
134.0
 21
196.02655
 31
0.0
  0
LINE
  5
17D
330
1E
100
AcDbEntity
  8
0
100
AcDbLine
 10
110.0
 20
196.02655
 30
0.0
 11
113.4
 21
196.02655
 31
0.0
  0
LINE
  5
17E
330
1E
100
AcDbEntity
  8
0
100
AcDbLine
 10
110.0
 20
196.02655
 30
0.0
 11
110.0
 21
225.30155
 31
0.0
  0
LINE
  5
17F
330
1E
100
AcDbEntity
  8
0
100
AcDbLine
 10
110.0
 20
196.02655
 30
0.0
 11
110.0
 21
196.78255
 31
0.0
  0
LINE
  5
184
330
1E
100
AcDbEntity
  8
0
  6
Continuous
100
AcDbLine
 10
45.496
 20
208.6105499999999
 30
0.0
 11
44.152
 21
211.97055
 31
0.0
  0
LINE
  5
185
330
1E
100
AcDbEntity
  8
0
100
AcDbLine
 10
38.944
 20
241.17855
 30
0.0
 11
35.584
 21
242.5225499999999
 31
0.0
  0
LINE
  5
186
330
1E
100
AcDbEntity
  8
0
100
AcDbLine
 10
44.152
 20
235.97055
 30
0.0
 11
41.912
 21
238.9385499999999
 31
0.0
  0
LINE
  5
187
330
1E
100
AcDbEntity
  8
0
100
AcDbLine
 10
41.912
 20
238.9385499999999
 30
0.0
 11
38.944
 21
241.17855
 31
0.0
  0
LINE
  5
188
330
1E
100
AcDbEntity
  8
0
100
AcDbLine
 10
35.584
 20
242.5225499999999
 30
0.0
 11
32.0
 21
243.0265499999999
 31
0.0
  0
LINE
  5
189
330
1E
100
AcDbEntity
  8
0
100
AcDbLine
 10
46.0
 20
229.0265499999999
 30
0.0
 11
45.49599999999999
 21
232.61055
 31
0.0
  0
LINE
  5
18A
330
1E
100
AcDbEntity
  8
0
100
AcDbLine
 10
45.49599999999999
 20
232.61055
 30
0.0
 11
44.152
 21
235.97055
 31
0.0
  0
ENDSEC
  0
SECTION
  2
OBJECTS
  0
DICTIONARY
  5
C
330
0
100
AcDbDictionary
281
     1
  3
ACAD_GROUP
350
D
  3
ACAD_LAYOUT
350
19
  3
ACAD_MLINESTYLE
350
16
  3
ACAD_PLOTSETTINGS
350
18
  3
ACAD_PLOTSTYLENAME
350
E
  3
AcDbVariableDictionary
350
18B
  0
DICTIONARY
  5
D
102
{ACAD_REACTORS
330
C
102
}
330
C
100
AcDbDictionary
281
     1
  0
DICTIONARY
  5
19
102
{ACAD_REACTORS
330
C
102
}
330
C
100
AcDbDictionary
281
     1
  3
Layout1
350
1D
  3
Model
350
21
  0
DICTIONARY
  5
16
102
{ACAD_REACTORS
330
C
102
}
330
C
100
AcDbDictionary
281
     1
  3
Standard
350
17
  0
DICTIONARY
  5
18
102
{ACAD_REACTORS
330
C
102
}
330
C
100
AcDbDictionary
281
     1
  0
ACDBDICTIONARYWDFLT
  5
E
102
{ACAD_REACTORS
330
C
102
}
330
C
100
AcDbDictionary
281
     1
  3
Normal
350
F
100
AcDbDictionaryWithDefault
340
F
  0
DICTIONARY
  5
18B
102
{ACAD_REACTORS
330
C
102
}
330
C
100
AcDbDictionary
281
     1
  3
DIMASSOC
350
18C
  0
LAYOUT
  5
1D
102
{ACAD_REACTORS
330
19
102
}
330
19
100
AcDbPlotSettings
  1

  2
hp deskjet 980c series
  4

  6

 40
0.0
 41
0.0
 42
0.0
 43
0.0
 44
0.0
 45
0.0
 46
0.0
 47
0.0
 48
0.0
 49
0.0
140
0.0
141
0.0
142
1.0
143
1.0
 70
   688
 72
     0
 73
     0
 74
     5
  7

 75
    16
147
1.0
148
0.0
149
0.0
100
AcDbLayout
  1
Layout1
 70
     1
 71
     1
 10
0.0
 20
0.0
 11
12.0
 21
9.0
 12
0.0
 22
0.0
 32
0.0
 14
1.000000000000000E+20
 24
1.000000000000000E+20
 34
1.000000000000000E+20
 15
-1.000000000000000E+20
 25
-1.000000000000000E+20
 35
-1.000000000000000E+20
146
0.0
 13
0.0
 23
0.0
 33
0.0
 16
1.0
 26
0.0
 36
0.0
 17
0.0
 27
1.0
 37
0.0
 76
     0
330
1A
  0
LAYOUT
  5
21
102
{ACAD_REACTORS
330
19
102
}
330
19
100
AcDbPlotSettings
  1

  2
hp deskjet 980c series
  4

  6

 40
0.0
 41
0.0
 42
0.0
 43
0.0
 44
0.0
 45
0.0
 46
0.0
 47
0.0
 48
0.0
 49
0.0
140
0.0
141
0.0
142
1.0
143
1.0
 70
  1712
 72
     0
 73
     0
 74
     0
  7

 75
     0
147
1.0
148
0.0
149
0.0
100
AcDbLayout
  1
Model
 70
     1
 71
     0
 10
0.0
 20
0.0
 11
12.0
 21
9.0
 12
0.0
 22
0.0
 32
0.0
 14
0.0
 24
0.0
 34
0.0
 15
0.0
 25
0.0
 35
0.0
146
0.0
 13
0.0
 23
0.0
 33
0.0
 16
1.0
 26
0.0
 36
0.0
 17
0.0
 27
1.0
 37
0.0
 76
     0
330
1E
  0
MLINESTYLE
  5
17
102
{ACAD_REACTORS
330
16
102
}
330
16
100
AcDbMlineStyle
  2
STANDARD
 70
     0
  3

 62
   256
 51
90.0
 52
90.0
 71
     2
 49
0.5
 62
   256
  6
BYLAYER
 49
-0.5
 62
   256
  6
BYLAYER
  0
ACDBPLACEHOLDER
  5
F
102
{ACAD_REACTORS
330
E
102
}
330
E
  0
DICTIONARYVAR
  5
18C
102
{ACAD_REACTORS
330
18B
102
}
330
18B
100
DictionaryVariables
280
     0
  1
1
  0
ENDSEC
  0
EOF
