  0
SECTION
  2
HEADER
  9
$ACADVER
  1
AC1015
  9
$ACADMAINTVER
 70
    13
  9
$DWGCODEPAGE
  3
ANSI_1252
  9
$INSBASE
 10
0.0
 20
0.0
 30
0.0
  9
$EXTMIN
 10
0.0000000000000013
 20
-0.000000000000005
 30
0.0
  9
$EXTMAX
 10
134.0
 20
342.0
 30
0.0
  9
$LIMMIN
 10
0.0
 20
0.0
  9
$LIMMAX
 10
12.0
 20
9.0
  9
$ORTHOMODE
 70
     0
  9
$REGENMODE
 70
     1
  9
$FILLMODE
 70
     1
  9
$QTEXTMODE
 70
     0
  9
$MIRRTEXT
 70
     1
  9
$LTSCALE
 40
1.0
  9
$ATTMODE
 70
     1
  9
$TEXTSIZE
 40
0.2
  9
$TRACEWID
 40
0.05
  9
$TEXTSTYLE
  7
Standard
  9
$CLAYER
  8
0
  9
$CELTYPE
  6
Continuous
  9
$CECOLOR
 62
   256
  9
$CELTSCALE
 40
1.0
  9
$DISPSILH
 70
     0
  9
$DIMSCALE
 40
1.0
  9
$DIMASZ
 40
0.18
  9
$DIMEXO
 40
0.0625
  9
$DIMDLI
 40
0.38
  9
$DIMRND
 40
0.0
  9
$DIMDLE
 40
0.0
  9
$DIMEXE
 40
0.18
  9
$DIMTP
 40
0.0
  9
$DIMTM
 40
0.0
  9
$DIMTXT
 40
0.18
  9
$DIMCEN
 40
0.09
  9
$DIMTSZ
 40
0.0
  9
$DIMTOL
 70
     0
  9
$DIMLIM
 70
     0
  9
$DIMTIH
 70
     1
  9
$DIMTOH
 70
     1
  9
$DIMSE1
 70
     0
  9
$DIMSE2
 70
     0
  9
$DIMTAD
 70
     0
  9
$DIMZIN
 70
     0
  9
$DIMBLK
  1

  9
$DIMASO
 70
     1
  9
$DIMSHO
 70
     1
  9
$DIMPOST
  1

  9
$DIMAPOST
  1

  9
$DIMALT
 70
     0
  9
$DIMALTD
 70
     2
  9
$DIMALTF
 40
25.4
  9
$DIMLFAC
 40
1.0
  9
$DIMTOFL
 70
     0
  9
$DIMTVP
 40
0.0
  9
$DIMTIX
 70
     0
  9
$DIMSOXD
 70
     0
  9
$DIMSAH
 70
     0
  9
$DIMBLK1
  1

  9
$DIMBLK2
  1

  9
$DIMSTYLE
  2
Standard
  9
$DIMCLRD
 70
     0
  9
$DIMCLRE
 70
     0
  9
$DIMCLRT
 70
     0
  9
$DIMTFAC
 40
1.0
  9
$DIMGAP
 40
0.09
  9
$DIMJUST
 70
     0
  9
$DIMSD1
 70
     0
  9
$DIMSD2
 70
     0
  9
$DIMTOLJ
 70
     1
  9
$DIMTZIN
 70
     0
  9
$DIMALTZ
 70
     0
  9
$DIMALTTZ
 70
     0
  9
$DIMUPT
 70
     0
  9
$DIMDEC
 70
     4
  9
$DIMTDEC
 70
     4
  9
$DIMALTU
 70
     2
  9
$DIMALTTD
 70
     2
  9
$DIMTXSTY
  7
Standard
  9
$DIMAUNIT
 70
     0
  9
$DIMADEC
 70
     0
  9
$DIMALTRND
 40
0.0
  9
$DIMAZIN
 70
     0
  9
$DIMDSEP
 70
    46
  9
$DIMATFIT
 70
     3
  9
$DIMFRAC
 70
     0
  9
$DIMLDRBLK
  1

  9
$DIMLUNIT
 70
     2
  9
$DIMLWD
 70
    -2
  9
$DIMLWE
 70
    -2
  9
$DIMTMOVE
 70
     0
  9
$LUNITS
 70
     2
  9
$LUPREC
 70
     4
  9
$SKETCHINC
 40
0.1
  9
$FILLETRAD
 40
0.0
  9
$AUNITS
 70
     0
  9
$AUPREC
 70
     0
  9
$MENU
  1
.
  9
$ELEVATION
 40
0.0
  9
$PELEVATION
 40
0.0
  9
$THICKNESS
 40
0.0
  9
$LIMCHECK
 70
     0
  9
$CHAMFERA
 40
0.0
  9
$CHAMFERB
 40
0.0
  9
$CHAMFERC
 40
0.0
  9
$CHAMFERD
 40
0.0
  9
$SKPOLY
 70
     0
  9
$TDCREATE
 40
2454636.804974490
  9
$TDUCREATE
 40
2454636.721641157
  9
$TDUPDATE
 40
2454636.806477674
  9
$TDUUPDATE
 40
2454636.723144340
  9
$TDINDWG
 40
0.0015033565
  9
$TDUSRTIMER
 40
0.0015033565
  9
$USRTIMER
 70
     1
  9
$ANGBASE
 50
0.0
  9
$ANGDIR
 70
     0
  9
$PDMODE
 70
     0
  9
$PDSIZE
 40
0.0
  9
$PLINEWID
 40
0.0
  9
$SPLFRAME
 70
     0
  9
$SPLINETYPE
 70
     6
  9
$SPLINESEGS
 70
     8
  9
$HANDSEED
  5
1CD
  9
$SURFTAB1
 70
     6
  9
$SURFTAB2
 70
     6
  9
$SURFTYPE
 70
     6
  9
$SURFU
 70
     6
  9
$SURFV
 70
     6
  9
$UCSBASE
  2

  9
$UCSNAME
  2

  9
$UCSORG
 10
0.0
 20
0.0
 30
0.0
  9
$UCSXDIR
 10
1.0
 20
0.0
 30
0.0
  9
$UCSYDIR
 10
0.0
 20
1.0
 30
0.0
  9
$UCSORTHOREF
  2

  9
$UCSORTHOVIEW
 70
     1
  9
$UCSORGTOP
 10
0.0
 20
0.0
 30
0.0
  9
$UCSORGBOTTOM
 10
0.0
 20
0.0
 30
0.0
  9
$UCSORGLEFT
 10
0.0
 20
0.0
 30
0.0
  9
$UCSORGRIGHT
 10
0.0
 20
0.0
 30
0.0
  9
$UCSORGFRONT
 10
0.0
 20
0.0
 30
0.0
  9
$UCSORGBACK
 10
0.0
 20
0.0
 30
0.0
  9
$PUCSBASE
  2

  9
$PUCSNAME
  2

  9
$PUCSORG
 10
0.0
 20
0.0
 30
0.0
  9
$PUCSXDIR
 10
1.0
 20
0.0
 30
0.0
  9
$PUCSYDIR
 10
0.0
 20
1.0
 30
0.0
  9
$PUCSORTHOREF
  2

  9
$PUCSORTHOVIEW
 70
     0
  9
$PUCSORGTOP
 10
0.0
 20
0.0
 30
0.0
  9
$PUCSORGBOTTOM
 10
0.0
 20
0.0
 30
0.0
  9
$PUCSORGLEFT
 10
0.0
 20
0.0
 30
0.0
  9
$PUCSORGRIGHT
 10
0.0
 20
0.0
 30
0.0
  9
$PUCSORGFRONT
 10
0.0
 20
0.0
 30
0.0
  9
$PUCSORGBACK
 10
0.0
 20
0.0
 30
0.0
  9
$USERI1
 70
     0
  9
$USERI2
 70
     0
  9
$USERI3
 70
     0
  9
$USERI4
 70
     0
  9
$USERI5
 70
     0
  9
$USERR1
 40
0.0
  9
$USERR2
 40
0.0
  9
$USERR3
 40
0.0
  9
$USERR4
 40
0.0
  9
$USERR5
 40
0.0
  9
$WORLDVIEW
 70
     1
  9
$SHADEDGE
 70
     3
  9
$SHADEDIF
 70
    70
  9
$TILEMODE
 70
     1
  9
$MAXACTVP
 70
    64
  9
$PINSBASE
 10
0.0
 20
0.0
 30
0.0
  9
$PLIMCHECK
 70
     0
  9
$PEXTMIN
 10
1.000000000000000E+20
 20
1.000000000000000E+20
 30
1.000000000000000E+20
  9
$PEXTMAX
 10
-1.000000000000000E+20
 20
-1.000000000000000E+20
 30
-1.000000000000000E+20
  9
$PLIMMIN
 10
0.0
 20
0.0
  9
$PLIMMAX
 10
12.0
 20
9.0
  9
$UNITMODE
 70
     0
  9
$VISRETAIN
 70
     1
  9
$PLINEGEN
 70
     0
  9
$PSLTSCALE
 70
     1
  9
$TREEDEPTH
 70
  3020
  9
$CMLSTYLE
  2
Standard
  9
$CMLJUST
 70
     0
  9
$CMLSCALE
 40
1.0
  9
$PROXYGRAPHICS
 70
     1
  9
$MEASUREMENT
 70
     0
  9
$CELWEIGHT
370
    -1
  9
$ENDCAPS
280
     0
  9
$JOINSTYLE
280
     0
  9
$LWDISPLAY
290
     0
  9
$INSUNITS
 70
     0
  9
$HYPERLINKBASE
  1

  9
$STYLESHEET
  1

  9
$XEDIT
290
     1
  9
$CEPSNTYPE
380
     0
  9
$PSTYLEMODE
290
     1
  9
$FINGERPRINTGUID
  2
{79A8EC0B-0BF9-4F17-A8E1-84C21D8A969F}
  9
$VERSIONGUID
  2
{DCAAE431-9ABA-4A88-B802-47693BCA0567}
  9
$EXTNAMES
290
     1
  9
$PSVPSCALE
 40
0.0
  9
$OLESTARTUP
290
     0
  0
ENDSEC
  0
SECTION
  2
CLASSES
  0
CLASS
  1
ACDBDICTIONARYWDFLT
  2
AcDbDictionaryWithDefault
  3
AutoCAD 2000
 90
        0
280
     0
281
     0
  0
CLASS
  1
ACDBPLACEHOLDER
  2
AcDbPlaceHolder
  3
AutoCAD 2000
 90
        0
280
     0
281
     0
  0
CLASS
  1
LAYOUT
  2
AcDbLayout
  3
AutoCAD 2000
 90
        0
280
     0
281
     0
  0
CLASS
  1
DICTIONARYVAR
  2
AcDbDictionaryVar
  3
AutoCAD 2000
 90
        0
280
     0
281
     0
  0
ENDSEC
  0
SECTION
  2
TABLES
  0
TABLE
  2
VPORT
  5
8
330
0
100
AcDbSymbolTable
 70
     2
  0
VPORT
  5
1CC
330
8
100
AcDbSymbolTableRecord
100
AcDbViewportTableRecord
  2
*Active
 70
     0
 10
0.0
 20
0.0
 11
1.0
 21
1.0
 12
67.0
 22
171.0
 13
0.0
 23
0.0
 14
1.0
 24
1.0
 15
0.0
 25
0.0
 16
0.0
 26
0.0
 36
1.0
 17
0.0
 27
0.0
 37
0.0
 40
344.6240409207161
 41
2.043533930857874
 42
50.0
 43
0.0
 44
0.0
 50
0.0
 51
0.0
 71
     0
 72
   100
 73
     1
 74
     3
 75
     0
 76
     0
 77
     0
 78
     0
281
     0
 65
     1
110
0.0
120
0.0
130
0.0
111
1.0
121
0.0
131
0.0
112
0.0
122
1.0
132
0.0
 79
     1
146
0.0
  0
ENDTAB
  0
TABLE
  2
LTYPE
  5
5
330
0
100
AcDbSymbolTable
 70
     1
  0
LTYPE
  5
13
330
5
100
AcDbSymbolTableRecord
100
AcDbLinetypeTableRecord
  2
ByBlock
 70
     0
  3

 72
    65
 73
     0
 40
0.0
  0
LTYPE
  5
14
330
5
100
AcDbSymbolTableRecord
100
AcDbLinetypeTableRecord
  2
ByLayer
 70
     0
  3

 72
    65
 73
     0
 40
0.0
  0
LTYPE
  5
15
330
5
100
AcDbSymbolTableRecord
100
AcDbLinetypeTableRecord
  2
Continuous
 70
     0
  3
Solid line
 72
    65
 73
     0
 40
0.0
  0
ENDTAB
  0
TABLE
  2
LAYER
  5
2
330
0
100
AcDbSymbolTable
 70
     1
  0
LAYER
  5
10
330
2
100
AcDbSymbolTableRecord
100
AcDbLayerTableRecord
  2
0
 70
     0
 62
     7
  6
Continuous
370
    -3
390
F
  0
ENDTAB
  0
TABLE
  2
STYLE
  5
3
330
0
100
AcDbSymbolTable
 70
     1
  0
STYLE
  5
11
330
3
100
AcDbSymbolTableRecord
100
AcDbTextStyleTableRecord
  2
Standard
 70
     0
 40
0.0
 41
1.0
 50
0.0
 71
     0
 42
0.2
  3
txt
  4

  0
ENDTAB
  0
TABLE
  2
VIEW
  5
6
330
0
100
AcDbSymbolTable
 70
     0
  0
ENDTAB
  0
TABLE
  2
UCS
  5
7
330
0
100
AcDbSymbolTable
 70
     0
  0
ENDTAB
  0
TABLE
  2
APPID
  5
9
330
0
100
AcDbSymbolTable
 70
     1
  0
APPID
  5
12
330
9
100
AcDbSymbolTableRecord
100
AcDbRegAppTableRecord
  2
ACAD
 70
     0
  0
ENDTAB
  0
TABLE
  2
DIMSTYLE
  5
A
330
0
100
AcDbSymbolTable
 70
     1
100
AcDbDimStyleTable
 71
     0
  0
DIMSTYLE
105
1C6
330
A
100
AcDbSymbolTableRecord
100
AcDbDimStyleTableRecord
  2
Standard
 70
     0
340
11
  0
ENDTAB
  0
TABLE
  2
BLOCK_RECORD
  5
1
330
0
100
AcDbSymbolTable
 70
     0
  0
BLOCK_RECORD
  5
1E
330
1
100
AcDbSymbolTableRecord
100
AcDbBlockTableRecord
  2
*Model_Space
340
21
  0
BLOCK_RECORD
  5
1A
330
1
100
AcDbSymbolTableRecord
100
AcDbBlockTableRecord
  2
*Paper_Space
340
1D
  0
ENDTAB
  0
ENDSEC
  0
SECTION
  2
BLOCKS
  0
BLOCK
  5
1F
330
1E
100
AcDbEntity
  8
0
100
AcDbBlockBegin
  2
*Model_Space
 70
     0
 10
0.0
 20
0.0
 30
0.0
  3
*Model_Space
  1

  0
ENDBLK
  5
20
330
1E
100
AcDbEntity
  8
0
100
AcDbBlockEnd
  0
BLOCK
  5
1B
330
1A
100
AcDbEntity
 67
     1
  8
0
100
AcDbBlockBegin
  2
*Paper_Space
 70
     0
 10
0.0
 20
0.0
 30
0.0
  3
*Paper_Space
  1

  0
ENDBLK
  5
1C
330
1A
100
AcDbEntity
 67
     1
  8
0
100
AcDbBlockEnd
  0
ENDSEC
  0
SECTION
  2
ENTITIES
  0
LINE
  5
22
330
1E
100
AcDbEntity
  8
0
100
AcDbLine
 10
1.152
 20
-0.0000000000000025
 30
0.0
 11
4.224
 21
-0.000000000000002
 31
0.0
  0
LINE
  5
23
330
1E
100
AcDbEntity
  8
0
100
AcDbLine
 10
4.224
 20
-0.000000000000002
 30
0.0
 11
9.343999999999999
 21
-0.0000000000000016
 31
0.0
  0
LINE
  5
24
330
1E
100
AcDbEntity
  8
0
100
AcDbLine
 10
0.0000000000000014
 20
-0.000000000000003
 30
0.0
 11
1.152
 21
-0.0000000000000035
 31
0.0
  0
LINE
  5
25
330
1E
100
AcDbEntity
  8
0
100
AcDbLine
 10
0.0000000000000014
 20
-0.000000000000003
 30
0.0
 11
1.152
 21
-0.0000000000000025
 31
0.0
  0
LINE
  5
26
330
1E
100
AcDbEntity
  8
0
100
AcDbLine
 10
0.0000000000000013
 20
-0.000000000000003
 30
0.0
 11
1.152
 21
-0.0000000000000035
 31
0.0
  0
LINE
  5
27
330
1E
100
AcDbEntity
  8
0
100
AcDbLine
 10
0.0000000000000013
 20
-0.000000000000003
 30
0.0
 11
0.0000000000000013
 21
9.4
 31
0.0
  0
LINE
  5
28
330
1E
100
AcDbEntity
  8
0
100
AcDbLine
 10
0.0000000000000013
 20
-0.000000000000003
 30
0.0
 11
1.152
 21
-0.0000000000000025
 31
0.0
  0
LINE
  5
29
330
1E
100
AcDbEntity
  8
0
100
AcDbLine
 10
1.152
 20
-0.0000000000000035
 30
0.0
 11
4.224
 21
-0.000000000000004
 31
0.0
  0
LINE
  5
2A
330
1E
100
AcDbEntity
  8
0
100
AcDbLine
 10
9.343999999999999
 20
-0.0000000000000016
 30
0.0
 11
16.128
 21
-0.0000000000000013
 31
0.0
  0
LINE
  5
2B
330
1E
100
AcDbEntity
  8
0
100
AcDbLine
 10
16.128
 20
-0.0000000000000013
 30
0.0
 11
23.808
 21
-0.0000000000000011
 31
0.0
  0
LINE
  5
2C
330
1E
100
AcDbEntity
  8
0
100
AcDbLine
 10
4.224
 20
-0.000000000000004
 30
0.0
 11
9.343999999999999
 21
-0.0000000000000044
 31
0.0
  0
LINE
  5
2D
330
1E
100
AcDbEntity
  8
0
100
AcDbLine
 10
9.343999999999999
 20
-0.0000000000000044
 30
0.0
 11
16.128
 21
-0.0000000000000047
 31
0.0
  0
LINE
  5
2E
330
1E
100
AcDbEntity
  8
0
100
AcDbLine
 10
23.808
 20
-0.0000000000000011
 30
0.0
 11
32.0
 21
-0.000000000000001
 31
0.0
  0
LINE
  5
2F
330
1E
100
AcDbEntity
  8
0
100
AcDbLine
 10
16.128
 20
-0.0000000000000047
 30
0.0
 11
23.808
 21
-0.0000000000000049
 31
0.0
  0
LINE
  5
30
330
1E
100
AcDbEntity
  8
0
100
AcDbLine
 10
23.808
 20
-0.0000000000000049
 30
0.0
 11
32.0
 21
-0.000000000000005
 31
0.0
  0
LINE
  5
31
330
1E
100
AcDbEntity
  8
0
100
AcDbLine
 10
40.192
 20
-0.0000000000000049
 30
0.0
 11
47.872
 21
-0.0000000000000047
 31
0.0
  0
LINE
  5
32
330
1E
100
AcDbEntity
  8
0
100
AcDbLine
 10
32.0
 20
-0.000000000000005
 30
0.0
 11
40.192
 21
-0.0000000000000049
 31
0.0
  0
LINE
  5
33
330
1E
100
AcDbEntity
  8
0
100
AcDbLine
 10
40.192
 20
-0.0000000000000011
 30
0.0
 11
47.872
 21
-0.0000000000000013
 31
0.0
  0
LINE
  5
34
330
1E
100
AcDbEntity
  8
0
100
AcDbLine
 10
0.0000000000000014
 20
9.4
 30
0.0
 11
1.152
 21
9.4
 31
0.0
  0
LINE
  5
35
330
1E
100
AcDbEntity
  8
0
100
AcDbLine
 10
1.152
 20
9.4
 30
0.0
 11
4.224
 21
9.4
 31
0.0
  0
LINE
  5
36
330
1E
100
AcDbEntity
  8
0
100
AcDbLine
 10
4.224
 20
9.4
 30
0.0
 11
9.343999999999999
 21
9.4
 31
0.0
  0
LINE
  5
37
330
1E
100
AcDbEntity
  8
0
100
AcDbLine
 10
9.343999999999999
 20
9.4
 30
0.0
 11
16.128
 21
9.4
 31
0.0
  0
LINE
  5
38
330
1E
100
AcDbEntity
  8
0
100
AcDbLine
 10
16.128
 20
9.4
 30
0.0
 11
23.808
 21
9.4
 31
0.0
  0
LINE
  5
39
330
1E
100
AcDbEntity
  8
0
100
AcDbLine
 10
0.7680000000000011
 20
10.0
 30
0.0
 11
1.919999999999999
 21
10.0
 31
0.0
  0
LINE
  5
3A
330
1E
100
AcDbEntity
  8
0
100
AcDbLine
 10
1.919999999999999
 20
10.0
 30
0.0
 11
4.991999999999999
 21
10.0
 31
0.0
  0
LINE
  5
3B
330
1E
100
AcDbEntity
  8
0
100
AcDbLine
 10
1.919999999999999
 20
10.0
 30
0.0
 11
4.991999999999999
 21
10.0
 31
0.0
  0
LINE
  5
3C
330
1E
100
AcDbEntity
  8
0
100
AcDbLine
 10
4.991999999999999
 20
10.0
 30
0.0
 11
9.983999999999999
 21
10.0
 31
0.0
  0
LINE
  5
3D
330
1E
100
AcDbEntity
  8
0
100
AcDbLine
 10
18.0
 20
10.0
 30
0.0
 11
18.0
 21
135.0
 31
0.0
  0
LINE
  5
3E
330
1E
100
AcDbEntity
  8
0
100
AcDbLine
 10
9.983999999999999
 20
10.0
 30
0.0
 11
16.512
 21
10.0
 31
0.0
  0
LINE
  5
3F
330
1E
100
AcDbEntity
  8
0
100
AcDbLine
 10
16.512
 20
10.0
 30
0.0
 11
23.936
 21
10.0
 31
0.0
  0
LINE
  5
40
330
1E
100
AcDbEntity
  8
0
100
AcDbLine
 10
23.936
 20
10.0
 30
0.0
 11
32.0
 21
10.0
 31
0.0
  0
LINE
  5
41
330
1E
100
AcDbEntity
  8
0
100
AcDbLine
 10
23.808
 20
9.4
 30
0.0
 11
32.0
 21
9.4
 31
0.0
  0
LINE
  5
42
330
1E
100
AcDbEntity
  8
0
100
AcDbLine
 10
0.0000000000000013
 20
9.4
 30
0.0
 11
0.7680000000000011
 21
10.0
 31
0.0
  0
LINE
  5
43
330
1E
100
AcDbEntity
  8
0
100
AcDbLine
 10
0.0000000000000013
 20
9.4
 30
0.0
 11
0.0000000000000013
 21
-0.0000000000000036
 31
0.0
  0
LINE
  5
44
330
1E
100
AcDbEntity
  8
0
100
AcDbLine
 10
0.0000000000000013
 20
9.4
 30
0.0
 11
1.152
 21
9.4
 31
0.0
  0
LINE
  5
45
330
1E
100
AcDbEntity
  8
0
100
AcDbLine
 10
32.0
 20
10.0
 30
0.0
 11
40.064
 21
10.0
 31
0.0
  0
LINE
  5
46
330
1E
100
AcDbEntity
  8
0
100
AcDbLine
 10
46.0
 20
10.0
 30
0.0
 11
46.0
 21
65.1182068965517
 31
0.0
  0
LINE
  5
47
330
1E
100
AcDbEntity
  8
0
100
AcDbLine
 10
40.064
 20
10.0
 30
0.0
 11
47.488
 21
10.0
 31
0.0
  0
LINE
  5
48
330
1E
100
AcDbEntity
  8
0
100
AcDbLine
 10
40.192
 20
9.4
 30
0.0
 11
47.872
 21
9.4
 31
0.0
  0
LINE
  5
49
330
1E
100
AcDbEntity
  8
0
100
AcDbLine
 10
32.0
 20
9.4
 30
0.0
 11
40.192
 21
9.4
 31
0.0
  0
LINE
  5
4A
330
1E
100
AcDbEntity
  8
0
100
AcDbLine
 10
32.0
 20
-0.000000000000001
 30
0.0
 11
40.192
 21
-0.0000000000000011
 31
0.0
  0
LINE
  5
4B
330
1E
100
AcDbEntity
  8
0
100
AcDbLine
 10
47.872
 20
-0.0000000000000047
 30
0.0
 11
54.65600000000001
 21
-0.0000000000000044
 31
0.0
  0
LINE
  5
4C
330
1E
100
AcDbEntity
  8
0
100
AcDbLine
 10
47.488
 20
10.0
 30
0.0
 11
54.01600000000001
 21
10.0
 31
0.0
  0
LINE
  5
4D
330
1E
100
AcDbEntity
  8
0
100
AcDbLine
 10
47.872
 20
9.4
 30
0.0
 11
54.65600000000001
 21
9.4
 31
0.0
  0
LINE
  5
4E
330
1E
100
AcDbEntity
  8
0
100
AcDbLine
 10
59.776
 20
-0.000000000000004
 30
0.0
 11
62.848
 21
-0.0000000000000035
 31
0.0
  0
LINE
  5
4F
330
1E
100
AcDbEntity
  8
0
100
AcDbLine
 10
54.65600000000001
 20
-0.0000000000000044
 30
0.0
 11
59.776
 21
-0.000000000000004
 31
0.0
  0
LINE
  5
50
330
1E
100
AcDbEntity
  8
0
100
AcDbLine
 10
62.848
 20
-0.0000000000000035
 30
0.0
 11
64.0
 21
-0.000000000000003
 31
0.0
  0
LINE
  5
51
330
1E
100
AcDbEntity
  8
0
100
AcDbLine
 10
64.0
 20
-0.000000000000003
 30
0.0
 11
64.0
 21
9.4
 31
0.0
  0
LINE
  5
52
330
1E
100
AcDbEntity
  8
0
100
AcDbLine
 10
62.848
 20
-0.0000000000000025
 30
0.0
 11
64.0
 21
-0.000000000000003
 31
0.0
  0
LINE
  5
53
330
1E
100
AcDbEntity
  8
0
100
AcDbLine
 10
59.776
 20
-0.000000000000002
 30
0.0
 11
62.848
 21
-0.0000000000000025
 31
0.0
  0
LINE
  5
54
330
1E
100
AcDbEntity
  8
0
100
AcDbLine
 10
54.01600000000001
 20
10.0
 30
0.0
 11
59.008
 21
10.0
 31
0.0
  0
LINE
  5
55
330
1E
100
AcDbEntity
  8
0
100
AcDbLine
 10
64.0
 20
9.4
 30
0.0
 11
64.0
 21
-0.0000000000000036
 31
0.0
  0
LINE
  5
56
330
1E
100
AcDbEntity
  8
0
100
AcDbLine
 10
62.848
 20
9.4
 30
0.0
 11
64.0
 21
9.4
 31
0.0
  0
LINE
  5
57
330
1E
100
AcDbEntity
  8
0
100
AcDbLine
 10
63.23199999999999
 20
10.0
 30
0.0
 11
64.0
 21
9.4
 31
0.0
  0
LINE
  5
58
330
1E
100
AcDbEntity
  8
0
100
AcDbLine
 10
62.08
 20
10.0
 30
0.0
 11
63.23199999999999
 21
10.0
 31
0.0
  0
LINE
  5
59
330
1E
100
AcDbEntity
  8
0
100
AcDbLine
 10
59.008
 20
10.0
 30
0.0
 11
62.08
 21
10.0
 31
0.0
  0
LINE
  5
5A
330
1E
100
AcDbEntity
  8
0
100
AcDbLine
 10
59.776
 20
9.4
 30
0.0
 11
62.848
 21
9.4
 31
0.0
  0
LINE
  5
5B
330
1E
100
AcDbEntity
  8
0
100
AcDbLine
 10
54.65600000000001
 20
9.4
 30
0.0
 11
59.776
 21
9.4
 31
0.0
  0
LINE
  5
5C
330
1E
100
AcDbEntity
  8
0
100
AcDbLine
 10
54.65600000000001
 20
-0.0000000000000016
 30
0.0
 11
59.776
 21
-0.000000000000002
 31
0.0
  0
LINE
  5
5D
330
1E
100
AcDbEntity
  8
0
100
AcDbLine
 10
47.872
 20
-0.0000000000000013
 30
0.0
 11
54.65600000000001
 21
-0.0000000000000016
 31
0.0
  0
LINE
  5
5E
330
1E
100
AcDbEntity
  8
0
100
AcDbLine
 10
79.0
 20
60.50399999999999
 30
0.0
 11
79.0
 21
61.26
 31
0.0
  0
LINE
  5
5F
330
1E
100
AcDbEntity
  8
0
100
AcDbLine
 10
78.4
 20
60.0
 30
0.0
 11
78.4
 21
60.756
 31
0.0
  0
LINE
  5
60
330
1E
100
AcDbEntity
  8
0
100
AcDbLine
 10
78.4
 20
60.0
 30
0.0
 11
79.0
 21
60.50399999999999
 31
0.0
  0
LINE
  5
61
330
1E
100
AcDbEntity
  8
0
100
AcDbLine
 10
46.0
 20
60.0
 30
0.0
 11
78.4
 21
60.0
 31
0.0
  0
LINE
  5
62
330
1E
100
AcDbEntity
  8
0
100
AcDbLine
 10
78.4
 20
60.756
 30
0.0
 11
78.4
 21
60.0
 31
0.0
  0
LINE
  5
63
330
1E
100
AcDbEntity
  8
0
100
AcDbLine
 10
78.4
 20
60.756
 30
0.0
 11
78.4
 21
62.772
 31
0.0
  0
LINE
  5
64
330
1E
100
AcDbEntity
  8
0
100
AcDbLine
 10
83.86079999999999
 20
60.7447
 30
0.0
 11
84.0
 21
60.0
 31
0.0
  0
LINE
  5
65
330
1E
100
AcDbEntity
  8
0
100
AcDbLine
 10
84.0
 20
60.0
 30
0.0
 11
113.4
 21
60.0
 31
0.0
  0
LINE
  5
66
330
1E
100
AcDbEntity
  8
0
100
AcDbLine
 10
83.8455
 20
60.82119999999999
 30
0.0
 11
84.0
 21
60.0
 31
0.0
  0
LINE
  5
67
330
1E
100
AcDbEntity
  8
0
100
AcDbLine
 10
46.0
 20
65.1182068965517
 30
0.0
 11
46.0
 21
10.0
 31
0.0
  0
LINE
  5
68
330
1E
100
AcDbEntity
  8
0
100
AcDbLine
 10
78.4
 20
81.0
 30
0.0
 11
78.4
 21
75.624
 31
0.0
  0
LINE
  5
69
330
1E
100
AcDbEntity
  8
0
100
AcDbLine
 10
78.4
 20
81.0
 30
0.0
 11
78.4
 21
86.376
 31
0.0
  0
LINE
  5
6A
330
1E
100
AcDbEntity
  8
0
100
AcDbLine
 10
78.4
 20
75.624
 30
0.0
 11
78.4
 21
70.584
 31
0.0
  0
LINE
  5
6B
330
1E
100
AcDbEntity
  8
0
100
AcDbLine
 10
78.4
 20
75.624
 30
0.0
 11
78.4
 21
81.0
 31
0.0
  0
LINE
  5
6C
330
1E
100
AcDbEntity
  8
0
100
AcDbLine
 10
78.4
 20
70.584
 30
0.0
 11
78.4
 21
66.132
 31
0.0
  0
LINE
  5
6D
330
1E
100
AcDbEntity
  8
0
100
AcDbLine
 10
78.4
 20
70.584
 30
0.0
 11
78.4
 21
75.624
 31
0.0
  0
LINE
  5
6E
330
1E
100
AcDbEntity
  8
0
100
AcDbLine
 10
78.4
 20
66.132
 30
0.0
 11
78.4
 21
62.772
 31
0.0
  0
LINE
  5
6F
330
1E
100
AcDbEntity
  8
0
100
AcDbLine
 10
78.4
 20
66.132
 30
0.0
 11
78.4
 21
70.584
 31
0.0
  0
LINE
  5
70
330
1E
100
AcDbEntity
  8
0
100
AcDbLine
 10
79.0
 20
62.0
 30
0.0
 11
82.1395
 21
62.2235
 31
0.0
  0
LINE
  5
71
330
1E
100
AcDbEntity
  8
0
100
AcDbLine
 10
79.0
 20
81.0
 30
0.0
 11
79.0
 21
75.708
 31
0.0
  0
LINE
  5
72
330
1E
100
AcDbEntity
  8
0
100
AcDbLine
 10
79.0
 20
81.0
 30
0.0
 11
79.0
 21
86.292
 31
0.0
  0
LINE
  5
73
330
1E
100
AcDbEntity
  8
0
100
AcDbLine
 10
79.0
 20
75.708
 30
0.0
 11
79.0
 21
70.836
 31
0.0
  0
LINE
  5
74
330
1E
100
AcDbEntity
  8
0
100
AcDbLine
 10
79.0
 20
75.708
 30
0.0
 11
79.0
 21
81.0
 31
0.0
  0
LINE
  5
75
330
1E
100
AcDbEntity
  8
0
100
AcDbLine
 10
79.0
 20
70.836
 30
0.0
 11
79.0
 21
66.55199999999999
 31
0.0
  0
LINE
  5
76
330
1E
100
AcDbEntity
  8
0
100
AcDbLine
 10
79.0
 20
70.836
 30
0.0
 11
79.0
 21
75.708
 31
0.0
  0
LINE
  5
77
330
1E
100
AcDbEntity
  8
0
100
AcDbLine
 10
79.0
 20
66.55199999999999
 30
0.0
 11
79.0
 21
63.276
 31
0.0
  0
LINE
  5
78
330
1E
100
AcDbEntity
  8
0
100
AcDbLine
 10
79.0
 20
66.55199999999999
 30
0.0
 11
79.0
 21
70.836
 31
0.0
  0
LINE
  5
79
330
1E
100
AcDbEntity
  8
0
100
AcDbLine
 10
79.0
 20
63.276
 30
0.0
 11
79.0
 21
61.26
 31
0.0
  0
LINE
  5
7A
330
1E
100
AcDbEntity
  8
0
100
AcDbLine
 10
79.0
 20
63.276
 30
0.0
 11
79.0
 21
66.55199999999999
 31
0.0
  0
LINE
  5
7B
330
1E
100
AcDbEntity
  8
0
100
AcDbLine
 10
79.0
 20
61.26
 30
0.0
 11
79.0
 21
60.50399999999999
 31
0.0
  0
LINE
  5
7C
330
1E
100
AcDbEntity
  8
0
100
AcDbLine
 10
79.0
 20
61.26
 30
0.0
 11
79.0
 21
63.276
 31
0.0
  0
LINE
  5
7D
330
1E
100
AcDbEntity
  8
0
100
AcDbLine
 10
78.4
 20
62.772
 30
0.0
 11
78.4
 21
60.756
 31
0.0
  0
LINE
  5
7E
330
1E
100
AcDbEntity
  8
0
100
AcDbLine
 10
78.4
 20
62.772
 30
0.0
 11
78.4
 21
66.132
 31
0.0
  0
LINE
  5
7F
330
1E
100
AcDbEntity
  8
0
100
AcDbLine
 10
79.0
 20
86.292
 30
0.0
 11
79.0
 21
81.0
 31
0.0
  0
LINE
  5
80
330
1E
100
AcDbEntity
  8
0
100
AcDbLine
 10
79.0
 20
86.292
 30
0.0
 11
79.0
 21
91.164
 31
0.0
  0
LINE
  5
81
330
1E
100
AcDbEntity
  8
0
100
AcDbLine
 10
78.4
 20
86.376
 30
0.0
 11
78.4
 21
81.0
 31
0.0
  0
LINE
  5
82
330
1E
100
AcDbEntity
  8
0
100
AcDbLine
 10
78.4
 20
86.376
 30
0.0
 11
78.4
 21
91.416
 31
0.0
  0
LINE
  5
83
330
1E
100
AcDbEntity
  8
0
100
AcDbLine
 10
78.4
 20
91.416
 30
0.0
 11
78.4
 21
86.376
 31
0.0
  0
LINE
  5
84
330
1E
100
AcDbEntity
  8
0
100
AcDbLine
 10
78.4
 20
91.416
 30
0.0
 11
78.4
 21
95.868
 31
0.0
  0
LINE
  5
85
330
1E
100
AcDbEntity
  8
0
100
AcDbLine
 10
79.0
 20
91.164
 30
0.0
 11
79.0
 21
86.292
 31
0.0
  0
LINE
  5
86
330
1E
100
AcDbEntity
  8
0
100
AcDbLine
 10
79.0
 20
91.164
 30
0.0
 11
79.0
 21
95.448
 31
0.0
  0
LINE
  5
87
330
1E
100
AcDbEntity
  8
0
100
AcDbLine
 10
79.0
 20
95.448
 30
0.0
 11
79.0
 21
91.164
 31
0.0
  0
LINE
  5
88
330
1E
100
AcDbEntity
  8
0
100
AcDbLine
 10
79.0
 20
95.448
 30
0.0
 11
79.0
 21
98.72399999999998
 31
0.0
  0
LINE
  5
89
330
1E
100
AcDbEntity
  8
0
100
AcDbLine
 10
78.4
 20
95.868
 30
0.0
 11
78.4
 21
91.416
 31
0.0
  0
LINE
  5
8A
330
1E
100
AcDbEntity
  8
0
100
AcDbLine
 10
78.4
 20
95.868
 30
0.0
 11
78.4
 21
99.228
 31
0.0
  0
LINE
  5
8B
330
1E
100
AcDbEntity
  8
0
100
AcDbLine
 10
46.0
 20
98.2142068965517
 30
0.0
 11
46.0
 21
135.0
 31
0.0
  0
LINE
  5
8C
330
1E
100
AcDbEntity
  8
0
100
AcDbLine
 10
79.0
 20
100.0
 30
0.0
 11
80.0
 21
99.92881032011471
 31
0.0
  0
LINE
  5
8D
330
1E
100
AcDbEntity
  8
0
100
AcDbLine
 10
79.0
 20
98.72399999999998
 30
0.0
 11
79.0
 21
95.448
 31
0.0
  0
LINE
  5
8E
330
1E
100
AcDbEntity
  8
0
100
AcDbLine
 10
79.0
 20
98.72399999999998
 30
0.0
 11
79.0
 21
100.74
 31
0.0
  0
LINE
  5
8F
330
1E
100
AcDbEntity
  8
0
100
AcDbLine
 10
79.0
 20
100.74
 30
0.0
 11
79.0
 21
98.72399999999998
 31
0.0
  0
LINE
  5
90
330
1E
100
AcDbEntity
  8
0
100
AcDbLine
 10
79.0
 20
100.74
 30
0.0
 11
79.0
 21
101.496
 31
0.0
  0
LINE
  5
91
330
1E
100
AcDbEntity
  8
0
100
AcDbLine
 10
78.4
 20
99.228
 30
0.0
 11
78.4
 21
95.868
 31
0.0
  0
LINE
  5
92
330
1E
100
AcDbEntity
  8
0
100
AcDbLine
 10
78.4
 20
99.228
 30
0.0
 11
78.4
 21
101.244
 31
0.0
  0
LINE
  5
93
330
1E
100
AcDbEntity
  8
0
100
AcDbLine
 10
79.0
 20
101.496
 30
0.0
 11
79.0
 21
100.74
 31
0.0
  0
LINE
  5
94
330
1E
100
AcDbEntity
  8
0
100
AcDbLine
 10
78.4
 20
101.244
 30
0.0
 11
78.4
 21
99.228
 31
0.0
  0
LINE
  5
95
330
1E
100
AcDbEntity
  8
0
100
AcDbLine
 10
78.4
 20
101.244
 30
0.0
 11
78.4
 21
102.0
 31
0.0
  0
LINE
  5
96
330
1E
100
AcDbEntity
  8
0
100
AcDbLine
 10
46.0
 20
102.0
 30
0.0
 11
78.4
 21
102.0
 31
0.0
  0
LINE
  5
97
330
1E
100
AcDbEntity
  8
0
100
AcDbLine
 10
78.4
 20
102.0
 30
0.0
 11
78.4
 21
101.244
 31
0.0
  0
LINE
  5
98
330
1E
100
AcDbEntity
  8
0
100
AcDbLine
 10
78.4
 20
102.0
 30
0.0
 11
79.0
 21
101.496
 31
0.0
  0
LINE
  5
99
330
1E
100
AcDbEntity
  8
0
100
AcDbLine
 10
80.0
 20
99.228
 30
0.0
 11
80.0
 21
95.868
 31
0.0
  0
LINE
  5
9A
330
1E
100
AcDbEntity
  8
0
100
AcDbLine
 10
80.0
 20
95.868
 30
0.0
 11
80.0
 21
91.416
 31
0.0
  0
LINE
  5
9B
330
1E
100
AcDbEntity
  8
0
100
AcDbLine
 10
80.0
 20
91.416
 30
0.0
 11
80.0
 21
86.376
 31
0.0
  0
LINE
  5
9C
330
1E
100
AcDbEntity
  8
0
100
AcDbLine
 10
80.0
 20
86.376
 30
0.0
 11
80.0
 21
81.0
 31
0.0
  0
LINE
  5
9D
330
1E
100
AcDbEntity
  8
0
100
AcDbLine
 10
80.0
 20
101.244
 30
0.0
 11
80.0
 21
102.0
 31
0.0
  0
LINE
  5
9E
330
1E
100
AcDbEntity
  8
0
100
AcDbLine
 10
80.0
 20
101.244
 30
0.0
 11
80.0
 21
99.228
 31
0.0
  0
LINE
  5
9F
330
1E
100
AcDbEntity
  8
0
100
AcDbLine
 10
80.0
 20
102.0
 30
0.0
 11
110.0
 21
102.0
 31
0.0
  0
LINE
  5
A0
330
1E
100
AcDbEntity
  8
0
100
AcDbLine
 10
80.0
 20
102.0
 30
0.0
 11
80.0
 21
101.244
 31
0.0
  0
LINE
  5
A1
330
1E
100
AcDbEntity
  8
0
100
AcDbLine
 10
80.0
 20
99.92881032011471
 30
0.0
 11
80.0
 21
101.244
 31
0.0
  0
LINE
  5
A2
330
1E
100
AcDbEntity
  8
0
100
AcDbLine
 10
80.0
 20
81.0
 30
0.0
 11
81.04550000000001
 21
75.6148
 31
0.0
  0
LINE
  5
A3
330
1E
100
AcDbEntity
  8
0
100
AcDbLine
 10
82.1395
 20
62.2235
 30
0.0
 11
83.51718299565929
 21
62.4883533055863
 31
0.0
  0
LINE
  5
A4
330
1E
100
AcDbEntity
  8
0
100
AcDbLine
 10
83.46299999999999
 20
62.7633
 30
0.0
 11
83.86079999999999
 21
60.7447
 31
0.0
  0
LINE
  5
A5
330
1E
100
AcDbEntity
  8
0
100
AcDbLine
 10
82.8357
 20
66.10769999999999
 30
0.0
 11
83.46299999999999
 21
62.7633
 31
0.0
  0
LINE
  5
A6
330
1E
100
AcDbEntity
  8
0
100
AcDbLine
 10
110.0
 20
101.244
 30
0.0
 11
110.0
 21
102.0
 31
0.0
  0
LINE
  5
A7
330
1E
100
AcDbEntity
  8
0
100
AcDbLine
 10
110.0
 20
99.228
 30
0.0
 11
110.0
 21
101.244
 31
0.0
  0
LINE
  5
A8
330
1E
100
AcDbEntity
  8
0
100
AcDbLine
 10
110.0
 20
95.868
 30
0.0
 11
110.0
 21
99.228
 31
0.0
  0
LINE
  5
A9
330
1E
100
AcDbEntity
  8
0
100
AcDbLine
 10
110.0
 20
91.416
 30
0.0
 11
110.0
 21
95.868
 31
0.0
  0
LINE
  5
AA
330
1E
100
AcDbEntity
  8
0
100
AcDbLine
 10
110.0
 20
86.376
 30
0.0
 11
110.0
 21
91.416
 31
0.0
  0
LINE
  5
AB
330
1E
100
AcDbEntity
  8
0
100
AcDbLine
 10
110.0
 20
120.2979999999999
 30
0.0
 11
110.0
 21
102.0
 31
0.0
  0
LINE
  5
AC
330
1E
100
AcDbEntity
  8
0
100
AcDbLine
 10
110.0
 20
81.0
 30
0.0
 11
110.0
 21
120.0
 31
0.0
  0
LINE
  5
AD
330
1E
100
AcDbEntity
  8
0
100
AcDbLine
 10
110.0
 20
81.0
 30
0.0
 11
110.0
 21
86.376
 31
0.0
  0
LINE
  5
AE
330
1E
100
AcDbEntity
  8
0
100
AcDbLine
 10
110.0
 20
102.0
 30
0.0
 11
110.0
 21
120.2979999999999
 31
0.0
  0
LINE
  5
AF
330
1E
100
AcDbEntity
  8
0
100
AcDbLine
 10
81.97889999999999
 20
70.6036
 30
0.0
 11
82.8357
 21
66.10769999999999
 31
0.0
  0
LINE
  5
B0
330
1E
100
AcDbEntity
  8
0
100
AcDbLine
 10
81.04550000000001
 20
75.6148
 30
0.0
 11
81.97889999999999
 21
70.6036
 31
0.0
  0
LINE
  5
B1
330
1E
100
AcDbEntity
  8
0
100
AcDbLine
 10
110.0
 20
120.0
 30
0.0
 11
110.0
 21
128.0
 31
0.0
  0
LINE
  5
B2
330
1E
100
AcDbEntity
  8
0
100
AcDbLine
 10
110.0
 20
120.0
 30
0.0
 11
110.0
 21
81.0
 31
0.0
  0
LINE
  5
B3
330
1E
100
AcDbEntity
  8
0
100
AcDbLine
 10
46.0
 20
135.0
 30
0.0
 11
46.0
 21
98.2142068965517
 31
0.0
  0
LINE
  5
B4
330
1E
100
AcDbEntity
  8
0
100
AcDbLine
 10
46.0
 20
135.0
 30
0.0
 11
46.0
 21
144.6999999999999
 31
0.0
  0
LINE
  5
B5
330
1E
100
AcDbEntity
  8
0
100
AcDbLine
 10
18.0
 20
135.0
 30
0.0
 11
18.0
 21
144.6999999999999
 31
0.0
  0
LINE
  5
B6
330
1E
100
AcDbEntity
  8
0
100
AcDbLine
 10
18.0
 20
135.0
 30
0.0
 11
18.0
 21
10.0
 31
0.0
  0
LINE
  5
B7
330
1E
100
AcDbEntity
  8
0
100
AcDbLine
 10
110.0
 20
128.0
 30
0.0
 11
110.0
 21
120.0
 31
0.0
  0
LINE
  5
B8
330
1E
100
AcDbEntity
  8
0
100
AcDbLine
 10
110.0
 20
128.0
 30
0.0
 11
110.0
 21
136.0
 31
0.0
  0
LINE
  5
B9
330
1E
100
AcDbEntity
  8
0
100
AcDbLine
 10
110.0
 20
136.0
 30
0.0
 11
110.0
 21
128.0
 31
0.0
  0
LINE
  5
BA
330
1E
100
AcDbEntity
  8
0
100
AcDbLine
 10
110.0
 20
136.0
 30
0.0
 11
110.0
 21
144.0
 31
0.0
  0
LINE
  5
BB
330
1E
100
AcDbEntity
  8
0
100
AcDbLine
 10
18.0
 20
145.3
 30
0.0
 11
18.0
 21
257.0
 31
0.0
  0
LINE
  5
BC
330
1E
100
AcDbEntity
  8
0
100
AcDbLine
 10
18.0
 20
145.3
 30
0.0
 11
18.33599999999999
 21
145.0
 31
0.0
  0
LINE
  5
BD
330
1E
100
AcDbEntity
  8
0
100
AcDbLine
 10
18.0
 20
145.3
 30
0.0
 11
18.504
 21
145.3
 31
0.0
  0
LINE
  5
BE
330
1E
100
AcDbEntity
  8
0
100
AcDbLine
 10
18.504
 20
144.6999999999999
 30
0.0
 11
19.84799999999999
 21
144.6999999999999
 31
0.0
  0
LINE
  5
BF
330
1E
100
AcDbEntity
  8
0
100
AcDbLine
 10
19.84799999999999
 20
144.6999999999999
 30
0.0
 11
22.088
 21
144.6999999999999
 31
0.0
  0
LINE
  5
C0
330
1E
100
AcDbEntity
  8
0
100
AcDbLine
 10
22.088
 20
144.6999999999999
 30
0.0
 11
25.05599999999999
 21
144.6999999999999
 31
0.0
  0
LINE
  5
C1
330
1E
100
AcDbEntity
  8
0
100
AcDbLine
 10
32.0
 20
144.6999999999999
 30
0.0
 11
35.584
 21
144.6999999999999
 31
0.0
  0
LINE
  5
C2
330
1E
100
AcDbEntity
  8
0
100
AcDbLine
 10
35.584
 20
144.6999999999999
 30
0.0
 11
38.944
 21
144.6999999999999
 31
0.0
  0
LINE
  5
C3
330
1E
100
AcDbEntity
  8
0
100
AcDbLine
 10
38.944
 20
144.6999999999999
 30
0.0
 11
41.912
 21
144.6999999999999
 31
0.0
  0
LINE
  5
C4
330
1E
100
AcDbEntity
  8
0
100
AcDbLine
 10
46.0
 20
144.6999999999999
 30
0.0
 11
46.0
 21
135.0
 31
0.0
  0
LINE
  5
C5
330
1E
100
AcDbEntity
  8
0
100
AcDbLine
 10
45.496
 20
144.6999999999999
 30
0.0
 11
46.0
 21
144.6999999999999
 31
0.0
  0
LINE
  5
C6
330
1E
100
AcDbEntity
  8
0
100
AcDbLine
 10
41.912
 20
144.6999999999999
 30
0.0
 11
44.152
 21
144.6999999999999
 31
0.0
  0
LINE
  5
C7
330
1E
100
AcDbEntity
  8
0
100
AcDbLine
 10
44.152
 20
144.6999999999999
 30
0.0
 11
45.496
 21
144.6999999999999
 31
0.0
  0
LINE
  5
C8
330
1E
100
AcDbEntity
  8
0
100
AcDbLine
 10
25.05599999999999
 20
144.6999999999999
 30
0.0
 11
28.416
 21
144.6999999999999
 31
0.0
  0
LINE
  5
C9
330
1E
100
AcDbEntity
  8
0
100
AcDbLine
 10
18.33599999999999
 20
145.0
 30
0.0
 11
18.84
 21
145.0
 31
0.0
  0
LINE
  5
CA
330
1E
100
AcDbEntity
  8
0
100
AcDbLine
 10
18.84
 20
145.0
 30
0.0
 11
20.184
 21
145.0
 31
0.0
  0
LINE
  5
CB
330
1E
100
AcDbEntity
  8
0
100
AcDbLine
 10
20.184
 20
145.0
 30
0.0
 11
22.368
 21
145.0
 31
0.0
  0
LINE
  5
CC
330
1E
100
AcDbEntity
  8
0
100
AcDbLine
 10
22.368
 20
145.0
 30
0.0
 11
25.224
 21
145.0
 31
0.0
  0
LINE
  5
CD
330
1E
100
AcDbEntity
  8
0
100
AcDbLine
 10
18.504
 20
145.3
 30
0.0
 11
19.84799999999999
 21
145.3
 31
0.0
  0
LINE
  5
CE
330
1E
100
AcDbEntity
  8
0
100
AcDbLine
 10
19.84799999999999
 20
145.3
 30
0.0
 11
22.088
 21
145.3
 31
0.0
  0
LINE
  5
CF
330
1E
100
AcDbEntity
  8
0
100
AcDbLine
 10
22.088
 20
145.3
 30
0.0
 11
25.05599999999999
 21
145.3
 31
0.0
  0
LINE
  5
D0
330
1E
100
AcDbEntity
  8
0
100
AcDbLine
 10
25.05599999999999
 20
145.3
 30
0.0
 11
28.416
 21
145.3
 31
0.0
  0
LINE
  5
D1
330
1E
100
AcDbEntity
  8
0
100
AcDbLine
 10
28.416
 20
145.3
 30
0.0
 11
32.0
 21
145.3
 31
0.0
  0
LINE
  5
D2
330
1E
100
AcDbEntity
  8
0
100
AcDbLine
 10
25.224
 20
145.0
 30
0.0
 11
28.47199999999999
 21
145.0
 31
0.0
  0
LINE
  5
D3
330
1E
100
AcDbEntity
  8
0
100
AcDbLine
 10
45.16
 20
145.0
 30
0.0
 11
45.66399999999999
 21
145.0
 31
0.0
  0
LINE
  5
D4
330
1E
100
AcDbEntity
  8
0
100
AcDbLine
 10
43.816
 20
145.0
 30
0.0
 11
45.16
 21
145.0
 31
0.0
  0
LINE
  5
D5
330
1E
100
AcDbEntity
  8
0
100
AcDbLine
 10
41.63199999999999
 20
145.0
 30
0.0
 11
43.816
 21
145.0
 31
0.0
  0
LINE
  5
D6
330
1E
100
AcDbEntity
  8
0
100
AcDbLine
 10
38.77599999999999
 20
145.0
 30
0.0
 11
41.63199999999999
 21
145.0
 31
0.0
  0
LINE
  5
D7
330
1E
100
AcDbEntity
  8
0
100
AcDbLine
 10
35.52799999999999
 20
145.0
 30
0.0
 11
38.77599999999999
 21
145.0
 31
0.0
  0
LINE
  5
D8
330
1E
100
AcDbEntity
  8
0
100
AcDbLine
 10
32.0
 20
145.0
 30
0.0
 11
35.52799999999999
 21
145.0
 31
0.0
  0
LINE
  5
D9
330
1E
100
AcDbEntity
  8
0
100
AcDbLine
 10
45.496
 20
145.3
 30
0.0
 11
46.0
 21
145.3
 31
0.0
  0
LINE
  5
DA
330
1E
100
AcDbEntity
  8
0
100
AcDbLine
 10
46.0
 20
145.3
 30
0.0
 11
46.0
 21
257.0
 31
0.0
  0
LINE
  5
DB
330
1E
100
AcDbEntity
  8
0
100
AcDbLine
 10
44.152
 20
145.3
 30
0.0
 11
45.496
 21
145.3
 31
0.0
  0
LINE
  5
DC
330
1E
100
AcDbEntity
  8
0
100
AcDbLine
 10
41.912
 20
145.3
 30
0.0
 11
44.152
 21
145.3
 31
0.0
  0
LINE
  5
DD
330
1E
100
AcDbEntity
  8
0
100
AcDbLine
 10
38.944
 20
145.3
 30
0.0
 11
41.912
 21
145.3
 31
0.0
  0
LINE
  5
DE
330
1E
100
AcDbEntity
  8
0
100
AcDbLine
 10
35.584
 20
145.3
 30
0.0
 11
38.944
 21
145.3
 31
0.0
  0
LINE
  5
DF
330
1E
100
AcDbEntity
  8
0
100
AcDbLine
 10
32.0
 20
145.3
 30
0.0
 11
35.584
 21
145.3
 31
0.0
  0
LINE
  5
E0
330
1E
100
AcDbEntity
  8
0
100
AcDbLine
 10
45.66399999999999
 20
145.0
 30
0.0
 11
46.0
 21
145.3
 31
0.0
  0
LINE
  5
E1
330
1E
100
AcDbEntity
  8
0
100
AcDbLine
 10
45.66399999999999
 20
145.0
 30
0.0
 11
46.0
 21
144.6999999999999
 31
0.0
  0
LINE
  5
E2
330
1E
100
AcDbEntity
  8
0
100
AcDbLine
 10
28.47199999999999
 20
145.0
 30
0.0
 11
32.0
 21
145.0
 31
0.0
  0
LINE
  5
E3
330
1E
100
AcDbEntity
  8
0
100
AcDbLine
 10
28.416
 20
144.6999999999999
 30
0.0
 11
32.0
 21
144.6999999999999
 31
0.0
  0
LINE
  5
E4
330
1E
100
AcDbEntity
  8
0
100
AcDbLine
 10
18.0
 20
144.6999999999999
 30
0.0
 11
18.33599999999999
 21
145.0
 31
0.0
  0
LINE
  5
E5
330
1E
100
AcDbEntity
  8
0
100
AcDbLine
 10
18.0
 20
144.6999999999999
 30
0.0
 11
18.504
 21
144.6999999999999
 31
0.0
  0
LINE
  5
E6
330
1E
100
AcDbEntity
  8
0
100
AcDbLine
 10
18.0
 20
144.6999999999999
 30
0.0
 11
18.0
 21
135.0
 31
0.0
  0
LINE
  5
E7
330
1E
100
AcDbEntity
  8
0
100
AcDbLine
 10
110.0
 20
144.0
 30
0.0
 11
110.0
 21
136.0
 31
0.0
  0
LINE
  5
E8
330
1E
100
AcDbEntity
  8
0
100
AcDbLine
 10
110.0
 20
144.0
 30
0.0
 11
110.0
 21
152.0
 31
0.0
  0
LINE
  5
E9
330
1E
100
AcDbEntity
  8
0
100
AcDbLine
 10
110.0
 20
152.0
 30
0.0
 11
110.0
 21
144.0
 31
0.0
  0
LINE
  5
EA
330
1E
100
AcDbEntity
  8
0
100
AcDbLine
 10
110.0
 20
160.0
 30
0.0
 11
110.0
 21
152.0
 31
0.0
  0
LINE
  5
EB
330
1E
100
AcDbEntity
  8
0
100
AcDbLine
 10
110.0
 20
168.0
 30
0.0
 11
110.0
 21
160.0
 31
0.0
  0
LINE
  5
EC
330
1E
100
AcDbEntity
  8
0
100
AcDbLine
 10
110.0
 20
168.0
 30
0.0
 11
110.0
 21
176.0
 31
0.0
  0
LINE
  5
ED
330
1E
100
AcDbEntity
  8
0
100
AcDbLine
 10
110.0
 20
176.0
 30
0.0
 11
110.0
 21
168.0
 31
0.0
  0
LINE
  5
EE
330
1E
100
AcDbEntity
  8
0
100
AcDbLine
 10
110.0
 20
176.0
 30
0.0
 11
110.0
 21
184.0
 31
0.0
  0
LINE
  5
EF
330
1E
100
AcDbEntity
  8
0
100
AcDbLine
 10
110.0
 20
184.0
 30
0.0
 11
110.0
 21
176.0
 31
0.0
  0
LINE
  5
F0
330
1E
100
AcDbEntity
  8
0
100
AcDbLine
 10
110.0
 20
184.0
 30
0.0
 11
110.0
 21
194.0
 31
0.0
  0
LINE
  5
F1
330
1E
100
AcDbEntity
  8
0
100
AcDbLine
 10
18.0
 20
257.0
 30
0.0
 11
18.0
 21
145.3
 31
0.0
  0
LINE
  5
F2
330
1E
100
AcDbEntity
  8
0
100
AcDbLine
 10
18.0
 20
257.0
 30
0.0
 11
18.0
 21
263.729
 31
0.0
  0
LINE
  5
F3
330
1E
100
AcDbEntity
  8
0
100
AcDbLine
 10
18.504
 20
262.0559999999999
 30
0.0
 11
19.84799999999999
 21
260.907
 31
0.0
  0
LINE
  5
F4
330
1E
100
AcDbEntity
  8
0
100
AcDbLine
 10
18.33599999999999
 20
263.0
 30
0.0
 11
18.84
 21
264.2069999999999
 31
0.0
  0
LINE
  5
F5
330
1E
100
AcDbEntity
  8
0
100
AcDbLine
 10
18.33599999999999
 20
263.0
 30
0.0
 11
18.84
 21
261.793
 31
0.0
  0
LINE
  5
F6
330
1E
100
AcDbEntity
  8
0
100
AcDbLine
 10
18.0
 20
263.729
 30
0.0
 11
18.0
 21
257.0
 31
0.0
  0
LINE
  5
F7
330
1E
100
AcDbEntity
  8
0
100
AcDbLine
 10
18.0
 20
263.729
 30
0.0
 11
18.0
 21
270.0
 31
0.0
  0
LINE
  5
F8
330
1E
100
AcDbEntity
  8
0
100
AcDbLine
 10
18.0
 20
263.2819999999999
 30
0.0
 11
18.504
 21
264.5079999999999
 31
0.0
  0
LINE
  5
F9
330
1E
100
AcDbEntity
  8
0
100
AcDbLine
 10
18.0
 20
263.2819999999999
 30
0.0
 11
18.504
 21
262.0559999999999
 31
0.0
  0
LINE
  5
FA
330
1E
100
AcDbEntity
  8
0
100
AcDbLine
 10
18.0
 20
263.2819999999999
 30
0.0
 11
18.0
 21
268.6379999999999
 31
0.0
  0
LINE
  5
FB
330
1E
100
AcDbEntity
  8
0
100
AcDbLine
 10
18.84
 20
261.793
 30
0.0
 11
20.184
 21
260.682
 31
0.0
  0
LINE
  5
FC
330
1E
100
AcDbEntity
  8
0
100
AcDbLine
 10
19.84799999999999
 20
260.907
 30
0.0
 11
19.9892270916335
 21
260.843006474104
 31
0.0
  0
LINE
  5
FD
330
1E
100
AcDbEntity
  8
0
100
AcDbLine
 10
19.84799999999999
 20
260.907
 30
0.0
 11
20.184
 21
260.682
 31
0.0
  0
LINE
  5
FE
330
1E
100
AcDbEntity
  8
0
100
AcDbLine
 10
20.184
 20
260.682
 30
0.0
 11
22.368
 21
259.7059999999999
 31
0.0
  0
LINE
  5
FF
330
1E
100
AcDbEntity
  8
0
100
AcDbLine
 10
18.84
 20
264.2069999999999
 30
0.0
 11
20.184
 21
265.3179999999999
 31
0.0
  0
LINE
  5
100
330
1E
100
AcDbEntity
  8
0
100
AcDbLine
 10
20.184
 20
265.3179999999999
 30
0.0
 11
22.368
 21
266.294
 31
0.0
  0
LINE
  5
101
330
1E
100
AcDbEntity
  8
0
100
AcDbLine
 10
18.504
 20
264.5079999999999
 30
0.0
 11
19.84799999999999
 21
265.6569999999999
 31
0.0
  0
LINE
  5
102
330
1E
100
AcDbEntity
  8
0
100
AcDbLine
 10
19.84799999999999
 20
265.6569999999999
 30
0.0
 11
22.088
 21
266.672
 31
0.0
  0
LINE
  5
103
330
1E
100
AcDbEntity
  8
0
100
AcDbLine
 10
22.3155006677266
 20
266.270538759936
 30
0.0
 11
23.504
 21
265.732
 31
0.0
  0
LINE
  5
104
330
1E
100
AcDbEntity
  8
0
100
AcDbLine
 10
22.368
 20
259.7059999999999
 30
0.0
 11
25.224
 21
258.959
 31
0.0
  0
LINE
  5
105
330
1E
100
AcDbEntity
  8
0
100
AcDbLine
 10
25.224
 20
258.959
 30
0.0
 11
28.47199999999999
 21
258.499
 31
0.0
  0
LINE
  5
106
330
1E
100
AcDbEntity
  8
0
100
AcDbLine
 10
26.048
 20
265.0759999999999
 30
0.0
 11
28.928
 21
264.682
 31
0.0
  0
LINE
  5
107
330
1E
100
AcDbEntity
  8
0
100
AcDbLine
 10
23.504
 20
265.732
 30
0.0
 11
26.048
 21
265.0759999999999
 31
0.0
  0
LINE
  5
108
330
1E
100
AcDbEntity
  8
0
100
AcDbLine
 10
22.368
 20
266.294
 30
0.0
 11
25.224
 21
267.0409999999999
 31
0.0
  0
LINE
  5
109
330
1E
100
AcDbEntity
  8
0
100
AcDbLine
 10
25.224
 20
267.0409999999999
 30
0.0
 11
28.47199999999999
 21
267.5009999999999
 31
0.0
  0
LINE
  5
10A
330
1E
100
AcDbEntity
  8
0
100
AcDbLine
 10
22.088
 20
266.672
 30
0.0
 11
25.05599999999999
 21
267.4379999999999
 31
0.0
  0
LINE
  5
10B
330
1E
100
AcDbEntity
  8
0
100
AcDbLine
 10
18.0
 20
270.0
 30
0.0
 11
18.0
 21
275.3849999999999
 31
0.0
  0
LINE
  5
10C
330
1E
100
AcDbEntity
  8
0
100
AcDbLine
 10
18.0
 20
270.0
 30
0.0
 11
18.0
 21
263.729
 31
0.0
  0
LINE
  5
10D
330
1E
100
AcDbEntity
  8
0
100
AcDbLine
 10
18.0
 20
272.115
 30
0.0
 11
18.0
 21
268.6379999999999
 31
0.0
  0
LINE
  5
10E
330
1E
100
AcDbEntity
  8
0
100
AcDbLine
 10
18.0
 20
272.115
 30
0.0
 11
18.504
 21
273.341
 31
0.0
  0
LINE
  5
10F
330
1E
100
AcDbEntity
  8
0
100
AcDbLine
 10
18.0
 20
275.3849999999999
 30
0.0
 11
18.0
 21
279.517
 31
0.0
  0
LINE
  5
110
330
1E
100
AcDbEntity
  8
0
100
AcDbLine
 10
18.0
 20
275.3849999999999
 30
0.0
 11
18.0
 21
270.0
 31
0.0
  0
LINE
  5
111
330
1E
100
AcDbEntity
  8
0
100
AcDbLine
 10
18.0
 20
279.517
 30
0.0
 11
18.0
 21
282.114
 31
0.0
  0
LINE
  5
112
330
1E
100
AcDbEntity
  8
0
100
AcDbLine
 10
18.0
 20
279.517
 30
0.0
 11
18.0
 21
275.3849999999999
 31
0.0
  0
LINE
  5
113
330
1E
100
AcDbEntity
  8
0
100
AcDbLine
 10
18.0
 20
282.114
 30
0.0
 11
18.0
 21
326.584
 31
0.0
  0
LINE
  5
114
330
1E
100
AcDbEntity
  8
0
100
AcDbLine
 10
18.0
 20
282.114
 30
0.0
 11
18.0
 21
279.517
 31
0.0
  0
LINE
  5
115
330
1E
100
AcDbEntity
  8
0
100
AcDbLine
 10
18.0
 20
317.065
 30
0.0
 11
18.0
 21
311.045
 31
0.0
  0
LINE
  5
116
330
1E
100
AcDbEntity
  8
0
100
AcDbLine
 10
18.0
 20
317.065
 30
0.0
 11
18.0
 21
322.069
 31
0.0
  0
LINE
  5
117
330
1E
100
AcDbEntity
  8
0
100
AcDbLine
 10
18.0
 20
327.7569999999999
 30
0.0
 11
18.0
 21
325.716
 31
0.0
  0
LINE
  5
118
330
1E
100
AcDbEntity
  8
0
100
AcDbLine
 10
18.0
 20
327.7569999999999
 30
0.0
 11
18.0
 21
328.053
 31
0.0
  0
LINE
  5
119
330
1E
100
AcDbEntity
  8
0
100
AcDbLine
 10
18.0
 20
326.584
 30
0.0
 11
18.0
 21
328.053
 31
0.0
  0
LINE
  5
11A
330
1E
100
AcDbEntity
  8
0
100
AcDbLine
 10
18.0
 20
326.584
 30
0.0
 11
18.0
 21
282.114
 31
0.0
  0
LINE
  5
11B
330
1E
100
AcDbEntity
  8
0
100
AcDbLine
 10
18.0
 20
328.053
 30
0.0
 11
18.0
 21
326.584
 31
0.0
  0
LINE
  5
11C
330
1E
100
AcDbEntity
  8
0
100
AcDbLine
 10
18.0
 20
328.053
 30
0.0
 11
18.504
 21
331.624
 31
0.0
  0
LINE
  5
11D
330
1E
100
AcDbEntity
  8
0
100
AcDbLine
 10
18.0
 20
328.053
 30
0.0
 11
18.0
 21
327.7569999999999
 31
0.0
  0
LINE
  5
11E
330
1E
100
AcDbEntity
  8
0
100
AcDbLine
 10
18.0
 20
325.716
 30
0.0
 11
18.0
 21
322.069
 31
0.0
  0
LINE
  5
11F
330
1E
100
AcDbEntity
  8
0
100
AcDbLine
 10
18.0
 20
325.716
 30
0.0
 11
18.0
 21
327.7569999999999
 31
0.0
  0
LINE
  5
120
330
1E
100
AcDbEntity
  8
0
100
AcDbLine
 10
18.0
 20
322.069
 30
0.0
 11
18.0
 21
325.716
 31
0.0
  0
LINE
  5
121
330
1E
100
AcDbEntity
  8
0
100
AcDbLine
 10
18.0
 20
322.069
 30
0.0
 11
18.0
 21
317.065
 31
0.0
  0
LINE
  5
122
330
1E
100
AcDbEntity
  8
0
100
AcDbLine
 10
18.0
 20
311.045
 30
0.0
 11
18.0
 21
272.679
 31
0.0
  0
LINE
  5
123
330
1E
100
AcDbEntity
  8
0
100
AcDbLine
 10
18.0
 20
311.045
 30
0.0
 11
18.0
 21
317.065
 31
0.0
  0
LINE
  5
124
330
1E
100
AcDbEntity
  8
0
100
AcDbLine
 10
18.0
 20
272.679
 30
0.0
 11
18.11592822185969
 21
272.397
 31
0.0
  0
LINE
  5
125
330
1E
100
AcDbEntity
  8
0
100
AcDbLine
 10
18.0
 20
272.679
 30
0.0
 11
18.0
 21
311.045
 31
0.0
  0
LINE
  5
126
330
1E
100
AcDbEntity
  8
0
100
AcDbLine
 10
18.0
 20
272.679
 30
0.0
 11
18.504
 21
273.9049999999999
 31
0.0
  0
LINE
  5
127
330
1E
100
AcDbEntity
  8
0
100
AcDbLine
 10
18.504
 20
273.341
 30
0.0
 11
19.84799999999999
 21
274.49
 31
0.0
  0
LINE
  5
128
330
1E
100
AcDbEntity
  8
0
100
AcDbLine
 10
19.84799999999999
 20
274.49
 30
0.0
 11
22.088
 21
275.505
 31
0.0
  0
LINE
  5
129
330
1E
100
AcDbEntity
  8
0
100
AcDbLine
 10
19.84799999999999
 20
274.49
 30
0.0
 11
20.184
 21
274.7139999999999
 31
0.0
  0
LINE
  5
12A
330
1E
100
AcDbEntity
  8
0
100
AcDbLine
 10
18.504
 20
273.9049999999999
 30
0.0
 11
19.84799999999999
 21
275.054
 31
0.0
  0
LINE
  5
12B
330
1E
100
AcDbEntity
  8
0
100
AcDbLine
 10
22.088
 20
275.505
 30
0.0
 11
25.05599999999999
 21
276.2709999999999
 31
0.0
  0
LINE
  5
12C
330
1E
100
AcDbEntity
  8
0
100
AcDbLine
 10
20.184
 20
274.7139999999999
 30
0.0
 11
22.368
 21
275.6909999999999
 31
0.0
  0
LINE
  5
12D
330
1E
100
AcDbEntity
  8
0
100
AcDbLine
 10
22.368
 20
275.6909999999999
 30
0.0
 11
25.224
 21
276.438
 31
0.0
  0
LINE
  5
12E
330
1E
100
AcDbEntity
  8
0
100
AcDbLine
 10
19.84799999999999
 20
275.054
 30
0.0
 11
22.088
 21
276.069
 31
0.0
  0
LINE
  5
12F
330
1E
100
AcDbEntity
  8
0
100
AcDbLine
 10
25.05599999999999
 20
276.2709999999999
 30
0.0
 11
28.416
 21
276.731
 31
0.0
  0
LINE
  5
130
330
1E
100
AcDbEntity
  8
0
100
AcDbLine
 10
22.088
 20
276.069
 30
0.0
 11
25.05599999999999
 21
276.8349999999999
 31
0.0
  0
LINE
  5
131
330
1E
100
AcDbEntity
  8
0
100
AcDbLine
 10
28.416
 20
276.731
 30
0.0
 11
32.0
 21
276.903
 31
0.0
  0
LINE
  5
132
330
1E
100
AcDbEntity
  8
0
100
AcDbLine
 10
25.224
 20
276.438
 30
0.0
 11
28.47199999999999
 21
276.8979999999999
 31
0.0
  0
LINE
  5
133
330
1E
100
AcDbEntity
  8
0
100
AcDbLine
 10
25.05599999999999
 20
276.8349999999999
 30
0.0
 11
28.416
 21
277.295
 31
0.0
  0
LINE
  5
134
330
1E
100
AcDbEntity
  8
0
100
AcDbLine
 10
18.504
 20
331.624
 30
0.0
 11
19.84799999999999
 21
334.9709999999999
 31
0.0
  0
LINE
  5
135
330
1E
100
AcDbEntity
  8
0
100
AcDbLine
 10
19.84799999999999
 20
334.9709999999999
 30
0.0
 11
22.088
 21
337.928
 31
0.0
  0
LINE
  5
136
330
1E
100
AcDbEntity
  8
0
100
AcDbLine
 10
22.088
 20
337.928
 30
0.0
 11
25.05599999999999
 21
340.159
 31
0.0
  0
LINE
  5
137
330
1E
100
AcDbEntity
  8
0
100
AcDbLine
 10
25.05599999999999
 20
340.159
 30
0.0
 11
28.416
 21
341.498
 31
0.0
  0
LINE
  5
138
330
1E
100
AcDbEntity
  8
0
100
AcDbLine
 10
28.416
 20
341.498
 30
0.0
 11
32.0
 21
342.0
 31
0.0
  0
LINE
  5
139
330
1E
100
AcDbEntity
  8
0
100
AcDbLine
 10
28.416
 20
277.295
 30
0.0
 11
32.0
 21
277.4669999999999
 31
0.0
  0
LINE
  5
13A
330
1E
100
AcDbEntity
  8
0
100
AcDbLine
 10
18.0
 20
268.6379999999999
 30
0.0
 11
18.0
 21
263.2819999999999
 31
0.0
  0
LINE
  5
13B
330
1E
100
AcDbEntity
  8
0
100
AcDbLine
 10
18.0
 20
268.6379999999999
 30
0.0
 11
18.0
 21
272.115
 31
0.0
  0
LINE
  5
13C
330
1E
100
AcDbEntity
  8
0
100
AcDbLine
 10
25.05599999999999
 20
267.4379999999999
 30
0.0
 11
28.416
 21
267.8979999999999
 31
0.0
  0
LINE
  5
13D
330
1E
100
AcDbEntity
  8
0
100
AcDbLine
 10
28.47199999999999
 20
258.499
 30
0.0
 11
32.0
 21
258.327
 31
0.0
  0
LINE
  5
13E
330
1E
100
AcDbEntity
  8
0
100
AcDbLine
 10
35.52799999999999
 20
258.499
 30
0.0
 11
38.77599999999999
 21
258.959
 31
0.0
  0
LINE
  5
13F
330
1E
100
AcDbEntity
  8
0
100
AcDbLine
 10
32.0
 20
258.327
 30
0.0
 11
35.52799999999999
 21
258.499
 31
0.0
  0
LINE
  5
140
330
1E
100
AcDbEntity
  8
0
100
AcDbLine
 10
35.07199999999999
 20
264.682
 30
0.0
 11
37.95199999999999
 21
265.0759999999999
 31
0.0
  0
LINE
  5
141
330
1E
100
AcDbEntity
  8
0
100
AcDbLine
 10
32.0
 20
264.534
 30
0.0
 11
35.07199999999999
 21
264.682
 31
0.0
  0
LINE
  5
142
330
1E
100
AcDbEntity
  8
0
100
AcDbLine
 10
38.77599999999999
 20
258.959
 30
0.0
 11
41.63199999999999
 21
259.7059999999999
 31
0.0
  0
LINE
  5
143
330
1E
100
AcDbEntity
  8
0
100
AcDbLine
 10
37.95199999999999
 20
265.0759999999999
 30
0.0
 11
40.496
 21
265.732
 31
0.0
  0
LINE
  5
144
330
1E
100
AcDbEntity
  8
0
100
AcDbLine
 10
38.77599999999999
 20
267.0409999999999
 30
0.0
 11
41.63199999999999
 21
266.294
 31
0.0
  0
LINE
  5
145
330
1E
100
AcDbEntity
  8
0
100
AcDbLine
 10
35.52799999999999
 20
267.5009999999999
 30
0.0
 11
38.77599999999999
 21
267.0409999999999
 31
0.0
  0
LINE
  5
146
330
1E
100
AcDbEntity
  8
0
100
AcDbLine
 10
43.816
 20
260.682
 30
0.0
 11
45.16
 21
261.793
 31
0.0
  0
LINE
  5
147
330
1E
100
AcDbEntity
  8
0
100
AcDbLine
 10
43.816
 20
260.682
 30
0.0
 11
44.152
 21
260.907
 31
0.0
  0
LINE
  5
148
330
1E
100
AcDbEntity
  8
0
100
AcDbLine
 10
41.63199999999999
 20
259.7059999999999
 30
0.0
 11
43.816
 21
260.682
 31
0.0
  0
LINE
  5
149
330
1E
100
AcDbEntity
  8
0
100
AcDbLine
 10
40.496
 20
265.732
 30
0.0
 11
41.68449933227339
 21
266.270538759936
 31
0.0
  0
LINE
  5
14A
330
1E
100
AcDbEntity
  8
0
100
AcDbLine
 10
44.01077290836649
 20
260.843006474104
 30
0.0
 11
44.152
 21
260.907
 31
0.0
  0
LINE
  5
14B
330
1E
100
AcDbEntity
  8
0
100
AcDbLine
 10
44.152
 20
260.907
 30
0.0
 11
45.496
 21
262.0559999999999
 31
0.0
  0
LINE
  5
14C
330
1E
100
AcDbEntity
  8
0
100
AcDbLine
 10
43.816
 20
265.3179999999999
 30
0.0
 11
45.16
 21
264.2069999999999
 31
0.0
  0
LINE
  5
14D
330
1E
100
AcDbEntity
  8
0
100
AcDbLine
 10
41.63199999999999
 20
266.294
 30
0.0
 11
43.816
 21
265.3179999999999
 31
0.0
  0
LINE
  5
14E
330
1E
100
AcDbEntity
  8
0
100
AcDbLine
 10
45.496
 20
262.0559999999999
 30
0.0
 11
46.0
 21
263.2819999999999
 31
0.0
  0
LINE
  5
14F
330
1E
100
AcDbEntity
  8
0
100
AcDbLine
 10
45.16
 20
261.793
 30
0.0
 11
45.66399999999999
 21
263.0
 31
0.0
  0
LINE
  5
150
330
1E
100
AcDbEntity
  8
0
100
AcDbLine
 10
45.16
 20
264.2069999999999
 30
0.0
 11
45.66399999999999
 21
263.0
 31
0.0
  0
LINE
  5
151
330
1E
100
AcDbEntity
  8
0
100
AcDbLine
 10
45.496
 20
264.5079999999999
 30
0.0
 11
46.0
 21
263.2819999999999
 31
0.0
  0
LINE
  5
152
330
1E
100
AcDbEntity
  8
0
100
AcDbLine
 10
46.0
 20
263.2819999999999
 30
0.0
 11
46.0
 21
268.6379999999999
 31
0.0
  0
LINE
  5
153
330
1E
100
AcDbEntity
  8
0
100
AcDbLine
 10
46.0
 20
263.2819999999999
 30
0.0
 11
46.0
 21
257.0
 31
0.0
  0
LINE
  5
154
330
1E
100
AcDbEntity
  8
0
100
AcDbLine
 10
44.152
 20
265.6569999999999
 30
0.0
 11
45.496
 21
264.5079999999999
 31
0.0
  0
LINE
  5
155
330
1E
100
AcDbEntity
  8
0
100
AcDbLine
 10
41.912
 20
266.672
 30
0.0
 11
44.152
 21
265.6569999999999
 31
0.0
  0
LINE
  5
156
330
1E
100
AcDbEntity
  8
0
100
AcDbLine
 10
38.944
 20
267.4379999999999
 30
0.0
 11
41.912
 21
266.672
 31
0.0
  0
LINE
  5
157
330
1E
100
AcDbEntity
  8
0
100
AcDbLine
 10
46.0
 20
257.0
 30
0.0
 11
46.0
 21
145.3
 31
0.0
  0
LINE
  5
158
330
1E
100
AcDbEntity
  8
0
100
AcDbLine
 10
46.0
 20
257.0
 30
0.0
 11
46.0
 21
263.2819999999999
 31
0.0
  0
LINE
  5
159
330
1E
100
AcDbEntity
  8
0
100
AcDbLine
 10
28.928
 20
264.682
 30
0.0
 11
32.0
 21
264.534
 31
0.0
  0
LINE
  5
15A
330
1E
100
AcDbEntity
  8
0
100
AcDbLine
 10
32.0
 20
267.673
 30
0.0
 11
35.52799999999999
 21
267.5009999999999
 31
0.0
  0
LINE
  5
15B
330
1E
100
AcDbEntity
  8
0
100
AcDbLine
 10
32.0
 20
276.903
 30
0.0
 11
35.584
 21
276.731
 31
0.0
  0
LINE
  5
15C
330
1E
100
AcDbEntity
  8
0
100
AcDbLine
 10
32.0
 20
268.0699999999999
 30
0.0
 11
35.584
 21
267.8979999999999
 31
0.0
  0
LINE
  5
15D
330
1E
100
AcDbEntity
  8
0
100
AcDbLine
 10
35.584
 20
276.731
 30
0.0
 11
38.944
 21
276.2709999999999
 31
0.0
  0
LINE
  5
15E
330
1E
100
AcDbEntity
  8
0
100
AcDbLine
 10
35.584
 20
267.8979999999999
 30
0.0
 11
38.944
 21
267.4379999999999
 31
0.0
  0
LINE
  5
15F
330
1E
100
AcDbEntity
  8
0
100
AcDbLine
 10
35.52799999999999
 20
276.8979999999999
 30
0.0
 11
38.77599999999999
 21
276.438
 31
0.0
  0
LINE
  5
160
330
1E
100
AcDbEntity
  8
0
100
AcDbLine
 10
32.0
 20
277.07
 30
0.0
 11
35.52799999999999
 21
276.8979999999999
 31
0.0
  0
LINE
  5
161
330
1E
100
AcDbEntity
  8
0
100
AcDbLine
 10
35.584
 20
277.295
 30
0.0
 11
38.944
 21
276.8349999999999
 31
0.0
  0
LINE
  5
162
330
1E
100
AcDbEntity
  8
0
100
AcDbLine
 10
32.0
 20
277.4669999999999
 30
0.0
 11
35.584
 21
277.295
 31
0.0
  0
LINE
  5
163
330
1E
100
AcDbEntity
  8
0
100
AcDbLine
 10
38.944
 20
276.2709999999999
 30
0.0
 11
41.912
 21
275.505
 31
0.0
  0
LINE
  5
164
330
1E
100
AcDbEntity
  8
0
100
AcDbLine
 10
41.912
 20
275.505
 30
0.0
 11
44.152
 21
274.49
 31
0.0
  0
LINE
  5
165
330
1E
100
AcDbEntity
  8
0
100
AcDbLine
 10
41.63199999999999
 20
275.6909999999999
 30
0.0
 11
43.816
 21
274.7139999999999
 31
0.0
  0
LINE
  5
166
330
1E
100
AcDbEntity
  8
0
100
AcDbLine
 10
38.77599999999999
 20
276.438
 30
0.0
 11
41.63199999999999
 21
275.6909999999999
 31
0.0
  0
LINE
  5
167
330
1E
100
AcDbEntity
  8
0
100
AcDbLine
 10
41.912
 20
276.069
 30
0.0
 11
44.152
 21
275.054
 31
0.0
  0
LINE
  5
168
330
1E
100
AcDbEntity
  8
0
100
AcDbLine
 10
38.944
 20
276.8349999999999
 30
0.0
 11
41.912
 21
276.069
 31
0.0
  0
LINE
  5
169
330
1E
100
AcDbEntity
  8
0
100
AcDbLine
 10
45.496
 20
273.341
 30
0.0
 11
46.0
 21
272.115
 31
0.0
  0
LINE
  5
16A
330
1E
100
AcDbEntity
  8
0
100
AcDbLine
 10
43.816
 20
274.7139999999999
 30
0.0
 11
44.152
 21
274.49
 31
0.0
  0
LINE
  5
16B
330
1E
100
AcDbEntity
  8
0
100
AcDbLine
 10
44.152
 20
274.49
 30
0.0
 11
45.496
 21
273.341
 31
0.0
  0
LINE
  5
16C
330
1E
100
AcDbEntity
  8
0
100
AcDbLine
 10
45.496
 20
273.9049999999999
 30
0.0
 11
46.0
 21
272.679
 31
0.0
  0
LINE
  5
16D
330
1E
100
AcDbEntity
  8
0
100
AcDbLine
 10
44.152
 20
275.054
 30
0.0
 11
45.496
 21
273.9049999999999
 31
0.0
  0
LINE
  5
16E
330
1E
100
AcDbEntity
  8
0
100
AcDbLine
 10
46.0
 20
272.115
 30
0.0
 11
46.0
 21
268.6379999999999
 31
0.0
  0
LINE
  5
16F
330
1E
100
AcDbEntity
  8
0
100
AcDbLine
 10
46.0
 20
272.115
 30
0.0
 11
46.0
 21
272.679
 31
0.0
  0
LINE
  5
170
330
1E
100
AcDbEntity
  8
0
100
AcDbLine
 10
46.0
 20
268.6379999999999
 30
0.0
 11
46.0
 21
263.2819999999999
 31
0.0
  0
LINE
  5
171
330
1E
100
AcDbEntity
  8
0
100
AcDbLine
 10
46.0
 20
268.6379999999999
 30
0.0
 11
46.0
 21
272.115
 31
0.0
  0
LINE
  5
172
330
1E
100
AcDbEntity
  8
0
100
AcDbLine
 10
46.0
 20
272.679
 30
0.0
 11
46.0
 21
311.045
 31
0.0
  0
LINE
  5
173
330
1E
100
AcDbEntity
  8
0
100
AcDbLine
 10
46.0
 20
272.679
 30
0.0
 11
46.0
 21
272.115
 31
0.0
  0
LINE
  5
174
330
1E
100
AcDbEntity
  8
0
100
AcDbLine
 10
46.0
 20
322.069
 30
0.0
 11
46.0
 21
317.065
 31
0.0
  0
LINE
  5
175
330
1E
100
AcDbEntity
  8
0
100
AcDbLine
 10
46.0
 20
322.069
 30
0.0
 11
46.0
 21
325.716
 31
0.0
  0
LINE
  5
176
330
1E
100
AcDbEntity
  8
0
100
AcDbLine
 10
46.0
 20
317.065
 30
0.0
 11
46.0
 21
311.045
 31
0.0
  0
LINE
  5
177
330
1E
100
AcDbEntity
  8
0
100
AcDbLine
 10
46.0
 20
317.065
 30
0.0
 11
46.0
 21
322.069
 31
0.0
  0
LINE
  5
178
330
1E
100
AcDbEntity
  8
0
100
AcDbLine
 10
46.0
 20
311.045
 30
0.0
 11
46.0
 21
272.679
 31
0.0
  0
LINE
  5
179
330
1E
100
AcDbEntity
  8
0
100
AcDbLine
 10
46.0
 20
311.045
 30
0.0
 11
46.0
 21
317.065
 31
0.0
  0
LINE
  5
17A
330
1E
100
AcDbEntity
  8
0
100
AcDbLine
 10
45.88407177814029
 20
272.397
 30
0.0
 11
46.0
 21
272.679
 31
0.0
  0
LINE
  5
17B
330
1E
100
AcDbEntity
  8
0
100
AcDbLine
 10
46.0
 20
325.716
 30
0.0
 11
46.0
 21
327.7569999999999
 31
0.0
  0
LINE
  5
17C
330
1E
100
AcDbEntity
  8
0
100
AcDbLine
 10
46.0
 20
325.716
 30
0.0
 11
46.0
 21
322.069
 31
0.0
  0
LINE
  5
17D
330
1E
100
AcDbEntity
  8
0
100
AcDbLine
 10
46.0
 20
327.7569999999999
 30
0.0
 11
46.0
 21
328.053
 31
0.0
  0
LINE
  5
17E
330
1E
100
AcDbEntity
  8
0
100
AcDbLine
 10
46.0
 20
327.7569999999999
 30
0.0
 11
46.0
 21
325.716
 31
0.0
  0
LINE
  5
17F
330
1E
100
AcDbEntity
  8
0
100
AcDbLine
 10
46.0
 20
328.053
 30
0.0
 11
46.0
 21
327.7569999999999
 31
0.0
  0
LINE
  5
180
330
1E
100
AcDbEntity
  8
0
100
AcDbLine
 10
45.496
 20
331.624
 30
0.0
 11
46.0
 21
328.053
 31
0.0
  0
LINE
  5
181
330
1E
100
AcDbEntity
  8
0
100
AcDbLine
 10
44.152
 20
334.9709999999999
 30
0.0
 11
45.496
 21
331.624
 31
0.0
  0
LINE
  5
182
330
1E
100
AcDbEntity
  8
0
100
AcDbLine
 10
41.912
 20
337.928
 30
0.0
 11
44.152
 21
334.9709999999999
 31
0.0
  0
LINE
  5
183
330
1E
100
AcDbEntity
  8
0
100
AcDbLine
 10
38.944
 20
340.159
 30
0.0
 11
41.912
 21
337.928
 31
0.0
  0
LINE
  5
184
330
1E
100
AcDbEntity
  8
0
100
AcDbLine
 10
35.584
 20
341.498
 30
0.0
 11
38.944
 21
340.159
 31
0.0
  0
LINE
  5
185
330
1E
100
AcDbEntity
  8
0
100
AcDbLine
 10
32.0
 20
342.0
 30
0.0
 11
35.584
 21
341.498
 31
0.0
  0
LINE
  5
186
330
1E
100
AcDbEntity
  8
0
100
AcDbLine
 10
28.47199999999999
 20
276.8979999999999
 30
0.0
 11
32.0
 21
277.07
 31
0.0
  0
LINE
  5
187
330
1E
100
AcDbEntity
  8
0
100
AcDbLine
 10
28.47199999999999
 20
267.5009999999999
 30
0.0
 11
32.0
 21
267.673
 31
0.0
  0
LINE
  5
188
330
1E
100
AcDbEntity
  8
0
100
AcDbLine
 10
28.416
 20
267.8979999999999
 30
0.0
 11
32.0
 21
268.0699999999999
 31
0.0
  0
LINE
  5
189
330
1E
100
AcDbEntity
  8
0
100
AcDbLine
 10
110.0
 20
222.0
 30
0.0
 11
110.0
 21
194.0
 31
0.0
  0
LINE
  5
18A
330
1E
100
AcDbEntity
  8
0
100
AcDbLine
 10
110.0
 20
222.0
 30
0.0
 11
110.2999999999999
 21
223.1999999999999
 31
0.0
  0
LINE
  5
18B
330
1E
100
AcDbEntity
  8
0
100
AcDbLine
 10
113.4
 20
60.756
 30
0.0
 11
113.4
 21
62.772
 31
0.0
  0
LINE
  5
18C
330
1E
100
AcDbEntity
  8
0
100
AcDbLine
 10
113.4
 20
60.756
 30
0.0
 11
113.4
 21
60.0
 31
0.0
  0
LINE
  5
18D
330
1E
100
AcDbEntity
  8
0
100
AcDbLine
 10
113.4
 20
62.772
 30
0.0
 11
113.4
 21
66.132
 31
0.0
  0
LINE
  5
18E
330
1E
100
AcDbEntity
  8
0
100
AcDbLine
 10
113.4
 20
62.772
 30
0.0
 11
113.4
 21
60.756
 31
0.0
  0
LINE
  5
18F
330
1E
100
AcDbEntity
  8
0
100
AcDbLine
 10
113.4
 20
66.132
 30
0.0
 11
113.4
 21
70.584
 31
0.0
  0
LINE
  5
190
330
1E
100
AcDbEntity
  8
0
100
AcDbLine
 10
113.4
 20
66.132
 30
0.0
 11
113.4
 21
62.772
 31
0.0
  0
LINE
  5
191
330
1E
100
AcDbEntity
  8
0
100
AcDbLine
 10
113.4
 20
81.0
 30
0.0
 11
113.4
 21
75.624
 31
0.0
  0
LINE
  5
192
330
1E
100
AcDbEntity
  8
0
100
AcDbLine
 10
113.4
 20
81.0
 30
0.0
 11
114.0
 21
120.0
 31
0.0
  0
LINE
  5
193
330
1E
100
AcDbEntity
  8
0
100
AcDbLine
 10
113.4
 20
70.584
 30
0.0
 11
113.4
 21
75.624
 31
0.0
  0
LINE
  5
194
330
1E
100
AcDbEntity
  8
0
100
AcDbLine
 10
113.4
 20
70.584
 30
0.0
 11
113.4
 21
66.132
 31
0.0
  0
LINE
  5
195
330
1E
100
AcDbEntity
  8
0
100
AcDbLine
 10
114.0
 20
60.50399999999999
 30
0.0
 11
114.0
 21
61.26
 31
0.0
  0
LINE
  5
196
330
1E
100
AcDbEntity
  8
0
100
AcDbLine
 10
114.0
 20
61.26
 30
0.0
 11
114.0
 21
63.276
 31
0.0
  0
LINE
  5
197
330
1E
100
AcDbEntity
  8
0
100
AcDbLine
 10
114.0
 20
61.26
 30
0.0
 11
114.0
 21
60.50399999999999
 31
0.0
  0
LINE
  5
198
330
1E
100
AcDbEntity
  8
0
100
AcDbLine
 10
114.0
 20
63.276
 30
0.0
 11
114.0
 21
66.55199999999999
 31
0.0
  0
LINE
  5
199
330
1E
100
AcDbEntity
  8
0
100
AcDbLine
 10
114.0
 20
63.276
 30
0.0
 11
114.0
 21
61.26
 31
0.0
  0
LINE
  5
19A
330
1E
100
AcDbEntity
  8
0
100
AcDbLine
 10
114.0
 20
66.55199999999999
 30
0.0
 11
114.0
 21
70.836
 31
0.0
  0
LINE
  5
19B
330
1E
100
AcDbEntity
  8
0
100
AcDbLine
 10
114.0
 20
66.55199999999999
 30
0.0
 11
114.0
 21
63.276
 31
0.0
  0
LINE
  5
19C
330
1E
100
AcDbEntity
  8
0
100
AcDbLine
 10
114.0
 20
70.836
 30
0.0
 11
114.0
 21
75.708
 31
0.0
  0
LINE
  5
19D
330
1E
100
AcDbEntity
  8
0
100
AcDbLine
 10
114.0
 20
70.836
 30
0.0
 11
114.0
 21
66.55199999999999
 31
0.0
  0
LINE
  5
19E
330
1E
100
AcDbEntity
  8
0
100
AcDbLine
 10
114.0
 20
120.0
 30
0.0
 11
114.0
 21
81.0
 31
0.0
  0
LINE
  5
19F
330
1E
100
AcDbEntity
  8
0
100
AcDbLine
 10
114.0
 20
81.0
 30
0.0
 11
114.0
 21
75.708
 31
0.0
  0
LINE
  5
1A0
330
1E
100
AcDbEntity
  8
0
100
AcDbLine
 10
114.0
 20
81.0
 30
0.0
 11
114.0
 21
120.0
 31
0.0
  0
LINE
  5
1A1
330
1E
100
AcDbEntity
  8
0
100
AcDbLine
 10
114.0
 20
75.708
 30
0.0
 11
114.0
 21
81.0
 31
0.0
  0
LINE
  5
1A2
330
1E
100
AcDbEntity
  8
0
100
AcDbLine
 10
114.0
 20
75.708
 30
0.0
 11
114.0
 21
70.836
 31
0.0
  0
LINE
  5
1A3
330
1E
100
AcDbEntity
  8
0
100
AcDbLine
 10
113.4
 20
75.624
 30
0.0
 11
113.4
 21
81.0
 31
0.0
  0
LINE
  5
1A4
330
1E
100
AcDbEntity
  8
0
100
AcDbLine
 10
113.4
 20
75.624
 30
0.0
 11
113.4
 21
70.584
 31
0.0
  0
LINE
  5
1A5
330
1E
100
AcDbEntity
  8
0
100
AcDbLine
 10
113.4
 20
60.0
 30
0.0
 11
114.0
 21
60.50399999999999
 31
0.0
  0
LINE
  5
1A6
330
1E
100
AcDbEntity
  8
0
100
AcDbLine
 10
113.4
 20
60.0
 30
0.0
 11
113.4
 21
60.756
 31
0.0
  0
LINE
  5
1A7
330
1E
100
AcDbEntity
  8
0
100
AcDbLine
 10
114.0
 20
119.8139999999999
 30
0.0
 11
115.112
 21
127.9099999999999
 31
0.0
  0
LINE
  5
1A9
330
1E
100
AcDbEntity
  8
0
100
AcDbLine
 10
115.112
 20
127.9099999999999
 30
0.0
 11
116.586
 21
135.8849999999999
 31
0.0
  0
LINE
  5
1AD
330
1E
100
AcDbEntity
  8
0
100
AcDbLine
 10
116.586
 20
135.8849999999999
 30
0.0
 11
118.742
 21
143.981
 31
0.0
  0
LINE
  5
1B0
330
1E
100
AcDbEntity
  8
0
100
AcDbLine
 10
118.742
 20
143.981
 30
0.0
 11
120.9679999999999
 21
152.061
 31
0.0
  0
LINE
  5
1B1
330
1E
100
AcDbEntity
  8
0
100
AcDbLine
 10
120.9679999999999
 20
152.061
 30
0.0
 11
123.475
 21
159.7879999999999
 31
0.0
  0
LINE
  5
1B4
330
1E
100
AcDbEntity
  8
0
100
AcDbLine
 10
123.475
 20
159.7879999999999
 30
0.0
 11
126.192
 21
167.62
 31
0.0
  0
LINE
  5
1B6
330
1E
100
AcDbEntity
  8
0
100
AcDbLine
 10
126.192
 20
167.62
 30
0.0
 11
129.64
 21
175.974
 31
0.0
  0
LINE
  5
1B8
330
1E
100
AcDbEntity
  8
0
100
AcDbLine
 10
129.64
 20
175.974
 30
0.0
 11
132.461
 21
184.12
 31
0.0
  0
LINE
  5
1BA
330
1E
100
AcDbEntity
  8
0
100
AcDbLine
 10
134.0
 20
194.0
 30
0.0
 11
134.0
 21
222.0
 31
0.0
  0
LINE
  5
1BB
330
1E
100
AcDbEntity
  8
0
100
AcDbLine
 10
132.461
 20
184.12
 30
0.0
 11
134.0
 21
194.0
 31
0.0
  0
LINE
  5
1BC
330
1E
100
AcDbEntity
  8
0
100
AcDbLine
 10
133.1999999999999
 20
223.7
 30
0.0
 11
133.6999999999999
 21
223.1999999999999
 31
0.0
  0
LINE
  5
1BD
330
1E
100
AcDbEntity
  8
0
100
AcDbLine
 10
133.6999999999999
 20
223.1999999999999
 30
0.0
 11
134.0
 21
222.0
 31
0.0
  0
LINE
  5
1BE
330
1E
100
AcDbEntity
  8
0
100
AcDbLine
 10
134.0
 20
222.0
 30
0.0
 11
134.0
 21
194.0
 31
0.0
  0
LINE
  5
1BF
330
1E
100
AcDbEntity
  8
0
100
AcDbLine
 10
110.2999999999999
 20
223.1999999999999
 30
0.0
 11
110.8
 21
223.7
 31
0.0
  0
LINE
  5
1C0
330
1E
100
AcDbEntity
  8
0
100
AcDbLine
 10
132.0
 20
224.0
 30
0.0
 11
133.1999999999999
 21
223.7
 31
0.0
  0
LINE
  5
1C1
330
1E
100
AcDbEntity
  8
0
100
AcDbLine
 10
112.0
 20
224.0
 30
0.0
 11
132.0
 21
224.0
 31
0.0
  0
LINE
  5
1C2
330
1E
100
AcDbEntity
  8
0
100
AcDbLine
 10
110.8
 20
223.7
 30
0.0
 11
112.0
 21
224.0
 31
0.0
  0
LINE
  5
1C3
330
1E
100
AcDbEntity
  8
0
100
AcDbLine
 10
110.0
 20
194.0
 30
0.0
 11
110.0
 21
222.0
 31
0.0
  0
LINE
  5
1C4
330
1E
100
AcDbEntity
  8
0
100
AcDbLine
 10
110.0
 20
194.0
 30
0.0
 11
110.0
 21
184.0
 31
0.0
  0
ENDSEC
  0
SECTION
  2
OBJECTS
  0
DICTIONARY
  5
C
330
0
100
AcDbDictionary
281
     1
  3
ACAD_GROUP
350
D
  3
ACAD_LAYOUT
350
19
  3
ACAD_MLINESTYLE
350
16
  3
ACAD_PLOTSETTINGS
350
18
  3
ACAD_PLOTSTYLENAME
350
E
  3
AcDbVariableDictionary
350
1CA
  0
DICTIONARY
  5
D
102
{ACAD_REACTORS
330
C
102
}
330
C
100
AcDbDictionary
281
     1
  0
DICTIONARY
  5
19
102
{ACAD_REACTORS
330
C
102
}
330
C
100
AcDbDictionary
281
     1
  3
Layout1
350
1D
  3
Model
350
21
  0
DICTIONARY
  5
16
102
{ACAD_REACTORS
330
C
102
}
330
C
100
AcDbDictionary
281
     1
  3
Standard
350
17
  0
DICTIONARY
  5
18
102
{ACAD_REACTORS
330
C
102
}
330
C
100
AcDbDictionary
281
     1
  0
ACDBDICTIONARYWDFLT
  5
E
102
{ACAD_REACTORS
330
C
102
}
330
C
100
AcDbDictionary
281
     1
  3
Normal
350
F
100
AcDbDictionaryWithDefault
340
F
  0
DICTIONARY
  5
1CA
102
{ACAD_REACTORS
330
C
102
}
330
C
100
AcDbDictionary
281
     1
  3
DIMASSOC
350
1CB
  0
LAYOUT
  5
1D
102
{ACAD_REACTORS
330
19
102
}
330
19
100
AcDbPlotSettings
  1

  2
hp deskjet 980c series
  4

  6

 40
0.0
 41
0.0
 42
0.0
 43
0.0
 44
0.0
 45
0.0
 46
0.0
 47
0.0
 48
0.0
 49
0.0
140
0.0
141
0.0
142
1.0
143
1.0
 70
   688
 72
     0
 73
     0
 74
     5
  7

 75
    16
147
1.0
148
0.0
149
0.0
100
AcDbLayout
  1
Layout1
 70
     1
 71
     1
 10
0.0
 20
0.0
 11
12.0
 21
9.0
 12
0.0
 22
0.0
 32
0.0
 14
1.000000000000000E+20
 24
1.000000000000000E+20
 34
1.000000000000000E+20
 15
-1.000000000000000E+20
 25
-1.000000000000000E+20
 35
-1.000000000000000E+20
146
0.0
 13
0.0
 23
0.0
 33
0.0
 16
1.0
 26
0.0
 36
0.0
 17
0.0
 27
1.0
 37
0.0
 76
     0
330
1A
  0
LAYOUT
  5
21
102
{ACAD_REACTORS
330
19
102
}
330
19
100
AcDbPlotSettings
  1

  2
hp deskjet 980c series
  4

  6

 40
0.0
 41
0.0
 42
0.0
 43
0.0
 44
0.0
 45
0.0
 46
0.0
 47
0.0
 48
0.0
 49
0.0
140
0.0
141
0.0
142
1.0
143
1.0
 70
  1712
 72
     0
 73
     0
 74
     0
  7

 75
     0
147
1.0
148
0.0
149
0.0
100
AcDbLayout
  1
Model
 70
     1
 71
     0
 10
0.0
 20
0.0
 11
12.0
 21
9.0
 12
0.0
 22
0.0
 32
0.0
 14
0.0
 24
0.0
 34
0.0
 15
0.0
 25
0.0
 35
0.0
146
0.0
 13
0.0
 23
0.0
 33
0.0
 16
1.0
 26
0.0
 36
0.0
 17
0.0
 27
1.0
 37
0.0
 76
     0
330
1E
  0
MLINESTYLE
  5
17
102
{ACAD_REACTORS
330
16
102
}
330
16
100
AcDbMlineStyle
  2
STANDARD
 70
     0
  3

 62
   256
 51
90.0
 52
90.0
 71
     2
 49
0.5
 62
   256
  6
BYLAYER
 49
-0.5
 62
   256
  6
BYLAYER
  0
ACDBPLACEHOLDER
  5
F
102
{ACAD_REACTORS
330
E
102
}
330
E
  0
DICTIONARYVAR
  5
1CB
102
{ACAD_REACTORS
330
1CA
102
}
330
1CA
100
DictionaryVariables
280
     0
  1
1
  0
ENDSEC
  0
EOF
