  0
SECTION
  2
HEADER
  9
$ACADVER
  1
AC1015
  9
$ACADMAINTVER
 70
    13
  9
$DWGCODEPAGE
  3
ANSI_1252
  9
$INSBASE
 10
0.0
 20
0.0
 30
0.0
  9
$EXTMIN
 10
-0.0000000000000223
 20
-0.152999999999973
 30
0.0
  9
$EXTMAX
 10
523.0
 20
1309.153
 30
0.0
  9
$LIMMIN
 10
0.0
 20
0.0
  9
$LIMMAX
 10
12.0
 20
9.0
  9
$ORTHOMODE
 70
     0
  9
$REGENMODE
 70
     1
  9
$FILLMODE
 70
     1
  9
$QTEXTMODE
 70
     0
  9
$MIRRTEXT
 70
     1
  9
$LTSCALE
 40
1.0
  9
$ATTMODE
 70
     1
  9
$TEXTSIZE
 40
0.2
  9
$TRACEWID
 40
0.05
  9
$TEXTSTYLE
  7
Standard
  9
$CLAYER
  8
0
  9
$CELTYPE
  6
Continuous
  9
$CECOLOR
 62
   256
  9
$CELTSCALE
 40
1.0
  9
$DISPSILH
 70
     0
  9
$DIMSCALE
 40
1.0
  9
$DIMASZ
 40
0.18
  9
$DIMEXO
 40
0.0625
  9
$DIMDLI
 40
0.38
  9
$DIMRND
 40
0.0
  9
$DIMDLE
 40
0.0
  9
$DIMEXE
 40
0.18
  9
$DIMTP
 40
0.0
  9
$DIMTM
 40
0.0
  9
$DIMTXT
 40
0.18
  9
$DIMCEN
 40
0.09
  9
$DIMTSZ
 40
0.0
  9
$DIMTOL
 70
     0
  9
$DIMLIM
 70
     0
  9
$DIMTIH
 70
     1
  9
$DIMTOH
 70
     1
  9
$DIMSE1
 70
     0
  9
$DIMSE2
 70
     0
  9
$DIMTAD
 70
     0
  9
$DIMZIN
 70
     0
  9
$DIMBLK
  1

  9
$DIMASO
 70
     1
  9
$DIMSHO
 70
     1
  9
$DIMPOST
  1

  9
$DIMAPOST
  1

  9
$DIMALT
 70
     0
  9
$DIMALTD
 70
     2
  9
$DIMALTF
 40
25.4
  9
$DIMLFAC
 40
1.0
  9
$DIMTOFL
 70
     0
  9
$DIMTVP
 40
0.0
  9
$DIMTIX
 70
     0
  9
$DIMSOXD
 70
     0
  9
$DIMSAH
 70
     0
  9
$DIMBLK1
  1

  9
$DIMBLK2
  1

  9
$DIMSTYLE
  2
Standard
  9
$DIMCLRD
 70
     0
  9
$DIMCLRE
 70
     0
  9
$DIMCLRT
 70
     0
  9
$DIMTFAC
 40
1.0
  9
$DIMGAP
 40
0.09
  9
$DIMJUST
 70
     0
  9
$DIMSD1
 70
     0
  9
$DIMSD2
 70
     0
  9
$DIMTOLJ
 70
     1
  9
$DIMTZIN
 70
     0
  9
$DIMALTZ
 70
     0
  9
$DIMALTTZ
 70
     0
  9
$DIMUPT
 70
     0
  9
$DIMDEC
 70
     4
  9
$DIMTDEC
 70
     4
  9
$DIMALTU
 70
     2
  9
$DIMALTTD
 70
     2
  9
$DIMTXSTY
  7
Standard
  9
$DIMAUNIT
 70
     0
  9
$DIMADEC
 70
     0
  9
$DIMALTRND
 40
0.0
  9
$DIMAZIN
 70
     0
  9
$DIMDSEP
 70
    46
  9
$DIMATFIT
 70
     3
  9
$DIMFRAC
 70
     0
  9
$DIMLDRBLK
  1

  9
$DIMLUNIT
 70
     2
  9
$DIMLWD
 70
    -2
  9
$DIMLWE
 70
    -2
  9
$DIMTMOVE
 70
     0
  9
$LUNITS
 70
     2
  9
$LUPREC
 70
     4
  9
$SKETCHINC
 40
0.1
  9
$FILLETRAD
 40
0.0
  9
$AUNITS
 70
     0
  9
$AUPREC
 70
     0
  9
$MENU
  1
.
  9
$ELEVATION
 40
0.0
  9
$PELEVATION
 40
0.0
  9
$THICKNESS
 40
0.0
  9
$LIMCHECK
 70
     0
  9
$CHAMFERA
 40
0.0
  9
$CHAMFERB
 40
0.0
  9
$CHAMFERC
 40
0.0
  9
$CHAMFERD
 40
0.0
  9
$SKPOLY
 70
     0
  9
$TDCREATE
 40
2454752.798248877
  9
$TDUCREATE
 40
2454752.714915544
  9
$TDUPDATE
 40
2454752.801219247
  9
$TDUUPDATE
 40
2454752.717885914
  9
$TDINDWG
 40
0.0029703704
  9
$TDUSRTIMER
 40
0.0029703704
  9
$USRTIMER
 70
     1
  9
$ANGBASE
 50
0.0
  9
$ANGDIR
 70
     0
  9
$PDMODE
 70
     0
  9
$PDSIZE
 40
0.0
  9
$PLINEWID
 40
0.0
  9
$SPLFRAME
 70
     0
  9
$SPLINETYPE
 70
     6
  9
$SPLINESEGS
 70
     8
  9
$HANDSEED
  5
83C
  9
$SURFTAB1
 70
     6
  9
$SURFTAB2
 70
     6
  9
$SURFTYPE
 70
     6
  9
$SURFU
 70
     6
  9
$SURFV
 70
     6
  9
$UCSBASE
  2

  9
$UCSNAME
  2

  9
$UCSORG
 10
0.0
 20
0.0
 30
0.0
  9
$UCSXDIR
 10
1.0
 20
0.0
 30
0.0
  9
$UCSYDIR
 10
0.0
 20
1.0
 30
0.0
  9
$UCSORTHOREF
  2

  9
$UCSORTHOVIEW
 70
     1
  9
$UCSORGTOP
 10
0.0
 20
0.0
 30
0.0
  9
$UCSORGBOTTOM
 10
0.0
 20
0.0
 30
0.0
  9
$UCSORGLEFT
 10
0.0
 20
0.0
 30
0.0
  9
$UCSORGRIGHT
 10
0.0
 20
0.0
 30
0.0
  9
$UCSORGFRONT
 10
0.0
 20
0.0
 30
0.0
  9
$UCSORGBACK
 10
0.0
 20
0.0
 30
0.0
  9
$PUCSBASE
  2

  9
$PUCSNAME
  2

  9
$PUCSORG
 10
0.0
 20
0.0
 30
0.0
  9
$PUCSXDIR
 10
1.0
 20
0.0
 30
0.0
  9
$PUCSYDIR
 10
0.0
 20
1.0
 30
0.0
  9
$PUCSORTHOREF
  2

  9
$PUCSORTHOVIEW
 70
     0
  9
$PUCSORGTOP
 10
0.0
 20
0.0
 30
0.0
  9
$PUCSORGBOTTOM
 10
0.0
 20
0.0
 30
0.0
  9
$PUCSORGLEFT
 10
0.0
 20
0.0
 30
0.0
  9
$PUCSORGRIGHT
 10
0.0
 20
0.0
 30
0.0
  9
$PUCSORGFRONT
 10
0.0
 20
0.0
 30
0.0
  9
$PUCSORGBACK
 10
0.0
 20
0.0
 30
0.0
  9
$USERI1
 70
     0
  9
$USERI2
 70
     0
  9
$USERI3
 70
     0
  9
$USERI4
 70
     0
  9
$USERI5
 70
     0
  9
$USERR1
 40
0.0
  9
$USERR2
 40
0.0
  9
$USERR3
 40
0.0
  9
$USERR4
 40
0.0
  9
$USERR5
 40
0.0
  9
$WORLDVIEW
 70
     1
  9
$SHADEDGE
 70
     3
  9
$SHADEDIF
 70
    70
  9
$TILEMODE
 70
     1
  9
$MAXACTVP
 70
    64
  9
$PINSBASE
 10
0.0
 20
0.0
 30
0.0
  9
$PLIMCHECK
 70
     0
  9
$PEXTMIN
 10
1.000000000000000E+20
 20
1.000000000000000E+20
 30
1.000000000000000E+20
  9
$PEXTMAX
 10
-1.000000000000000E+20
 20
-1.000000000000000E+20
 30
-1.000000000000000E+20
  9
$PLIMMIN
 10
0.0
 20
0.0
  9
$PLIMMAX
 10
12.0
 20
9.0
  9
$UNITMODE
 70
     0
  9
$VISRETAIN
 70
     1
  9
$PLINEGEN
 70
     0
  9
$PSLTSCALE
 70
     1
  9
$TREEDEPTH
 70
  3020
  9
$CMLSTYLE
  2
Standard
  9
$CMLJUST
 70
     0
  9
$CMLSCALE
 40
1.0
  9
$PROXYGRAPHICS
 70
     1
  9
$MEASUREMENT
 70
     0
  9
$CELWEIGHT
370
    -1
  9
$ENDCAPS
280
     0
  9
$JOINSTYLE
280
     0
  9
$LWDISPLAY
290
     0
  9
$INSUNITS
 70
     0
  9
$HYPERLINKBASE
  1

  9
$STYLESHEET
  1

  9
$XEDIT
290
     1
  9
$CEPSNTYPE
380
     0
  9
$PSTYLEMODE
290
     1
  9
$FINGERPRINTGUID
  2
{51FD1BA9-0A12-4F8E-8556-1FCAA4540D80}
  9
$VERSIONGUID
  2
{584B2264-D05A-4525-882C-98EB19CDAEA9}
  9
$EXTNAMES
290
     1
  9
$PSVPSCALE
 40
0.0
  9
$OLESTARTUP
290
     0
  0
ENDSEC
  0
SECTION
  2
CLASSES
  0
CLASS
  1
ACDBDICTIONARYWDFLT
  2
AcDbDictionaryWithDefault
  3
AutoCAD 2000
 90
        0
280
     0
281
     0
  0
CLASS
  1
ACDBPLACEHOLDER
  2
AcDbPlaceHolder
  3
AutoCAD 2000
 90
        0
280
     0
281
     0
  0
CLASS
  1
LAYOUT
  2
AcDbLayout
  3
AutoCAD 2000
 90
        0
280
     0
281
     0
  0
CLASS
  1
DICTIONARYVAR
  2
AcDbDictionaryVar
  3
AutoCAD 2000
 90
        0
280
     0
281
     0
  0
ENDSEC
  0
SECTION
  2
TABLES
  0
TABLE
  2
VPORT
  5
8
330
0
100
AcDbSymbolTable
 70
     2
  0
VPORT
  5
83B
330
8
100
AcDbSymbolTableRecord
100
AcDbViewportTableRecord
  2
*Active
 70
     0
 10
0.0
 20
0.0
 11
1.0
 21
1.0
 12
261.5
 22
654.4999999999999
 13
0.0
 23
0.0
 14
1.0
 24
1.0
 15
0.0
 25
0.0
 16
0.0
 26
0.0
 36
1.0
 17
0.0
 27
0.0
 37
0.0
 40
1319.351826086956
 41
2.078104993597951
 42
50.0
 43
0.0
 44
0.0
 50
0.0
 51
0.0
 71
     0
 72
   100
 73
     1
 74
     3
 75
     0
 76
     0
 77
     0
 78
     0
281
     0
 65
     1
110
0.0
120
0.0
130
0.0
111
1.0
121
0.0
131
0.0
112
0.0
122
1.0
132
0.0
 79
     1
146
0.0
  0
ENDTAB
  0
TABLE
  2
LTYPE
  5
5
330
0
100
AcDbSymbolTable
 70
     1
  0
LTYPE
  5
13
330
5
100
AcDbSymbolTableRecord
100
AcDbLinetypeTableRecord
  2
ByBlock
 70
     0
  3

 72
    65
 73
     0
 40
0.0
  0
LTYPE
  5
14
330
5
100
AcDbSymbolTableRecord
100
AcDbLinetypeTableRecord
  2
ByLayer
 70
     0
  3

 72
    65
 73
     0
 40
0.0
  0
LTYPE
  5
15
330
5
100
AcDbSymbolTableRecord
100
AcDbLinetypeTableRecord
  2
Continuous
 70
     0
  3
Solid line
 72
    65
 73
     0
 40
0.0
  0
ENDTAB
  0
TABLE
  2
LAYER
  5
2
330
0
100
AcDbSymbolTable
 70
     1
  0
LAYER
  5
10
330
2
100
AcDbSymbolTableRecord
100
AcDbLayerTableRecord
  2
0
 70
     0
 62
     7
  6
Continuous
370
    -3
390
F
  0
ENDTAB
  0
TABLE
  2
STYLE
  5
3
330
0
100
AcDbSymbolTable
 70
     1
  0
STYLE
  5
11
330
3
100
AcDbSymbolTableRecord
100
AcDbTextStyleTableRecord
  2
Standard
 70
     0
 40
0.0
 41
1.0
 50
0.0
 71
     0
 42
0.2
  3
txt
  4

  0
ENDTAB
  0
TABLE
  2
VIEW
  5
6
330
0
100
AcDbSymbolTable
 70
     0
  0
ENDTAB
  0
TABLE
  2
UCS
  5
7
330
0
100
AcDbSymbolTable
 70
     0
  0
ENDTAB
  0
TABLE
  2
APPID
  5
9
330
0
100
AcDbSymbolTable
 70
     1
  0
APPID
  5
12
330
9
100
AcDbSymbolTableRecord
100
AcDbRegAppTableRecord
  2
ACAD
 70
     0
  0
ENDTAB
  0
TABLE
  2
DIMSTYLE
  5
A
330
0
100
AcDbSymbolTable
 70
     1
100
AcDbDimStyleTable
 71
     0
  0
DIMSTYLE
105
832
330
A
100
AcDbSymbolTableRecord
100
AcDbDimStyleTableRecord
  2
Standard
 70
     0
340
11
  0
ENDTAB
  0
TABLE
  2
BLOCK_RECORD
  5
1
330
0
100
AcDbSymbolTable
 70
     0
  0
BLOCK_RECORD
  5
1E
330
1
100
AcDbSymbolTableRecord
100
AcDbBlockTableRecord
  2
*Model_Space
340
21
  0
BLOCK_RECORD
  5
1A
330
1
100
AcDbSymbolTableRecord
100
AcDbBlockTableRecord
  2
*Paper_Space
340
1D
  0
ENDTAB
  0
ENDSEC
  0
SECTION
  2
BLOCKS
  0
BLOCK
  5
1F
330
1E
100
AcDbEntity
  8
0
100
AcDbBlockBegin
  2
*Model_Space
 70
     0
 10
0.0
 20
0.0
 30
0.0
  3
*Model_Space
  1

  0
ENDBLK
  5
20
330
1E
100
AcDbEntity
  8
0
100
AcDbBlockEnd
  0
BLOCK
  5
1B
330
1A
100
AcDbEntity
 67
     1
  8
0
100
AcDbBlockBegin
  2
*Paper_Space
 70
     0
 10
0.0
 20
0.0
 30
0.0
  3
*Paper_Space
  1

  0
ENDBLK
  5
1C
330
1A
100
AcDbEntity
 67
     1
  8
0
100
AcDbBlockEnd
  0
ENDSEC
  0
SECTION
  2
ENTITIES
  0
LINE
  5
22
330
1E
100
AcDbEntity
  8
0
100
AcDbLine
 10
360.4999999999999
 20
307.153
 30
0.0
 11
362.5
 21
308.653
 31
0.0
  0
LINE
  5
23
330
1E
100
AcDbEntity
  8
0
100
AcDbLine
 10
358.0
 20
306.653
 30
0.0
 11
360.4999999999999
 21
307.153
 31
0.0
  0
LINE
  5
24
330
1E
100
AcDbEntity
  8
0
100
AcDbLine
 10
351.00001
 20
313.153
 30
0.0
 11
352.00001
 21
310.653
 31
0.0
  0
LINE
  5
25
330
1E
100
AcDbEntity
  8
0
100
AcDbLine
 10
352.00001
 20
310.653
 30
0.0
 11
353.5
 21
308.653
 31
0.0
  0
LINE
  5
26
330
1E
100
AcDbEntity
  8
0
100
AcDbLine
 10
365.0
 20
313.153
 30
0.0
 11
365.5
 21
316.653
 31
0.0
  0
LINE
  5
27
330
1E
100
AcDbEntity
  8
0
100
AcDbLine
 10
364.0
 20
310.653
 30
0.0
 11
365.0
 21
313.153
 31
0.0
  0
LINE
  5
28
330
1E
100
AcDbEntity
  8
0
100
AcDbLine
 10
362.5
 20
308.653
 30
0.0
 11
364.0
 21
310.653
 31
0.0
  0
LINE
  5
29
330
1E
100
AcDbEntity
  8
0
100
AcDbLine
 10
353.5
 20
308.653
 30
0.0
 11
355.5
 21
307.153
 31
0.0
  0
LINE
  5
2A
330
1E
100
AcDbEntity
  8
0
100
AcDbLine
 10
355.5
 20
307.153
 30
0.0
 11
358.0
 21
306.653
 31
0.0
  0
LINE
  5
2B
330
1E
100
AcDbEntity
  8
0
100
AcDbLine
 10
395.0
 20
277.653
 30
0.0
 11
396.0
 21
296.653
 31
0.0
  0
LINE
  5
2C
330
1E
100
AcDbEntity
  8
0
100
AcDbLine
 10
394.8
 20
264.653
 30
0.0
 11
395.0
 21
277.653
 31
0.0
  0
LINE
  5
2D
330
1E
100
AcDbEntity
  8
0
100
AcDbLine
 10
394.5
 20
255.6529999999999
 30
0.0
 11
395.0
 21
252.1529999999999
 31
0.0
  0
LINE
  5
2E
330
1E
100
AcDbEntity
  8
0
100
AcDbLine
 10
394.5
 20
255.6529999999999
 30
0.0
 11
394.8
 21
264.653
 31
0.0
  0
LINE
  5
2F
330
1E
100
AcDbEntity
  8
0
100
AcDbLine
 10
396.0
 20
296.653
 30
0.0
 11
397.360842344906
 21
314.797564598748
 31
0.0
  0
LINE
  5
30
330
1E
100
AcDbEntity
  8
0
100
AcDbLine
 10
395.0
 20
252.1529999999999
 30
0.0
 11
396.0
 21
249.6529999999999
 31
0.0
  0
LINE
  5
31
330
1E
100
AcDbEntity
  8
0
100
AcDbLine
 10
396.0
 20
249.6529999999999
 30
0.0
 11
397.5
 21
247.6529999999999
 31
0.0
  0
LINE
  5
32
330
1E
100
AcDbEntity
  8
0
100
AcDbLine
 10
397.5
 20
247.6529999999999
 30
0.0
 11
399.5
 21
246.1529999999999
 31
0.0
  0
LINE
  5
33
330
1E
100
AcDbEntity
  8
0
100
AcDbLine
 10
399.5
 20
246.1529999999999
 30
0.0
 11
402.0
 21
245.6529999999999
 31
0.0
  0
LINE
  5
34
330
1E
100
AcDbEntity
  8
0
100
AcDbLine
 10
408.0
 20
296.653
 30
0.0
 11
409.0
 21
277.653
 31
0.0
  0
LINE
  5
35
330
1E
100
AcDbEntity
  8
0
100
AcDbLine
 10
409.0
 20
277.653
 30
0.0
 11
409.1999999999999
 21
264.653
 31
0.0
  0
LINE
  5
36
330
1E
100
AcDbEntity
  8
0
100
AcDbLine
 10
409.1999999999999
 20
264.653
 30
0.0
 11
409.4999999999999
 21
255.6529999999999
 31
0.0
  0
LINE
  5
37
330
1E
100
AcDbEntity
  8
0
100
AcDbLine
 10
409.0
 20
252.1529999999999
 30
0.0
 11
409.4999999999999
 21
255.6529999999999
 31
0.0
  0
LINE
  5
38
330
1E
100
AcDbEntity
  8
0
100
AcDbLine
 10
408.0
 20
249.6529999999999
 30
0.0
 11
409.0
 21
252.1529999999999
 31
0.0
  0
LINE
  5
39
330
1E
100
AcDbEntity
  8
0
100
AcDbLine
 10
406.5
 20
247.6529999999999
 30
0.0
 11
408.0
 21
249.6529999999999
 31
0.0
  0
LINE
  5
3A
330
1E
100
AcDbEntity
  8
0
100
AcDbLine
 10
404.4999999999999
 20
246.1529999999999
 30
0.0
 11
406.5
 21
247.6529999999999
 31
0.0
  0
LINE
  5
3B
330
1E
100
AcDbEntity
  8
0
100
AcDbLine
 10
402.0
 20
245.6529999999999
 30
0.0
 11
404.4999999999999
 21
246.1529999999999
 31
0.0
  0
LINE
  5
3C
330
1E
100
AcDbEntity
  8
0
100
AcDbLine
 10
391.0
 20
314.653
 30
0.0
 11
397.37
 21
314.653
 31
0.0
  0
LINE
  5
3D
330
1E
100
AcDbEntity
  8
0
100
AcDbLine
 10
391.0
 20
314.653
 30
0.0
 11
391.0
 21
315.653
 31
0.0
  0
LINE
  5
3E
330
1E
100
AcDbEntity
  8
0
100
AcDbLine
 10
435.0
 20
315.653
 30
0.0
 11
435.0
 21
314.653
 31
0.0
  0
LINE
  5
3F
330
1E
100
AcDbEntity
  8
0
100
AcDbLine
 10
435.0
 20
315.653
 30
0.0
 11
435.0
 21
318.353
 31
0.0
  0
LINE
  5
40
330
1E
100
AcDbEntity
  8
0
100
AcDbLine
 10
406.6499999999999
 20
314.653
 30
0.0
 11
435.0
 21
314.653
 31
0.0
  0
LINE
  5
41
330
1E
100
AcDbEntity
  8
0
100
AcDbLine
 10
406.6499999999999
 20
314.653
 30
0.0
 11
408.0
 21
296.653
 31
0.0
  0
LINE
  5
42
330
1E
100
AcDbEntity
  8
0
100
AcDbLine
 10
437.0
 20
315.653
 30
0.0
 11
437.0
 21
314.653
 31
0.0
  0
LINE
  5
43
330
1E
100
AcDbEntity
  8
0
100
AcDbLine
 10
437.0
 20
315.653
 30
0.0
 11
437.0
 21
318.353
 31
0.0
  0
LINE
  5
44
330
1E
100
AcDbEntity
  8
0
100
AcDbLine
 10
435.0
 20
314.653
 30
0.0
 11
436.0
 21
315.653
 31
0.0
  0
LINE
  5
45
330
1E
100
AcDbEntity
  8
0
100
AcDbLine
 10
435.0
 20
314.653
 30
0.0
 11
435.0
 21
315.653
 31
0.0
  0
LINE
  5
46
330
1E
100
AcDbEntity
  8
0
100
AcDbLine
 10
350.50001
 20
316.653
 30
0.0
 11
351.00001
 21
313.153
 31
0.0
  0
LINE
  5
47
330
1E
100
AcDbEntity
  8
0
100
AcDbLine
 10
350.50001
 20
316.653
 30
0.0
 11
350.8000099999999
 21
320.653
 31
0.0
  0
LINE
  5
48
330
1E
100
AcDbEntity
  8
0
100
AcDbLine
 10
389.0
 20
316.653
 30
0.0
 11
389.0
 21
317.553
 31
0.0
  0
LINE
  5
49
330
1E
100
AcDbEntity
  8
0
100
AcDbLine
 10
389.0
 20
316.653
 30
0.0
 11
391.0
 21
314.653
 31
0.0
  0
LINE
  5
4A
330
1E
100
AcDbEntity
  8
0
100
AcDbLine
 10
384.125
 20
320.653
 30
0.0
 11
389.0
 21
320.653
 31
0.0
  0
LINE
  5
4B
330
1E
100
AcDbEntity
  8
0
100
AcDbLine
 10
384.125
 20
320.653
 30
0.0
 11
384.125
 21
321.4529999999999
 31
0.0
  0
LINE
  5
4C
330
1E
100
AcDbEntity
  8
0
100
AcDbLine
 10
365.2
 20
320.653
 30
0.0
 11
365.5
 21
316.653
 31
0.0
  0
LINE
  5
4D
330
1E
100
AcDbEntity
  8
0
100
AcDbLine
 10
364.0
 20
327.653
 30
0.0
 11
365.0
 21
323.653
 31
0.0
  0
LINE
  5
4E
330
1E
100
AcDbEntity
  8
0
100
AcDbLine
 10
384.0
 20
321.153
 30
0.0
 11
384.0
 21
321.9529999999999
 31
0.0
  0
LINE
  5
4F
330
1E
100
AcDbEntity
  8
0
100
AcDbLine
 10
384.0
 20
321.153
 30
0.0
 11
384.125
 21
320.653
 31
0.0
  0
LINE
  5
50
330
1E
100
AcDbEntity
  8
0
100
AcDbLine
 10
384.0
 20
323.653
 30
0.0
 11
384.0
 21
321.9529999999999
 31
0.0
  0
LINE
  5
51
330
1E
100
AcDbEntity
  8
0
100
AcDbLine
 10
384.0
 20
321.9529999999999
 30
0.0
 11
384.0
 21
323.653
 31
0.0
  0
LINE
  5
52
330
1E
100
AcDbEntity
  8
0
100
AcDbLine
 10
384.0
 20
321.9529999999999
 30
0.0
 11
384.0
 21
321.153
 31
0.0
  0
LINE
  5
53
330
1E
100
AcDbEntity
  8
0
100
AcDbLine
 10
389.0
 20
321.4529999999999
 30
0.0
 11
389.0
 21
320.653
 31
0.0
  0
LINE
  5
54
330
1E
100
AcDbEntity
  8
0
100
AcDbLine
 10
389.0
 20
323.553
 30
0.0
 11
389.0
 21
321.4529999999999
 31
0.0
  0
LINE
  5
55
330
1E
100
AcDbEntity
  8
0
100
AcDbLine
 10
384.125
 20
321.4529999999999
 30
0.0
 11
384.125
 21
320.653
 31
0.0
  0
LINE
  5
56
330
1E
100
AcDbEntity
  8
0
100
AcDbLine
 10
384.125
 20
321.4529999999999
 30
0.0
 11
384.125
 21
323.553
 31
0.0
  0
LINE
  5
57
330
1E
100
AcDbEntity
  8
0
100
AcDbLine
 10
384.125
 20
323.553
 30
0.0
 11
384.125
 21
321.4529999999999
 31
0.0
  0
LINE
  5
58
330
1E
100
AcDbEntity
  8
0
100
AcDbLine
 10
384.125
 20
323.553
 30
0.0
 11
384.125
 21
327.153
 31
0.0
  0
LINE
  5
59
330
1E
100
AcDbEntity
  8
0
100
AcDbLine
 10
384.0
 20
324.3179999999999
 30
0.0
 11
384.0
 21
323.653
 31
0.0
  0
LINE
  5
5A
330
1E
100
AcDbEntity
  8
0
100
AcDbLine
 10
389.0
 20
327.153
 30
0.0
 11
389.0
 21
323.553
 31
0.0
  0
LINE
  5
5B
330
1E
100
AcDbEntity
  8
0
100
AcDbLine
 10
384.125
 20
327.153
 30
0.0
 11
384.125
 21
323.553
 31
0.0
  0
LINE
  5
5C
330
1E
100
AcDbEntity
  8
0
100
AcDbLine
 10
384.125
 20
327.153
 30
0.0
 11
384.125
 21
331.753
 31
0.0
  0
LINE
  5
5D
330
1E
100
AcDbEntity
  8
0
100
AcDbLine
 10
384.0
 20
326.218
 30
0.0
 11
384.0
 21
324.3179999999999
 31
0.0
  0
LINE
  5
5E
330
1E
100
AcDbEntity
  8
0
100
AcDbLine
 10
378.3396
 20
326.5029999999999
 30
0.0
 11
381.283
 21
324.603
 31
0.0
  0
LINE
  5
5F
330
1E
100
AcDbEntity
  8
0
100
AcDbLine
 10
381.283
 20
324.603
 30
0.0
 11
384.0
 21
323.653
 31
0.0
  0
LINE
  5
60
330
1E
100
AcDbEntity
  8
0
100
AcDbLine
 10
365.0
 20
323.653
 30
0.0
 11
365.2
 21
320.653
 31
0.0
  0
LINE
  5
61
330
1E
100
AcDbEntity
  8
0
100
AcDbLine
 10
384.0
 20
329.258
 30
0.0
 11
384.0
 21
326.218
 31
0.0
  0
LINE
  5
62
330
1E
100
AcDbEntity
  8
0
100
AcDbLine
 10
375.6225999999999
 20
328.878
 30
0.0
 11
378.3396
 21
326.5029999999999
 31
0.0
  0
LINE
  5
63
330
1E
100
AcDbEntity
  8
0
100
AcDbLine
 10
352.00001
 20
327.653
 30
0.0
 11
353.117649457902
 21
330.633391757016
 31
0.0
  0
LINE
  5
64
330
1E
100
AcDbEntity
  8
0
100
AcDbLine
 10
351.00001
 20
323.653
 30
0.0
 11
352.00001
 21
327.653
 31
0.0
  0
LINE
  5
65
330
1E
100
AcDbEntity
  8
0
100
AcDbLine
 10
350.8000099999999
 20
320.653
 30
0.0
 11
351.00001
 21
323.653
 31
0.0
  0
LINE
  5
66
330
1E
100
AcDbEntity
  8
0
100
AcDbLine
 10
389.0
 20
324.2529999999999
 30
0.0
 11
389.0
 21
320.153
 31
0.0
  0
LINE
  5
67
330
1E
100
AcDbEntity
  8
0
100
AcDbLine
 10
389.0
 20
324.2529999999999
 30
0.0
 11
389.0
 21
329.753
 31
0.0
  0
LINE
  5
68
330
1E
100
AcDbEntity
  8
0
100
AcDbLine
 10
353.0
 20
330.653
 30
0.0
 11
353.117649457902
 21
330.633391757016
 31
0.0
  0
LINE
  5
69
330
1E
100
AcDbEntity
  8
0
100
AcDbLine
 10
362.882352941176
 20
330.633392156863
 30
0.0
 11
364.0
 21
327.653
 31
0.0
  0
LINE
  5
6A
330
1E
100
AcDbEntity
  8
0
100
AcDbLine
 10
362.8339920948619
 20
330.6253320158099
 30
0.0
 11
363.0
 21
330.653
 31
0.0
  0
LINE
  5
6B
330
1E
100
AcDbEntity
  8
0
100
AcDbLine
 10
348.50001
 20
331.153
 30
0.0
 11
349.50001
 21
331.153
 31
0.0
  0
LINE
  5
6D
330
1E
100
AcDbEntity
  8
0
100
AcDbLine
 10
348.00001
 20
332.053
 30
0.0
 11
348.00001
 21
333.153
 31
0.0
  0
LINE
  5
6E
330
1E
100
AcDbEntity
  8
0
100
AcDbLine
 10
348.00001
 20
333.153
 30
0.0
 11
348.00001
 21
334.853
 31
0.0
  0
LINE
  5
77
330
1E
100
AcDbEntity
  8
0
100
AcDbLine
 10
348.00001
 20
331.653
 30
0.0
 11
348.50001
 21
331.153
 31
0.0
  0
LINE
  5
78
330
1E
100
AcDbEntity
  8
0
100
AcDbLine
 10
348.00001
 20
331.653
 30
0.0
 11
348.00001
 21
332.053
 31
0.0
  0
LINE
  5
79
330
1E
100
AcDbEntity
  8
0
100
AcDbLine
 10
349.50001
 20
331.153
 30
0.0
 11
350.00001
 21
331.653
 31
0.0
  0
LINE
  5
7B
330
1E
100
AcDbEntity
  8
0
100
AcDbLine
 10
350.00001
 20
332.053
 30
0.0
 11
350.00001
 21
331.653
 31
0.0
  0
LINE
  5
7E
330
1E
100
AcDbEntity
  8
0
100
AcDbLine
 10
345.50001
 20
335.453
 30
0.0
 11
348.00001
 21
331.653
 31
0.0
  0
LINE
  5
7F
330
1E
100
AcDbEntity
  8
0
100
AcDbLine
 10
348.00001
 20
334.853
 30
0.0
 11
348.00001
 21
337.153
 31
0.0
  0
LINE
  5
80
330
1E
100
AcDbEntity
  8
0
100
AcDbLine
 10
348.00001
 20
337.153
 30
0.0
 11
348.00001
 21
339.853
 31
0.0
  0
LINE
  5
87
330
1E
100
AcDbEntity
  8
0
100
AcDbLine
 10
350.00001
 20
333.153
 30
0.0
 11
350.00001
 21
332.053
 31
0.0
  0
LINE
  5
88
330
1E
100
AcDbEntity
  8
0
100
AcDbLine
 10
350.00001
 20
334.853
 30
0.0
 11
350.00001
 21
333.153
 31
0.0
  0
LINE
  5
89
330
1E
100
AcDbEntity
  8
0
100
AcDbLine
 10
344.20001
 20
339.353
 30
0.0
 11
345.50001
 21
335.453
 31
0.0
  0
LINE
  5
8A
330
1E
100
AcDbEntity
  8
0
100
AcDbLine
 10
344.00001
 20
342.653
 30
0.0
 11
344.20001
 21
339.353
 31
0.0
  0
LINE
  5
8B
330
1E
100
AcDbEntity
  8
0
100
AcDbLine
 10
344.00001
 20
342.653
 30
0.0
 11
344.20001
 21
345.953
 31
0.0
  0
LINE
  5
8C
330
1E
100
AcDbEntity
  8
0
100
AcDbLine
 10
348.00001
 20
342.653
 30
0.0
 11
348.00001
 21
345.453
 31
0.0
  0
LINE
  5
8D
330
1E
100
AcDbEntity
  8
0
100
AcDbLine
 10
348.00001
 20
339.853
 30
0.0
 11
348.00001
 21
342.653
 31
0.0
  0
LINE
  5
96
330
1E
100
AcDbEntity
  8
0
100
AcDbLine
 10
350.00001
 20
337.153
 30
0.0
 11
350.00001
 21
334.853
 31
0.0
  0
LINE
  5
97
330
1E
100
AcDbEntity
  8
0
100
AcDbLine
 10
350.00001
 20
339.853
 30
0.0
 11
350.00001
 21
337.153
 31
0.0
  0
LINE
  5
98
330
1E
100
AcDbEntity
  8
0
100
AcDbLine
 10
350.00001
 20
342.653
 30
0.0
 11
350.00001
 21
339.853
 31
0.0
  0
LINE
  5
99
330
1E
100
AcDbEntity
  8
0
100
AcDbLine
 10
360.0
 20
335.453
 30
0.0
 11
361.8
 21
336.153
 31
0.0
  0
LINE
  5
9A
330
1E
100
AcDbEntity
  8
0
100
AcDbLine
 10
358.0
 20
335.153
 30
0.0
 11
360.0
 21
335.453
 31
0.0
  0
LINE
  5
9B
330
1E
100
AcDbEntity
  8
0
100
AcDbLine
 10
350.50001
 20
342.653
 30
0.0
 11
350.8000099999999
 21
340.653
 31
0.0
  0
LINE
  5
9C
330
1E
100
AcDbEntity
  8
0
100
AcDbLine
 10
350.50001
 20
342.653
 30
0.0
 11
350.8000099999999
 21
344.653
 31
0.0
  0
LINE
  5
9D
330
1E
100
AcDbEntity
  8
0
100
AcDbLine
 10
350.8000099999999
 20
340.653
 30
0.0
 11
351.50001
 21
338.853
 31
0.0
  0
LINE
  5
9E
330
1E
100
AcDbEntity
  8
0
100
AcDbLine
 10
351.50001
 20
338.853
 30
0.0
 11
352.70001
 21
337.353
 31
0.0
  0
LINE
  5
9F
330
1E
100
AcDbEntity
  8
0
100
AcDbLine
 10
352.70001
 20
337.353
 30
0.0
 11
354.1999999999999
 21
336.153
 31
0.0
  0
LINE
  5
A0
330
1E
100
AcDbEntity
  8
0
100
AcDbLine
 10
365.2
 20
340.653
 30
0.0
 11
365.5
 21
342.653
 31
0.0
  0
LINE
  5
A1
330
1E
100
AcDbEntity
  8
0
100
AcDbLine
 10
364.5
 20
338.853
 30
0.0
 11
365.2
 21
340.653
 31
0.0
  0
LINE
  5
A2
330
1E
100
AcDbEntity
  8
0
100
AcDbLine
 10
363.3
 20
337.353
 30
0.0
 11
364.5
 21
338.853
 31
0.0
  0
LINE
  5
A3
330
1E
100
AcDbEntity
  8
0
100
AcDbLine
 10
361.8
 20
336.153
 30
0.0
 11
363.3
 21
337.353
 31
0.0
  0
LINE
  5
A4
330
1E
100
AcDbEntity
  8
0
100
AcDbLine
 10
354.1999999999999
 20
336.153
 30
0.0
 11
356.0
 21
335.453
 31
0.0
  0
LINE
  5
A5
330
1E
100
AcDbEntity
  8
0
100
AcDbLine
 10
356.0
 20
335.453
 30
0.0
 11
358.0
 21
335.153
 31
0.0
  0
LINE
  5
A6
330
1E
100
AcDbEntity
  8
0
100
AcDbLine
 10
350.00001
 20
331.653
 30
0.0
 11
353.0
 21
330.653
 31
0.0
  0
LINE
  5
A7
330
1E
100
AcDbEntity
  8
0
100
AcDbLine
 10
363.0
 20
330.653
 30
0.0
 11
366.0
 21
331.653
 31
0.0
  0
LINE
  5
A8
330
1E
100
AcDbEntity
  8
0
100
AcDbLine
 10
369.0
 20
333.653
 30
0.0
 11
369.0
 21
333.953
 31
0.0
  0
LINE
  5
A9
330
1E
100
AcDbEntity
  8
0
100
AcDbLine
 10
369.0
 20
333.653
 30
0.0
 11
370.0
 21
332.653
 31
0.0
  0
LINE
  5
AA
330
1E
100
AcDbEntity
  8
0
100
AcDbLine
 10
369.0
 20
333.953
 30
0.0
 11
369.0
 21
334.853
 31
0.0
  0
LINE
  5
AB
330
1E
100
AcDbEntity
  8
0
100
AcDbLine
 10
369.0
 20
334.853
 30
0.0
 11
369.0
 21
336.253
 31
0.0
  0
LINE
  5
AC
330
1E
100
AcDbEntity
  8
0
100
AcDbLine
 10
369.0
 20
336.253
 30
0.0
 11
369.0
 21
338.153
 31
0.0
  0
LINE
  5
AD
330
1E
100
AcDbEntity
  8
0
100
AcDbLine
 10
370.0
 20
332.653
 30
0.0
 11
371.0
 21
332.653
 31
0.0
  0
LINE
  5
C1
330
1E
100
AcDbEntity
  8
0
100
AcDbLine
 10
372.0
 20
333.953
 30
0.0
 11
372.0
 21
333.653
 31
0.0
  0
LINE
  5
C2
330
1E
100
AcDbEntity
  8
0
100
AcDbLine
 10
372.0
 20
334.853
 30
0.0
 11
372.0
 21
333.953
 31
0.0
  0
LINE
  5
C3
330
1E
100
AcDbEntity
  8
0
100
AcDbLine
 10
372.0
 20
336.253
 30
0.0
 11
372.0
 21
334.853
 31
0.0
  0
LINE
  5
C4
330
1E
100
AcDbEntity
  8
0
100
AcDbLine
 10
372.0
 20
338.153
 30
0.0
 11
372.0
 21
336.253
 31
0.0
  0
LINE
  5
C5
330
1E
100
AcDbEntity
  8
0
100
AcDbLine
 10
372.0
 20
340.3529999999999
 30
0.0
 11
372.0
 21
338.153
 31
0.0
  0
LINE
  5
C8
330
1E
100
AcDbEntity
  8
0
100
AcDbLine
 10
371.0
 20
332.653
 30
0.0
 11
372.0
 21
333.653
 31
0.0
  0
LINE
  5
CA
330
1E
100
AcDbEntity
  8
0
100
AcDbLine
 10
384.0
 20
331.953
 30
0.0
 11
384.0
 21
337.153
 31
0.0
  0
LINE
  5
CB
330
1E
100
AcDbEntity
  8
0
100
AcDbLine
 10
384.0
 20
337.153
 30
0.0
 11
384.0
 21
331.953
 31
0.0
  0
LINE
  5
CC
330
1E
100
AcDbEntity
  8
0
100
AcDbLine
 10
389.0
 20
331.753
 30
0.0
 11
389.0
 21
327.153
 31
0.0
  0
LINE
  5
CD
330
1E
100
AcDbEntity
  8
0
100
AcDbLine
 10
389.0
 20
336.953
 30
0.0
 11
389.0
 21
331.753
 31
0.0
  0
LINE
  5
CE
330
1E
100
AcDbEntity
  8
0
100
AcDbLine
 10
384.125
 20
331.753
 30
0.0
 11
384.125
 21
327.153
 31
0.0
  0
LINE
  5
CF
330
1E
100
AcDbEntity
  8
0
100
AcDbLine
 10
384.125
 20
331.753
 30
0.0
 11
384.125
 21
336.953
 31
0.0
  0
LINE
  5
D0
330
1E
100
AcDbEntity
  8
0
100
AcDbLine
 10
384.125
 20
336.953
 30
0.0
 11
384.125
 21
331.753
 31
0.0
  0
LINE
  5
D1
330
1E
100
AcDbEntity
  8
0
100
AcDbLine
 10
384.125
 20
336.953
 30
0.0
 11
384.125
 21
342.653
 31
0.0
  0
LINE
  5
D2
330
1E
100
AcDbEntity
  8
0
100
AcDbLine
 10
384.0
 20
333.153
 30
0.0
 11
384.0
 21
329.258
 31
0.0
  0
LINE
  5
D3
330
1E
100
AcDbEntity
  8
0
100
AcDbLine
 10
384.0
 20
337.713
 30
0.0
 11
384.0
 21
333.153
 31
0.0
  0
LINE
  5
D4
330
1E
100
AcDbEntity
  8
0
100
AcDbLine
 10
372.0
 20
334.1029999999999
 30
0.0
 11
373.3585
 21
331.253
 31
0.0
  0
LINE
  5
D5
330
1E
100
AcDbEntity
  8
0
100
AcDbLine
 10
373.3585
 20
331.253
 30
0.0
 11
375.6225999999999
 21
328.878
 31
0.0
  0
LINE
  5
D6
330
1E
100
AcDbEntity
  8
0
100
AcDbLine
 10
369.0
 20
338.153
 30
0.0
 11
369.0
 21
340.3529999999999
 31
0.0
  0
LINE
  5
DB
330
1E
100
AcDbEntity
  8
0
100
AcDbLine
 10
372.0
 20
342.653
 30
0.0
 11
372.0
 21
340.3529999999999
 31
0.0
  0
LINE
  5
DC
330
1E
100
AcDbEntity
  8
0
100
AcDbLine
 10
384.125
 20
342.653
 30
0.0
 11
384.125
 21
336.953
 31
0.0
  0
LINE
  5
DD
330
1E
100
AcDbEntity
  8
0
100
AcDbLine
 10
384.125
 20
342.653
 30
0.0
 11
384.125
 21
348.353
 31
0.0
  0
LINE
  5
DE
330
1E
100
AcDbEntity
  8
0
100
AcDbLine
 10
384.0
 20
342.653
 30
0.0
 11
384.0
 21
337.713
 31
0.0
  0
LINE
  5
DF
330
1E
100
AcDbEntity
  8
0
100
AcDbLine
 10
369.0
 20
342.653
 30
0.0
 11
369.0
 21
344.953
 31
0.0
  0
LINE
  5
E0
330
1E
100
AcDbEntity
  8
0
100
AcDbLine
 10
369.0
 20
340.3529999999999
 30
0.0
 11
369.0
 21
342.653
 31
0.0
  0
LINE
  5
E1
330
1E
100
AcDbEntity
  8
0
100
AcDbLine
 10
366.0
 20
331.653
 30
0.0
 11
369.0
 21
333.653
 31
0.0
  0
LINE
  5
E2
330
1E
100
AcDbEntity
  8
0
100
AcDbLine
 10
389.0
 20
329.753
 30
0.0
 11
389.0
 21
324.2529999999999
 31
0.0
  0
LINE
  5
E3
330
1E
100
AcDbEntity
  8
0
100
AcDbLine
 10
389.0
 20
329.753
 30
0.0
 11
389.0
 21
335.953
 31
0.0
  0
LINE
  5
E4
330
1E
100
AcDbEntity
  8
0
100
AcDbLine
 10
389.0
 20
335.953
 30
0.0
 11
389.0
 21
329.753
 31
0.0
  0
LINE
  5
E5
330
1E
100
AcDbEntity
  8
0
100
AcDbLine
 10
389.0
 20
335.953
 30
0.0
 11
389.0
 21
342.653
 31
0.0
  0
LINE
  5
E6
330
1E
100
AcDbEntity
  8
0
100
AcDbLine
 10
348.00001
 20
345.453
 30
0.0
 11
348.00001
 21
348.153
 31
0.0
  0
LINE
  5
E7
330
1E
100
AcDbEntity
  8
0
100
AcDbLine
 10
344.20001
 20
345.953
 30
0.0
 11
345.50001
 21
349.853
 31
0.0
  0
LINE
  5
E8
330
1E
100
AcDbEntity
  8
0
100
AcDbLine
 10
348.00001
 20
348.153
 30
0.0
 11
348.00001
 21
350.453
 31
0.0
  0
LINE
  5
ED
330
1E
100
AcDbEntity
  8
0
100
AcDbLine
 10
345.50001
 20
349.853
 30
0.0
 11
348.00001
 21
353.653
 31
0.0
  0
LINE
  5
EE
330
1E
100
AcDbEntity
  8
0
100
AcDbLine
 10
348.00001
 20
350.453
 30
0.0
 11
348.00001
 21
352.153
 31
0.0
  0
LINE
  5
F3
330
1E
100
AcDbEntity
  8
0
100
AcDbLine
 10
348.00001
 20
352.153
 30
0.0
 11
348.00001
 21
353.253
 31
0.0
  0
LINE
  5
F8
330
1E
100
AcDbEntity
  8
0
100
AcDbLine
 10
348.00001
 20
353.253
 30
0.0
 11
348.00001
 21
353.653
 31
0.0
  0
LINE
  5
FD
330
1E
100
AcDbEntity
  8
0
100
AcDbLine
 10
348.00001
 20
353.653
 30
0.0
 11
348.50001
 21
354.153
 31
0.0
  0
LINE
  5
FE
330
1E
100
AcDbEntity
  8
0
100
AcDbLine
 10
350.00001
 20
353.253
 30
0.0
 11
350.00001
 21
352.153
 31
0.0
  0
LINE
  5
FF
330
1E
100
AcDbEntity
  8
0
100
AcDbLine
 10
350.00001
 20
352.153
 30
0.0
 11
350.00001
 21
350.453
 31
0.0
  0
LINE
  5
100
330
1E
100
AcDbEntity
  8
0
100
AcDbLine
 10
350.00001
 20
350.453
 30
0.0
 11
350.00001
 21
348.153
 31
0.0
  0
LINE
  5
101
330
1E
100
AcDbEntity
  8
0
100
AcDbLine
 10
350.00001
 20
348.153
 30
0.0
 11
350.00001
 21
345.453
 31
0.0
  0
LINE
  5
102
330
1E
100
AcDbEntity
  8
0
100
AcDbLine
 10
350.8000099999999
 20
344.653
 30
0.0
 11
351.50001
 21
346.453
 31
0.0
  0
LINE
  5
103
330
1E
100
AcDbEntity
  8
0
100
AcDbLine
 10
351.50001
 20
346.453
 30
0.0
 11
352.70001
 21
347.953
 31
0.0
  0
LINE
  5
104
330
1E
100
AcDbEntity
  8
0
100
AcDbLine
 10
352.70001
 20
347.953
 30
0.0
 11
354.1999999999999
 21
349.153
 31
0.0
  0
LINE
  5
105
330
1E
100
AcDbEntity
  8
0
100
AcDbLine
 10
350.00001
 20
345.453
 30
0.0
 11
350.00001
 21
342.653
 31
0.0
  0
LINE
  5
10A
330
1E
100
AcDbEntity
  8
0
100
AcDbLine
 10
348.50001
 20
354.153
 30
0.0
 11
349.50001
 21
354.153
 31
0.0
  0
LINE
  5
10C
330
1E
100
AcDbEntity
  8
0
100
AcDbLine
 10
349.50001
 20
354.153
 30
0.0
 11
350.00001
 21
353.653
 31
0.0
  0
LINE
  5
10E
330
1E
100
AcDbEntity
  8
0
100
AcDbLine
 10
350.00001
 20
353.653
 30
0.0
 11
353.0
 21
354.653
 31
0.0
  0
LINE
  5
10F
330
1E
100
AcDbEntity
  8
0
100
AcDbLine
 10
350.00001
 20
353.653
 30
0.0
 11
350.00001
 21
353.253
 31
0.0
  0
LINE
  5
110
330
1E
100
AcDbEntity
  8
0
100
AcDbLine
 10
354.1999999999999
 20
349.153
 30
0.0
 11
356.0
 21
349.853
 31
0.0
  0
LINE
  5
111
330
1E
100
AcDbEntity
  8
0
100
AcDbLine
 10
356.0
 20
349.853
 30
0.0
 11
358.0
 21
350.153
 31
0.0
  0
LINE
  5
112
330
1E
100
AcDbEntity
  8
0
100
AcDbLine
 10
365.2
 20
344.653
 30
0.0
 11
365.5
 21
342.653
 31
0.0
  0
LINE
  5
113
330
1E
100
AcDbEntity
  8
0
100
AcDbLine
 10
364.5
 20
346.453
 30
0.0
 11
365.2
 21
344.653
 31
0.0
  0
LINE
  5
114
330
1E
100
AcDbEntity
  8
0
100
AcDbLine
 10
363.3
 20
347.953
 30
0.0
 11
364.5
 21
346.453
 31
0.0
  0
LINE
  5
115
330
1E
100
AcDbEntity
  8
0
100
AcDbLine
 10
361.8
 20
349.153
 30
0.0
 11
363.3
 21
347.953
 31
0.0
  0
LINE
  5
116
330
1E
100
AcDbEntity
  8
0
100
AcDbLine
 10
360.0
 20
349.853
 30
0.0
 11
361.8
 21
349.153
 31
0.0
  0
LINE
  5
117
330
1E
100
AcDbEntity
  8
0
100
AcDbLine
 10
358.0
 20
350.153
 30
0.0
 11
360.0
 21
349.853
 31
0.0
  0
LINE
  5
118
330
1E
100
AcDbEntity
  8
0
100
AcDbLine
 10
353.0
 20
354.653
 30
0.0
 11
353.166010342297
 21
354.680668390383
 31
0.0
  0
LINE
  5
119
330
1E
100
AcDbEntity
  8
0
100
AcDbLine
 10
362.882352941176
 20
354.6726078431369
 30
0.0
 11
363.0
 21
354.653
 31
0.0
  0
LINE
  5
11A
330
1E
100
AcDbEntity
  8
0
100
AcDbLine
 10
362.882352941176
 20
354.6726078431369
 30
0.0
 11
364.0
 21
357.653
 31
0.0
  0
LINE
  5
11B
330
1E
100
AcDbEntity
  8
0
100
AcDbLine
 10
363.0
 20
354.653
 30
0.0
 11
366.0
 21
353.653
 31
0.0
  0
LINE
  5
11C
330
1E
100
AcDbEntity
  8
0
100
AcDbLine
 10
372.0
 20
344.953
 30
0.0
 11
372.0
 21
342.653
 31
0.0
  0
LINE
  5
11D
330
1E
100
AcDbEntity
  8
0
100
AcDbLine
 10
369.0
 20
351.653
 30
0.0
 11
370.0
 21
352.653
 31
0.0
  0
LINE
  5
11E
330
1E
100
AcDbEntity
  8
0
100
AcDbLine
 10
369.0
 20
351.353
 30
0.0
 11
369.0
 21
351.653
 31
0.0
  0
LINE
  5
11F
330
1E
100
AcDbEntity
  8
0
100
AcDbLine
 10
369.0
 20
350.453
 30
0.0
 11
369.0
 21
351.353
 31
0.0
  0
LINE
  5
120
330
1E
100
AcDbEntity
  8
0
100
AcDbLine
 10
369.0
 20
349.053
 30
0.0
 11
369.0
 21
350.453
 31
0.0
  0
LINE
  5
133
330
1E
100
AcDbEntity
  8
0
100
AcDbLine
 10
372.0
 20
351.653
 30
0.0
 11
372.0
 21
351.353
 31
0.0
  0
LINE
  5
134
330
1E
100
AcDbEntity
  8
0
100
AcDbLine
 10
372.0
 20
351.353
 30
0.0
 11
372.0
 21
350.453
 31
0.0
  0
LINE
  5
135
330
1E
100
AcDbEntity
  8
0
100
AcDbLine
 10
372.0
 20
350.453
 30
0.0
 11
372.0
 21
349.053
 31
0.0
  0
LINE
  5
136
330
1E
100
AcDbEntity
  8
0
100
AcDbLine
 10
372.0
 20
349.053
 30
0.0
 11
372.0
 21
347.153
 31
0.0
  0
LINE
  5
139
330
1E
100
AcDbEntity
  8
0
100
AcDbLine
 10
372.0
 20
347.153
 30
0.0
 11
372.0
 21
344.953
 31
0.0
  0
LINE
  5
13A
330
1E
100
AcDbEntity
  8
0
100
AcDbLine
 10
370.0
 20
352.653
 30
0.0
 11
371.0
 21
352.653
 31
0.0
  0
LINE
  5
13C
330
1E
100
AcDbEntity
  8
0
100
AcDbLine
 10
371.0
 20
352.653
 30
0.0
 11
372.0
 21
351.653
 31
0.0
  0
LINE
  5
13E
330
1E
100
AcDbEntity
  8
0
100
AcDbLine
 10
384.0
 20
348.153
 30
0.0
 11
384.0
 21
353.353
 31
0.0
  0
LINE
  5
13F
330
1E
100
AcDbEntity
  8
0
100
AcDbLine
 10
384.0
 20
353.353
 30
0.0
 11
384.0
 21
348.153
 31
0.0
  0
LINE
  5
140
330
1E
100
AcDbEntity
  8
0
100
AcDbLine
 10
389.0
 20
348.353
 30
0.0
 11
389.0
 21
342.653
 31
0.0
  0
LINE
  5
141
330
1E
100
AcDbEntity
  8
0
100
AcDbLine
 10
389.0
 20
353.553
 30
0.0
 11
389.0
 21
348.353
 31
0.0
  0
LINE
  5
142
330
1E
100
AcDbEntity
  8
0
100
AcDbLine
 10
384.125
 20
353.553
 30
0.0
 11
384.125
 21
348.353
 31
0.0
  0
LINE
  5
143
330
1E
100
AcDbEntity
  8
0
100
AcDbLine
 10
384.125
 20
353.553
 30
0.0
 11
384.125
 21
358.153
 31
0.0
  0
LINE
  5
144
330
1E
100
AcDbEntity
  8
0
100
AcDbLine
 10
384.125
 20
348.353
 30
0.0
 11
384.125
 21
342.653
 31
0.0
  0
LINE
  5
145
330
1E
100
AcDbEntity
  8
0
100
AcDbLine
 10
384.125
 20
348.353
 30
0.0
 11
384.125
 21
353.553
 31
0.0
  0
LINE
  5
146
330
1E
100
AcDbEntity
  8
0
100
AcDbLine
 10
384.0
 20
352.153
 30
0.0
 11
384.0
 21
347.593
 31
0.0
  0
LINE
  5
147
330
1E
100
AcDbEntity
  8
0
100
AcDbLine
 10
384.0
 20
347.593
 30
0.0
 11
384.0
 21
342.653
 31
0.0
  0
LINE
  5
148
330
1E
100
AcDbEntity
  8
0
100
AcDbLine
 10
372.0
 20
351.203
 30
0.0
 11
373.3585
 21
354.053
 31
0.0
  0
LINE
  5
149
330
1E
100
AcDbEntity
  8
0
100
AcDbLine
 10
373.3585
 20
354.053
 30
0.0
 11
375.6225999999999
 21
356.428
 31
0.0
  0
LINE
  5
14A
330
1E
100
AcDbEntity
  8
0
100
AcDbLine
 10
369.0
 20
347.153
 30
0.0
 11
369.0
 21
349.053
 31
0.0
  0
LINE
  5
14B
330
1E
100
AcDbEntity
  8
0
100
AcDbLine
 10
369.0
 20
344.953
 30
0.0
 11
369.0
 21
347.153
 31
0.0
  0
LINE
  5
14C
330
1E
100
AcDbEntity
  8
0
100
AcDbLine
 10
366.0
 20
353.653
 30
0.0
 11
369.0
 21
351.653
 31
0.0
  0
LINE
  5
14D
330
1E
100
AcDbEntity
  8
0
100
AcDbLine
 10
352.00001
 20
357.653
 30
0.0
 11
353.117649457902
 21
354.6726082429839
 31
0.0
  0
LINE
  5
14E
330
1E
100
AcDbEntity
  8
0
100
AcDbLine
 10
351.00001
 20
361.653
 30
0.0
 11
352.00001
 21
357.653
 31
0.0
  0
LINE
  5
14F
330
1E
100
AcDbEntity
  8
0
100
AcDbLine
 10
350.8000099999999
 20
364.653
 30
0.0
 11
351.00001
 21
361.653
 31
0.0
  0
LINE
  5
150
330
1E
100
AcDbEntity
  8
0
100
AcDbLine
 10
364.0
 20
357.653
 30
0.0
 11
365.0
 21
361.653
 31
0.0
  0
LINE
  5
151
330
1E
100
AcDbEntity
  8
0
100
AcDbLine
 10
375.6225999999999
 20
356.428
 30
0.0
 11
378.3396
 21
358.803
 31
0.0
  0
LINE
  5
152
330
1E
100
AcDbEntity
  8
0
100
AcDbLine
 10
384.0
 20
357.853
 30
0.0
 11
384.0
 21
361.253
 31
0.0
  0
LINE
  5
153
330
1E
100
AcDbEntity
  8
0
100
AcDbLine
 10
389.0
 20
358.153
 30
0.0
 11
389.0
 21
353.553
 31
0.0
  0
LINE
  5
154
330
1E
100
AcDbEntity
  8
0
100
AcDbLine
 10
384.125
 20
358.153
 30
0.0
 11
384.125
 21
353.553
 31
0.0
  0
LINE
  5
155
330
1E
100
AcDbEntity
  8
0
100
AcDbLine
 10
384.125
 20
358.153
 30
0.0
 11
384.125
 21
361.753
 31
0.0
  0
LINE
  5
156
330
1E
100
AcDbEntity
  8
0
100
AcDbLine
 10
384.0
 20
359.088
 30
0.0
 11
384.0
 21
356.048
 31
0.0
  0
LINE
  5
157
330
1E
100
AcDbEntity
  8
0
100
AcDbLine
 10
384.0
 20
356.048
 30
0.0
 11
384.0
 21
352.153
 31
0.0
  0
LINE
  5
158
330
1E
100
AcDbEntity
  8
0
100
AcDbLine
 10
378.3396
 20
358.803
 30
0.0
 11
381.283
 21
360.703
 31
0.0
  0
LINE
  5
159
330
1E
100
AcDbEntity
  8
0
100
AcDbLine
 10
384.0
 20
361.253
 30
0.0
 11
384.0
 21
357.853
 31
0.0
  0
LINE
  5
15A
330
1E
100
AcDbEntity
  8
0
100
AcDbLine
 10
384.0
 20
364.153
 30
0.0
 11
384.0
 21
363.353
 31
0.0
  0
LINE
  5
15B
330
1E
100
AcDbEntity
  8
0
100
AcDbLine
 10
384.0
 20
364.153
 30
0.0
 11
384.125
 21
364.653
 31
0.0
  0
LINE
  5
15C
330
1E
100
AcDbEntity
  8
0
100
AcDbLine
 10
384.0
 20
363.353
 30
0.0
 11
384.0
 21
364.153
 31
0.0
  0
LINE
  5
15D
330
1E
100
AcDbEntity
  8
0
100
AcDbLine
 10
384.0
 20
363.353
 30
0.0
 11
384.0
 21
361.653
 31
0.0
  0
LINE
  5
15E
330
1E
100
AcDbEntity
  8
0
100
AcDbLine
 10
384.0
 20
361.653
 30
0.0
 11
384.0
 21
360.988
 31
0.0
  0
LINE
  5
15F
330
1E
100
AcDbEntity
  8
0
100
AcDbLine
 10
384.0
 20
361.653
 30
0.0
 11
384.0
 21
363.353
 31
0.0
  0
LINE
  5
160
330
1E
100
AcDbEntity
  8
0
100
AcDbLine
 10
384.125
 20
363.853
 30
0.0
 11
384.125
 21
361.753
 31
0.0
  0
LINE
  5
161
330
1E
100
AcDbEntity
  8
0
100
AcDbLine
 10
384.125
 20
363.853
 30
0.0
 11
384.125
 21
364.653
 31
0.0
  0
LINE
  5
162
330
1E
100
AcDbEntity
  8
0
100
AcDbLine
 10
389.0
 20
363.853
 30
0.0
 11
389.0
 21
361.753
 31
0.0
  0
LINE
  5
163
330
1E
100
AcDbEntity
  8
0
100
AcDbLine
 10
389.0
 20
361.753
 30
0.0
 11
389.0
 21
358.153
 31
0.0
  0
LINE
  5
164
330
1E
100
AcDbEntity
  8
0
100
AcDbLine
 10
384.125
 20
361.753
 30
0.0
 11
384.125
 21
358.153
 31
0.0
  0
LINE
  5
165
330
1E
100
AcDbEntity
  8
0
100
AcDbLine
 10
384.125
 20
361.753
 30
0.0
 11
384.125
 21
363.853
 31
0.0
  0
LINE
  5
166
330
1E
100
AcDbEntity
  8
0
100
AcDbLine
 10
384.125
 20
364.653
 30
0.0
 11
389.0
 21
364.653
 31
0.0
  0
LINE
  5
167
330
1E
100
AcDbEntity
  8
0
100
AcDbLine
 10
384.125
 20
364.653
 30
0.0
 11
384.125
 21
363.853
 31
0.0
  0
LINE
  5
168
330
1E
100
AcDbEntity
  8
0
100
AcDbLine
 10
384.0
 20
360.988
 30
0.0
 11
384.0
 21
359.088
 31
0.0
  0
LINE
  5
169
330
1E
100
AcDbEntity
  8
0
100
AcDbLine
 10
381.283
 20
360.703
 30
0.0
 11
384.0
 21
361.653
 31
0.0
  0
LINE
  5
16A
330
1E
100
AcDbEntity
  8
0
100
AcDbLine
 10
365.0
 20
361.653
 30
0.0
 11
365.2
 21
364.653
 31
0.0
  0
LINE
  5
16B
330
1E
100
AcDbEntity
  8
0
100
AcDbLine
 10
365.2
 20
364.653
 30
0.0
 11
365.5
 21
368.653
 31
0.0
  0
LINE
  5
16C
330
1E
100
AcDbEntity
  8
0
100
AcDbLine
 10
389.0
 20
364.653
 30
0.0
 11
389.0
 21
365.153
 31
0.0
  0
LINE
  5
16D
330
1E
100
AcDbEntity
  8
0
100
AcDbLine
 10
389.0
 20
364.653
 30
0.0
 11
389.0
 21
363.853
 31
0.0
  0
LINE
  5
16E
330
1E
100
AcDbEntity
  8
0
100
AcDbLine
 10
350.50001
 20
368.653
 30
0.0
 11
351.00001
 21
372.153
 31
0.0
  0
LINE
  5
16F
330
1E
100
AcDbEntity
  8
0
100
AcDbLine
 10
350.50001
 20
368.653
 30
0.0
 11
350.8000099999999
 21
364.653
 31
0.0
  0
LINE
  5
170
330
1E
100
AcDbEntity
  8
0
100
AcDbLine
 10
9.99999999999998
 20
1127.153
 30
0.0
 11
9.99999999999998
 21
1129.153
 31
0.0
  0
LINE
  5
171
330
1E
100
AcDbEntity
  8
0
100
AcDbLine
 10
7.999999999999981
 20
1127.153
 30
0.0
 11
7.999999999999981
 21
1129.153
 31
0.0
  0
LINE
  5
172
330
1E
100
AcDbEntity
  8
0
100
AcDbLine
 10
7.999999999999981
 20
1127.153
 30
0.0
 11
9.99999999999998
 21
1127.153
 31
0.0
  0
LINE
  5
173
330
1E
100
AcDbEntity
  8
0
100
AcDbLine
 10
10.637
 20
1127.153
 30
0.0
 11
10.637
 21
1129.153
 31
0.0
  0
LINE
  5
174
330
1E
100
AcDbEntity
  8
0
100
AcDbLine
 10
10.637
 20
1127.153
 30
0.0
 11
11.15499999999999
 21
1127.153
 31
0.0
  0
LINE
  5
175
330
1E
100
AcDbEntity
  8
0
100
AcDbLine
 10
10.637
 20
1127.153
 30
0.0
 11
12.5690000000001
 21
1127.153
 31
0.0
  0
LINE
  5
176
330
1E
100
AcDbEntity
  8
0
100
AcDbLine
 10
13.08699999999999
 20
1127.153
 30
0.0
 11
13.08699999999999
 21
1129.153
 31
0.0
  0
LINE
  5
177
330
1E
100
AcDbEntity
  8
0
100
AcDbLine
 10
12.5690000000001
 20
1127.153
 30
0.0
 11
13.08699999999999
 21
1127.153
 31
0.0
  0
LINE
  5
178
330
1E
100
AcDbEntity
  8
0
100
AcDbLine
 10
11.15499999999999
 20
1127.153
 30
0.0
 11
11.15499999999999
 21
1129.153
 31
0.0
  0
LINE
  5
179
330
1E
100
AcDbEntity
  8
0
100
AcDbLine
 10
11.15499999999999
 20
1127.153
 30
0.0
 11
13.08699999999999
 21
1127.153
 31
0.0
  0
LINE
  5
17A
330
1E
100
AcDbEntity
  8
0
100
AcDbLine
 10
18.88799999999999
 20
1127.153
 30
0.0
 11
18.88799999999999
 21
1129.153
 31
0.0
  0
LINE
  5
17B
330
1E
100
AcDbEntity
  8
0
100
AcDbLine
 10
18.88799999999999
 20
1127.153
 30
0.0
 11
19.88799999999999
 21
1127.153
 31
0.0
  0
LINE
  5
17C
330
1E
100
AcDbEntity
  8
0
100
AcDbLine
 10
18.88799999999999
 20
1127.153
 30
0.0
 11
20.62
 21
1127.153
 31
0.0
  0
LINE
  5
17D
330
1E
100
AcDbEntity
  8
0
100
AcDbLine
 10
25.0
 20
1127.153
 30
0.0
 11
25.0
 21
1129.153
 31
0.0
  0
LINE
  5
17E
330
1E
100
AcDbEntity
  8
0
100
AcDbLine
 10
23.0
 20
1127.153
 30
0.0
 11
23.0
 21
1129.153
 31
0.0
  0
LINE
  5
17F
330
1E
100
AcDbEntity
  8
0
100
AcDbLine
 10
23.0
 20
1127.153
 30
0.0
 11
25.0
 21
1127.153
 31
0.0
  0
LINE
  5
180
330
1E
100
AcDbEntity
  8
0
100
AcDbLine
 10
27.576
 20
1127.153
 30
0.0
 11
27.576
 21
1129.153
 31
0.0
  0
LINE
  5
181
330
1E
100
AcDbEntity
  8
0
100
AcDbLine
 10
27.058
 20
1127.153
 30
0.0
 11
27.576
 21
1127.153
 31
0.0
  0
LINE
  5
182
330
1E
100
AcDbEntity
  8
0
100
AcDbLine
 10
25.12599999999999
 20
1127.153
 30
0.0
 11
25.12599999999999
 21
1129.153
 31
0.0
  0
LINE
  5
183
330
1E
100
AcDbEntity
  8
0
100
AcDbLine
 10
25.12599999999999
 20
1127.153
 30
0.0
 11
25.644
 21
1127.153
 31
0.0
  0
LINE
  5
184
330
1E
100
AcDbEntity
  8
0
100
AcDbLine
 10
25.12599999999999
 20
1127.153
 30
0.0
 11
27.058
 21
1127.153
 31
0.0
  0
LINE
  5
185
330
1E
100
AcDbEntity
  8
0
100
AcDbLine
 10
25.644
 20
1127.153
 30
0.0
 11
25.644
 21
1129.153
 31
0.0
  0
LINE
  5
186
330
1E
100
AcDbEntity
  8
0
100
AcDbLine
 10
25.644
 20
1127.153
 30
0.0
 11
27.576
 21
1127.153
 31
0.0
  0
LINE
  5
187
330
1E
100
AcDbEntity
  8
0
100
AcDbLine
 10
21.62
 20
1127.153
 30
0.0
 11
21.62
 21
1129.153
 31
0.0
  0
LINE
  5
188
330
1E
100
AcDbEntity
  8
0
100
AcDbLine
 10
20.62
 20
1127.153
 30
0.0
 11
21.62
 21
1127.153
 31
0.0
  0
LINE
  5
189
330
1E
100
AcDbEntity
  8
0
100
AcDbLine
 10
19.88799999999999
 20
1127.153
 30
0.0
 11
19.88799999999999
 21
1129.153
 31
0.0
  0
LINE
  5
18A
330
1E
100
AcDbEntity
  8
0
100
AcDbLine
 10
19.88799999999999
 20
1127.153
 30
0.0
 11
21.62
 21
1127.153
 31
0.0
  0
LINE
  5
18B
330
1E
100
AcDbEntity
  8
0
100
AcDbLine
 10
31.878
 20
1127.153
 30
0.0
 11
31.878
 21
1129.153
 31
0.0
  0
LINE
  5
18C
330
1E
100
AcDbEntity
  8
0
100
AcDbLine
 10
31.878
 20
1127.153
 30
0.0
 11
32.878
 21
1127.153
 31
0.0
  0
LINE
  5
18D
330
1E
100
AcDbEntity
  8
0
100
AcDbLine
 10
31.878
 20
1127.153
 30
0.0
 11
33.61
 21
1127.153
 31
0.0
  0
LINE
  5
18E
330
1E
100
AcDbEntity
  8
0
100
AcDbLine
 10
38.0
 20
1127.153
 30
0.0
 11
38.0
 21
1129.153
 31
0.0
  0
LINE
  5
18F
330
1E
100
AcDbEntity
  8
0
100
AcDbLine
 10
38.0
 20
1127.153
 30
0.0
 11
40.0
 21
1127.153
 31
0.0
  0
LINE
  5
190
330
1E
100
AcDbEntity
  8
0
100
AcDbLine
 10
42.065
 20
1127.153
 30
0.0
 11
42.065
 21
1129.153
 31
0.0
  0
LINE
  5
191
330
1E
100
AcDbEntity
  8
0
100
AcDbLine
 10
41.547
 20
1127.153
 30
0.0
 11
42.065
 21
1127.153
 31
0.0
  0
LINE
  5
192
330
1E
100
AcDbEntity
  8
0
100
AcDbLine
 10
39.615
 20
1127.153
 30
0.0
 11
39.615
 21
1129.153
 31
0.0
  0
LINE
  5
193
330
1E
100
AcDbEntity
  8
0
100
AcDbLine
 10
39.615
 20
1127.153
 30
0.0
 11
40.133
 21
1127.153
 31
0.0
  0
LINE
  5
194
330
1E
100
AcDbEntity
  8
0
100
AcDbLine
 10
39.615
 20
1127.153
 30
0.0
 11
41.547
 21
1127.153
 31
0.0
  0
LINE
  5
195
330
1E
100
AcDbEntity
  8
0
100
AcDbLine
 10
40.133
 20
1127.153
 30
0.0
 11
40.133
 21
1129.153
 31
0.0
  0
LINE
  5
196
330
1E
100
AcDbEntity
  8
0
100
AcDbLine
 10
40.133
 20
1127.153
 30
0.0
 11
42.065
 21
1127.153
 31
0.0
  0
LINE
  5
197
330
1E
100
AcDbEntity
  8
0
100
AcDbLine
 10
44.869
 20
1127.153
 30
0.0
 11
45.86899999999999
 21
1127.153
 31
0.0
  0
LINE
  5
198
330
1E
100
AcDbEntity
  8
0
100
AcDbLine
 10
44.869
 20
1127.153
 30
0.0
 11
46.601
 21
1127.153
 31
0.0
  0
LINE
  5
199
330
1E
100
AcDbEntity
  8
0
100
AcDbLine
 10
47.601
 20
1127.153
 30
0.0
 11
47.601
 21
1129.153
 31
0.0
  0
LINE
  5
19A
330
1E
100
AcDbEntity
  8
0
100
AcDbLine
 10
46.601
 20
1127.153
 30
0.0
 11
47.601
 21
1127.153
 31
0.0
  0
LINE
  5
19B
330
1E
100
AcDbEntity
  8
0
100
AcDbLine
 10
45.86899999999999
 20
1127.153
 30
0.0
 11
45.86899999999999
 21
1129.153
 31
0.0
  0
LINE
  5
19C
330
1E
100
AcDbEntity
  8
0
100
AcDbLine
 10
45.86899999999999
 20
1127.153
 30
0.0
 11
47.601
 21
1127.153
 31
0.0
  0
LINE
  5
19D
330
1E
100
AcDbEntity
  8
0
100
AcDbLine
 10
45.62399999999999
 20
1127.153
 30
0.0
 11
45.62399999999999
 21
1129.153
 31
0.0
  0
LINE
  5
19E
330
1E
100
AcDbEntity
  8
0
100
AcDbLine
 10
42.795
 20
1127.153
 30
0.0
 11
42.795
 21
1129.153
 31
0.0
  0
LINE
  5
19F
330
1E
100
AcDbEntity
  8
0
100
AcDbLine
 10
42.795
 20
1127.153
 30
0.0
 11
44.21
 21
1127.153
 31
0.0
  0
LINE
  5
1A0
330
1E
100
AcDbEntity
  8
0
100
AcDbLine
 10
44.21
 20
1127.153
 30
0.0
 11
44.21
 21
1129.153
 31
0.0
  0
LINE
  5
1A1
330
1E
100
AcDbEntity
  8
0
100
AcDbLine
 10
44.21
 20
1127.153
 30
0.0
 11
45.62399999999999
 21
1127.153
 31
0.0
  0
LINE
  5
1A2
330
1E
100
AcDbEntity
  8
0
100
AcDbLine
 10
50.63399999999999
 20
1127.153
 30
0.0
 11
52.36600000000001
 21
1127.153
 31
0.0
  0
LINE
  5
1A3
330
1E
100
AcDbEntity
  8
0
100
AcDbLine
 10
49.634
 20
1127.153
 30
0.0
 11
49.634
 21
1129.153
 31
0.0
  0
LINE
  5
1A4
330
1E
100
AcDbEntity
  8
0
100
AcDbLine
 10
49.634
 20
1127.153
 30
0.0
 11
51.36600000000001
 21
1127.153
 31
0.0
  0
LINE
  5
1A5
330
1E
100
AcDbEntity
  8
0
100
AcDbLine
 10
49.634
 20
1127.153
 30
0.0
 11
50.63399999999999
 21
1127.153
 31
0.0
  0
LINE
  5
1A6
330
1E
100
AcDbEntity
  8
0
100
AcDbLine
 10
52.36600000000001
 20
1127.153
 30
0.0
 11
52.36600000000001
 21
1129.153
 31
0.0
  0
LINE
  5
1A7
330
1E
100
AcDbEntity
  8
0
100
AcDbLine
 10
53.0
 20
1127.153
 30
0.0
 11
55.0
 21
1127.153
 31
0.0
  0
LINE
  5
1A8
330
1E
100
AcDbEntity
  8
0
100
AcDbLine
 10
53.0
 20
1127.153
 30
0.0
 11
53.0
 21
1129.153
 31
0.0
  0
LINE
  5
1A9
330
1E
100
AcDbEntity
  8
0
100
AcDbLine
 10
54.104
 20
1127.153
 30
0.0
 11
54.622
 21
1127.153
 31
0.0
  0
LINE
  5
1AA
330
1E
100
AcDbEntity
  8
0
100
AcDbLine
 10
54.104
 20
1127.153
 30
0.0
 11
56.036
 21
1127.153
 31
0.0
  0
LINE
  5
1AB
330
1E
100
AcDbEntity
  8
0
100
AcDbLine
 10
56.554
 20
1127.153
 30
0.0
 11
56.554
 21
1129.153
 31
0.0
  0
LINE
  5
1AC
330
1E
100
AcDbEntity
  8
0
100
AcDbLine
 10
56.036
 20
1127.153
 30
0.0
 11
56.554
 21
1127.153
 31
0.0
  0
LINE
  5
1AD
330
1E
100
AcDbEntity
  8
0
100
AcDbLine
 10
54.622
 20
1127.153
 30
0.0
 11
56.554
 21
1127.153
 31
0.0
  0
LINE
  5
1AE
330
1E
100
AcDbEntity
  8
0
100
AcDbLine
 10
57.85899999999999
 20
1127.153
 30
0.0
 11
58.85899999999999
 21
1127.153
 31
0.0
  0
LINE
  5
1AF
330
1E
100
AcDbEntity
  8
0
100
AcDbLine
 10
57.85899999999999
 20
1127.153
 30
0.0
 11
59.591
 21
1127.153
 31
0.0
  0
LINE
  5
1B0
330
1E
100
AcDbEntity
  8
0
100
AcDbLine
 10
58.85899999999999
 20
1127.153
 30
0.0
 11
60.591
 21
1127.153
 31
0.0
  0
LINE
  5
1B1
330
1E
100
AcDbEntity
  8
0
100
AcDbLine
 10
58.13399999999999
 20
1127.153
 30
0.0
 11
59.86600000000001
 21
1127.153
 31
0.0
  0
LINE
  5
1B2
330
1E
100
AcDbEntity
  8
0
100
AcDbLine
 10
57.134
 20
1127.153
 30
0.0
 11
57.134
 21
1129.153
 31
0.0
  0
LINE
  5
1B3
330
1E
100
AcDbEntity
  8
0
100
AcDbLine
 10
57.134
 20
1127.153
 30
0.0
 11
58.86600000000001
 21
1127.153
 31
0.0
  0
LINE
  5
1B4
330
1E
100
AcDbEntity
  8
0
100
AcDbLine
 10
57.134
 20
1127.153
 30
0.0
 11
58.13399999999999
 21
1127.153
 31
0.0
  0
LINE
  5
1B5
330
1E
100
AcDbEntity
  8
0
100
AcDbLine
 10
60.591
 20
1127.153
 30
0.0
 11
60.591
 21
1129.153
 31
0.0
  0
LINE
  5
1B6
330
1E
100
AcDbEntity
  8
0
100
AcDbLine
 10
59.591
 20
1127.153
 30
0.0
 11
60.591
 21
1127.153
 31
0.0
  0
LINE
  5
1B7
330
1E
100
AcDbEntity
  8
0
100
AcDbLine
 10
64.634
 20
1127.153
 30
0.0
 11
64.634
 21
1129.153
 31
0.0
  0
LINE
  5
1B8
330
1E
100
AcDbEntity
  8
0
100
AcDbLine
 10
64.634
 20
1127.153
 30
0.0
 11
66.366
 21
1127.153
 31
0.0
  0
LINE
  5
1B9
330
1E
100
AcDbEntity
  8
0
100
AcDbLine
 10
64.634
 20
1127.153
 30
0.0
 11
65.634
 21
1127.153
 31
0.0
  0
LINE
  5
1BA
330
1E
100
AcDbEntity
  8
0
100
AcDbLine
 10
59.86600000000001
 20
1127.153
 30
0.0
 11
59.86600000000001
 21
1129.153
 31
0.0
  0
LINE
  5
1BB
330
1E
100
AcDbEntity
  8
0
100
AcDbLine
 10
58.86600000000001
 20
1127.153
 30
0.0
 11
58.86600000000001
 21
1129.153
 31
0.0
  0
LINE
  5
1BC
330
1E
100
AcDbEntity
  8
0
100
AcDbLine
 10
58.86600000000001
 20
1127.153
 30
0.0
 11
59.86600000000001
 21
1127.153
 31
0.0
  0
LINE
  5
1BD
330
1E
100
AcDbEntity
  8
0
100
AcDbLine
 10
64.0090000000001
 20
1127.153
 30
0.0
 11
64.0090000000001
 21
1129.153
 31
0.0
  0
LINE
  5
1BE
330
1E
100
AcDbEntity
  8
0
100
AcDbLine
 10
64.0090000000001
 20
1127.153
 30
0.0
 11
65.423
 21
1127.153
 31
0.0
  0
LINE
  5
1BF
330
1E
100
AcDbEntity
  8
0
100
AcDbLine
 10
68.0
 20
1127.153
 30
0.0
 11
68.0
 21
1129.153
 31
0.0
  0
LINE
  5
1C0
330
1E
100
AcDbEntity
  8
0
100
AcDbLine
 10
68.0
 20
1127.153
 30
0.0
 11
70.0
 21
1127.153
 31
0.0
  0
LINE
  5
1C1
330
1E
100
AcDbEntity
  8
0
100
AcDbLine
 10
67.366
 20
1127.153
 30
0.0
 11
67.366
 21
1129.153
 31
0.0
  0
LINE
  5
1C2
330
1E
100
AcDbEntity
  8
0
100
AcDbLine
 10
65.634
 20
1127.153
 30
0.0
 11
67.366
 21
1127.153
 31
0.0
  0
LINE
  5
1C3
330
1E
100
AcDbEntity
  8
0
100
AcDbLine
 10
66.366
 20
1127.153
 30
0.0
 11
66.366
 21
1129.153
 31
0.0
  0
LINE
  5
1C4
330
1E
100
AcDbEntity
  8
0
100
AcDbLine
 10
66.366
 20
1127.153
 30
0.0
 11
67.366
 21
1127.153
 31
0.0
  0
LINE
  5
1C5
330
1E
100
AcDbEntity
  8
0
100
AcDbLine
 10
65.423
 20
1127.153
 30
0.0
 11
66.837
 21
1127.153
 31
0.0
  0
LINE
  5
1C6
330
1E
100
AcDbEntity
  8
0
100
AcDbLine
 10
56.23
 20
1127.153
 30
0.0
 11
56.23
 21
1129.153
 31
0.0
  0
LINE
  5
1C7
330
1E
100
AcDbEntity
  8
0
100
AcDbLine
 10
53.402
 20
1127.153
 30
0.0
 11
53.402
 21
1129.153
 31
0.0
  0
LINE
  5
1C8
330
1E
100
AcDbEntity
  8
0
100
AcDbLine
 10
53.402
 20
1127.153
 30
0.0
 11
54.816
 21
1127.153
 31
0.0
  0
LINE
  5
1C9
330
1E
100
AcDbEntity
  8
0
100
AcDbLine
 10
54.816
 20
1127.153
 30
0.0
 11
54.816
 21
1129.153
 31
0.0
  0
LINE
  5
1CA
330
1E
100
AcDbEntity
  8
0
100
AcDbLine
 10
54.816
 20
1127.153
 30
0.0
 11
56.23
 21
1127.153
 31
0.0
  0
LINE
  5
1CB
330
1E
100
AcDbEntity
  8
0
100
AcDbLine
 10
68.59300000000001
 20
1127.153
 30
0.0
 11
68.59300000000001
 21
1129.153
 31
0.0
  0
LINE
  5
1CC
330
1E
100
AcDbEntity
  8
0
100
AcDbLine
 10
68.59300000000001
 20
1127.153
 30
0.0
 11
69.11100000000001
 21
1127.153
 31
0.0
  0
LINE
  5
1CD
330
1E
100
AcDbEntity
  8
0
100
AcDbLine
 10
68.59300000000001
 20
1127.153
 30
0.0
 11
70.52500000000001
 21
1127.153
 31
0.0
  0
LINE
  5
1CE
330
1E
100
AcDbEntity
  8
0
100
AcDbLine
 10
69.11100000000001
 20
1127.153
 30
0.0
 11
69.11100000000001
 21
1129.153
 31
0.0
  0
LINE
  5
1CF
330
1E
100
AcDbEntity
  8
0
100
AcDbLine
 10
69.11100000000001
 20
1127.153
 30
0.0
 11
71.04300000000001
 21
1127.153
 31
0.0
  0
LINE
  5
1D0
330
1E
100
AcDbEntity
  8
0
100
AcDbLine
 10
70.84899999999999
 20
1127.153
 30
0.0
 11
71.84899999999998
 21
1127.153
 31
0.0
  0
LINE
  5
1D1
330
1E
100
AcDbEntity
  8
0
100
AcDbLine
 10
70.84899999999999
 20
1127.153
 30
0.0
 11
72.581
 21
1127.153
 31
0.0
  0
LINE
  5
1D2
330
1E
100
AcDbEntity
  8
0
100
AcDbLine
 10
71.84899999999998
 20
1127.153
 30
0.0
 11
73.581
 21
1127.153
 31
0.0
  0
LINE
  5
1D3
330
1E
100
AcDbEntity
  8
0
100
AcDbLine
 10
72.484
 20
1127.153
 30
0.0
 11
72.484
 21
1129.153
 31
0.0
  0
LINE
  5
1D4
330
1E
100
AcDbEntity
  8
0
100
AcDbLine
 10
72.581
 20
1127.153
 30
0.0
 11
73.581
 21
1127.153
 31
0.0
  0
LINE
  5
1D5
330
1E
100
AcDbEntity
  8
0
100
AcDbLine
 10
73.134
 20
1127.153
 30
0.0
 11
74.866
 21
1127.153
 31
0.0
  0
LINE
  5
1D6
330
1E
100
AcDbEntity
  8
0
100
AcDbLine
 10
72.134
 20
1127.153
 30
0.0
 11
73.866
 21
1127.153
 31
0.0
  0
LINE
  5
1D7
330
1E
100
AcDbEntity
  8
0
100
AcDbLine
 10
72.134
 20
1127.153
 30
0.0
 11
73.134
 21
1127.153
 31
0.0
  0
LINE
  5
1D8
330
1E
100
AcDbEntity
  8
0
100
AcDbLine
 10
73.866
 20
1127.153
 30
0.0
 11
73.866
 21
1129.153
 31
0.0
  0
LINE
  5
1D9
330
1E
100
AcDbEntity
  8
0
100
AcDbLine
 10
73.866
 20
1127.153
 30
0.0
 11
74.866
 21
1127.153
 31
0.0
  0
LINE
  5
1DA
330
1E
100
AcDbEntity
  8
0
100
AcDbLine
 10
70.52500000000001
 20
1127.153
 30
0.0
 11
71.04300000000001
 21
1127.153
 31
0.0
  0
LINE
  5
1DB
330
1E
100
AcDbEntity
  8
0
100
AcDbLine
 10
70.55199999999999
 20
1127.153
 30
0.0
 11
72.484
 21
1127.153
 31
0.0
  0
LINE
  5
1DC
330
1E
100
AcDbEntity
  8
0
100
AcDbLine
 10
70.03399999999999
 20
1127.153
 30
0.0
 11
71.966
 21
1127.153
 31
0.0
  0
LINE
  5
1DD
330
1E
100
AcDbEntity
  8
0
100
AcDbLine
 10
70.03399999999999
 20
1127.153
 30
0.0
 11
70.55199999999999
 21
1127.153
 31
0.0
  0
LINE
  5
1DE
330
1E
100
AcDbEntity
  8
0
100
AcDbLine
 10
70.03399999999999
 20
1127.153
 30
0.0
 11
70.03399999999999
 21
1129.153
 31
0.0
  0
LINE
  5
1DF
330
1E
100
AcDbEntity
  8
0
100
AcDbLine
 10
71.966
 20
1127.153
 30
0.0
 11
72.484
 21
1127.153
 31
0.0
  0
LINE
  5
1E0
330
1E
100
AcDbEntity
  8
0
100
AcDbLine
 10
71.966
 20
1127.153
 30
0.0
 11
71.966
 21
1129.153
 31
0.0
  0
LINE
  5
1E1
330
1E
100
AcDbEntity
  8
0
100
AcDbLine
 10
76.366
 20
1127.153
 30
0.0
 11
76.366
 21
1129.153
 31
0.0
  0
LINE
  5
1E2
330
1E
100
AcDbEntity
  8
0
100
AcDbLine
 10
77.444
 20
1127.153
 30
0.0
 11
77.444
 21
1129.153
 31
0.0
  0
LINE
  5
1E3
330
1E
100
AcDbEntity
  8
0
100
AcDbLine
 10
74.615
 20
1127.153
 30
0.0
 11
76.02899999999999
 21
1127.153
 31
0.0
  0
LINE
  5
1E4
330
1E
100
AcDbEntity
  8
0
100
AcDbLine
 10
76.02899999999999
 20
1127.153
 30
0.0
 11
77.444
 21
1127.153
 31
0.0
  0
LINE
  5
1E5
330
1E
100
AcDbEntity
  8
0
100
AcDbLine
 10
80.249
 20
1127.153
 30
0.0
 11
80.249
 21
1129.153
 31
0.0
  0
LINE
  5
1E6
330
1E
100
AcDbEntity
  8
0
100
AcDbLine
 10
78.31699999999999
 20
1127.153
 30
0.0
 11
80.249
 21
1127.153
 31
0.0
  0
LINE
  5
1E7
330
1E
100
AcDbEntity
  8
0
100
AcDbLine
 10
77.79899999999999
 20
1127.153
 30
0.0
 11
77.79899999999999
 21
1129.153
 31
0.0
  0
LINE
  5
1E8
330
1E
100
AcDbEntity
  8
0
100
AcDbLine
 10
77.79899999999999
 20
1127.153
 30
0.0
 11
79.73100000000001
 21
1127.153
 31
0.0
  0
LINE
  5
1E9
330
1E
100
AcDbEntity
  8
0
100
AcDbLine
 10
77.79899999999999
 20
1127.153
 30
0.0
 11
78.31699999999999
 21
1127.153
 31
0.0
  0
LINE
  5
1EA
330
1E
100
AcDbEntity
  8
0
100
AcDbLine
 10
79.73100000000001
 20
1127.153
 30
0.0
 11
79.73100000000001
 21
1129.153
 31
0.0
  0
LINE
  5
1EB
330
1E
100
AcDbEntity
  8
0
100
AcDbLine
 10
79.73100000000001
 20
1127.153
 30
0.0
 11
80.249
 21
1127.153
 31
0.0
  0
LINE
  5
1EC
330
1E
100
AcDbEntity
  8
0
100
AcDbLine
 10
80.63399999999999
 20
1127.153
 30
0.0
 11
82.36600000000001
 21
1127.153
 31
0.0
  0
LINE
  5
1ED
330
1E
100
AcDbEntity
  8
0
100
AcDbLine
 10
79.634
 20
1127.153
 30
0.0
 11
81.36599999999999
 21
1127.153
 31
0.0
  0
LINE
  5
1EE
330
1E
100
AcDbEntity
  8
0
100
AcDbLine
 10
79.634
 20
1127.153
 30
0.0
 11
80.63399999999999
 21
1127.153
 31
0.0
  0
LINE
  5
1EF
330
1E
100
AcDbEntity
  8
0
100
AcDbLine
 10
88.0129999999999
 20
1127.153
 30
0.0
 11
88.0129999999999
 21
1129.153
 31
0.0
  0
LINE
  5
1F0
330
1E
100
AcDbEntity
  8
0
100
AcDbLine
 10
86.081
 20
1127.153
 30
0.0
 11
88.0129999999999
 21
1127.153
 31
0.0
  0
LINE
  5
1F1
330
1E
100
AcDbEntity
  8
0
100
AcDbLine
 10
85.56400000000008
 20
1127.153
 30
0.0
 11
85.56400000000008
 21
1129.153
 31
0.0
  0
LINE
  5
1F2
330
1E
100
AcDbEntity
  8
0
100
AcDbLine
 10
85.56400000000008
 20
1127.153
 30
0.0
 11
87.49500000000001
 21
1127.153
 31
0.0
  0
LINE
  5
1F3
330
1E
100
AcDbEntity
  8
0
100
AcDbLine
 10
85.56400000000008
 20
1127.153
 30
0.0
 11
86.081
 21
1127.153
 31
0.0
  0
LINE
  5
1F4
330
1E
100
AcDbEntity
  8
0
100
AcDbLine
 10
87.49500000000001
 20
1127.153
 30
0.0
 11
87.49500000000001
 21
1129.153
 31
0.0
  0
LINE
  5
1F5
330
1E
100
AcDbEntity
  8
0
100
AcDbLine
 10
87.49500000000001
 20
1127.153
 30
0.0
 11
88.0129999999999
 21
1127.153
 31
0.0
  0
LINE
  5
1F6
330
1E
100
AcDbEntity
  8
0
100
AcDbLine
 10
84.13099999999991
 20
1127.153
 30
0.0
 11
84.13099999999991
 21
1129.153
 31
0.0
  0
LINE
  5
1F7
330
1E
100
AcDbEntity
  8
0
100
AcDbLine
 10
82.199
 20
1127.153
 30
0.0
 11
84.13099999999991
 21
1127.153
 31
0.0
  0
LINE
  5
1F8
330
1E
100
AcDbEntity
  8
0
100
AcDbLine
 10
81.681
 20
1127.153
 30
0.0
 11
81.681
 21
1129.153
 31
0.0
  0
LINE
  5
1F9
330
1E
100
AcDbEntity
  8
0
100
AcDbLine
 10
81.681
 20
1127.153
 30
0.0
 11
83.61299999999999
 21
1127.153
 31
0.0
  0
LINE
  5
1FA
330
1E
100
AcDbEntity
  8
0
100
AcDbLine
 10
81.681
 20
1127.153
 30
0.0
 11
82.199
 21
1127.153
 31
0.0
  0
LINE
  5
1FB
330
1E
100
AcDbEntity
  8
0
100
AcDbLine
 10
83.61299999999999
 20
1127.153
 30
0.0
 11
83.61299999999999
 21
1129.153
 31
0.0
  0
LINE
  5
1FC
330
1E
100
AcDbEntity
  8
0
100
AcDbLine
 10
83.61299999999999
 20
1127.153
 30
0.0
 11
84.13099999999991
 21
1127.153
 31
0.0
  0
LINE
  5
1FD
330
1E
100
AcDbEntity
  8
0
100
AcDbLine
 10
81.36599999999999
 20
1127.153
 30
0.0
 11
81.36599999999999
 21
1129.153
 31
0.0
  0
LINE
  5
1FE
330
1E
100
AcDbEntity
  8
0
100
AcDbLine
 10
81.36599999999999
 20
1127.153
 30
0.0
 11
82.36600000000001
 21
1127.153
 31
0.0
  0
LINE
  5
1FF
330
1E
100
AcDbEntity
  8
0
100
AcDbLine
 10
74.434
 20
1127.153
 30
0.0
 11
76.366
 21
1127.153
 31
0.0
  0
LINE
  5
200
330
1E
100
AcDbEntity
  8
0
100
AcDbLine
 10
73.917
 20
1127.153
 30
0.0
 11
75.84899999999999
 21
1127.153
 31
0.0
  0
LINE
  5
201
330
1E
100
AcDbEntity
  8
0
100
AcDbLine
 10
73.917
 20
1127.153
 30
0.0
 11
74.434
 21
1127.153
 31
0.0
  0
LINE
  5
202
330
1E
100
AcDbEntity
  8
0
100
AcDbLine
 10
73.917
 20
1127.153
 30
0.0
 11
73.917
 21
1129.153
 31
0.0
  0
LINE
  5
203
330
1E
100
AcDbEntity
  8
0
100
AcDbLine
 10
75.84899999999999
 20
1127.153
 30
0.0
 11
76.366
 21
1127.153
 31
0.0
  0
LINE
  5
204
330
1E
100
AcDbEntity
  8
0
100
AcDbLine
 10
75.84899999999999
 20
1127.153
 30
0.0
 11
75.84899999999999
 21
1129.153
 31
0.0
  0
LINE
  5
205
330
1E
100
AcDbEntity
  8
0
100
AcDbLine
 10
51.36600000000001
 20
1127.153
 30
0.0
 11
52.36600000000001
 21
1127.153
 31
0.0
  0
LINE
  5
206
330
1E
100
AcDbEntity
  8
0
100
AcDbLine
 10
51.36600000000001
 20
1127.153
 30
0.0
 11
51.36600000000001
 21
1129.153
 31
0.0
  0
LINE
  5
207
330
1E
100
AcDbEntity
  8
0
100
AcDbLine
 10
33.61
 20
1127.153
 30
0.0
 11
34.61
 21
1127.153
 31
0.0
  0
LINE
  5
208
330
1E
100
AcDbEntity
  8
0
100
AcDbLine
 10
32.878
 20
1127.153
 30
0.0
 11
34.61
 21
1127.153
 31
0.0
  0
LINE
  5
209
330
1E
100
AcDbEntity
  8
0
100
AcDbLine
 10
35.01699999999999
 20
1127.153
 30
0.0
 11
35.01699999999999
 21
1129.153
 31
0.0
  0
LINE
  5
20A
330
1E
100
AcDbEntity
  8
0
100
AcDbLine
 10
32.189
 20
1127.153
 30
0.0
 11
32.189
 21
1129.153
 31
0.0
  0
LINE
  5
20B
330
1E
100
AcDbEntity
  8
0
100
AcDbLine
 10
32.189
 20
1127.153
 30
0.0
 11
33.603
 21
1127.153
 31
0.0
  0
LINE
  5
20C
330
1E
100
AcDbEntity
  8
0
100
AcDbLine
 10
33.603
 20
1127.153
 30
0.0
 11
33.603
 21
1129.153
 31
0.0
  0
LINE
  5
20D
330
1E
100
AcDbEntity
  8
0
100
AcDbLine
 10
33.603
 20
1127.153
 30
0.0
 11
35.01699999999999
 21
1127.153
 31
0.0
  0
LINE
  5
20E
330
1E
100
AcDbEntity
  8
0
100
AcDbLine
 10
100.436
 20
1127.153
 30
0.0
 11
100.436
 21
1129.153
 31
0.0
  0
LINE
  5
20F
330
1E
100
AcDbEntity
  8
0
100
AcDbLine
 10
99.91900000000001
 20
1127.153
 30
0.0
 11
100.436
 21
1127.153
 31
0.0
  0
LINE
  5
210
330
1E
100
AcDbEntity
  8
0
100
AcDbLine
 10
98.505
 20
1127.153
 30
0.0
 11
100.436
 21
1127.153
 31
0.0
  0
LINE
  5
211
330
1E
100
AcDbEntity
  8
0
100
AcDbLine
 10
98.505
 20
1127.153
 30
0.0
 11
98.505
 21
1129.153
 31
0.0
  0
LINE
  5
212
330
1E
100
AcDbEntity
  8
0
100
AcDbLine
 10
97.98700000000001
 20
1127.153
 30
0.0
 11
98.505
 21
1127.153
 31
0.0
  0
LINE
  5
213
330
1E
100
AcDbEntity
  8
0
100
AcDbLine
 10
97.98700000000001
 20
1127.153
 30
0.0
 11
99.91900000000001
 21
1127.153
 31
0.0
  0
LINE
  5
214
330
1E
100
AcDbEntity
  8
0
100
AcDbLine
 10
97.98700000000001
 20
1127.153
 30
0.0
 11
97.98700000000001
 21
1129.153
 31
0.0
  0
LINE
  5
215
330
1E
100
AcDbEntity
  8
0
100
AcDbLine
 10
102.387
 20
1127.153
 30
0.0
 11
104.319
 21
1127.153
 31
0.0
  0
LINE
  5
216
330
1E
100
AcDbEntity
  8
0
100
AcDbLine
 10
102.387
 20
1127.153
 30
0.0
 11
102.387
 21
1129.153
 31
0.0
  0
LINE
  5
217
330
1E
100
AcDbEntity
  8
0
100
AcDbLine
 10
101.869
 20
1127.153
 30
0.0
 11
102.387
 21
1127.153
 31
0.0
  0
LINE
  5
218
330
1E
100
AcDbEntity
  8
0
100
AcDbLine
 10
101.869
 20
1127.153
 30
0.0
 11
103.801
 21
1127.153
 31
0.0
  0
LINE
  5
219
330
1E
100
AcDbEntity
  8
0
100
AcDbLine
 10
101.869
 20
1127.153
 30
0.0
 11
101.869
 21
1129.153
 31
0.0
  0
LINE
  5
21A
330
1E
100
AcDbEntity
  8
0
100
AcDbLine
 10
94.0
 20
1127.153
 30
0.0
 11
94.0
 21
1129.153
 31
0.0
  0
LINE
  5
21B
330
1E
100
AcDbEntity
  8
0
100
AcDbLine
 10
1.99999999999998
 20
1129.153
 30
0.0
 11
5.29999999999999
 21
1129.153
 31
0.0
  0
LINE
  5
21C
330
1E
100
AcDbEntity
  8
0
100
AcDbLine
 10
1.99999999999998
 20
1129.153
 30
0.0
 11
5.29999999999999
 21
1129.153
 31
0.0
  0
LINE
  5
21D
330
1E
100
AcDbEntity
  8
0
100
AcDbLine
 10
5.29999999999999
 20
1129.153
 30
0.0
 11
7.999999999999981
 21
1129.153
 31
0.0
  0
LINE
  5
21E
330
1E
100
AcDbEntity
  8
0
100
AcDbLine
 10
5.29999999999999
 20
1129.153
 30
0.0
 11
14.19999999999999
 21
1129.153
 31
0.0
  0
LINE
  5
21F
330
1E
100
AcDbEntity
  8
0
100
AcDbLine
 10
9.99999999999998
 20
1129.153
 30
0.0
 11
9.99999999999998
 21
1127.153
 31
0.0
  0
LINE
  5
220
330
1E
100
AcDbEntity
  8
0
100
AcDbLine
 10
9.99999999999998
 20
1129.153
 30
0.0
 11
10.637
 21
1129.153
 31
0.0
  0
LINE
  5
221
330
1E
100
AcDbEntity
  8
0
100
AcDbLine
 10
7.999999999999981
 20
1129.153
 30
0.0
 11
7.999999999999981
 21
1127.153
 31
0.0
  0
LINE
  5
222
330
1E
100
AcDbEntity
  8
0
100
AcDbLine
 10
7.999999999999981
 20
1129.153
 30
0.0
 11
9.99999999999998
 21
1129.153
 31
0.0
  0
LINE
  5
223
330
1E
100
AcDbEntity
  8
0
100
AcDbLine
 10
10.637
 20
1129.153
 30
0.0
 11
11.15499999999999
 21
1129.153
 31
0.0
  0
LINE
  5
224
330
1E
100
AcDbEntity
  8
0
100
AcDbLine
 10
10.637
 20
1129.153
 30
0.0
 11
10.637
 21
1127.153
 31
0.0
  0
LINE
  5
225
330
1E
100
AcDbEntity
  8
0
100
AcDbLine
 10
14.19999999999999
 20
1129.153
 30
0.0
 11
18.88799999999999
 21
1129.153
 31
0.0
  0
LINE
  5
226
330
1E
100
AcDbEntity
  8
0
100
AcDbLine
 10
14.19999999999999
 20
1129.153
 30
0.0
 11
28.7
 21
1129.153
 31
0.0
  0
LINE
  5
227
330
1E
100
AcDbEntity
  8
0
100
AcDbLine
 10
13.08699999999999
 20
1129.153
 30
0.0
 11
13.08699999999999
 21
1127.153
 31
0.0
  0
LINE
  5
228
330
1E
100
AcDbEntity
  8
0
100
AcDbLine
 10
13.08699999999999
 20
1129.153
 30
0.0
 11
14.19999999999999
 21
1129.153
 31
0.0
  0
LINE
  5
229
330
1E
100
AcDbEntity
  8
0
100
AcDbLine
 10
11.15499999999999
 20
1129.153
 30
0.0
 11
13.08699999999999
 21
1129.153
 31
0.0
  0
LINE
  5
22A
330
1E
100
AcDbEntity
  8
0
100
AcDbLine
 10
11.15499999999999
 20
1129.153
 30
0.0
 11
11.15499999999999
 21
1127.153
 31
0.0
  0
LINE
  5
22B
330
1E
100
AcDbEntity
  8
0
100
AcDbLine
 10
18.88799999999999
 20
1129.153
 30
0.0
 11
19.88799999999999
 21
1129.153
 31
0.0
  0
LINE
  5
22C
330
1E
100
AcDbEntity
  8
0
100
AcDbLine
 10
18.88799999999999
 20
1129.153
 30
0.0
 11
18.88799999999999
 21
1127.153
 31
0.0
  0
LINE
  5
22D
330
1E
100
AcDbEntity
  8
0
100
AcDbLine
 10
25.0
 20
1129.153
 30
0.0
 11
25.0
 21
1127.153
 31
0.0
  0
LINE
  5
22E
330
1E
100
AcDbEntity
  8
0
100
AcDbLine
 10
25.0
 20
1129.153
 30
0.0
 11
25.12599999999999
 21
1129.153
 31
0.0
  0
LINE
  5
22F
330
1E
100
AcDbEntity
  8
0
100
AcDbLine
 10
23.0
 20
1129.153
 30
0.0
 11
23.0
 21
1127.153
 31
0.0
  0
LINE
  5
230
330
1E
100
AcDbEntity
  8
0
100
AcDbLine
 10
23.0
 20
1129.153
 30
0.0
 11
25.0
 21
1129.153
 31
0.0
  0
LINE
  5
231
330
1E
100
AcDbEntity
  8
0
100
AcDbLine
 10
25.12599999999999
 20
1129.153
 30
0.0
 11
25.644
 21
1129.153
 31
0.0
  0
LINE
  5
232
330
1E
100
AcDbEntity
  8
0
100
AcDbLine
 10
25.12599999999999
 20
1129.153
 30
0.0
 11
25.12599999999999
 21
1127.153
 31
0.0
  0
LINE
  5
233
330
1E
100
AcDbEntity
  8
0
100
AcDbLine
 10
28.7
 20
1129.153
 30
0.0
 11
31.878
 21
1129.153
 31
0.0
  0
LINE
  5
234
330
1E
100
AcDbEntity
  8
0
100
AcDbLine
 10
28.7
 20
1129.153
 30
0.0
 11
47.7
 21
1129.153
 31
0.0
  0
LINE
  5
235
330
1E
100
AcDbEntity
  8
0
100
AcDbLine
 10
27.576
 20
1129.153
 30
0.0
 11
27.576
 21
1127.153
 31
0.0
  0
LINE
  5
236
330
1E
100
AcDbEntity
  8
0
100
AcDbLine
 10
27.576
 20
1129.153
 30
0.0
 11
28.7
 21
1129.153
 31
0.0
  0
LINE
  5
237
330
1E
100
AcDbEntity
  8
0
100
AcDbLine
 10
25.644
 20
1129.153
 30
0.0
 11
27.576
 21
1129.153
 31
0.0
  0
LINE
  5
238
330
1E
100
AcDbEntity
  8
0
100
AcDbLine
 10
25.644
 20
1129.153
 30
0.0
 11
25.644
 21
1127.153
 31
0.0
  0
LINE
  5
239
330
1E
100
AcDbEntity
  8
0
100
AcDbLine
 10
21.62
 20
1129.153
 30
0.0
 11
21.62
 21
1127.153
 31
0.0
  0
LINE
  5
23A
330
1E
100
AcDbEntity
  8
0
100
AcDbLine
 10
21.62
 20
1129.153
 30
0.0
 11
23.0
 21
1129.153
 31
0.0
  0
LINE
  5
23B
330
1E
100
AcDbEntity
  8
0
100
AcDbLine
 10
19.88799999999999
 20
1129.153
 30
0.0
 11
21.62
 21
1129.153
 31
0.0
  0
LINE
  5
23C
330
1E
100
AcDbEntity
  8
0
100
AcDbLine
 10
19.88799999999999
 20
1129.153
 30
0.0
 11
19.88799999999999
 21
1127.153
 31
0.0
  0
LINE
  5
23D
330
1E
100
AcDbEntity
  8
0
100
AcDbLine
 10
31.878
 20
1129.153
 30
0.0
 11
32.189
 21
1129.153
 31
0.0
  0
LINE
  5
23E
330
1E
100
AcDbEntity
  8
0
100
AcDbLine
 10
31.878
 20
1129.153
 30
0.0
 11
31.878
 21
1127.153
 31
0.0
  0
LINE
  5
23F
330
1E
100
AcDbEntity
  8
0
100
AcDbLine
 10
32.189
 20
1129.153
 30
0.0
 11
33.603
 21
1129.153
 31
0.0
  0
LINE
  5
240
330
1E
100
AcDbEntity
  8
0
100
AcDbLine
 10
32.189
 20
1129.153
 30
0.0
 11
32.189
 21
1127.153
 31
0.0
  0
LINE
  5
241
330
1E
100
AcDbEntity
  8
0
100
AcDbLine
 10
38.0
 20
1129.153
 30
0.0
 11
38.0
 21
1127.153
 31
0.0
  0
LINE
  5
242
330
1E
100
AcDbEntity
  8
0
100
AcDbLine
 10
38.0
 20
1129.153
 30
0.0
 11
39.615
 21
1129.153
 31
0.0
  0
LINE
  5
243
330
1E
100
AcDbEntity
  8
0
100
AcDbLine
 10
39.615
 20
1129.153
 30
0.0
 11
40.133
 21
1129.153
 31
0.0
  0
LINE
  5
244
330
1E
100
AcDbEntity
  8
0
100
AcDbLine
 10
39.615
 20
1129.153
 30
0.0
 11
39.615
 21
1127.153
 31
0.0
  0
LINE
  5
245
330
1E
100
AcDbEntity
  8
0
100
AcDbLine
 10
42.065
 20
1129.153
 30
0.0
 11
42.065
 21
1127.153
 31
0.0
  0
LINE
  5
246
330
1E
100
AcDbEntity
  8
0
100
AcDbLine
 10
42.065
 20
1129.153
 30
0.0
 11
42.795
 21
1129.153
 31
0.0
  0
LINE
  5
247
330
1E
100
AcDbEntity
  8
0
100
AcDbLine
 10
40.133
 20
1129.153
 30
0.0
 11
42.065
 21
1129.153
 31
0.0
  0
LINE
  5
248
330
1E
100
AcDbEntity
  8
0
100
AcDbLine
 10
40.133
 20
1129.153
 30
0.0
 11
40.133
 21
1127.153
 31
0.0
  0
LINE
  5
249
330
1E
100
AcDbEntity
  8
0
100
AcDbLine
 10
42.795
 20
1129.153
 30
0.0
 11
44.21
 21
1129.153
 31
0.0
  0
LINE
  5
24A
330
1E
100
AcDbEntity
  8
0
100
AcDbLine
 10
42.795
 20
1129.153
 30
0.0
 11
42.795
 21
1127.153
 31
0.0
  0
LINE
  5
24B
330
1E
100
AcDbEntity
  8
0
100
AcDbLine
 10
44.21
 20
1129.153
 30
0.0
 11
45.62399999999999
 21
1129.153
 31
0.0
  0
LINE
  5
24C
330
1E
100
AcDbEntity
  8
0
100
AcDbLine
 10
44.21
 20
1129.153
 30
0.0
 11
44.21
 21
1127.153
 31
0.0
  0
LINE
  5
24D
330
1E
100
AcDbEntity
  8
0
100
AcDbLine
 10
47.7
 20
1129.153
 30
0.0
 11
49.634
 21
1129.153
 31
0.0
  0
LINE
  5
24E
330
1E
100
AcDbEntity
  8
0
100
AcDbLine
 10
47.7
 20
1129.153
 30
0.0
 11
69.59999999999999
 21
1129.153
 31
0.0
  0
LINE
  5
24F
330
1E
100
AcDbEntity
  8
0
100
AcDbLine
 10
51.36600000000001
 20
1129.153
 30
0.0
 11
52.36600000000001
 21
1129.153
 31
0.0
  0
LINE
  5
250
330
1E
100
AcDbEntity
  8
0
100
AcDbLine
 10
51.36600000000001
 20
1129.153
 30
0.0
 11
51.36600000000001
 21
1127.153
 31
0.0
  0
LINE
  5
251
330
1E
100
AcDbEntity
  8
0
100
AcDbLine
 10
52.36600000000001
 20
1129.153
 30
0.0
 11
52.36600000000001
 21
1127.153
 31
0.0
  0
LINE
  5
252
330
1E
100
AcDbEntity
  8
0
100
AcDbLine
 10
52.36600000000001
 20
1129.153
 30
0.0
 11
53.0
 21
1129.153
 31
0.0
  0
LINE
  5
253
330
1E
100
AcDbEntity
  8
0
100
AcDbLine
 10
53.0
 20
1129.153
 30
0.0
 11
53.402
 21
1129.153
 31
0.0
  0
LINE
  5
254
330
1E
100
AcDbEntity
  8
0
100
AcDbLine
 10
47.601
 20
1129.153
 30
0.0
 11
47.601
 21
1127.153
 31
0.0
  0
LINE
  5
255
330
1E
100
AcDbEntity
  8
0
100
AcDbLine
 10
47.601
 20
1129.153
 30
0.0
 11
47.7
 21
1129.153
 31
0.0
  0
LINE
  5
256
330
1E
100
AcDbEntity
  8
0
100
AcDbLine
 10
45.86899999999999
 20
1129.153
 30
0.0
 11
47.601
 21
1129.153
 31
0.0
  0
LINE
  5
257
330
1E
100
AcDbEntity
  8
0
100
AcDbLine
 10
45.86899999999999
 20
1129.153
 30
0.0
 11
45.86899999999999
 21
1127.153
 31
0.0
  0
LINE
  5
258
330
1E
100
AcDbEntity
  8
0
100
AcDbLine
 10
53.402
 20
1129.153
 30
0.0
 11
54.816
 21
1129.153
 31
0.0
  0
LINE
  5
259
330
1E
100
AcDbEntity
  8
0
100
AcDbLine
 10
53.402
 20
1129.153
 30
0.0
 11
53.402
 21
1127.153
 31
0.0
  0
LINE
  5
25A
330
1E
100
AcDbEntity
  8
0
100
AcDbLine
 10
56.554
 20
1129.153
 30
0.0
 11
56.554
 21
1127.153
 31
0.0
  0
LINE
  5
25B
330
1E
100
AcDbEntity
  8
0
100
AcDbLine
 10
56.554
 20
1129.153
 30
0.0
 11
57.134
 21
1129.153
 31
0.0
  0
LINE
  5
25C
330
1E
100
AcDbEntity
  8
0
100
AcDbLine
 10
57.134
 20
1129.153
 30
0.0
 11
58.86600000000001
 21
1129.153
 31
0.0
  0
LINE
  5
25D
330
1E
100
AcDbEntity
  8
0
100
AcDbLine
 10
57.134
 20
1129.153
 30
0.0
 11
57.134
 21
1127.153
 31
0.0
  0
LINE
  5
25E
330
1E
100
AcDbEntity
  8
0
100
AcDbLine
 10
58.86600000000001
 20
1129.153
 30
0.0
 11
59.86600000000001
 21
1129.153
 31
0.0
  0
LINE
  5
25F
330
1E
100
AcDbEntity
  8
0
100
AcDbLine
 10
58.86600000000001
 20
1129.153
 30
0.0
 11
58.86600000000001
 21
1127.153
 31
0.0
  0
LINE
  5
260
330
1E
100
AcDbEntity
  8
0
100
AcDbLine
 10
60.591
 20
1129.153
 30
0.0
 11
60.591
 21
1127.153
 31
0.0
  0
LINE
  5
261
330
1E
100
AcDbEntity
  8
0
100
AcDbLine
 10
60.591
 20
1129.153
 30
0.0
 11
64.0090000000001
 21
1129.153
 31
0.0
  0
LINE
  5
262
330
1E
100
AcDbEntity
  8
0
100
AcDbLine
 10
64.634
 20
1129.153
 30
0.0
 11
66.366
 21
1129.153
 31
0.0
  0
LINE
  5
263
330
1E
100
AcDbEntity
  8
0
100
AcDbLine
 10
64.634
 20
1129.153
 30
0.0
 11
64.634
 21
1127.153
 31
0.0
  0
LINE
  5
264
330
1E
100
AcDbEntity
  8
0
100
AcDbLine
 10
68.0
 20
1129.153
 30
0.0
 11
68.0
 21
1127.153
 31
0.0
  0
LINE
  5
265
330
1E
100
AcDbEntity
  8
0
100
AcDbLine
 10
68.0
 20
1129.153
 30
0.0
 11
68.59300000000001
 21
1129.153
 31
0.0
  0
LINE
  5
266
330
1E
100
AcDbEntity
  8
0
100
AcDbLine
 10
66.366
 20
1129.153
 30
0.0
 11
67.366
 21
1129.153
 31
0.0
  0
LINE
  5
267
330
1E
100
AcDbEntity
  8
0
100
AcDbLine
 10
66.366
 20
1129.153
 30
0.0
 11
66.366
 21
1127.153
 31
0.0
  0
LINE
  5
268
330
1E
100
AcDbEntity
  8
0
100
AcDbLine
 10
67.366
 20
1129.153
 30
0.0
 11
67.366
 21
1127.153
 31
0.0
  0
LINE
  5
269
330
1E
100
AcDbEntity
  8
0
100
AcDbLine
 10
67.366
 20
1129.153
 30
0.0
 11
68.0
 21
1129.153
 31
0.0
  0
LINE
  5
26A
330
1E
100
AcDbEntity
  8
0
100
AcDbLine
 10
59.86600000000001
 20
1129.153
 30
0.0
 11
59.86600000000001
 21
1127.153
 31
0.0
  0
LINE
  5
26B
330
1E
100
AcDbEntity
  8
0
100
AcDbLine
 10
59.86600000000001
 20
1129.153
 30
0.0
 11
60.591
 21
1129.153
 31
0.0
  0
LINE
  5
26C
330
1E
100
AcDbEntity
  8
0
100
AcDbLine
 10
64.0090000000001
 20
1129.153
 30
0.0
 11
64.634
 21
1129.153
 31
0.0
  0
LINE
  5
26D
330
1E
100
AcDbEntity
  8
0
100
AcDbLine
 10
64.0090000000001
 20
1129.153
 30
0.0
 11
64.0090000000001
 21
1127.153
 31
0.0
  0
LINE
  5
26E
330
1E
100
AcDbEntity
  8
0
100
AcDbLine
 10
54.816
 20
1129.153
 30
0.0
 11
56.23
 21
1129.153
 31
0.0
  0
LINE
  5
26F
330
1E
100
AcDbEntity
  8
0
100
AcDbLine
 10
54.816
 20
1129.153
 30
0.0
 11
54.816
 21
1127.153
 31
0.0
  0
LINE
  5
270
330
1E
100
AcDbEntity
  8
0
100
AcDbLine
 10
56.23
 20
1129.153
 30
0.0
 11
56.23
 21
1127.153
 31
0.0
  0
LINE
  5
271
330
1E
100
AcDbEntity
  8
0
100
AcDbLine
 10
56.23
 20
1129.153
 30
0.0
 11
56.554
 21
1129.153
 31
0.0
  0
LINE
  5
272
330
1E
100
AcDbEntity
  8
0
100
AcDbLine
 10
45.62399999999999
 20
1129.153
 30
0.0
 11
45.62399999999999
 21
1127.153
 31
0.0
  0
LINE
  5
273
330
1E
100
AcDbEntity
  8
0
100
AcDbLine
 10
45.62399999999999
 20
1129.153
 30
0.0
 11
45.86899999999999
 21
1129.153
 31
0.0
  0
LINE
  5
274
330
1E
100
AcDbEntity
  8
0
100
AcDbLine
 10
68.59300000000001
 20
1129.153
 30
0.0
 11
69.11100000000001
 21
1129.153
 31
0.0
  0
LINE
  5
275
330
1E
100
AcDbEntity
  8
0
100
AcDbLine
 10
68.59300000000001
 20
1129.153
 30
0.0
 11
68.59300000000001
 21
1127.153
 31
0.0
  0
LINE
  5
276
330
1E
100
AcDbEntity
  8
0
100
AcDbLine
 10
69.59999999999999
 20
1129.153
 30
0.0
 11
93.0
 21
1129.153
 31
0.0
  0
LINE
  5
277
330
1E
100
AcDbEntity
  8
0
100
AcDbLine
 10
70.03399999999999
 20
1129.153
 30
0.0
 11
71.966
 21
1129.153
 31
0.0
  0
LINE
  5
278
330
1E
100
AcDbEntity
  8
0
100
AcDbLine
 10
70.03399999999999
 20
1129.153
 30
0.0
 11
70.03399999999999
 21
1127.153
 31
0.0
  0
LINE
  5
279
330
1E
100
AcDbEntity
  8
0
100
AcDbLine
 10
71.966
 20
1129.153
 30
0.0
 11
72.484
 21
1129.153
 31
0.0
  0
LINE
  5
27A
330
1E
100
AcDbEntity
  8
0
100
AcDbLine
 10
71.966
 20
1129.153
 30
0.0
 11
71.966
 21
1127.153
 31
0.0
  0
LINE
  5
27B
330
1E
100
AcDbEntity
  8
0
100
AcDbLine
 10
73.917
 20
1129.153
 30
0.0
 11
75.84899999999999
 21
1129.153
 31
0.0
  0
LINE
  5
27C
330
1E
100
AcDbEntity
  8
0
100
AcDbLine
 10
73.917
 20
1129.153
 30
0.0
 11
73.917
 21
1127.153
 31
0.0
  0
LINE
  5
27D
330
1E
100
AcDbEntity
  8
0
100
AcDbLine
 10
75.84899999999999
 20
1129.153
 30
0.0
 11
76.366
 21
1129.153
 31
0.0
  0
LINE
  5
27E
330
1E
100
AcDbEntity
  8
0
100
AcDbLine
 10
75.84899999999999
 20
1129.153
 30
0.0
 11
75.84899999999999
 21
1127.153
 31
0.0
  0
LINE
  5
27F
330
1E
100
AcDbEntity
  8
0
100
AcDbLine
 10
72.484
 20
1129.153
 30
0.0
 11
73.866
 21
1129.153
 31
0.0
  0
LINE
  5
280
330
1E
100
AcDbEntity
  8
0
100
AcDbLine
 10
72.484
 20
1129.153
 30
0.0
 11
72.484
 21
1127.153
 31
0.0
  0
LINE
  5
281
330
1E
100
AcDbEntity
  8
0
100
AcDbLine
 10
73.866
 20
1129.153
 30
0.0
 11
73.917
 21
1129.153
 31
0.0
  0
LINE
  5
282
330
1E
100
AcDbEntity
  8
0
100
AcDbLine
 10
73.866
 20
1129.153
 30
0.0
 11
73.866
 21
1127.153
 31
0.0
  0
LINE
  5
283
330
1E
100
AcDbEntity
  8
0
100
AcDbLine
 10
76.366
 20
1129.153
 30
0.0
 11
77.444
 21
1129.153
 31
0.0
  0
LINE
  5
284
330
1E
100
AcDbEntity
  8
0
100
AcDbLine
 10
76.366
 20
1129.153
 30
0.0
 11
76.366
 21
1127.153
 31
0.0
  0
LINE
  5
285
330
1E
100
AcDbEntity
  8
0
100
AcDbLine
 10
77.444
 20
1129.153
 30
0.0
 11
77.444
 21
1127.153
 31
0.0
  0
LINE
  5
286
330
1E
100
AcDbEntity
  8
0
100
AcDbLine
 10
77.444
 20
1129.153
 30
0.0
 11
77.79899999999999
 21
1129.153
 31
0.0
  0
LINE
  5
287
330
1E
100
AcDbEntity
  8
0
100
AcDbLine
 10
77.79899999999999
 20
1129.153
 30
0.0
 11
79.73100000000001
 21
1129.153
 31
0.0
  0
LINE
  5
288
330
1E
100
AcDbEntity
  8
0
100
AcDbLine
 10
77.79899999999999
 20
1129.153
 30
0.0
 11
77.79899999999999
 21
1127.153
 31
0.0
  0
LINE
  5
289
330
1E
100
AcDbEntity
  8
0
100
AcDbLine
 10
79.73100000000001
 20
1129.153
 30
0.0
 11
80.249
 21
1129.153
 31
0.0
  0
LINE
  5
28A
330
1E
100
AcDbEntity
  8
0
100
AcDbLine
 10
79.73100000000001
 20
1129.153
 30
0.0
 11
79.73100000000001
 21
1127.153
 31
0.0
  0
LINE
  5
28B
330
1E
100
AcDbEntity
  8
0
100
AcDbLine
 10
69.11100000000001
 20
1129.153
 30
0.0
 11
70.03399999999999
 21
1129.153
 31
0.0
  0
LINE
  5
28C
330
1E
100
AcDbEntity
  8
0
100
AcDbLine
 10
69.11100000000001
 20
1129.153
 30
0.0
 11
69.11100000000001
 21
1127.153
 31
0.0
  0
LINE
  5
28D
330
1E
100
AcDbEntity
  8
0
100
AcDbLine
 10
80.249
 20
1129.153
 30
0.0
 11
81.36599999999999
 21
1129.153
 31
0.0
  0
LINE
  5
28E
330
1E
100
AcDbEntity
  8
0
100
AcDbLine
 10
80.249
 20
1129.153
 30
0.0
 11
80.249
 21
1127.153
 31
0.0
  0
LINE
  5
28F
330
1E
100
AcDbEntity
  8
0
100
AcDbLine
 10
81.681
 20
1129.153
 30
0.0
 11
83.61299999999999
 21
1129.153
 31
0.0
  0
LINE
  5
290
330
1E
100
AcDbEntity
  8
0
100
AcDbLine
 10
81.681
 20
1129.153
 30
0.0
 11
81.681
 21
1127.153
 31
0.0
  0
LINE
  5
291
330
1E
100
AcDbEntity
  8
0
100
AcDbLine
 10
85.56400000000008
 20
1129.153
 30
0.0
 11
87.49500000000001
 21
1129.153
 31
0.0
  0
LINE
  5
292
330
1E
100
AcDbEntity
  8
0
100
AcDbLine
 10
85.56400000000008
 20
1129.153
 30
0.0
 11
85.56400000000008
 21
1127.153
 31
0.0
  0
LINE
  5
293
330
1E
100
AcDbEntity
  8
0
100
AcDbLine
 10
87.49500000000001
 20
1129.153
 30
0.0
 11
88.0129999999999
 21
1129.153
 31
0.0
  0
LINE
  5
294
330
1E
100
AcDbEntity
  8
0
100
AcDbLine
 10
87.49500000000001
 20
1129.153
 30
0.0
 11
87.49500000000001
 21
1127.153
 31
0.0
  0
LINE
  5
295
330
1E
100
AcDbEntity
  8
0
100
AcDbLine
 10
88.0129999999999
 20
1129.153
 30
0.0
 11
88.0129999999999
 21
1127.153
 31
0.0
  0
LINE
  5
296
330
1E
100
AcDbEntity
  8
0
100
AcDbLine
 10
88.0129999999999
 20
1129.153
 30
0.0
 11
92.0
 21
1129.153
 31
0.0
  0
LINE
  5
297
330
1E
100
AcDbEntity
  8
0
100
AcDbLine
 10
83.61299999999999
 20
1129.153
 30
0.0
 11
84.13099999999991
 21
1129.153
 31
0.0
  0
LINE
  5
298
330
1E
100
AcDbEntity
  8
0
100
AcDbLine
 10
83.61299999999999
 20
1129.153
 30
0.0
 11
83.61299999999999
 21
1127.153
 31
0.0
  0
LINE
  5
299
330
1E
100
AcDbEntity
  8
0
100
AcDbLine
 10
84.13099999999991
 20
1129.153
 30
0.0
 11
84.13099999999991
 21
1127.153
 31
0.0
  0
LINE
  5
29A
330
1E
100
AcDbEntity
  8
0
100
AcDbLine
 10
84.13099999999991
 20
1129.153
 30
0.0
 11
85.56400000000008
 21
1129.153
 31
0.0
  0
LINE
  5
29B
330
1E
100
AcDbEntity
  8
0
100
AcDbLine
 10
81.36599999999999
 20
1129.153
 30
0.0
 11
81.681
 21
1129.153
 31
0.0
  0
LINE
  5
29C
330
1E
100
AcDbEntity
  8
0
100
AcDbLine
 10
81.36599999999999
 20
1129.153
 30
0.0
 11
81.36599999999999
 21
1127.153
 31
0.0
  0
LINE
  5
29D
330
1E
100
AcDbEntity
  8
0
100
AcDbLine
 10
49.634
 20
1129.153
 30
0.0
 11
49.634
 21
1127.153
 31
0.0
  0
LINE
  5
29E
330
1E
100
AcDbEntity
  8
0
100
AcDbLine
 10
49.634
 20
1129.153
 30
0.0
 11
51.36600000000001
 21
1129.153
 31
0.0
  0
LINE
  5
29F
330
1E
100
AcDbEntity
  8
0
100
AcDbLine
 10
33.603
 20
1129.153
 30
0.0
 11
35.01699999999999
 21
1129.153
 31
0.0
  0
LINE
  5
2A0
330
1E
100
AcDbEntity
  8
0
100
AcDbLine
 10
-0.0000000000000222
 20
1131.153
 30
0.0
 11
3.399999999999959
 21
1131.153
 31
0.0
  0
LINE
  5
2A1
330
1E
100
AcDbEntity
  8
0
100
AcDbLine
 10
-0.0000000000000222
 20
1131.153
 30
0.0
 11
1.99999999999998
 21
1129.153
 31
0.0
  0
LINE
  5
2A2
330
1E
100
AcDbEntity
  8
0
100
AcDbLine
 10
-0.0000000000000223
 20
1131.153
 30
0.0
 11
-0.0000000000000221
 21
1133.153
 31
0.0
  0
LINE
  5
2A3
330
1E
100
AcDbEntity
  8
0
100
AcDbLine
 10
-0.0000000000000223
 20
1131.153
 30
0.0
 11
1.99999999999998
 21
1129.153
 31
0.0
  0
LINE
  5
2A4
330
1E
100
AcDbEntity
  8
0
100
AcDbLine
 10
-0.0000000000000223
 20
1131.153
 30
0.0
 11
3.399999999999959
 21
1131.153
 31
0.0
  0
LINE
  5
2A5
330
1E
100
AcDbEntity
  8
0
100
AcDbLine
 10
3.399999999999959
 20
1131.153
 30
0.0
 11
12.5
 21
1131.153
 31
0.0
  0
LINE
  5
2A6
330
1E
100
AcDbEntity
  8
0
100
AcDbLine
 10
-0.0000000000000221
 20
1133.153
 30
0.0
 11
1.99999999999998
 21
1154.152999999999
 31
0.0
  0
LINE
  5
2A7
330
1E
100
AcDbEntity
  8
0
100
AcDbLine
 10
-0.0000000000000222
 20
1133.153
 30
0.0
 11
1.99999999999998
 21
1154.152999999999
 31
0.0
  0
LINE
  5
2A8
330
1E
100
AcDbEntity
  8
0
100
AcDbLine
 10
1.99999999999998
 20
1154.152999999999
 30
0.0
 11
3.999999999999979
 21
1159.153
 31
0.0
  0
LINE
  5
2A9
330
1E
100
AcDbEntity
  8
0
100
AcDbLine
 10
12.5
 20
1131.153
 30
0.0
 11
27.3
 21
1131.153
 31
0.0
  0
LINE
  5
2AA
330
1E
100
AcDbEntity
  8
0
100
AcDbLine
 10
27.3
 20
1131.153
 30
0.0
 11
46.7
 21
1131.153
 31
0.0
  0
LINE
  5
2AB
330
1E
100
AcDbEntity
  8
0
100
AcDbLine
 10
46.7
 20
1131.153
 30
0.0
 11
69.0
 21
1131.153
 31
0.0
  0
LINE
  5
2AC
330
1E
100
AcDbEntity
  8
0
100
AcDbLine
 10
3.999999999999979
 20
1159.153
 30
0.0
 11
7.999999999999981
 21
1162.152999999999
 31
0.0
  0
LINE
  5
2AD
330
1E
100
AcDbEntity
  8
0
100
AcDbLine
 10
7.999999999999981
 20
1162.152999999999
 30
0.0
 11
61.0
 21
1173.153
 31
0.0
  0
LINE
  5
2AE
330
1E
100
AcDbEntity
  8
0
100
AcDbLine
 10
69.0
 20
1131.153
 30
0.0
 11
93.0
 21
1131.153
 31
0.0
  0
LINE
  5
2AF
330
1E
100
AcDbEntity
  8
0
100
AcDbLine
 10
61.0
 20
1173.153
 30
0.0
 11
66.0
 21
1176.153
 31
0.0
  0
LINE
  5
2B0
330
1E
100
AcDbEntity
  8
0
100
AcDbLine
 10
69.0
 20
1179.153
 30
0.0
 11
69.89999999999989
 21
1179.153
 31
0.0
  0
LINE
  5
2B1
330
1E
100
AcDbEntity
  8
0
100
AcDbLine
 10
69.89999999999989
 20
1179.153
 30
0.0
 11
72.2
 21
1179.153
 31
0.0
  0
LINE
  5
2B2
330
1E
100
AcDbEntity
  8
0
100
AcDbLine
 10
72.2
 20
1179.153
 30
0.0
 11
76.09999999999999
 21
1179.153
 31
0.0
  0
LINE
  5
2B3
330
1E
100
AcDbEntity
  8
0
100
AcDbLine
 10
76.09999999999999
 20
1179.153
 30
0.0
 11
81.09999999999999
 21
1179.153
 31
0.0
  0
LINE
  5
2B4
330
1E
100
AcDbEntity
  8
0
100
AcDbLine
 10
83.0
 20
1184.153
 30
0.0
 11
83.3999999999999
 21
1184.153
 31
0.0
  0
LINE
  5
2B5
330
1E
100
AcDbEntity
  8
0
100
AcDbLine
 10
83.0
 20
1184.153
 30
0.0
 11
83.0
 21
1179.153
 31
0.0
  0
LINE
  5
2B6
330
1E
100
AcDbEntity
  8
0
100
AcDbLine
 10
81.09999999999999
 20
1179.153
 30
0.0
 11
86.79999999999999
 21
1179.153
 31
0.0
  0
LINE
  5
2B7
330
1E
100
AcDbEntity
  8
0
100
AcDbLine
 10
66.0
 20
1176.153
 30
0.0
 11
69.0
 21
1179.153
 31
0.0
  0
LINE
  5
2B8
330
1E
100
AcDbEntity
  8
0
100
AcDbLine
 10
83.3999999999999
 20
1184.153
 30
0.0
 11
84.29999999999999
 21
1184.153
 31
0.0
  0
LINE
  5
2B9
330
1E
100
AcDbEntity
  8
0
100
AcDbLine
 10
83.0
 20
1179.153
 30
0.0
 11
83.0
 21
1184.153
 31
0.0
  0
LINE
  5
2BA
330
1E
100
AcDbEntity
  8
0
100
AcDbLine
 10
83.0
 20
1187.153
 30
0.0
 11
83.0
 21
1189.153
 31
0.0
  0
LINE
  5
2BB
330
1E
100
AcDbEntity
  8
0
100
AcDbLine
 10
83.0
 20
1187.153
 30
0.0
 11
83.3999999999999
 21
1187.153
 31
0.0
  0
LINE
  5
2BC
330
1E
100
AcDbEntity
  8
0
100
AcDbLine
 10
84.29999999999999
 20
1184.153
 30
0.0
 11
85.90000000000001
 21
1184.153
 31
0.0
  0
LINE
  5
2BD
330
1E
100
AcDbEntity
  8
0
100
AcDbLine
 10
85.90000000000001
 20
1184.153
 30
0.0
 11
88.0
 21
1184.153
 31
0.0
  0
LINE
  5
2BE
330
1E
100
AcDbEntity
  8
0
100
AcDbLine
 10
83.3999999999999
 20
1187.153
 30
0.0
 11
84.29999999999999
 21
1187.153
 31
0.0
  0
LINE
  5
2BF
330
1E
100
AcDbEntity
  8
0
100
AcDbLine
 10
84.29999999999999
 20
1187.153
 30
0.0
 11
85.90000000000001
 21
1187.153
 31
0.0
  0
LINE
  5
2C0
330
1E
100
AcDbEntity
  8
0
100
AcDbLine
 10
88.0
 20
1184.153
 30
0.0
 11
90.4
 21
1184.153
 31
0.0
  0
LINE
  5
2C1
330
1E
100
AcDbEntity
  8
0
100
AcDbLine
 10
90.4
 20
1184.153
 30
0.0
 11
93.0
 21
1184.153
 31
0.0
  0
LINE
  5
2C2
330
1E
100
AcDbEntity
  8
0
100
AcDbLine
 10
86.79999999999999
 20
1179.153
 30
0.0
 11
93.0
 21
1179.153
 31
0.0
  0
LINE
  5
2C3
330
1E
100
AcDbEntity
  8
0
100
AcDbLine
 10
86.0
 20
1187.153
 30
0.0
 11
86.3
 21
1187.153
 31
0.0
  0
LINE
  5
2C4
330
1E
100
AcDbEntity
  8
0
100
AcDbLine
 10
86.0
 20
1187.153
 30
0.0
 11
86.0
 21
1184.153
 31
0.0
  0
LINE
  5
2C5
330
1E
100
AcDbEntity
  8
0
100
AcDbLine
 10
86.3
 20
1187.153
 30
0.0
 11
86.8999999999999
 21
1187.153
 31
0.0
  0
LINE
  5
2C6
330
1E
100
AcDbEntity
  8
0
100
AcDbLine
 10
86.8999999999999
 20
1187.153
 30
0.0
 11
88.1
 21
1187.153
 31
0.0
  0
LINE
  5
2C7
330
1E
100
AcDbEntity
  8
0
100
AcDbLine
 10
88.1
 20
1187.153
 30
0.0
 11
89.50000000000001
 21
1187.153
 31
0.0
  0
LINE
  5
2C8
330
1E
100
AcDbEntity
  8
0
100
AcDbLine
 10
89.50000000000001
 20
1187.153
 30
0.0
 11
91.2
 21
1187.153
 31
0.0
  0
LINE
  5
2C9
330
1E
100
AcDbEntity
  8
0
100
AcDbLine
 10
88.0
 20
1187.153
 30
0.0
 11
90.4
 21
1187.153
 31
0.0
  0
LINE
  5
2CA
330
1E
100
AcDbEntity
  8
0
100
AcDbLine
 10
91.2
 20
1187.153
 30
0.0
 11
93.0
 21
1187.153
 31
0.0
  0
LINE
  5
2CB
330
1E
100
AcDbEntity
  8
0
100
AcDbLine
 10
90.4
 20
1187.153
 30
0.0
 11
93.0
 21
1187.153
 31
0.0
  0
LINE
  5
2CC
330
1E
100
AcDbEntity
  8
0
100
AcDbLine
 10
86.0
 20
1184.153
 30
0.0
 11
86.0
 21
1187.153
 31
0.0
  0
LINE
  5
2CD
330
1E
100
AcDbEntity
  8
0
100
AcDbLine
 10
85.90000000000001
 20
1187.153
 30
0.0
 11
86.0
 21
1187.153
 31
0.0
  0
LINE
  5
2CE
330
1E
100
AcDbEntity
  8
0
100
AcDbLine
 10
85.90000000000001
 20
1187.153
 30
0.0
 11
88.0
 21
1187.153
 31
0.0
  0
LINE
  5
2CF
330
1E
100
AcDbEntity
  8
0
100
AcDbLine
 10
35.01699999999999
 20
1129.153
 30
0.0
 11
35.01699999999999
 21
1127.153
 31
0.0
  0
LINE
  5
2D0
330
1E
100
AcDbEntity
  8
0
100
AcDbLine
 10
35.01699999999999
 20
1129.153
 30
0.0
 11
38.0
 21
1129.153
 31
0.0
  0
LINE
  5
2D1
330
1E
100
AcDbEntity
  8
0
100
AcDbLine
 10
93.0
 20
1129.153
 30
0.0
 11
116.4
 21
1129.153
 31
0.0
  0
LINE
  5
2D2
330
1E
100
AcDbEntity
  8
0
100
AcDbLine
 10
94.0
 20
1129.153
 30
0.0
 11
94.0
 21
1127.153
 31
0.0
  0
LINE
  5
2D3
330
1E
100
AcDbEntity
  8
0
100
AcDbLine
 10
94.0
 20
1129.153
 30
0.0
 11
97.98700000000001
 21
1129.153
 31
0.0
  0
LINE
  5
2D4
330
1E
100
AcDbEntity
  8
0
100
AcDbLine
 10
102.387
 20
1129.153
 30
0.0
 11
102.387
 21
1127.153
 31
0.0
  0
LINE
  5
2D5
330
1E
100
AcDbEntity
  8
0
100
AcDbLine
 10
102.387
 20
1129.153
 30
0.0
 11
104.319
 21
1129.153
 31
0.0
  0
LINE
  5
2D6
330
1E
100
AcDbEntity
  8
0
100
AcDbLine
 10
100.436
 20
1129.153
 30
0.0
 11
100.436
 21
1127.153
 31
0.0
  0
LINE
  5
2D7
330
1E
100
AcDbEntity
  8
0
100
AcDbLine
 10
100.436
 20
1129.153
 30
0.0
 11
101.869
 21
1129.153
 31
0.0
  0
LINE
  5
2D8
330
1E
100
AcDbEntity
  8
0
100
AcDbLine
 10
98.505
 20
1129.153
 30
0.0
 11
98.505
 21
1127.153
 31
0.0
  0
LINE
  5
2D9
330
1E
100
AcDbEntity
  8
0
100
AcDbLine
 10
98.505
 20
1129.153
 30
0.0
 11
100.436
 21
1129.153
 31
0.0
  0
LINE
  5
2DA
330
1E
100
AcDbEntity
  8
0
100
AcDbLine
 10
97.98700000000001
 20
1129.153
 30
0.0
 11
97.98700000000001
 21
1127.153
 31
0.0
  0
LINE
  5
2DB
330
1E
100
AcDbEntity
  8
0
100
AcDbLine
 10
97.98700000000001
 20
1129.153
 30
0.0
 11
98.505
 21
1129.153
 31
0.0
  0
LINE
  5
2DC
330
1E
100
AcDbEntity
  8
0
100
AcDbLine
 10
93.0
 20
1184.153
 30
0.0
 11
95.6
 21
1184.153
 31
0.0
  0
LINE
  5
2DD
330
1E
100
AcDbEntity
  8
0
100
AcDbLine
 10
93.0
 20
1187.153
 30
0.0
 11
95.6
 21
1187.153
 31
0.0
  0
LINE
  5
2DE
330
1E
100
AcDbEntity
  8
0
100
AcDbLine
 10
93.0
 20
1187.153
 30
0.0
 11
94.8
 21
1187.153
 31
0.0
  0
LINE
  5
2DF
330
1E
100
AcDbEntity
  8
0
100
AcDbLine
 10
93.0
 20
1131.153
 30
0.0
 11
117.0
 21
1131.153
 31
0.0
  0
LINE
  5
2E0
330
1E
100
AcDbEntity
  8
0
100
AcDbLine
 10
103.0
 20
1179.153
 30
0.0
 11
103.0
 21
1184.153
 31
0.0
  0
LINE
  5
2E1
330
1E
100
AcDbEntity
  8
0
100
AcDbLine
 10
95.6
 20
1184.153
 30
0.0
 11
98.0
 21
1184.153
 31
0.0
  0
LINE
  5
2E2
330
1E
100
AcDbEntity
  8
0
100
AcDbLine
 10
98.0
 20
1184.153
 30
0.0
 11
100.0999999999999
 21
1184.153
 31
0.0
  0
LINE
  5
2E3
330
1E
100
AcDbEntity
  8
0
100
AcDbLine
 10
97.9
 20
1187.153
 30
0.0
 11
99.1
 21
1187.153
 31
0.0
  0
LINE
  5
2E4
330
1E
100
AcDbEntity
  8
0
100
AcDbLine
 10
96.5
 20
1187.153
 30
0.0
 11
97.9
 21
1187.153
 31
0.0
  0
LINE
  5
2E5
330
1E
100
AcDbEntity
  8
0
100
AcDbLine
 10
94.8
 20
1187.153
 30
0.0
 11
96.5
 21
1187.153
 31
0.0
  0
LINE
  5
2E6
330
1E
100
AcDbEntity
  8
0
100
AcDbLine
 10
100.0
 20
1184.153
 30
0.0
 11
100.0
 21
1187.153
 31
0.0
  0
LINE
  5
2E7
330
1E
100
AcDbEntity
  8
0
100
AcDbLine
 10
99.7
 20
1187.153
 30
0.0
 11
100.0
 21
1187.153
 31
0.0
  0
LINE
  5
2E8
330
1E
100
AcDbEntity
  8
0
100
AcDbLine
 10
99.1
 20
1187.153
 30
0.0
 11
99.7
 21
1187.153
 31
0.0
  0
LINE
  5
2E9
330
1E
100
AcDbEntity
  8
0
100
AcDbLine
 10
98.0
 20
1187.153
 30
0.0
 11
100.0999999999999
 21
1187.153
 31
0.0
  0
LINE
  5
2EA
330
1E
100
AcDbEntity
  8
0
100
AcDbLine
 10
95.6
 20
1187.153
 30
0.0
 11
98.0
 21
1187.153
 31
0.0
  0
LINE
  5
2EB
330
1E
100
AcDbEntity
  8
0
100
AcDbLine
 10
101.7
 20
1184.153
 30
0.0
 11
102.6
 21
1184.153
 31
0.0
  0
LINE
  5
2EC
330
1E
100
AcDbEntity
  8
0
100
AcDbLine
 10
100.0999999999999
 20
1184.153
 30
0.0
 11
101.7
 21
1184.153
 31
0.0
  0
LINE
  5
2ED
330
1E
100
AcDbEntity
  8
0
100
AcDbLine
 10
102.6
 20
1184.153
 30
0.0
 11
103.0
 21
1184.153
 31
0.0
  0
LINE
  5
2EE
330
1E
100
AcDbEntity
  8
0
100
AcDbLine
 10
103.0
 20
1187.153
 30
0.0
 11
103.0
 21
1189.153
 31
0.0
  0
LINE
  5
2EF
330
1E
100
AcDbEntity
  8
0
100
AcDbLine
 10
103.0
 20
1184.153
 30
0.0
 11
103.0
 21
1179.153
 31
0.0
  0
LINE
  5
2F0
330
1E
100
AcDbEntity
  8
0
100
AcDbLine
 10
102.6
 20
1187.153
 30
0.0
 11
103.0
 21
1187.153
 31
0.0
  0
LINE
  5
2F1
330
1E
100
AcDbEntity
  8
0
100
AcDbLine
 10
101.7
 20
1187.153
 30
0.0
 11
102.6
 21
1187.153
 31
0.0
  0
LINE
  5
2F2
330
1E
100
AcDbEntity
  8
0
100
AcDbLine
 10
100.0999999999999
 20
1187.153
 30
0.0
 11
101.7
 21
1187.153
 31
0.0
  0
LINE
  5
2F3
330
1E
100
AcDbEntity
  8
0
100
AcDbLine
 10
100.0
 20
1187.153
 30
0.0
 11
100.0999999999999
 21
1187.153
 31
0.0
  0
LINE
  5
2F4
330
1E
100
AcDbEntity
  8
0
100
AcDbLine
 10
100.0
 20
1187.153
 30
0.0
 11
100.0
 21
1184.153
 31
0.0
  0
LINE
  5
2F5
330
1E
100
AcDbEntity
  8
0
100
AcDbLine
 10
99.20000000000001
 20
1179.153
 30
0.0
 11
104.9
 21
1179.153
 31
0.0
  0
LINE
  5
2F6
330
1E
100
AcDbEntity
  8
0
100
AcDbLine
 10
93.0
 20
1179.153
 30
0.0
 11
99.20000000000001
 21
1179.153
 31
0.0
  0
LINE
  5
2F7
330
1E
100
AcDbEntity
  8
0
100
AcDbLine
 10
101.869
 20
1129.153
 30
0.0
 11
101.869
 21
1127.153
 31
0.0
  0
LINE
  5
2F8
330
1E
100
AcDbEntity
  8
0
100
AcDbLine
 10
101.869
 20
1129.153
 30
0.0
 11
102.387
 21
1129.153
 31
0.0
  0
LINE
  5
2F9
330
1E
100
AcDbEntity
  8
0
100
AcDbLine
 10
92.0
 20
1129.153
 30
0.0
 11
92.0
 21
1127.153
 31
0.0
  0
LINE
  5
2FA
330
1E
100
AcDbEntity
  8
0
100
AcDbLine
 10
92.0
 20
1129.153
 30
0.0
 11
94.0
 21
1129.153
 31
0.0
  0
LINE
  5
2FB
330
1E
100
AcDbEntity
  8
0
100
AcDbLine
 10
92.0
 20
1127.153
 30
0.0
 11
92.0
 21
1129.153
 31
0.0
  0
LINE
  5
2FC
330
1E
100
AcDbEntity
  8
0
100
AcDbLine
 10
92.0
 20
1127.153
 30
0.0
 11
94.0
 21
1127.153
 31
0.0
  0
LINE
  5
2FD
330
1E
100
AcDbEntity
  8
0
100
AcDbLine
 10
104.319
 20
1127.153
 30
0.0
 11
104.319
 21
1129.153
 31
0.0
  0
LINE
  5
2FE
330
1E
100
AcDbEntity
  8
0
100
AcDbLine
 10
105.366
 20
1127.153
 30
0.0
 11
106.366
 21
1127.153
 31
0.0
  0
LINE
  5
2FF
330
1E
100
AcDbEntity
  8
0
100
AcDbLine
 10
104.634
 20
1127.153
 30
0.0
 11
106.366
 21
1127.153
 31
0.0
  0
LINE
  5
300
330
1E
100
AcDbEntity
  8
0
100
AcDbLine
 10
104.634
 20
1127.153
 30
0.0
 11
104.634
 21
1129.153
 31
0.0
  0
LINE
  5
301
330
1E
100
AcDbEntity
  8
0
100
AcDbLine
 10
103.634
 20
1127.153
 30
0.0
 11
104.634
 21
1127.153
 31
0.0
  0
LINE
  5
302
330
1E
100
AcDbEntity
  8
0
100
AcDbLine
 10
103.634
 20
1127.153
 30
0.0
 11
105.366
 21
1127.153
 31
0.0
  0
LINE
  5
303
330
1E
100
AcDbEntity
  8
0
100
AcDbLine
 10
103.801
 20
1127.153
 30
0.0
 11
104.319
 21
1127.153
 31
0.0
  0
LINE
  5
304
330
1E
100
AcDbEntity
  8
0
100
AcDbLine
 10
108.201
 20
1127.153
 30
0.0
 11
108.201
 21
1129.153
 31
0.0
  0
LINE
  5
305
330
1E
100
AcDbEntity
  8
0
100
AcDbLine
 10
109.9709999999999
 20
1127.153
 30
0.0
 11
111.385
 21
1127.153
 31
0.0
  0
LINE
  5
306
330
1E
100
AcDbEntity
  8
0
100
AcDbLine
 10
108.556
 20
1127.153
 30
0.0
 11
109.9709999999999
 21
1127.153
 31
0.0
  0
LINE
  5
307
330
1E
100
AcDbEntity
  8
0
100
AcDbLine
 10
108.556
 20
1127.153
 30
0.0
 11
108.556
 21
1129.153
 31
0.0
  0
LINE
  5
308
330
1E
100
AcDbEntity
  8
0
100
AcDbLine
 10
107.6829999999999
 20
1127.153
 30
0.0
 11
108.201
 21
1127.153
 31
0.0
  0
LINE
  5
309
330
1E
100
AcDbEntity
  8
0
100
AcDbLine
 10
106.2689999999999
 20
1127.153
 30
0.0
 11
108.201
 21
1127.153
 31
0.0
  0
LINE
  5
30A
330
1E
100
AcDbEntity
  8
0
100
AcDbLine
 10
106.2689999999999
 20
1127.153
 30
0.0
 11
106.2689999999999
 21
1129.153
 31
0.0
  0
LINE
  5
30B
330
1E
100
AcDbEntity
  8
0
100
AcDbLine
 10
105.751
 20
1127.153
 30
0.0
 11
106.2689999999999
 21
1127.153
 31
0.0
  0
LINE
  5
30C
330
1E
100
AcDbEntity
  8
0
100
AcDbLine
 10
105.751
 20
1127.153
 30
0.0
 11
107.6829999999999
 21
1127.153
 31
0.0
  0
LINE
  5
30D
330
1E
100
AcDbEntity
  8
0
100
AcDbLine
 10
105.751
 20
1127.153
 30
0.0
 11
105.751
 21
1129.153
 31
0.0
  0
LINE
  5
30E
330
1E
100
AcDbEntity
  8
0
100
AcDbLine
 10
112.0829999999999
 20
1127.153
 30
0.0
 11
112.0829999999999
 21
1129.153
 31
0.0
  0
LINE
  5
30F
330
1E
100
AcDbEntity
  8
0
100
AcDbLine
 10
112.419
 20
1127.153
 30
0.0
 11
114.151
 21
1127.153
 31
0.0
  0
LINE
  5
310
330
1E
100
AcDbEntity
  8
0
100
AcDbLine
 10
112.419
 20
1127.153
 30
0.0
 11
113.419
 21
1127.153
 31
0.0
  0
LINE
  5
311
330
1E
100
AcDbEntity
  8
0
100
AcDbLine
 10
113.419
 20
1127.153
 30
0.0
 11
115.151
 21
1127.153
 31
0.0
  0
LINE
  5
312
330
1E
100
AcDbEntity
  8
0
100
AcDbLine
 10
112.8659999999999
 20
1127.153
 30
0.0
 11
113.866
 21
1127.153
 31
0.0
  0
LINE
  5
313
330
1E
100
AcDbEntity
  8
0
100
AcDbLine
 10
112.134
 20
1127.153
 30
0.0
 11
113.866
 21
1127.153
 31
0.0
  0
LINE
  5
314
330
1E
100
AcDbEntity
  8
0
100
AcDbLine
 10
112.134
 20
1127.153
 30
0.0
 11
112.134
 21
1129.153
 31
0.0
  0
LINE
  5
315
330
1E
100
AcDbEntity
  8
0
100
AcDbLine
 10
111.1339999999999
 20
1127.153
 30
0.0
 11
112.134
 21
1127.153
 31
0.0
  0
LINE
  5
316
330
1E
100
AcDbEntity
  8
0
100
AcDbLine
 10
111.1339999999999
 20
1127.153
 30
0.0
 11
112.8659999999999
 21
1127.153
 31
0.0
  0
LINE
  5
317
330
1E
100
AcDbEntity
  8
0
100
AcDbLine
 10
111.566
 20
1127.153
 30
0.0
 11
112.0829999999999
 21
1127.153
 31
0.0
  0
LINE
  5
318
330
1E
100
AcDbEntity
  8
0
100
AcDbLine
 10
110.151
 20
1127.153
 30
0.0
 11
112.0829999999999
 21
1127.153
 31
0.0
  0
LINE
  5
319
330
1E
100
AcDbEntity
  8
0
100
AcDbLine
 10
110.151
 20
1127.153
 30
0.0
 11
110.151
 21
1129.153
 31
0.0
  0
LINE
  5
31A
330
1E
100
AcDbEntity
  8
0
100
AcDbLine
 10
109.634
 20
1127.153
 30
0.0
 11
110.151
 21
1127.153
 31
0.0
  0
LINE
  5
31B
330
1E
100
AcDbEntity
  8
0
100
AcDbLine
 10
109.634
 20
1127.153
 30
0.0
 11
111.566
 21
1127.153
 31
0.0
  0
LINE
  5
31C
330
1E
100
AcDbEntity
  8
0
100
AcDbLine
 10
109.634
 20
1127.153
 30
0.0
 11
109.634
 21
1129.153
 31
0.0
  0
LINE
  5
31D
330
1E
100
AcDbEntity
  8
0
100
AcDbLine
 10
114.151
 20
1127.153
 30
0.0
 11
115.151
 21
1127.153
 31
0.0
  0
LINE
  5
31E
330
1E
100
AcDbEntity
  8
0
100
AcDbLine
 10
117.407
 20
1127.153
 30
0.0
 11
117.407
 21
1129.153
 31
0.0
  0
LINE
  5
31F
330
1E
100
AcDbEntity
  8
0
100
AcDbLine
 10
115.966
 20
1127.153
 30
0.0
 11
115.966
 21
1129.153
 31
0.0
  0
LINE
  5
320
330
1E
100
AcDbEntity
  8
0
100
AcDbLine
 10
118.0
 20
1127.153
 30
0.0
 11
118.0
 21
1129.153
 31
0.0
  0
LINE
  5
321
330
1E
100
AcDbEntity
  8
0
100
AcDbLine
 10
116.0
 20
1127.153
 30
0.0
 11
118.0
 21
1127.153
 31
0.0
  0
LINE
  5
322
330
1E
100
AcDbEntity
  8
0
100
AcDbLine
 10
115.4749999999999
 20
1127.153
 30
0.0
 11
117.407
 21
1127.153
 31
0.0
  0
LINE
  5
323
330
1E
100
AcDbEntity
  8
0
100
AcDbLine
 10
116.8889999999999
 20
1127.153
 30
0.0
 11
117.407
 21
1127.153
 31
0.0
  0
LINE
  5
324
330
1E
100
AcDbEntity
  8
0
100
AcDbLine
 10
116.8889999999999
 20
1127.153
 30
0.0
 11
116.8889999999999
 21
1129.153
 31
0.0
  0
LINE
  5
325
330
1E
100
AcDbEntity
  8
0
100
AcDbLine
 10
114.957
 20
1127.153
 30
0.0
 11
116.8889999999999
 21
1127.153
 31
0.0
  0
LINE
  5
326
330
1E
100
AcDbEntity
  8
0
100
AcDbLine
 10
114.957
 20
1127.153
 30
0.0
 11
115.4749999999999
 21
1127.153
 31
0.0
  0
LINE
  5
327
330
1E
100
AcDbEntity
  8
0
100
AcDbLine
 10
118.6339999999999
 20
1127.153
 30
0.0
 11
119.6339999999999
 21
1127.153
 31
0.0
  0
LINE
  5
328
330
1E
100
AcDbEntity
  8
0
100
AcDbLine
 10
118.6339999999999
 20
1127.153
 30
0.0
 11
120.3659999999999
 21
1127.153
 31
0.0
  0
LINE
  5
329
330
1E
100
AcDbEntity
  8
0
100
AcDbLine
 10
118.6339999999999
 20
1127.153
 30
0.0
 11
118.6339999999999
 21
1129.153
 31
0.0
  0
LINE
  5
32A
330
1E
100
AcDbEntity
  8
0
100
AcDbLine
 10
121.991
 20
1127.153
 30
0.0
 11
121.991
 21
1129.153
 31
0.0
  0
LINE
  5
32B
330
1E
100
AcDbEntity
  8
0
100
AcDbLine
 10
121.3659999999999
 20
1127.153
 30
0.0
 11
121.3659999999999
 21
1129.153
 31
0.0
  0
LINE
  5
32C
330
1E
100
AcDbEntity
  8
0
100
AcDbLine
 10
125.4089999999999
 20
1127.153
 30
0.0
 11
127.141
 21
1127.153
 31
0.0
  0
LINE
  5
32D
330
1E
100
AcDbEntity
  8
0
100
AcDbLine
 10
125.4089999999999
 20
1127.153
 30
0.0
 11
126.4089999999999
 21
1127.153
 31
0.0
  0
LINE
  5
32E
330
1E
100
AcDbEntity
  8
0
100
AcDbLine
 10
125.4089999999999
 20
1127.153
 30
0.0
 11
125.4089999999999
 21
1129.153
 31
0.0
  0
LINE
  5
32F
330
1E
100
AcDbEntity
  8
0
100
AcDbLine
 10
120.3659999999999
 20
1127.153
 30
0.0
 11
121.3659999999999
 21
1127.153
 31
0.0
  0
LINE
  5
330
330
1E
100
AcDbEntity
  8
0
100
AcDbLine
 10
119.6339999999999
 20
1127.153
 30
0.0
 11
121.3659999999999
 21
1127.153
 31
0.0
  0
LINE
  5
331
330
1E
100
AcDbEntity
  8
0
100
AcDbLine
 10
119.6339999999999
 20
1127.153
 30
0.0
 11
119.6339999999999
 21
1129.153
 31
0.0
  0
LINE
  5
332
330
1E
100
AcDbEntity
  8
0
100
AcDbLine
 10
126.4089999999999
 20
1127.153
 30
0.0
 11
128.1409999999999
 21
1127.153
 31
0.0
  0
LINE
  5
333
330
1E
100
AcDbEntity
  8
0
100
AcDbLine
 10
127.141
 20
1127.153
 30
0.0
 11
128.1409999999999
 21
1127.153
 31
0.0
  0
LINE
  5
334
330
1E
100
AcDbEntity
  8
0
100
AcDbLine
 10
128.866
 20
1127.153
 30
0.0
 11
128.866
 21
1129.153
 31
0.0
  0
LINE
  5
335
330
1E
100
AcDbEntity
  8
0
100
AcDbLine
 10
127.866
 20
1127.153
 30
0.0
 11
128.866
 21
1127.153
 31
0.0
  0
LINE
  5
336
330
1E
100
AcDbEntity
  8
0
100
AcDbLine
 10
127.134
 20
1127.153
 30
0.0
 11
128.866
 21
1127.153
 31
0.0
  0
LINE
  5
337
330
1E
100
AcDbEntity
  8
0
100
AcDbLine
 10
127.134
 20
1127.153
 30
0.0
 11
127.134
 21
1129.153
 31
0.0
  0
LINE
  5
338
330
1E
100
AcDbEntity
  8
0
100
AcDbLine
 10
126.134
 20
1127.153
 30
0.0
 11
127.134
 21
1127.153
 31
0.0
  0
LINE
  5
339
330
1E
100
AcDbEntity
  8
0
100
AcDbLine
 10
126.134
 20
1127.153
 30
0.0
 11
127.866
 21
1127.153
 31
0.0
  0
LINE
  5
33A
330
1E
100
AcDbEntity
  8
0
100
AcDbLine
 10
126.134
 20
1127.153
 30
0.0
 11
126.134
 21
1129.153
 31
0.0
  0
LINE
  5
33B
330
1E
100
AcDbEntity
  8
0
100
AcDbLine
 10
120.577
 20
1127.153
 30
0.0
 11
121.991
 21
1127.153
 31
0.0
  0
LINE
  5
33C
330
1E
100
AcDbEntity
  8
0
100
AcDbLine
 10
119.1629999999999
 20
1127.153
 30
0.0
 11
120.577
 21
1127.153
 31
0.0
  0
LINE
  5
33D
330
1E
100
AcDbEntity
  8
0
100
AcDbLine
 10
115.4479999999999
 20
1127.153
 30
0.0
 11
115.966
 21
1127.153
 31
0.0
  0
LINE
  5
33E
330
1E
100
AcDbEntity
  8
0
100
AcDbLine
 10
114.0339999999999
 20
1127.153
 30
0.0
 11
115.966
 21
1127.153
 31
0.0
  0
LINE
  5
33F
330
1E
100
AcDbEntity
  8
0
100
AcDbLine
 10
114.0339999999999
 20
1127.153
 30
0.0
 11
114.0339999999999
 21
1129.153
 31
0.0
  0
LINE
  5
340
330
1E
100
AcDbEntity
  8
0
100
AcDbLine
 10
108.201
 20
1129.153
 30
0.0
 11
108.201
 21
1127.153
 31
0.0
  0
LINE
  5
341
330
1E
100
AcDbEntity
  8
0
100
AcDbLine
 10
108.201
 20
1129.153
 30
0.0
 11
108.556
 21
1129.153
 31
0.0
  0
LINE
  5
342
330
1E
100
AcDbEntity
  8
0
100
AcDbLine
 10
106.2689999999999
 20
1129.153
 30
0.0
 11
106.2689999999999
 21
1127.153
 31
0.0
  0
LINE
  5
343
330
1E
100
AcDbEntity
  8
0
100
AcDbLine
 10
106.2689999999999
 20
1129.153
 30
0.0
 11
108.201
 21
1129.153
 31
0.0
  0
LINE
  5
344
330
1E
100
AcDbEntity
  8
0
100
AcDbLine
 10
105.751
 20
1129.153
 30
0.0
 11
105.751
 21
1127.153
 31
0.0
  0
LINE
  5
345
330
1E
100
AcDbEntity
  8
0
100
AcDbLine
 10
105.751
 20
1129.153
 30
0.0
 11
106.2689999999999
 21
1129.153
 31
0.0
  0
LINE
  5
346
330
1E
100
AcDbEntity
  8
0
100
AcDbLine
 10
104.634
 20
1129.153
 30
0.0
 11
104.634
 21
1127.153
 31
0.0
  0
LINE
  5
347
330
1E
100
AcDbEntity
  8
0
100
AcDbLine
 10
104.634
 20
1129.153
 30
0.0
 11
105.751
 21
1129.153
 31
0.0
  0
LINE
  5
348
330
1E
100
AcDbEntity
  8
0
100
AcDbLine
 10
104.9
 20
1179.153
 30
0.0
 11
109.8999999999999
 21
1179.153
 31
0.0
  0
LINE
  5
349
330
1E
100
AcDbEntity
  8
0
100
AcDbLine
 10
104.319
 20
1129.153
 30
0.0
 11
104.634
 21
1129.153
 31
0.0
  0
LINE
  5
34A
330
1E
100
AcDbEntity
  8
0
100
AcDbLine
 10
104.319
 20
1129.153
 30
0.0
 11
104.319
 21
1127.153
 31
0.0
  0
LINE
  5
34B
330
1E
100
AcDbEntity
  8
0
100
AcDbLine
 10
112.134
 20
1129.153
 30
0.0
 11
112.134
 21
1127.153
 31
0.0
  0
LINE
  5
34C
330
1E
100
AcDbEntity
  8
0
100
AcDbLine
 10
112.134
 20
1129.153
 30
0.0
 11
113.516
 21
1129.153
 31
0.0
  0
LINE
  5
34D
330
1E
100
AcDbEntity
  8
0
100
AcDbLine
 10
116.4
 20
1129.153
 30
0.0
 11
138.3
 21
1129.153
 31
0.0
  0
LINE
  5
34E
330
1E
100
AcDbEntity
  8
0
100
AcDbLine
 10
116.8889999999999
 20
1129.153
 30
0.0
 11
116.8889999999999
 21
1127.153
 31
0.0
  0
LINE
  5
34F
330
1E
100
AcDbEntity
  8
0
100
AcDbLine
 10
116.8889999999999
 20
1129.153
 30
0.0
 11
117.407
 21
1129.153
 31
0.0
  0
LINE
  5
350
330
1E
100
AcDbEntity
  8
0
100
AcDbLine
 10
115.966
 20
1129.153
 30
0.0
 11
115.966
 21
1127.153
 31
0.0
  0
LINE
  5
351
330
1E
100
AcDbEntity
  8
0
100
AcDbLine
 10
115.966
 20
1129.153
 30
0.0
 11
116.8889999999999
 21
1129.153
 31
0.0
  0
LINE
  5
352
330
1E
100
AcDbEntity
  8
0
100
AcDbLine
 10
114.0339999999999
 20
1129.153
 30
0.0
 11
114.0339999999999
 21
1127.153
 31
0.0
  0
LINE
  5
353
330
1E
100
AcDbEntity
  8
0
100
AcDbLine
 10
114.0339999999999
 20
1129.153
 30
0.0
 11
115.966
 21
1129.153
 31
0.0
  0
LINE
  5
354
330
1E
100
AcDbEntity
  8
0
100
AcDbLine
 10
113.516
 20
1129.153
 30
0.0
 11
113.516
 21
1127.153
 31
0.0
  0
LINE
  5
355
330
1E
100
AcDbEntity
  8
0
100
AcDbLine
 10
113.516
 20
1129.153
 30
0.0
 11
114.0339999999999
 21
1129.153
 31
0.0
  0
LINE
  5
356
330
1E
100
AcDbEntity
  8
0
100
AcDbLine
 10
112.0829999999999
 20
1129.153
 30
0.0
 11
112.0829999999999
 21
1127.153
 31
0.0
  0
LINE
  5
357
330
1E
100
AcDbEntity
  8
0
100
AcDbLine
 10
112.0829999999999
 20
1129.153
 30
0.0
 11
112.134
 21
1129.153
 31
0.0
  0
LINE
  5
358
330
1E
100
AcDbEntity
  8
0
100
AcDbLine
 10
110.151
 20
1129.153
 30
0.0
 11
110.151
 21
1127.153
 31
0.0
  0
LINE
  5
359
330
1E
100
AcDbEntity
  8
0
100
AcDbLine
 10
110.151
 20
1129.153
 30
0.0
 11
112.0829999999999
 21
1129.153
 31
0.0
  0
LINE
  5
35A
330
1E
100
AcDbEntity
  8
0
100
AcDbLine
 10
109.634
 20
1129.153
 30
0.0
 11
109.634
 21
1127.153
 31
0.0
  0
LINE
  5
35B
330
1E
100
AcDbEntity
  8
0
100
AcDbLine
 10
109.634
 20
1129.153
 30
0.0
 11
110.151
 21
1129.153
 31
0.0
  0
LINE
  5
35C
330
1E
100
AcDbEntity
  8
0
100
AcDbLine
 10
121.991
 20
1129.153
 30
0.0
 11
121.991
 21
1127.153
 31
0.0
  0
LINE
  5
35D
330
1E
100
AcDbEntity
  8
0
100
AcDbLine
 10
121.991
 20
1129.153
 30
0.0
 11
125.4089999999999
 21
1129.153
 31
0.0
  0
LINE
  5
35E
330
1E
100
AcDbEntity
  8
0
100
AcDbLine
 10
121.3659999999999
 20
1129.153
 30
0.0
 11
121.3659999999999
 21
1127.153
 31
0.0
  0
LINE
  5
35F
330
1E
100
AcDbEntity
  8
0
100
AcDbLine
 10
121.3659999999999
 20
1129.153
 30
0.0
 11
121.991
 21
1129.153
 31
0.0
  0
LINE
  5
360
330
1E
100
AcDbEntity
  8
0
100
AcDbLine
 10
119.6339999999999
 20
1129.153
 30
0.0
 11
119.6339999999999
 21
1127.153
 31
0.0
  0
LINE
  5
361
330
1E
100
AcDbEntity
  8
0
100
AcDbLine
 10
119.6339999999999
 20
1129.153
 30
0.0
 11
121.3659999999999
 21
1129.153
 31
0.0
  0
LINE
  5
362
330
1E
100
AcDbEntity
  8
0
100
AcDbLine
 10
118.0
 20
1129.153
 30
0.0
 11
118.0
 21
1127.153
 31
0.0
  0
LINE
  5
363
330
1E
100
AcDbEntity
  8
0
100
AcDbLine
 10
118.0
 20
1129.153
 30
0.0
 11
118.6339999999999
 21
1129.153
 31
0.0
  0
LINE
  5
364
330
1E
100
AcDbEntity
  8
0
100
AcDbLine
 10
117.407
 20
1129.153
 30
0.0
 11
118.0
 21
1129.153
 31
0.0
  0
LINE
  5
365
330
1E
100
AcDbEntity
  8
0
100
AcDbLine
 10
117.407
 20
1129.153
 30
0.0
 11
117.407
 21
1127.153
 31
0.0
  0
LINE
  5
366
330
1E
100
AcDbEntity
  8
0
100
AcDbLine
 10
128.866
 20
1129.153
 30
0.0
 11
128.866
 21
1127.153
 31
0.0
  0
LINE
  5
367
330
1E
100
AcDbEntity
  8
0
100
AcDbLine
 10
128.866
 20
1129.153
 30
0.0
 11
129.4459999999999
 21
1129.153
 31
0.0
  0
LINE
  5
368
330
1E
100
AcDbEntity
  8
0
100
AcDbLine
 10
127.134
 20
1129.153
 30
0.0
 11
127.134
 21
1127.153
 31
0.0
  0
LINE
  5
369
330
1E
100
AcDbEntity
  8
0
100
AcDbLine
 10
127.134
 20
1129.153
 30
0.0
 11
128.866
 21
1129.153
 31
0.0
  0
LINE
  5
36A
330
1E
100
AcDbEntity
  8
0
100
AcDbLine
 10
126.134
 20
1129.153
 30
0.0
 11
126.134
 21
1127.153
 31
0.0
  0
LINE
  5
36B
330
1E
100
AcDbEntity
  8
0
100
AcDbLine
 10
126.134
 20
1129.153
 30
0.0
 11
127.134
 21
1129.153
 31
0.0
  0
LINE
  5
36C
330
1E
100
AcDbEntity
  8
0
100
AcDbLine
 10
125.4089999999999
 20
1129.153
 30
0.0
 11
125.4089999999999
 21
1127.153
 31
0.0
  0
LINE
  5
36D
330
1E
100
AcDbEntity
  8
0
100
AcDbLine
 10
125.4089999999999
 20
1129.153
 30
0.0
 11
126.134
 21
1129.153
 31
0.0
  0
LINE
  5
36E
330
1E
100
AcDbEntity
  8
0
100
AcDbLine
 10
117.0
 20
1131.153
 30
0.0
 11
139.3
 21
1131.153
 31
0.0
  0
LINE
  5
36F
330
1E
100
AcDbEntity
  8
0
100
AcDbLine
 10
125.0
 20
1173.153
 30
0.0
 11
178.0
 21
1162.152999999999
 31
0.0
  0
LINE
  5
370
330
1E
100
AcDbEntity
  8
0
100
AcDbLine
 10
120.0
 20
1176.153
 30
0.0
 11
125.0
 21
1173.153
 31
0.0
  0
LINE
  5
371
330
1E
100
AcDbEntity
  8
0
100
AcDbLine
 10
117.0
 20
1179.153
 30
0.0
 11
120.0
 21
1176.153
 31
0.0
  0
LINE
  5
372
330
1E
100
AcDbEntity
  8
0
100
AcDbLine
 10
116.1
 20
1179.153
 30
0.0
 11
117.0
 21
1179.153
 31
0.0
  0
LINE
  5
373
330
1E
100
AcDbEntity
  8
0
100
AcDbLine
 10
113.7999999999999
 20
1179.153
 30
0.0
 11
116.1
 21
1179.153
 31
0.0
  0
LINE
  5
374
330
1E
100
AcDbEntity
  8
0
100
AcDbLine
 10
109.8999999999999
 20
1179.153
 30
0.0
 11
113.7999999999999
 21
1179.153
 31
0.0
  0
LINE
  5
375
330
1E
100
AcDbEntity
  8
0
100
AcDbLine
 10
118.6339999999999
 20
1129.153
 30
0.0
 11
118.6339999999999
 21
1127.153
 31
0.0
  0
LINE
  5
376
330
1E
100
AcDbEntity
  8
0
100
AcDbLine
 10
118.6339999999999
 20
1129.153
 30
0.0
 11
119.6339999999999
 21
1129.153
 31
0.0
  0
LINE
  5
377
330
1E
100
AcDbEntity
  8
0
100
AcDbLine
 10
108.556
 20
1129.153
 30
0.0
 11
108.556
 21
1127.153
 31
0.0
  0
LINE
  5
378
330
1E
100
AcDbEntity
  8
0
100
AcDbLine
 10
108.556
 20
1129.153
 30
0.0
 11
109.634
 21
1129.153
 31
0.0
  0
LINE
  5
379
330
1E
100
AcDbEntity
  8
0
100
AcDbLine
 10
113.516
 20
1127.153
 30
0.0
 11
114.0339999999999
 21
1127.153
 31
0.0
  0
LINE
  5
37A
330
1E
100
AcDbEntity
  8
0
100
AcDbLine
 10
113.516
 20
1127.153
 30
0.0
 11
115.4479999999999
 21
1127.153
 31
0.0
  0
LINE
  5
37B
330
1E
100
AcDbEntity
  8
0
100
AcDbLine
 10
113.516
 20
1127.153
 30
0.0
 11
113.516
 21
1129.153
 31
0.0
  0
LINE
  5
37C
330
1E
100
AcDbEntity
  8
0
100
AcDbLine
 10
103.0
 20
1189.153
 30
0.0
 11
103.0
 21
1199.153
 31
0.0
  0
LINE
  5
37D
330
1E
100
AcDbEntity
  8
0
100
AcDbLine
 10
103.0
 20
1189.153
 30
0.0
 11
103.0
 21
1187.153
 31
0.0
  0
LINE
  5
37E
330
1E
100
AcDbEntity
  8
0
100
AcDbLine
 10
115.1
 20
1244.153
 30
0.0
 11
129.4
 21
1262.753
 31
0.0
  0
LINE
  5
37F
330
1E
100
AcDbEntity
  8
0
100
AcDbLine
 10
97.70000000000001
 20
1254.153
 30
0.0
 11
115.2
 21
1276.953
 31
0.0
  0
LINE
  5
380
330
1E
100
AcDbEntity
  8
0
100
AcDbLine
 10
106.0999999999999
 20
1222.453
 30
0.0
 11
115.1
 21
1244.153
 31
0.0
  0
LINE
  5
381
330
1E
100
AcDbEntity
  8
0
100
AcDbLine
 10
86.69999999999999
 20
1227.653
 30
0.0
 11
97.70000000000001
 21
1254.153
 31
0.0
  0
LINE
  5
382
330
1E
100
AcDbEntity
  8
0
100
AcDbLine
 10
103.0
 20
1199.153
 30
0.0
 11
106.0999999999999
 21
1222.453
 31
0.0
  0
LINE
  5
383
330
1E
100
AcDbEntity
  8
0
100
AcDbLine
 10
83.0
 20
1199.153
 30
0.0
 11
86.69999999999999
 21
1227.653
 31
0.0
  0
LINE
  5
384
330
1E
100
AcDbEntity
  8
0
100
AcDbLine
 10
83.0
 20
1199.153
 30
0.0
 11
83.0
 21
1189.153
 31
0.0
  0
LINE
  5
385
330
1E
100
AcDbEntity
  8
0
100
AcDbLine
 10
83.0
 20
1189.153
 30
0.0
 11
83.0
 21
1199.153
 31
0.0
  0
LINE
  5
386
330
1E
100
AcDbEntity
  8
0
100
AcDbLine
 10
83.0
 20
1189.153
 30
0.0
 11
83.0
 21
1187.153
 31
0.0
  0
LINE
  5
387
330
1E
100
AcDbEntity
  8
0
100
AcDbLine
 10
143.205
 20
1127.153
 30
0.0
 11
143.205
 21
1129.153
 31
0.0
  0
LINE
  5
388
330
1E
100
AcDbEntity
  8
0
100
AcDbLine
 10
144.453
 20
1127.153
 30
0.0
 11
146.3849999999999
 21
1127.153
 31
0.0
  0
LINE
  5
389
330
1E
100
AcDbEntity
  8
0
100
AcDbLine
 10
146.3849999999999
 20
1127.153
 30
0.0
 11
146.3849999999999
 21
1129.153
 31
0.0
  0
LINE
  5
38A
330
1E
100
AcDbEntity
  8
0
100
AcDbLine
 10
148.0
 20
1127.153
 30
0.0
 11
148.0
 21
1129.153
 31
0.0
  0
LINE
  5
38B
330
1E
100
AcDbEntity
  8
0
100
AcDbLine
 10
146.0
 20
1127.153
 30
0.0
 11
148.0
 21
1127.153
 31
0.0
  0
LINE
  5
38C
330
1E
100
AcDbEntity
  8
0
100
AcDbLine
 10
145.867
 20
1127.153
 30
0.0
 11
146.3849999999999
 21
1127.153
 31
0.0
  0
LINE
  5
38D
330
1E
100
AcDbEntity
  8
0
100
AcDbLine
 10
145.867
 20
1127.153
 30
0.0
 11
145.867
 21
1129.153
 31
0.0
  0
LINE
  5
38E
330
1E
100
AcDbEntity
  8
0
100
AcDbLine
 10
143.935
 20
1127.153
 30
0.0
 11
145.867
 21
1127.153
 31
0.0
  0
LINE
  5
38F
330
1E
100
AcDbEntity
  8
0
100
AcDbLine
 10
143.935
 20
1127.153
 30
0.0
 11
144.453
 21
1127.153
 31
0.0
  0
LINE
  5
390
330
1E
100
AcDbEntity
  8
0
100
AcDbLine
 10
143.935
 20
1127.153
 30
0.0
 11
143.935
 21
1129.153
 31
0.0
  0
LINE
  5
391
330
1E
100
AcDbEntity
  8
0
100
AcDbLine
 10
141.7899999999999
 20
1127.153
 30
0.0
 11
143.205
 21
1127.153
 31
0.0
  0
LINE
  5
392
330
1E
100
AcDbEntity
  8
0
100
AcDbLine
 10
141.7899999999999
 20
1127.153
 30
0.0
 11
141.7899999999999
 21
1129.153
 31
0.0
  0
LINE
  5
393
330
1E
100
AcDbEntity
  8
0
100
AcDbLine
 10
129.77
 20
1129.153
 30
0.0
 11
129.77
 21
1127.153
 31
0.0
  0
LINE
  5
394
330
1E
100
AcDbEntity
  8
0
100
AcDbLine
 10
129.77
 20
1129.153
 30
0.0
 11
131.1839999999999
 21
1129.153
 31
0.0
  0
LINE
  5
395
330
1E
100
AcDbEntity
  8
0
100
AcDbLine
 10
129.4459999999999
 20
1129.153
 30
0.0
 11
129.4459999999999
 21
1127.153
 31
0.0
  0
LINE
  5
396
330
1E
100
AcDbEntity
  8
0
100
AcDbLine
 10
129.4459999999999
 20
1129.153
 30
0.0
 11
129.77
 21
1129.153
 31
0.0
  0
LINE
  5
397
330
1E
100
AcDbEntity
  8
0
100
AcDbLine
 10
129.4459999999999
 20
1127.153
 30
0.0
 11
131.3779999999999
 21
1127.153
 31
0.0
  0
LINE
  5
398
330
1E
100
AcDbEntity
  8
0
100
AcDbLine
 10
129.4459999999999
 20
1127.153
 30
0.0
 11
129.9639999999999
 21
1127.153
 31
0.0
  0
LINE
  5
399
330
1E
100
AcDbEntity
  8
0
100
AcDbLine
 10
129.4459999999999
 20
1127.153
 30
0.0
 11
129.4459999999999
 21
1129.153
 31
0.0
  0
LINE
  5
39A
330
1E
100
AcDbEntity
  8
0
100
AcDbLine
 10
132.5979999999999
 20
1127.153
 30
0.0
 11
132.5979999999999
 21
1129.153
 31
0.0
  0
LINE
  5
39B
330
1E
100
AcDbEntity
  8
0
100
AcDbLine
 10
133.0
 20
1127.153
 30
0.0
 11
133.0
 21
1129.153
 31
0.0
  0
LINE
  5
39C
330
1E
100
AcDbEntity
  8
0
100
AcDbLine
 10
131.0
 20
1127.153
 30
0.0
 11
133.0
 21
1127.153
 31
0.0
  0
LINE
  5
39D
330
1E
100
AcDbEntity
  8
0
100
AcDbLine
 10
129.9639999999999
 20
1127.153
 30
0.0
 11
131.896
 21
1127.153
 31
0.0
  0
LINE
  5
39E
330
1E
100
AcDbEntity
  8
0
100
AcDbLine
 10
131.3779999999999
 20
1127.153
 30
0.0
 11
131.896
 21
1127.153
 31
0.0
  0
LINE
  5
39F
330
1E
100
AcDbEntity
  8
0
100
AcDbLine
 10
136.366
 20
1127.153
 30
0.0
 11
136.366
 21
1129.153
 31
0.0
  0
LINE
  5
3A0
330
1E
100
AcDbEntity
  8
0
100
AcDbLine
 10
139.399
 20
1127.153
 30
0.0
 11
141.131
 21
1127.153
 31
0.0
  0
LINE
  5
3A1
330
1E
100
AcDbEntity
  8
0
100
AcDbLine
 10
140.376
 20
1127.153
 30
0.0
 11
141.7899999999999
 21
1127.153
 31
0.0
  0
LINE
  5
3A2
330
1E
100
AcDbEntity
  8
0
100
AcDbLine
 10
140.376
 20
1127.153
 30
0.0
 11
140.376
 21
1129.153
 31
0.0
  0
LINE
  5
3A3
330
1E
100
AcDbEntity
  8
0
100
AcDbLine
 10
140.131
 20
1127.153
 30
0.0
 11
141.131
 21
1127.153
 31
0.0
  0
LINE
  5
3A4
330
1E
100
AcDbEntity
  8
0
100
AcDbLine
 10
140.131
 20
1127.153
 30
0.0
 11
140.131
 21
1129.153
 31
0.0
  0
LINE
  5
3A5
330
1E
100
AcDbEntity
  8
0
100
AcDbLine
 10
138.399
 20
1127.153
 30
0.0
 11
139.399
 21
1127.153
 31
0.0
  0
LINE
  5
3A6
330
1E
100
AcDbEntity
  8
0
100
AcDbLine
 10
138.399
 20
1127.153
 30
0.0
 11
138.399
 21
1129.153
 31
0.0
  0
LINE
  5
3A7
330
1E
100
AcDbEntity
  8
0
100
AcDbLine
 10
138.399
 20
1127.153
 30
0.0
 11
140.131
 21
1127.153
 31
0.0
  0
LINE
  5
3A8
330
1E
100
AcDbEntity
  8
0
100
AcDbLine
 10
135.366
 20
1127.153
 30
0.0
 11
136.366
 21
1127.153
 31
0.0
  0
LINE
  5
3A9
330
1E
100
AcDbEntity
  8
0
100
AcDbLine
 10
134.6339999999999
 20
1127.153
 30
0.0
 11
136.366
 21
1127.153
 31
0.0
  0
LINE
  5
3AA
330
1E
100
AcDbEntity
  8
0
100
AcDbLine
 10
134.6339999999999
 20
1127.153
 30
0.0
 11
134.6339999999999
 21
1129.153
 31
0.0
  0
LINE
  5
3AB
330
1E
100
AcDbEntity
  8
0
100
AcDbLine
 10
133.6339999999999
 20
1127.153
 30
0.0
 11
134.6339999999999
 21
1127.153
 31
0.0
  0
LINE
  5
3AC
330
1E
100
AcDbEntity
  8
0
100
AcDbLine
 10
133.6339999999999
 20
1127.153
 30
0.0
 11
135.366
 21
1127.153
 31
0.0
  0
LINE
  5
3AD
330
1E
100
AcDbEntity
  8
0
100
AcDbLine
 10
133.6339999999999
 20
1127.153
 30
0.0
 11
133.6339999999999
 21
1129.153
 31
0.0
  0
LINE
  5
3AE
330
1E
100
AcDbEntity
  8
0
100
AcDbLine
 10
131.1839999999999
 20
1129.153
 30
0.0
 11
131.1839999999999
 21
1127.153
 31
0.0
  0
LINE
  5
3AF
330
1E
100
AcDbEntity
  8
0
100
AcDbLine
 10
131.1839999999999
 20
1129.153
 30
0.0
 11
132.5979999999999
 21
1129.153
 31
0.0
  0
LINE
  5
3B0
330
1E
100
AcDbEntity
  8
0
100
AcDbLine
 10
133.0
 20
1129.153
 30
0.0
 11
133.0
 21
1127.153
 31
0.0
  0
LINE
  5
3B1
330
1E
100
AcDbEntity
  8
0
100
AcDbLine
 10
133.0
 20
1129.153
 30
0.0
 11
133.6339999999999
 21
1129.153
 31
0.0
  0
LINE
  5
3B2
330
1E
100
AcDbEntity
  8
0
100
AcDbLine
 10
132.5979999999999
 20
1129.153
 30
0.0
 11
133.0
 21
1129.153
 31
0.0
  0
LINE
  5
3B3
330
1E
100
AcDbEntity
  8
0
100
AcDbLine
 10
132.5979999999999
 20
1129.153
 30
0.0
 11
132.5979999999999
 21
1127.153
 31
0.0
  0
LINE
  5
3B4
330
1E
100
AcDbEntity
  8
0
100
AcDbLine
 10
138.3
 20
1129.153
 30
0.0
 11
157.3
 21
1129.153
 31
0.0
  0
LINE
  5
3B5
330
1E
100
AcDbEntity
  8
0
100
AcDbLine
 10
138.3
 20
1129.153
 30
0.0
 11
138.399
 21
1129.153
 31
0.0
  0
LINE
  5
3B6
330
1E
100
AcDbEntity
  8
0
100
AcDbLine
 10
143.205
 20
1129.153
 30
0.0
 11
143.205
 21
1127.153
 31
0.0
  0
LINE
  5
3B7
330
1E
100
AcDbEntity
  8
0
100
AcDbLine
 10
143.205
 20
1129.153
 30
0.0
 11
143.935
 21
1129.153
 31
0.0
  0
LINE
  5
3B8
330
1E
100
AcDbEntity
  8
0
100
AcDbLine
 10
141.7899999999999
 20
1129.153
 30
0.0
 11
141.7899999999999
 21
1127.153
 31
0.0
  0
LINE
  5
3B9
330
1E
100
AcDbEntity
  8
0
100
AcDbLine
 10
141.7899999999999
 20
1129.153
 30
0.0
 11
143.205
 21
1129.153
 31
0.0
  0
LINE
  5
3BA
330
1E
100
AcDbEntity
  8
0
100
AcDbLine
 10
140.376
 20
1129.153
 30
0.0
 11
140.376
 21
1127.153
 31
0.0
  0
LINE
  5
3BB
330
1E
100
AcDbEntity
  8
0
100
AcDbLine
 10
140.376
 20
1129.153
 30
0.0
 11
141.7899999999999
 21
1129.153
 31
0.0
  0
LINE
  5
3BC
330
1E
100
AcDbEntity
  8
0
100
AcDbLine
 10
140.131
 20
1129.153
 30
0.0
 11
140.131
 21
1127.153
 31
0.0
  0
LINE
  5
3BD
330
1E
100
AcDbEntity
  8
0
100
AcDbLine
 10
140.131
 20
1129.153
 30
0.0
 11
140.376
 21
1129.153
 31
0.0
  0
LINE
  5
3BE
330
1E
100
AcDbEntity
  8
0
100
AcDbLine
 10
136.366
 20
1129.153
 30
0.0
 11
136.366
 21
1127.153
 31
0.0
  0
LINE
  5
3BF
330
1E
100
AcDbEntity
  8
0
100
AcDbLine
 10
136.366
 20
1129.153
 30
0.0
 11
138.3
 21
1129.153
 31
0.0
  0
LINE
  5
3C0
330
1E
100
AcDbEntity
  8
0
100
AcDbLine
 10
134.6339999999999
 20
1129.153
 30
0.0
 11
134.6339999999999
 21
1127.153
 31
0.0
  0
LINE
  5
3C1
330
1E
100
AcDbEntity
  8
0
100
AcDbLine
 10
134.6339999999999
 20
1129.153
 30
0.0
 11
136.366
 21
1129.153
 31
0.0
  0
LINE
  5
3C2
330
1E
100
AcDbEntity
  8
0
100
AcDbLine
 10
145.867
 20
1129.153
 30
0.0
 11
145.867
 21
1127.153
 31
0.0
  0
LINE
  5
3C3
330
1E
100
AcDbEntity
  8
0
100
AcDbLine
 10
145.867
 20
1129.153
 30
0.0
 11
146.3849999999999
 21
1129.153
 31
0.0
  0
LINE
  5
3C4
330
1E
100
AcDbEntity
  8
0
100
AcDbLine
 10
148.0
 20
1129.153
 30
0.0
 11
148.0
 21
1127.153
 31
0.0
  0
LINE
  5
3C5
330
1E
100
AcDbEntity
  8
0
100
AcDbLine
 10
148.0
 20
1129.153
 30
0.0
 11
150.983
 21
1129.153
 31
0.0
  0
LINE
  5
3C6
330
1E
100
AcDbEntity
  8
0
100
AcDbLine
 10
146.3849999999999
 20
1129.153
 30
0.0
 11
148.0
 21
1129.153
 31
0.0
  0
LINE
  5
3C7
330
1E
100
AcDbEntity
  8
0
100
AcDbLine
 10
146.3849999999999
 20
1129.153
 30
0.0
 11
146.3849999999999
 21
1127.153
 31
0.0
  0
LINE
  5
3C8
330
1E
100
AcDbEntity
  8
0
100
AcDbLine
 10
143.935
 20
1129.153
 30
0.0
 11
143.935
 21
1127.153
 31
0.0
  0
LINE
  5
3C9
330
1E
100
AcDbEntity
  8
0
100
AcDbLine
 10
143.935
 20
1129.153
 30
0.0
 11
145.867
 21
1129.153
 31
0.0
  0
LINE
  5
3CA
330
1E
100
AcDbEntity
  8
0
100
AcDbLine
 10
139.3
 20
1131.153
 30
0.0
 11
158.6999999999999
 21
1131.153
 31
0.0
  0
LINE
  5
3CB
330
1E
100
AcDbEntity
  8
0
100
AcDbLine
 10
138.399
 20
1129.153
 30
0.0
 11
138.399
 21
1127.153
 31
0.0
  0
LINE
  5
3CC
330
1E
100
AcDbEntity
  8
0
100
AcDbLine
 10
138.399
 20
1129.153
 30
0.0
 11
140.131
 21
1129.153
 31
0.0
  0
LINE
  5
3CD
330
1E
100
AcDbEntity
  8
0
100
AcDbLine
 10
133.6339999999999
 20
1129.153
 30
0.0
 11
133.6339999999999
 21
1127.153
 31
0.0
  0
LINE
  5
3CE
330
1E
100
AcDbEntity
  8
0
100
AcDbLine
 10
133.6339999999999
 20
1129.153
 30
0.0
 11
134.6339999999999
 21
1129.153
 31
0.0
  0
LINE
  5
3CF
330
1E
100
AcDbEntity
  8
0
100
AcDbLine
 10
131.1839999999999
 20
1127.153
 30
0.0
 11
132.5979999999999
 21
1127.153
 31
0.0
  0
LINE
  5
3D0
330
1E
100
AcDbEntity
  8
0
100
AcDbLine
 10
131.1839999999999
 20
1127.153
 30
0.0
 11
131.1839999999999
 21
1129.153
 31
0.0
  0
LINE
  5
3D1
330
1E
100
AcDbEntity
  8
0
100
AcDbLine
 10
129.77
 20
1127.153
 30
0.0
 11
131.1839999999999
 21
1127.153
 31
0.0
  0
LINE
  5
3D2
330
1E
100
AcDbEntity
  8
0
100
AcDbLine
 10
129.77
 20
1127.153
 30
0.0
 11
129.77
 21
1129.153
 31
0.0
  0
LINE
  5
3D3
330
1E
100
AcDbEntity
  8
0
100
AcDbLine
 10
141.131
 20
1127.153
 30
0.0
 11
141.7899999999999
 21
1127.153
 31
0.0
  0
LINE
  5
3D4
330
1E
100
AcDbEntity
  8
0
100
AcDbLine
 10
129.4
 20
1262.753
 30
0.0
 11
148.0
 21
1277.053
 31
0.0
  0
LINE
  5
3D5
330
1E
100
AcDbEntity
  8
0
100
AcDbLine
 10
115.2
 20
1276.953
 30
0.0
 11
138.0
 21
1294.453
 31
0.0
  0
LINE
  5
3D6
330
1E
100
AcDbEntity
  8
0
100
AcDbLine
 10
152.3899999999999
 20
1127.153
 30
0.0
 11
154.122
 21
1127.153
 31
0.0
  0
LINE
  5
3D7
330
1E
100
AcDbEntity
  8
0
100
AcDbLine
 10
151.3899999999999
 20
1127.153
 30
0.0
 11
153.122
 21
1127.153
 31
0.0
  0
LINE
  5
3D8
330
1E
100
AcDbEntity
  8
0
100
AcDbLine
 10
151.3899999999999
 20
1127.153
 30
0.0
 11
152.3899999999999
 21
1127.153
 31
0.0
  0
LINE
  5
3D9
330
1E
100
AcDbEntity
  8
0
100
AcDbLine
 10
153.811
 20
1127.153
 30
0.0
 11
153.811
 21
1129.153
 31
0.0
  0
LINE
  5
3DA
330
1E
100
AcDbEntity
  8
0
100
AcDbLine
 10
154.122
 20
1127.153
 30
0.0
 11
154.122
 21
1129.153
 31
0.0
  0
LINE
  5
3DB
330
1E
100
AcDbEntity
  8
0
100
AcDbLine
 10
158.942
 20
1127.153
 30
0.0
 11
160.874
 21
1127.153
 31
0.0
  0
LINE
  5
3DC
330
1E
100
AcDbEntity
  8
0
100
AcDbLine
 10
160.874
 20
1127.153
 30
0.0
 11
160.874
 21
1129.153
 31
0.0
  0
LINE
  5
3DD
330
1E
100
AcDbEntity
  8
0
100
AcDbLine
 10
163.0
 20
1127.153
 30
0.0
 11
163.0
 21
1129.153
 31
0.0
  0
LINE
  5
3DE
330
1E
100
AcDbEntity
  8
0
100
AcDbLine
 10
161.0
 20
1127.153
 30
0.0
 11
163.0
 21
1127.153
 31
0.0
  0
LINE
  5
3DF
330
1E
100
AcDbEntity
  8
0
100
AcDbLine
 10
161.0
 20
1127.153
 30
0.0
 11
161.0
 21
1129.153
 31
0.0
  0
LINE
  5
3E0
330
1E
100
AcDbEntity
  8
0
100
AcDbLine
 10
160.3559999999999
 20
1127.153
 30
0.0
 11
160.874
 21
1127.153
 31
0.0
  0
LINE
  5
3E1
330
1E
100
AcDbEntity
  8
0
100
AcDbLine
 10
160.3559999999999
 20
1127.153
 30
0.0
 11
160.3559999999999
 21
1129.153
 31
0.0
  0
LINE
  5
3E2
330
1E
100
AcDbEntity
  8
0
100
AcDbLine
 10
158.424
 20
1127.153
 30
0.0
 11
160.3559999999999
 21
1127.153
 31
0.0
  0
LINE
  5
3E3
330
1E
100
AcDbEntity
  8
0
100
AcDbLine
 10
158.424
 20
1127.153
 30
0.0
 11
158.942
 21
1127.153
 31
0.0
  0
LINE
  5
3E4
330
1E
100
AcDbEntity
  8
0
100
AcDbLine
 10
158.424
 20
1127.153
 30
0.0
 11
158.424
 21
1129.153
 31
0.0
  0
LINE
  5
3E5
330
1E
100
AcDbEntity
  8
0
100
AcDbLine
 10
164.3799999999999
 20
1127.153
 30
0.0
 11
166.1119999999999
 21
1127.153
 31
0.0
  0
LINE
  5
3E6
330
1E
100
AcDbEntity
  8
0
100
AcDbLine
 10
164.3799999999999
 20
1127.153
 30
0.0
 11
165.3799999999999
 21
1127.153
 31
0.0
  0
LINE
  5
3E7
330
1E
100
AcDbEntity
  8
0
100
AcDbLine
 10
164.3799999999999
 20
1127.153
 30
0.0
 11
164.3799999999999
 21
1129.153
 31
0.0
  0
LINE
  5
3E8
330
1E
100
AcDbEntity
  8
0
100
AcDbLine
 10
153.122
 20
1127.153
 30
0.0
 11
154.122
 21
1127.153
 31
0.0
  0
LINE
  5
3E9
330
1E
100
AcDbEntity
  8
0
100
AcDbLine
 10
152.397
 20
1127.153
 30
0.0
 11
153.811
 21
1127.153
 31
0.0
  0
LINE
  5
3EA
330
1E
100
AcDbEntity
  8
0
100
AcDbLine
 10
152.397
 20
1127.153
 30
0.0
 11
152.397
 21
1129.153
 31
0.0
  0
LINE
  5
3EB
330
1E
100
AcDbEntity
  8
0
100
AcDbLine
 10
152.397
 20
1129.153
 30
0.0
 11
152.397
 21
1127.153
 31
0.0
  0
LINE
  5
3EC
330
1E
100
AcDbEntity
  8
0
100
AcDbLine
 10
152.397
 20
1129.153
 30
0.0
 11
153.811
 21
1129.153
 31
0.0
  0
LINE
  5
3ED
330
1E
100
AcDbEntity
  8
0
100
AcDbLine
 10
157.3
 20
1129.153
 30
0.0
 11
171.8
 21
1129.153
 31
0.0
  0
LINE
  5
3EE
330
1E
100
AcDbEntity
  8
0
100
AcDbLine
 10
157.3
 20
1129.153
 30
0.0
 11
158.424
 21
1129.153
 31
0.0
  0
LINE
  5
3EF
330
1E
100
AcDbEntity
  8
0
100
AcDbLine
 10
154.122
 20
1129.153
 30
0.0
 11
154.122
 21
1127.153
 31
0.0
  0
LINE
  5
3F0
330
1E
100
AcDbEntity
  8
0
100
AcDbLine
 10
154.122
 20
1129.153
 30
0.0
 11
157.3
 21
1129.153
 31
0.0
  0
LINE
  5
3F1
330
1E
100
AcDbEntity
  8
0
100
AcDbLine
 10
153.811
 20
1129.153
 30
0.0
 11
154.122
 21
1129.153
 31
0.0
  0
LINE
  5
3F2
330
1E
100
AcDbEntity
  8
0
100
AcDbLine
 10
153.811
 20
1129.153
 30
0.0
 11
153.811
 21
1127.153
 31
0.0
  0
LINE
  5
3F3
330
1E
100
AcDbEntity
  8
0
100
AcDbLine
 10
160.874
 20
1129.153
 30
0.0
 11
160.874
 21
1127.153
 31
0.0
  0
LINE
  5
3F4
330
1E
100
AcDbEntity
  8
0
100
AcDbLine
 10
160.874
 20
1129.153
 30
0.0
 11
161.0
 21
1129.153
 31
0.0
  0
LINE
  5
3F5
330
1E
100
AcDbEntity
  8
0
100
AcDbLine
 10
160.3559999999999
 20
1129.153
 30
0.0
 11
160.3559999999999
 21
1127.153
 31
0.0
  0
LINE
  5
3F6
330
1E
100
AcDbEntity
  8
0
100
AcDbLine
 10
160.3559999999999
 20
1129.153
 30
0.0
 11
160.874
 21
1129.153
 31
0.0
  0
LINE
  5
3F7
330
1E
100
AcDbEntity
  8
0
100
AcDbLine
 10
163.0
 20
1129.153
 30
0.0
 11
163.0
 21
1127.153
 31
0.0
  0
LINE
  5
3F8
330
1E
100
AcDbEntity
  8
0
100
AcDbLine
 10
163.0
 20
1129.153
 30
0.0
 11
164.3799999999999
 21
1129.153
 31
0.0
  0
LINE
  5
3F9
330
1E
100
AcDbEntity
  8
0
100
AcDbLine
 10
161.0
 20
1129.153
 30
0.0
 11
161.0
 21
1127.153
 31
0.0
  0
LINE
  5
3FA
330
1E
100
AcDbEntity
  8
0
100
AcDbLine
 10
161.0
 20
1129.153
 30
0.0
 11
163.0
 21
1129.153
 31
0.0
  0
LINE
  5
3FB
330
1E
100
AcDbEntity
  8
0
100
AcDbLine
 10
158.424
 20
1129.153
 30
0.0
 11
158.424
 21
1127.153
 31
0.0
  0
LINE
  5
3FC
330
1E
100
AcDbEntity
  8
0
100
AcDbLine
 10
158.424
 20
1129.153
 30
0.0
 11
160.3559999999999
 21
1129.153
 31
0.0
  0
LINE
  5
3FD
330
1E
100
AcDbEntity
  8
0
100
AcDbLine
 10
158.6999999999999
 20
1131.153
 30
0.0
 11
173.5
 21
1131.153
 31
0.0
  0
LINE
  5
3FE
330
1E
100
AcDbEntity
  8
0
100
AcDbLine
 10
164.3799999999999
 20
1129.153
 30
0.0
 11
164.3799999999999
 21
1127.153
 31
0.0
  0
LINE
  5
3FF
330
1E
100
AcDbEntity
  8
0
100
AcDbLine
 10
164.3799999999999
 20
1129.153
 30
0.0
 11
166.1119999999999
 21
1129.153
 31
0.0
  0
LINE
  5
400
330
1E
100
AcDbEntity
  8
0
100
AcDbLine
 10
150.983
 20
1129.153
 30
0.0
 11
150.983
 21
1127.153
 31
0.0
  0
LINE
  5
401
330
1E
100
AcDbEntity
  8
0
100
AcDbLine
 10
150.983
 20
1129.153
 30
0.0
 11
152.397
 21
1129.153
 31
0.0
  0
LINE
  5
402
330
1E
100
AcDbEntity
  8
0
100
AcDbLine
 10
150.983
 20
1127.153
 30
0.0
 11
152.397
 21
1127.153
 31
0.0
  0
LINE
  5
403
330
1E
100
AcDbEntity
  8
0
100
AcDbLine
 10
150.983
 20
1127.153
 30
0.0
 11
150.983
 21
1129.153
 31
0.0
  0
LINE
  5
404
330
1E
100
AcDbEntity
  8
0
100
AcDbLine
 10
148.0
 20
1277.053
 30
0.0
 11
169.6999999999999
 21
1286.053
 31
0.0
  0
LINE
  5
405
330
1E
100
AcDbEntity
  8
0
100
AcDbLine
 10
138.0
 20
1294.453
 30
0.0
 11
164.5
 21
1305.452999999999
 31
0.0
  0
LINE
  5
406
330
1E
100
AcDbEntity
  8
0
100
AcDbLine
 10
167.1119999999999
 20
1127.153
 30
0.0
 11
167.1119999999999
 21
1129.153
 31
0.0
  0
LINE
  5
407
330
1E
100
AcDbEntity
  8
0
100
AcDbLine
 10
173.4309999999999
 20
1127.153
 30
0.0
 11
175.363
 21
1127.153
 31
0.0
  0
LINE
  5
408
330
1E
100
AcDbEntity
  8
0
100
AcDbLine
 10
175.363
 20
1127.153
 30
0.0
 11
175.363
 21
1129.153
 31
0.0
  0
LINE
  5
409
330
1E
100
AcDbEntity
  8
0
100
AcDbLine
 10
178.0
 20
1127.153
 30
0.0
 11
178.0
 21
1129.153
 31
0.0
  0
LINE
  5
40A
330
1E
100
AcDbEntity
  8
0
100
AcDbLine
 10
176.0
 20
1127.153
 30
0.0
 11
178.0
 21
1127.153
 31
0.0
  0
LINE
  5
40B
330
1E
100
AcDbEntity
  8
0
100
AcDbLine
 10
176.0
 20
1127.153
 30
0.0
 11
176.0
 21
1129.153
 31
0.0
  0
LINE
  5
40C
330
1E
100
AcDbEntity
  8
0
100
AcDbLine
 10
174.845
 20
1127.153
 30
0.0
 11
175.363
 21
1127.153
 31
0.0
  0
LINE
  5
40D
330
1E
100
AcDbEntity
  8
0
100
AcDbLine
 10
174.845
 20
1127.153
 30
0.0
 11
174.845
 21
1129.153
 31
0.0
  0
LINE
  5
40E
330
1E
100
AcDbEntity
  8
0
100
AcDbLine
 10
172.9129999999999
 20
1127.153
 30
0.0
 11
174.845
 21
1127.153
 31
0.0
  0
LINE
  5
40F
330
1E
100
AcDbEntity
  8
0
100
AcDbLine
 10
172.9129999999999
 20
1127.153
 30
0.0
 11
173.4309999999999
 21
1127.153
 31
0.0
  0
LINE
  5
410
330
1E
100
AcDbEntity
  8
0
100
AcDbLine
 10
172.9129999999999
 20
1127.153
 30
0.0
 11
172.9129999999999
 21
1129.153
 31
0.0
  0
LINE
  5
411
330
1E
100
AcDbEntity
  8
0
100
AcDbLine
 10
165.3799999999999
 20
1127.153
 30
0.0
 11
167.1119999999999
 21
1127.153
 31
0.0
  0
LINE
  5
412
330
1E
100
AcDbEntity
  8
0
100
AcDbLine
 10
171.8
 20
1129.153
 30
0.0
 11
180.7
 21
1129.153
 31
0.0
  0
LINE
  5
413
330
1E
100
AcDbEntity
  8
0
100
AcDbLine
 10
171.8
 20
1129.153
 30
0.0
 11
172.9129999999999
 21
1129.153
 31
0.0
  0
LINE
  5
414
330
1E
100
AcDbEntity
  8
0
100
AcDbLine
 10
167.1119999999999
 20
1129.153
 30
0.0
 11
167.1119999999999
 21
1127.153
 31
0.0
  0
LINE
  5
415
330
1E
100
AcDbEntity
  8
0
100
AcDbLine
 10
167.1119999999999
 20
1129.153
 30
0.0
 11
171.8
 21
1129.153
 31
0.0
  0
LINE
  5
416
330
1E
100
AcDbEntity
  8
0
100
AcDbLine
 10
166.1119999999999
 20
1129.153
 30
0.0
 11
166.1119999999999
 21
1127.153
 31
0.0
  0
LINE
  5
417
330
1E
100
AcDbEntity
  8
0
100
AcDbLine
 10
166.1119999999999
 20
1129.153
 30
0.0
 11
167.1119999999999
 21
1129.153
 31
0.0
  0
LINE
  5
418
330
1E
100
AcDbEntity
  8
0
100
AcDbLine
 10
175.363
 20
1129.153
 30
0.0
 11
175.363
 21
1127.153
 31
0.0
  0
LINE
  5
419
330
1E
100
AcDbEntity
  8
0
100
AcDbLine
 10
175.363
 20
1129.153
 30
0.0
 11
176.0
 21
1129.153
 31
0.0
  0
LINE
  5
41A
330
1E
100
AcDbEntity
  8
0
100
AcDbLine
 10
174.845
 20
1129.153
 30
0.0
 11
174.845
 21
1127.153
 31
0.0
  0
LINE
  5
41B
330
1E
100
AcDbEntity
  8
0
100
AcDbLine
 10
174.845
 20
1129.153
 30
0.0
 11
175.363
 21
1129.153
 31
0.0
  0
LINE
  5
41C
330
1E
100
AcDbEntity
  8
0
100
AcDbLine
 10
184.0
 20
1129.153
 30
0.0
 11
186.0
 21
1131.153
 31
0.0
  0
LINE
  5
41D
330
1E
100
AcDbEntity
  8
0
100
AcDbLine
 10
180.7
 20
1129.153
 30
0.0
 11
184.0
 21
1129.153
 31
0.0
  0
LINE
  5
41E
330
1E
100
AcDbEntity
  8
0
100
AcDbLine
 10
178.0
 20
1129.153
 30
0.0
 11
178.0
 21
1127.153
 31
0.0
  0
LINE
  5
41F
330
1E
100
AcDbEntity
  8
0
100
AcDbLine
 10
178.0
 20
1129.153
 30
0.0
 11
180.7
 21
1129.153
 31
0.0
  0
LINE
  5
420
330
1E
100
AcDbEntity
  8
0
100
AcDbLine
 10
173.5
 20
1131.153
 30
0.0
 11
182.6
 21
1131.153
 31
0.0
  0
LINE
  5
421
330
1E
100
AcDbEntity
  8
0
100
AcDbLine
 10
182.6
 20
1131.153
 30
0.0
 11
186.0
 21
1131.153
 31
0.0
  0
LINE
  5
422
330
1E
100
AcDbEntity
  8
0
100
AcDbLine
 10
186.0
 20
1131.153
 30
0.0
 11
186.0
 21
1133.153
 31
0.0
  0
LINE
  5
423
330
1E
100
AcDbEntity
  8
0
100
AcDbLine
 10
186.0
 20
1133.153
 30
0.0
 11
186.0
 21
1131.153
 31
0.0
  0
LINE
  5
424
330
1E
100
AcDbEntity
  8
0
100
AcDbLine
 10
184.0
 20
1154.152999999999
 30
0.0
 11
186.0
 21
1133.153
 31
0.0
  0
LINE
  5
425
330
1E
100
AcDbEntity
  8
0
100
AcDbLine
 10
182.0
 20
1159.153
 30
0.0
 11
184.0
 21
1154.152999999999
 31
0.0
  0
LINE
  5
426
330
1E
100
AcDbEntity
  8
0
100
AcDbLine
 10
178.0
 20
1162.152999999999
 30
0.0
 11
182.0
 21
1159.153
 31
0.0
  0
LINE
  5
427
330
1E
100
AcDbEntity
  8
0
100
AcDbLine
 10
176.0
 20
1129.153
 30
0.0
 11
176.0
 21
1127.153
 31
0.0
  0
LINE
  5
428
330
1E
100
AcDbEntity
  8
0
100
AcDbLine
 10
176.0
 20
1129.153
 30
0.0
 11
178.0
 21
1129.153
 31
0.0
  0
LINE
  5
429
330
1E
100
AcDbEntity
  8
0
100
AcDbLine
 10
172.9129999999999
 20
1129.153
 30
0.0
 11
172.9129999999999
 21
1127.153
 31
0.0
  0
LINE
  5
42A
330
1E
100
AcDbEntity
  8
0
100
AcDbLine
 10
172.9129999999999
 20
1129.153
 30
0.0
 11
174.845
 21
1129.153
 31
0.0
  0
LINE
  5
42B
330
1E
100
AcDbEntity
  8
0
100
AcDbLine
 10
166.1119999999999
 20
1127.153
 30
0.0
 11
167.1119999999999
 21
1127.153
 31
0.0
  0
LINE
  5
42C
330
1E
100
AcDbEntity
  8
0
100
AcDbLine
 10
166.1119999999999
 20
1127.153
 30
0.0
 11
166.1119999999999
 21
1129.153
 31
0.0
  0
LINE
  5
42D
330
1E
100
AcDbEntity
  8
0
100
AcDbLine
 10
329.4842
 20
679.1039999999999
 30
0.0
 11
336.7604799999999
 21
669.707
 31
0.0
  0
LINE
  5
42E
330
1E
100
AcDbEntity
  8
0
100
AcDbLine
 10
325.19
 20
689.6669999999999
 30
0.0
 11
326.3158
 21
689.0169999999999
 31
0.0
  0
LINE
  5
42F
330
1E
100
AcDbEntity
  8
0
100
AcDbLine
 10
325.19
 20
689.6669999999999
 30
0.0
 11
329.4842
 21
679.1039999999999
 31
0.0
  0
LINE
  5
430
330
1E
100
AcDbEntity
  8
0
100
AcDbLine
 10
326.3158
 20
689.0169999999999
 30
0.0
 11
329.5201
 21
687.1669999999999
 31
0.0
  0
LINE
  5
431
330
1E
100
AcDbEntity
  8
0
100
AcDbLine
 10
329.5201
 20
687.1669999999999
 30
0.0
 11
334.62965
 21
684.217
 31
0.0
  0
LINE
  5
432
330
1E
100
AcDbEntity
  8
0
100
AcDbLine
 10
334.62965
 20
684.217
 30
0.0
 11
341.2980499999999
 21
680.3669999999999
 31
0.0
  0
LINE
  5
433
330
1E
100
AcDbEntity
  8
0
100
AcDbLine
 10
329.7683999999999
 20
692.797
 30
0.0
 11
335.311
 21
689.597
 31
0.0
  0
LINE
  5
434
330
1E
100
AcDbEntity
  8
0
100
AcDbLine
 10
336.7604799999999
 20
669.707
 30
0.0
 11
345.28676
 21
662.475
 31
0.0
  0
LINE
  5
435
330
1E
100
AcDbEntity
  8
0
100
AcDbLine
 10
335.311
 20
689.597
 30
0.0
 11
342.49901
 21
685.447
 31
0.0
  0
LINE
  5
436
330
1E
100
AcDbEntity
  8
0
100
AcDbLine
 10
329.3238999999999
 20
698.8269999999999
 30
0.0
 11
336.02824
 21
703.0389999999999
 31
0.0
  0
LINE
  5
437
330
1E
100
AcDbEntity
  8
0
100
AcDbLine
 10
336.02824
 20
703.0389999999999
 30
0.0
 11
344.37799
 21
706.301
 31
0.0
  0
LINE
  5
438
330
1E
100
AcDbEntity
  8
0
100
AcDbLine
 10
326.8238999999999
 20
694.4969999999999
 30
0.0
 11
329.3238999999999
 21
698.8269999999999
 31
0.0
  0
LINE
  5
439
330
1E
100
AcDbEntity
  8
0
100
AcDbLine
 10
326.8238999999999
 20
694.4969999999999
 30
0.0
 11
329.7683999999999
 21
692.797
 31
0.0
  0
LINE
  5
43A
330
1E
100
AcDbEntity
  8
0
100
AcDbLine
 10
351.00001
 20
372.153
 30
0.0
 11
352.00001
 21
374.653
 31
0.0
  0
LINE
  5
43B
330
1E
100
AcDbEntity
  8
0
100
AcDbLine
 10
352.00001
 20
374.653
 30
0.0
 11
353.5
 21
376.653
 31
0.0
  0
LINE
  5
43C
330
1E
100
AcDbEntity
  8
0
100
AcDbLine
 10
353.5
 20
376.653
 30
0.0
 11
355.5
 21
378.153
 31
0.0
  0
LINE
  5
43D
330
1E
100
AcDbEntity
  8
0
100
AcDbLine
 10
355.5
 20
378.153
 30
0.0
 11
358.0
 21
378.653
 31
0.0
  0
LINE
  5
43E
330
1E
100
AcDbEntity
  8
0
100
AcDbLine
 10
365.0
 20
372.153
 30
0.0
 11
365.5
 21
368.653
 31
0.0
  0
LINE
  5
43F
330
1E
100
AcDbEntity
  8
0
100
AcDbLine
 10
364.0
 20
374.653
 30
0.0
 11
365.0
 21
372.153
 31
0.0
  0
LINE
  5
440
330
1E
100
AcDbEntity
  8
0
100
AcDbLine
 10
362.5
 20
376.653
 30
0.0
 11
364.0
 21
374.653
 31
0.0
  0
LINE
  5
441
330
1E
100
AcDbEntity
  8
0
100
AcDbLine
 10
360.4999999999999
 20
378.153
 30
0.0
 11
362.5
 21
376.653
 31
0.0
  0
LINE
  5
442
330
1E
100
AcDbEntity
  8
0
100
AcDbLine
 10
355.6791
 20
656.475
 30
0.0
 11
366.2053
 21
652.707
 31
0.0
  0
LINE
  5
443
330
1E
100
AcDbEntity
  8
0
100
AcDbLine
 10
354.9862
 20
656.875
 30
0.0
 11
355.6791
 21
656.475
 31
0.0
  0
LINE
  5
446
330
1E
100
AcDbEntity
  8
0
100
AcDbLine
 10
345.45997
 20
662.375
 30
0.0
 11
345.97958
 21
662.0750000000001
 31
0.0
  0
LINE
  5
448
330
1E
100
AcDbEntity
  8
0
100
AcDbLine
 10
366.2053
 20
652.707
 30
0.0
 11
377.9816
 21
651.104
 31
0.0
  0
LINE
  5
449
330
1E
100
AcDbEntity
  8
0
100
AcDbLine
 10
365.5468
 20
666.3669999999999
 30
0.0
 11
373.1678
 21
661.967
 31
0.0
  0
LINE
  5
44A
330
1E
100
AcDbEntity
  8
0
100
AcDbLine
 10
341.2980499999999
 20
680.3669999999999
 30
0.0
 11
348.91907
 21
675.9669999999999
 31
0.0
  0
LINE
  5
44B
330
1E
100
AcDbEntity
  8
0
100
AcDbLine
 10
348.91907
 20
675.9669999999999
 30
0.0
 11
357.2328999999999
 21
671.1669999999998
 31
0.0
  0
LINE
  5
44C
330
1E
100
AcDbEntity
  8
0
100
AcDbLine
 10
342.49901
 20
685.447
 30
0.0
 11
348.56119
 21
681.9469999999999
 31
0.0
  0
LINE
  5
44D
330
1E
100
AcDbEntity
  8
0
100
AcDbLine
 10
357.2328999999999
 20
671.1669999999998
 30
0.0
 11
365.5468
 21
666.3669999999999
 31
0.0
  0
LINE
  5
44E
330
1E
100
AcDbEntity
  8
0
100
AcDbLine
 10
373.1678
 20
661.967
 30
0.0
 11
379.8362
 21
658.117
 31
0.0
  0
LINE
  5
44F
330
1E
100
AcDbEntity
  8
0
100
AcDbLine
 10
370.9046
 20
669.047
 30
0.0
 11
376.9667999999999
 21
665.547
 31
0.0
  0
LINE
  5
450
330
1E
100
AcDbEntity
  8
0
100
AcDbLine
 10
344.37799
 20
706.301
 30
0.0
 11
354.0464
 21
707.6469999999999
 31
0.0
  0
LINE
  5
451
330
1E
100
AcDbEntity
  8
0
100
AcDbLine
 10
354.0464
 20
707.6469999999999
 30
0.0
 11
371.5187999999999
 21
703.9099999999999
 31
0.0
  0
LINE
  5
452
330
1E
100
AcDbEntity
  8
0
100
AcDbLine
 10
371.5187999999999
 20
703.9099999999999
 30
0.0
 11
375.2328999999999
 21
702.3430000000001
 31
0.0
  0
LINE
  5
453
330
1E
100
AcDbEntity
  8
0
100
AcDbLine
 10
377.9816
 20
651.104
 30
0.0
 11
389.2758999999999
 21
652.6669999999999
 31
0.0
  0
LINE
  5
454
330
1E
100
AcDbEntity
  8
0
100
AcDbLine
 10
388.1499999999999
 20
653.317
 30
0.0
 11
389.2758999999999
 21
652.6669999999999
 31
0.0
  0
LINE
  5
455
330
1E
100
AcDbEntity
  8
0
100
AcDbLine
 10
384.9457
 20
655.1669999999999
 30
0.0
 11
388.1499999999999
 21
653.317
 31
0.0
  0
LINE
  5
456
330
1E
100
AcDbEntity
  8
0
100
AcDbLine
 10
379.8362
 20
658.117
 30
0.0
 11
384.9457
 21
655.1669999999999
 31
0.0
  0
LINE
  5
457
330
1E
100
AcDbEntity
  8
0
100
AcDbLine
 10
384.1548
 20
661.3969999999999
 30
0.0
 11
389.6974
 21
658.197
 31
0.0
  0
LINE
  5
458
330
1E
100
AcDbEntity
  8
0
100
AcDbLine
 10
376.9667999999999
 20
665.547
 30
0.0
 11
384.1548
 21
661.3969999999999
 31
0.0
  0
LINE
  5
459
330
1E
100
AcDbEntity
  8
0
100
AcDbLine
 10
378.4469999999999
 20
699.9099999999999
 30
0.0
 11
390.4864
 21
687.763
 31
0.0
  0
LINE
  5
45A
330
1E
100
AcDbEntity
  8
0
100
AcDbLine
 10
375.2328999999999
 20
702.3430000000001
 30
0.0
 11
378.4469999999999
 21
699.9099999999999
 31
0.0
  0
LINE
  5
45B
330
1E
100
AcDbEntity
  8
0
100
AcDbLine
 10
358.0
 20
378.653
 30
0.0
 11
360.4999999999999
 21
378.153
 31
0.0
  0
LINE
  5
45C
330
1E
100
AcDbEntity
  8
0
100
AcDbLine
 10
339.0
 20
1252.653
 30
0.0
 11
468.0
 21
1252.653
 31
0.0
  0
LINE
  5
45D
330
1E
100
AcDbEntity
  8
0
100
AcDbLine
 10
314.1
 20
1253.853
 30
0.0
 11
339.0
 21
1252.653
 31
0.0
  0
LINE
  5
45E
330
1E
100
AcDbEntity
  8
0
100
AcDbLine
 10
287.3
 20
1257.353
 30
0.0
 11
314.1
 21
1253.853
 31
0.0
  0
LINE
  5
45F
330
1E
100
AcDbEntity
  8
0
100
AcDbLine
 10
339.0
 20
1272.653
 30
0.0
 11
468.0
 21
1272.653
 31
0.0
  0
LINE
  5
460
330
1E
100
AcDbEntity
  8
0
100
AcDbLine
 10
315.8999999999999
 20
1273.753
 30
0.0
 11
339.0
 21
1272.653
 31
0.0
  0
LINE
  5
461
330
1E
100
AcDbEntity
  8
0
100
AcDbLine
 10
290.8
 20
1277.053
 30
0.0
 11
315.8999999999999
 21
1273.753
 31
0.0
  0
LINE
  5
462
330
1E
100
AcDbEntity
  8
0
100
AcDbLine
 10
269.6
 20
1261.653
 30
0.0
 11
287.3
 21
1257.353
 31
0.0
  0
LINE
  5
463
330
1E
100
AcDbEntity
  8
0
100
AcDbLine
 10
252.5999999999999
 20
1268.253
 30
0.0
 11
269.6
 21
1261.653
 31
0.0
  0
LINE
  5
464
330
1E
100
AcDbEntity
  8
0
100
AcDbLine
 10
274.8
 20
1280.953
 30
0.0
 11
290.8
 21
1277.053
 31
0.0
  0
LINE
  5
465
330
1E
100
AcDbEntity
  8
0
100
AcDbLine
 10
238.0
 20
1277.053
 30
0.0
 11
252.5999999999999
 21
1268.253
 31
0.0
  0
LINE
  5
466
330
1E
100
AcDbEntity
  8
0
100
AcDbLine
 10
216.3
 20
1286.053
 30
0.0
 11
238.0
 21
1277.053
 31
0.0
  0
LINE
  5
467
330
1E
100
AcDbEntity
  8
0
100
AcDbLine
 10
193.0
 20
1289.153
 30
0.0
 11
216.3
 21
1286.053
 31
0.0
  0
LINE
  5
468
330
1E
100
AcDbEntity
  8
0
100
AcDbLine
 10
260.1999999999999
 20
1286.653
 30
0.0
 11
274.8
 21
1280.953
 31
0.0
  0
LINE
  5
469
330
1E
100
AcDbEntity
  8
0
100
AcDbLine
 10
248.0
 20
1294.453
 30
0.0
 11
260.1999999999999
 21
1286.653
 31
0.0
  0
LINE
  5
46A
330
1E
100
AcDbEntity
  8
0
100
AcDbLine
 10
221.4999999999999
 20
1305.452999999999
 30
0.0
 11
248.0
 21
1294.453
 31
0.0
  0
LINE
  5
46B
330
1E
100
AcDbEntity
  8
0
100
AcDbLine
 10
193.0
 20
1309.153
 30
0.0
 11
221.4999999999999
 21
1305.452999999999
 31
0.0
  0
LINE
  5
46C
330
1E
100
AcDbEntity
  8
0
100
AcDbLine
 10
169.6999999999999
 20
1286.053
 30
0.0
 11
193.0
 21
1289.153
 31
0.0
  0
LINE
  5
46D
330
1E
100
AcDbEntity
  8
0
100
AcDbLine
 10
164.5
 20
1305.452999999999
 30
0.0
 11
193.0
 21
1309.153
 31
0.0
  0
LINE
  5
46E
330
1E
100
AcDbEntity
  8
0
100
AcDbLine
 10
389.0
 20
368.653
 30
0.0
 11
389.0
 21
367.753
 31
0.0
  0
LINE
  5
46F
330
1E
100
AcDbEntity
  8
0
100
AcDbLine
 10
389.0
 20
368.653
 30
0.0
 11
391.0
 21
370.653
 31
0.0
  0
LINE
  5
470
330
1E
100
AcDbEntity
  8
0
100
AcDbLine
 10
389.0
 20
367.753
 30
0.0
 11
389.0
 21
365.153
 31
0.0
  0
LINE
  5
471
330
1E
100
AcDbEntity
  8
0
100
AcDbLine
 10
389.0
 20
367.753
 30
0.0
 11
389.0
 21
368.653
 31
0.0
  0
LINE
  5
472
330
1E
100
AcDbEntity
  8
0
100
AcDbLine
 10
389.0
 20
365.153
 30
0.0
 11
389.0
 21
361.053
 31
0.0
  0
LINE
  5
473
330
1E
100
AcDbEntity
  8
0
100
AcDbLine
 10
389.0
 20
365.153
 30
0.0
 11
389.0
 21
367.753
 31
0.0
  0
LINE
  5
474
330
1E
100
AcDbEntity
  8
0
100
AcDbLine
 10
389.0
 20
365.153
 30
0.0
 11
389.0
 21
364.653
 31
0.0
  0
LINE
  5
475
330
1E
100
AcDbEntity
  8
0
100
AcDbLine
 10
389.0
 20
361.053
 30
0.0
 11
389.0
 21
355.553
 31
0.0
  0
LINE
  5
476
330
1E
100
AcDbEntity
  8
0
100
AcDbLine
 10
389.0
 20
361.053
 30
0.0
 11
389.0
 21
365.153
 31
0.0
  0
LINE
  5
477
330
1E
100
AcDbEntity
  8
0
100
AcDbLine
 10
389.0
 20
355.553
 30
0.0
 11
389.0
 21
349.353
 31
0.0
  0
LINE
  5
478
330
1E
100
AcDbEntity
  8
0
100
AcDbLine
 10
389.0
 20
355.553
 30
0.0
 11
389.0
 21
361.053
 31
0.0
  0
LINE
  5
479
330
1E
100
AcDbEntity
  8
0
100
AcDbLine
 10
389.0
 20
349.353
 30
0.0
 11
389.0
 21
342.653
 31
0.0
  0
LINE
  5
47A
330
1E
100
AcDbEntity
  8
0
100
AcDbLine
 10
389.0
 20
349.353
 30
0.0
 11
389.0
 21
355.553
 31
0.0
  0
LINE
  5
47B
330
1E
100
AcDbEntity
  8
0
100
AcDbLine
 10
389.0
 20
342.653
 30
0.0
 11
389.0
 21
335.953
 31
0.0
  0
LINE
  5
47C
330
1E
100
AcDbEntity
  8
0
100
AcDbLine
 10
389.0
 20
342.653
 30
0.0
 11
389.0
 21
349.353
 31
0.0
  0
LINE
  5
47D
330
1E
100
AcDbEntity
  8
0
100
AcDbLine
 10
389.0
 20
342.653
 30
0.0
 11
389.0
 21
336.953
 31
0.0
  0
LINE
  5
47E
330
1E
100
AcDbEntity
  8
0
100
AcDbLine
 10
389.0
 20
320.653
 30
0.0
 11
389.0
 21
320.153
 31
0.0
  0
LINE
  5
47F
330
1E
100
AcDbEntity
  8
0
100
AcDbLine
 10
389.0
 20
317.553
 30
0.0
 11
389.0
 21
320.153
 31
0.0
  0
LINE
  5
480
330
1E
100
AcDbEntity
  8
0
100
AcDbLine
 10
389.0
 20
317.553
 30
0.0
 11
389.0
 21
316.653
 31
0.0
  0
LINE
  5
481
330
1E
100
AcDbEntity
  8
0
100
AcDbLine
 10
391.0
 20
315.653
 30
0.0
 11
391.0
 21
314.653
 31
0.0
  0
LINE
  5
482
330
1E
100
AcDbEntity
  8
0
100
AcDbLine
 10
391.0
 20
315.653
 30
0.0
 11
391.0
 21
318.353
 31
0.0
  0
LINE
  5
483
330
1E
100
AcDbEntity
  8
0
100
AcDbLine
 10
391.0
 20
318.353
 30
0.0
 11
391.0
 21
315.653
 31
0.0
  0
LINE
  5
484
330
1E
100
AcDbEntity
  8
0
100
AcDbLine
 10
391.0
 20
318.353
 30
0.0
 11
391.0
 21
322.853
 31
0.0
  0
LINE
  5
485
330
1E
100
AcDbEntity
  8
0
100
AcDbLine
 10
435.0
 20
318.353
 30
0.0
 11
435.0
 21
315.653
 31
0.0
  0
LINE
  5
486
330
1E
100
AcDbEntity
  8
0
100
AcDbLine
 10
435.0
 20
318.353
 30
0.0
 11
435.0
 21
322.853
 31
0.0
  0
LINE
  5
487
330
1E
100
AcDbEntity
  8
0
100
AcDbLine
 10
436.0
 20
316.653
 30
0.0
 11
436.0
 21
315.653
 31
0.0
  0
LINE
  5
488
330
1E
100
AcDbEntity
  8
0
100
AcDbLine
 10
436.0
 20
316.653
 30
0.0
 11
436.0
 21
319.253
 31
0.0
  0
LINE
  5
489
330
1E
100
AcDbEntity
  8
0
100
AcDbLine
 10
391.0
 20
322.853
 30
0.0
 11
391.0
 21
318.353
 31
0.0
  0
LINE
  5
48A
330
1E
100
AcDbEntity
  8
0
100
AcDbLine
 10
391.0
 20
322.853
 30
0.0
 11
391.0
 21
328.753
 31
0.0
  0
LINE
  5
48B
330
1E
100
AcDbEntity
  8
0
100
AcDbLine
 10
391.0
 20
328.753
 30
0.0
 11
391.0
 21
322.853
 31
0.0
  0
LINE
  5
48C
330
1E
100
AcDbEntity
  8
0
100
AcDbLine
 10
391.0
 20
328.753
 30
0.0
 11
391.0
 21
335.453
 31
0.0
  0
LINE
  5
48D
330
1E
100
AcDbEntity
  8
0
100
AcDbLine
 10
435.0
 20
322.853
 30
0.0
 11
435.0
 21
318.353
 31
0.0
  0
LINE
  5
48E
330
1E
100
AcDbEntity
  8
0
100
AcDbLine
 10
435.0
 20
322.853
 30
0.0
 11
435.0
 21
328.753
 31
0.0
  0
LINE
  5
48F
330
1E
100
AcDbEntity
  8
0
100
AcDbLine
 10
435.0
 20
328.753
 30
0.0
 11
435.0
 21
322.853
 31
0.0
  0
LINE
  5
490
330
1E
100
AcDbEntity
  8
0
100
AcDbLine
 10
435.0
 20
328.753
 30
0.0
 11
435.0
 21
335.453
 31
0.0
  0
LINE
  5
491
330
1E
100
AcDbEntity
  8
0
100
AcDbLine
 10
436.0
 20
319.253
 30
0.0
 11
436.0
 21
316.653
 31
0.0
  0
LINE
  5
492
330
1E
100
AcDbEntity
  8
0
100
AcDbLine
 10
436.0
 20
319.253
 30
0.0
 11
436.0
 21
323.553
 31
0.0
  0
LINE
  5
493
330
1E
100
AcDbEntity
  8
0
100
AcDbLine
 10
436.0
 20
323.553
 30
0.0
 11
436.0
 21
319.253
 31
0.0
  0
LINE
  5
494
330
1E
100
AcDbEntity
  8
0
100
AcDbLine
 10
436.0
 20
323.553
 30
0.0
 11
436.0
 21
329.253
 31
0.0
  0
LINE
  5
495
330
1E
100
AcDbEntity
  8
0
100
AcDbLine
 10
437.0
 20
318.353
 30
0.0
 11
437.0
 21
315.653
 31
0.0
  0
LINE
  5
496
330
1E
100
AcDbEntity
  8
0
100
AcDbLine
 10
437.0
 20
318.353
 30
0.0
 11
437.0
 21
322.853
 31
0.0
  0
LINE
  5
497
330
1E
100
AcDbEntity
  8
0
100
AcDbLine
 10
437.0
 20
322.853
 30
0.0
 11
437.0
 21
318.353
 31
0.0
  0
LINE
  5
498
330
1E
100
AcDbEntity
  8
0
100
AcDbLine
 10
437.0
 20
322.853
 30
0.0
 11
437.0
 21
328.753
 31
0.0
  0
LINE
  5
499
330
1E
100
AcDbEntity
  8
0
100
AcDbLine
 10
391.0
 20
335.453
 30
0.0
 11
391.0
 21
328.753
 31
0.0
  0
LINE
  5
49A
330
1E
100
AcDbEntity
  8
0
100
AcDbLine
 10
391.0
 20
335.453
 30
0.0
 11
391.0
 21
342.653
 31
0.0
  0
LINE
  5
49B
330
1E
100
AcDbEntity
  8
0
100
AcDbLine
 10
435.0
 20
335.453
 30
0.0
 11
435.0
 21
328.753
 31
0.0
  0
LINE
  5
49C
330
1E
100
AcDbEntity
  8
0
100
AcDbLine
 10
435.0
 20
335.453
 30
0.0
 11
435.0
 21
342.653
 31
0.0
  0
LINE
  5
49D
330
1E
100
AcDbEntity
  8
0
100
AcDbLine
 10
436.0
 20
329.253
 30
0.0
 11
436.0
 21
323.553
 31
0.0
  0
LINE
  5
49E
330
1E
100
AcDbEntity
  8
0
100
AcDbLine
 10
436.0
 20
329.253
 30
0.0
 11
436.0
 21
335.753
 31
0.0
  0
LINE
  5
49F
330
1E
100
AcDbEntity
  8
0
100
AcDbLine
 10
391.0
 20
342.653
 30
0.0
 11
391.0
 21
335.453
 31
0.0
  0
LINE
  5
4A0
330
1E
100
AcDbEntity
  8
0
100
AcDbLine
 10
391.0
 20
342.653
 30
0.0
 11
391.0
 21
349.853
 31
0.0
  0
LINE
  5
4A1
330
1E
100
AcDbEntity
  8
0
100
AcDbLine
 10
435.0
 20
342.653
 30
0.0
 11
435.0
 21
335.453
 31
0.0
  0
LINE
  5
4A2
330
1E
100
AcDbEntity
  8
0
100
AcDbLine
 10
435.0
 20
342.653
 30
0.0
 11
435.0
 21
349.853
 31
0.0
  0
LINE
  5
4A3
330
1E
100
AcDbEntity
  8
0
100
AcDbLine
 10
436.0
 20
335.753
 30
0.0
 11
436.0
 21
329.253
 31
0.0
  0
LINE
  5
4A4
330
1E
100
AcDbEntity
  8
0
100
AcDbLine
 10
436.0
 20
335.753
 30
0.0
 11
436.0
 21
342.653
 31
0.0
  0
LINE
  5
4A5
330
1E
100
AcDbEntity
  8
0
100
AcDbLine
 10
436.0
 20
342.653
 30
0.0
 11
436.0
 21
335.753
 31
0.0
  0
LINE
  5
4A6
330
1E
100
AcDbEntity
  8
0
100
AcDbLine
 10
436.0
 20
342.653
 30
0.0
 11
436.0
 21
349.553
 31
0.0
  0
LINE
  5
4A7
330
1E
100
AcDbEntity
  8
0
100
AcDbLine
 10
437.0
 20
328.753
 30
0.0
 11
437.0
 21
322.853
 31
0.0
  0
LINE
  5
4A8
330
1E
100
AcDbEntity
  8
0
100
AcDbLine
 10
437.0
 20
328.753
 30
0.0
 11
437.0
 21
335.453
 31
0.0
  0
LINE
  5
4A9
330
1E
100
AcDbEntity
  8
0
100
AcDbLine
 10
437.0
 20
335.453
 30
0.0
 11
437.0
 21
328.753
 31
0.0
  0
LINE
  5
4AA
330
1E
100
AcDbEntity
  8
0
100
AcDbLine
 10
437.0
 20
335.453
 30
0.0
 11
437.0
 21
342.653
 31
0.0
  0
LINE
  5
4AB
330
1E
100
AcDbEntity
  8
0
100
AcDbLine
 10
391.0
 20
349.853
 30
0.0
 11
391.0
 21
342.653
 31
0.0
  0
LINE
  5
4AC
330
1E
100
AcDbEntity
  8
0
100
AcDbLine
 10
391.0
 20
349.853
 30
0.0
 11
391.0
 21
356.553
 31
0.0
  0
LINE
  5
4AD
330
1E
100
AcDbEntity
  8
0
100
AcDbLine
 10
435.0
 20
349.853
 30
0.0
 11
435.0
 21
342.653
 31
0.0
  0
LINE
  5
4AE
330
1E
100
AcDbEntity
  8
0
100
AcDbLine
 10
435.0
 20
349.853
 30
0.0
 11
435.0
 21
356.553
 31
0.0
  0
LINE
  5
4AF
330
1E
100
AcDbEntity
  8
0
100
AcDbLine
 10
391.0
 20
356.553
 30
0.0
 11
391.0
 21
349.853
 31
0.0
  0
LINE
  5
4B0
330
1E
100
AcDbEntity
  8
0
100
AcDbLine
 10
391.0
 20
356.553
 30
0.0
 11
391.0
 21
362.453
 31
0.0
  0
LINE
  5
4B1
330
1E
100
AcDbEntity
  8
0
100
AcDbLine
 10
435.0
 20
356.553
 30
0.0
 11
435.0
 21
349.853
 31
0.0
  0
LINE
  5
4B2
330
1E
100
AcDbEntity
  8
0
100
AcDbLine
 10
435.0
 20
356.553
 30
0.0
 11
435.0
 21
362.453
 31
0.0
  0
LINE
  5
4B3
330
1E
100
AcDbEntity
  8
0
100
AcDbLine
 10
436.0
 20
356.053
 30
0.0
 11
436.0
 21
349.553
 31
0.0
  0
LINE
  5
4B4
330
1E
100
AcDbEntity
  8
0
100
AcDbLine
 10
436.0
 20
356.053
 30
0.0
 11
436.0
 21
361.753
 31
0.0
  0
LINE
  5
4B5
330
1E
100
AcDbEntity
  8
0
100
AcDbLine
 10
436.0
 20
349.553
 30
0.0
 11
436.0
 21
342.653
 31
0.0
  0
LINE
  5
4B6
330
1E
100
AcDbEntity
  8
0
100
AcDbLine
 10
436.0
 20
349.553
 30
0.0
 11
436.0
 21
356.053
 31
0.0
  0
LINE
  5
4B7
330
1E
100
AcDbEntity
  8
0
100
AcDbLine
 10
391.0
 20
362.453
 30
0.0
 11
391.0
 21
356.553
 31
0.0
  0
LINE
  5
4B8
330
1E
100
AcDbEntity
  8
0
100
AcDbLine
 10
391.0
 20
362.453
 30
0.0
 11
391.0
 21
366.953
 31
0.0
  0
LINE
  5
4B9
330
1E
100
AcDbEntity
  8
0
100
AcDbLine
 10
435.0
 20
362.453
 30
0.0
 11
435.0
 21
356.553
 31
0.0
  0
LINE
  5
4BA
330
1E
100
AcDbEntity
  8
0
100
AcDbLine
 10
435.0
 20
362.453
 30
0.0
 11
435.0
 21
366.953
 31
0.0
  0
LINE
  5
4BB
330
1E
100
AcDbEntity
  8
0
100
AcDbLine
 10
391.0
 20
366.953
 30
0.0
 11
391.0
 21
362.453
 31
0.0
  0
LINE
  5
4BC
330
1E
100
AcDbEntity
  8
0
100
AcDbLine
 10
391.0
 20
366.953
 30
0.0
 11
391.0
 21
369.653
 31
0.0
  0
LINE
  5
4BD
330
1E
100
AcDbEntity
  8
0
100
AcDbLine
 10
435.0
 20
366.953
 30
0.0
 11
435.0
 21
362.453
 31
0.0
  0
LINE
  5
4BE
330
1E
100
AcDbEntity
  8
0
100
AcDbLine
 10
435.0
 20
366.953
 30
0.0
 11
435.0
 21
369.653
 31
0.0
  0
LINE
  5
4BF
330
1E
100
AcDbEntity
  8
0
100
AcDbLine
 10
436.0
 20
366.053
 30
0.0
 11
436.0
 21
361.753
 31
0.0
  0
LINE
  5
4C0
330
1E
100
AcDbEntity
  8
0
100
AcDbLine
 10
436.0
 20
366.053
 30
0.0
 11
436.0
 21
368.653
 31
0.0
  0
LINE
  5
4C1
330
1E
100
AcDbEntity
  8
0
100
AcDbLine
 10
436.0
 20
361.753
 30
0.0
 11
436.0
 21
356.053
 31
0.0
  0
LINE
  5
4C2
330
1E
100
AcDbEntity
  8
0
100
AcDbLine
 10
436.0
 20
361.753
 30
0.0
 11
436.0
 21
366.053
 31
0.0
  0
LINE
  5
4C3
330
1E
100
AcDbEntity
  8
0
100
AcDbLine
 10
391.0
 20
369.653
 30
0.0
 11
391.0
 21
366.953
 31
0.0
  0
LINE
  5
4C4
330
1E
100
AcDbEntity
  8
0
100
AcDbLine
 10
391.0
 20
369.653
 30
0.0
 11
391.0
 21
370.653
 31
0.0
  0
LINE
  5
4C5
330
1E
100
AcDbEntity
  8
0
100
AcDbLine
 10
435.0
 20
369.653
 30
0.0
 11
435.0
 21
366.953
 31
0.0
  0
LINE
  5
4C6
330
1E
100
AcDbEntity
  8
0
100
AcDbLine
 10
435.0
 20
369.653
 30
0.0
 11
435.0
 21
370.653
 31
0.0
  0
LINE
  5
4C7
330
1E
100
AcDbEntity
  8
0
100
AcDbLine
 10
391.0
 20
370.653
 30
0.0
 11
391.0
 21
369.653
 31
0.0
  0
LINE
  5
4C8
330
1E
100
AcDbEntity
  8
0
100
AcDbLine
 10
391.0
 20
370.653
 30
0.0
 11
435.0
 21
370.653
 31
0.0
  0
LINE
  5
4C9
330
1E
100
AcDbEntity
  8
0
100
AcDbLine
 10
435.0
 20
370.653
 30
0.0
 11
435.0
 21
369.653
 31
0.0
  0
LINE
  5
4CA
330
1E
100
AcDbEntity
  8
0
100
AcDbLine
 10
435.0
 20
370.653
 30
0.0
 11
436.0
 21
369.653
 31
0.0
  0
LINE
  5
4CB
330
1E
100
AcDbEntity
  8
0
100
AcDbLine
 10
436.0
 20
369.653
 30
0.0
 11
436.0
 21
368.653
 31
0.0
  0
LINE
  5
4CC
330
1E
100
AcDbEntity
  8
0
100
AcDbLine
 10
436.0
 20
369.653
 30
0.0
 11
437.0
 21
370.653
 31
0.0
  0
LINE
  5
4CD
330
1E
100
AcDbEntity
  8
0
100
AcDbLine
 10
436.0
 20
368.653
 30
0.0
 11
436.0
 21
366.053
 31
0.0
  0
LINE
  5
4CE
330
1E
100
AcDbEntity
  8
0
100
AcDbLine
 10
436.0
 20
368.653
 30
0.0
 11
436.0
 21
369.653
 31
0.0
  0
LINE
  5
4CF
330
1E
100
AcDbEntity
  8
0
100
AcDbLine
 10
389.6974
 20
658.197
 30
0.0
 11
392.6419
 21
656.4969999999999
 31
0.0
  0
LINE
  5
4D0
330
1E
100
AcDbEntity
  8
0
100
AcDbLine
 10
390.4864
 20
687.763
 30
0.0
 11
391.8772999999999
 21
682.572
 31
0.0
  0
LINE
  5
4D1
330
1E
100
AcDbEntity
  8
0
100
AcDbLine
 10
391.8772999999999
 20
682.572
 30
0.0
 11
392.5362
 21
680.1139999999999
 31
0.0
  0
LINE
  5
4D2
330
1E
100
AcDbEntity
  8
0
100
AcDbLine
 10
392.5362
 20
680.1139999999999
 30
0.0
 11
393.2316
 21
677.518
 31
0.0
  0
LINE
  5
4D3
330
1E
100
AcDbEntity
  8
0
100
AcDbLine
 10
390.4864
 20
687.763
 30
0.0
 11
407.3738999999999
 21
678.013
 31
0.0
  0
LINE
  5
4D4
330
1E
100
AcDbEntity
  8
0
100
AcDbLine
 10
389.2758999999999
 20
652.6669999999999
 30
0.0
 11
392.6419
 21
656.4969999999999
 31
0.0
  0
LINE
  5
4D5
330
1E
100
AcDbEntity
  8
0
100
AcDbLine
 10
395.1419
 20
660.827
 30
0.0
 11
395.9768
 21
667.273
 31
0.0
  0
LINE
  5
4D6
330
1E
100
AcDbEntity
  8
0
100
AcDbLine
 10
436.7879
 20
633.3959999999999
 30
0.0
 11
443.93
 21
625.6889999999999
 31
0.0
  0
LINE
  5
4D7
330
1E
100
AcDbEntity
  8
0
100
AcDbLine
 10
427.5248
 20
642.518
 30
0.0
 11
436.7879
 21
633.3959999999999
 31
0.0
  0
LINE
  5
4D8
330
1E
100
AcDbEntity
  8
0
100
AcDbLine
 10
418.686
 20
650.6499999999999
 30
0.0
 11
427.5248
 21
642.518
 31
0.0
  0
LINE
  5
4D9
330
1E
100
AcDbEntity
  8
0
100
AcDbLine
 10
429.9997
 20
661.9639999999999
 30
0.0
 11
439.0507
 21
654.044
 31
0.0
  0
LINE
  5
4DA
330
1E
100
AcDbEntity
  8
0
100
AcDbLine
 10
415.5746999999999
 20
665.9229999999999
 30
0.0
 11
416.989
 21
667.338
 31
0.0
  0
LINE
  5
4DB
330
1E
100
AcDbEntity
  8
0
100
AcDbLine
 10
414.1605
 20
664.5089999999998
 30
0.0
 11
415.5746999999999
 21
665.9229999999999
 31
0.0
  0
LINE
  5
4DC
330
1E
100
AcDbEntity
  8
0
100
AcDbLine
 10
412.6755999999999
 20
663.0239999999998
 30
0.0
 11
414.1605
 21
664.5089999999998
 31
0.0
  0
LINE
  5
4DD
330
1E
100
AcDbEntity
  8
0
100
AcDbLine
 10
411.3321
 20
661.681
 30
0.0
 11
412.6755999999999
 21
663.0239999999998
 31
0.0
  0
LINE
  5
4DE
330
1E
100
AcDbEntity
  8
0
100
AcDbLine
 10
410.13
 20
660.4789999999999
 30
0.0
 11
411.3321
 21
661.681
 31
0.0
  0
LINE
  5
4DF
330
1E
100
AcDbEntity
  8
0
100
AcDbLine
 10
409.2814999999999
 20
659.63
 30
0.0
 11
410.13
 21
660.4789999999999
 31
0.0
  0
LINE
  5
4E0
330
1E
100
AcDbEntity
  8
0
100
AcDbLine
 10
408.7158
 20
659.0639999999999
 30
0.0
 11
409.2814999999999
 21
659.63
 31
0.0
  0
LINE
  5
4E1
330
1E
100
AcDbEntity
  8
0
100
AcDbLine
 10
408.5036999999999
 20
658.8519999999999
 30
0.0
 11
408.7158
 21
659.0639999999999
 31
0.0
  0
LINE
  5
4E2
330
1E
100
AcDbEntity
  8
0
100
AcDbLine
 10
408.5036999999999
 20
658.8519999999999
 30
0.0
 11
418.686
 21
650.6499999999999
 31
0.0
  0
LINE
  5
4E3
330
1E
100
AcDbEntity
  8
0
100
AcDbLine
 10
399.8739
 20
665.023
 30
0.0
 11
408.5036999999999
 21
658.8519999999999
 31
0.0
  0
LINE
  5
4E4
330
1E
100
AcDbEntity
  8
0
100
AcDbLine
 10
395.9035999999999
 20
667.5460000000001
 30
0.0
 11
395.9768
 21
667.273
 31
0.0
  0
LINE
  5
4E5
330
1E
100
AcDbEntity
  8
0
100
AcDbLine
 10
395.6108
 20
668.6389999999999
 30
0.0
 11
395.9035999999999
 21
667.5460000000001
 31
0.0
  0
LINE
  5
4E6
330
1E
100
AcDbEntity
  8
0
100
AcDbLine
 10
395.1716
 20
670.278
 30
0.0
 11
395.6108
 21
668.6389999999999
 31
0.0
  0
LINE
  5
4E7
330
1E
100
AcDbEntity
  8
0
100
AcDbLine
 10
394.6225
 20
672.327
 30
0.0
 11
395.1716
 21
670.278
 31
0.0
  0
LINE
  5
4E8
330
1E
100
AcDbEntity
  8
0
100
AcDbLine
 10
393.9637
 20
674.7860000000001
 30
0.0
 11
394.6225
 21
672.327
 31
0.0
  0
LINE
  5
4E9
330
1E
100
AcDbEntity
  8
0
100
AcDbLine
 10
393.2316
 20
677.518
 30
0.0
 11
393.9637
 21
674.7860000000001
 31
0.0
  0
LINE
  5
4EA
330
1E
100
AcDbEntity
  8
0
100
AcDbLine
 10
419.8173999999999
 20
670.166
 30
0.0
 11
429.9997
 21
661.9639999999999
 31
0.0
  0
LINE
  5
4EB
330
1E
100
AcDbEntity
  8
0
100
AcDbLine
 10
419.6051999999999
 20
669.9539999999999
 30
0.0
 11
419.8173999999999
 21
670.166
 31
0.0
  0
LINE
  5
4EC
330
1E
100
AcDbEntity
  8
0
100
AcDbLine
 10
419.0395999999999
 20
669.388
 30
0.0
 11
419.6051999999999
 21
669.9539999999999
 31
0.0
  0
LINE
  5
4ED
330
1E
100
AcDbEntity
  8
0
100
AcDbLine
 10
418.1203
 20
668.4689999999999
 30
0.0
 11
419.0395999999999
 21
669.388
 31
0.0
  0
LINE
  5
4EE
330
1E
100
AcDbEntity
  8
0
100
AcDbLine
 10
416.989
 20
667.338
 30
0.0
 11
418.1203
 21
668.4689999999999
 31
0.0
  0
LINE
  5
4EF
330
1E
100
AcDbEntity
  8
0
100
AcDbLine
 10
407.3738999999999
 20
678.013
 30
0.0
 11
419.8173999999999
 21
670.166
 31
0.0
  0
LINE
  5
4F0
330
1E
100
AcDbEntity
  8
0
100
AcDbLine
 10
395.9768
 20
667.273
 30
0.0
 11
399.8739
 21
665.023
 31
0.0
  0
LINE
  5
4F1
330
1E
100
AcDbEntity
  8
0
100
AcDbLine
 10
392.6419
 20
656.4969999999999
 30
0.0
 11
395.1419
 21
660.827
 31
0.0
  0
LINE
  5
4F2
330
1E
100
AcDbEntity
  8
0
100
AcDbLine
 10
437.0
 20
370.653
 30
0.0
 11
437.0
 21
369.653
 31
0.0
  0
LINE
  5
4F3
330
1E
100
AcDbEntity
  8
0
100
AcDbLine
 10
437.0
 20
370.653
 30
0.0
 11
443.0
 21
370.653
 31
0.0
  0
LINE
  5
4F4
330
1E
100
AcDbEntity
  8
0
100
AcDbLine
 10
437.0
 20
369.653
 30
0.0
 11
437.0
 21
366.953
 31
0.0
  0
LINE
  5
4F5
330
1E
100
AcDbEntity
  8
0
100
AcDbLine
 10
437.0
 20
369.653
 30
0.0
 11
437.0
 21
370.653
 31
0.0
  0
LINE
  5
4F6
330
1E
100
AcDbEntity
  8
0
100
AcDbLine
 10
437.0
 20
366.953
 30
0.0
 11
437.0
 21
362.453
 31
0.0
  0
LINE
  5
4F7
330
1E
100
AcDbEntity
  8
0
100
AcDbLine
 10
437.0
 20
366.953
 30
0.0
 11
437.0
 21
369.653
 31
0.0
  0
LINE
  5
4F8
330
1E
100
AcDbEntity
  8
0
100
AcDbLine
 10
437.0
 20
362.453
 30
0.0
 11
437.0
 21
356.553
 31
0.0
  0
LINE
  5
4F9
330
1E
100
AcDbEntity
  8
0
100
AcDbLine
 10
437.0
 20
362.453
 30
0.0
 11
437.0
 21
366.953
 31
0.0
  0
LINE
  5
4FA
330
1E
100
AcDbEntity
  8
0
100
AcDbLine
 10
437.0
 20
356.553
 30
0.0
 11
437.0
 21
349.853
 31
0.0
  0
LINE
  5
4FB
330
1E
100
AcDbEntity
  8
0
100
AcDbLine
 10
437.0
 20
356.553
 30
0.0
 11
437.0
 21
362.453
 31
0.0
  0
LINE
  5
4FC
330
1E
100
AcDbEntity
  8
0
100
AcDbLine
 10
437.0
 20
349.853
 30
0.0
 11
437.0
 21
342.653
 31
0.0
  0
LINE
  5
4FD
330
1E
100
AcDbEntity
  8
0
100
AcDbLine
 10
437.0
 20
349.853
 30
0.0
 11
437.0
 21
356.553
 31
0.0
  0
LINE
  5
4FE
330
1E
100
AcDbEntity
  8
0
100
AcDbLine
 10
437.0
 20
342.653
 30
0.0
 11
437.0
 21
335.453
 31
0.0
  0
LINE
  5
4FF
330
1E
100
AcDbEntity
  8
0
100
AcDbLine
 10
437.0
 20
342.653
 30
0.0
 11
437.0
 21
349.853
 31
0.0
  0
LINE
  5
500
330
1E
100
AcDbEntity
  8
0
100
AcDbLine
 10
389.0
 20
320.153
 30
0.0
 11
389.0
 21
320.653
 31
0.0
  0
LINE
  5
501
330
1E
100
AcDbEntity
  8
0
100
AcDbLine
 10
389.0
 20
320.153
 30
0.0
 11
389.0
 21
317.553
 31
0.0
  0
LINE
  5
502
330
1E
100
AcDbEntity
  8
0
100
AcDbLine
 10
389.0
 20
320.153
 30
0.0
 11
389.0
 21
324.2529999999999
 31
0.0
  0
LINE
  5
503
330
1E
100
AcDbEntity
  8
0
100
AcDbLine
 10
436.0
 20
315.653
 30
0.0
 11
437.0
 21
314.653
 31
0.0
  0
LINE
  5
504
330
1E
100
AcDbEntity
  8
0
100
AcDbLine
 10
436.0
 20
315.653
 30
0.0
 11
436.0
 21
316.653
 31
0.0
  0
LINE
  5
505
330
1E
100
AcDbEntity
  8
0
100
AcDbLine
 10
443.0
 20
312.653
 30
0.0
 11
443.0
 21
313.7529999999999
 31
0.0
  0
LINE
  5
506
330
1E
100
AcDbEntity
  8
0
100
AcDbLine
 10
443.0
 20
312.653
 30
0.0
 11
453.0
 21
305.653
 31
0.0
  0
LINE
  5
507
330
1E
100
AcDbEntity
  8
0
100
AcDbLine
 10
443.0
 20
313.7529999999999
 30
0.0
 11
443.0
 21
314.653
 31
0.0
  0
LINE
  5
508
330
1E
100
AcDbEntity
  8
0
100
AcDbLine
 10
443.0
 20
313.7529999999999
 30
0.0
 11
443.0
 21
312.653
 31
0.0
  0
LINE
  5
509
330
1E
100
AcDbEntity
  8
0
100
AcDbLine
 10
443.0
 20
313.7529999999999
 30
0.0
 11
443.0
 21
316.653
 31
0.0
  0
LINE
  5
50A
330
1E
100
AcDbEntity
  8
0
100
AcDbLine
 10
443.0
 20
314.653
 30
0.0
 11
443.0
 21
315.653
 31
0.0
  0
LINE
  5
50B
330
1E
100
AcDbEntity
  8
0
100
AcDbLine
 10
443.0
 20
314.653
 30
0.0
 11
443.0
 21
313.7529999999999
 31
0.0
  0
LINE
  5
50C
330
1E
100
AcDbEntity
  8
0
100
AcDbLine
 10
443.0
 20
316.653
 30
0.0
 11
443.0
 21
313.7529999999999
 31
0.0
  0
LINE
  5
50D
330
1E
100
AcDbEntity
  8
0
100
AcDbLine
 10
443.0
 20
316.653
 30
0.0
 11
443.0
 21
321.4529999999999
 31
0.0
  0
LINE
  5
50E
330
1E
100
AcDbEntity
  8
0
100
AcDbLine
 10
443.0
 20
321.4529999999999
 30
0.0
 11
443.0
 21
316.653
 31
0.0
  0
LINE
  5
50F
330
1E
100
AcDbEntity
  8
0
100
AcDbLine
 10
443.0
 20
321.4529999999999
 30
0.0
 11
443.0
 21
327.753
 31
0.0
  0
LINE
  5
510
330
1E
100
AcDbEntity
  8
0
100
AcDbLine
 10
443.0
 20
315.653
 30
0.0
 11
443.0
 21
318.353
 31
0.0
  0
LINE
  5
511
330
1E
100
AcDbEntity
  8
0
100
AcDbLine
 10
443.0
 20
318.353
 30
0.0
 11
443.0
 21
322.853
 31
0.0
  0
LINE
  5
512
330
1E
100
AcDbEntity
  8
0
100
AcDbLine
 10
443.0
 20
327.753
 30
0.0
 11
443.0
 21
321.4529999999999
 31
0.0
  0
LINE
  5
513
330
1E
100
AcDbEntity
  8
0
100
AcDbLine
 10
443.0
 20
327.753
 30
0.0
 11
443.0
 21
334.953
 31
0.0
  0
LINE
  5
514
330
1E
100
AcDbEntity
  8
0
100
AcDbLine
 10
443.0
 20
334.953
 30
0.0
 11
443.0
 21
327.753
 31
0.0
  0
LINE
  5
515
330
1E
100
AcDbEntity
  8
0
100
AcDbLine
 10
443.0
 20
334.953
 30
0.0
 11
443.0
 21
342.653
 31
0.0
  0
LINE
  5
516
330
1E
100
AcDbEntity
  8
0
100
AcDbLine
 10
443.0
 20
322.853
 30
0.0
 11
443.0
 21
328.753
 31
0.0
  0
LINE
  5
517
330
1E
100
AcDbEntity
  8
0
100
AcDbLine
 10
453.0
 20
305.653
 30
0.0
 11
460.0
 21
305.653
 31
0.0
  0
LINE
  5
518
330
1E
100
AcDbEntity
  8
0
100
AcDbLine
 10
453.0
 20
305.653
 30
0.0
 11
453.0
 21
306.9529999999999
 31
0.0
  0
LINE
  5
519
330
1E
100
AcDbEntity
  8
0
100
AcDbLine
 10
460.0
 20
305.653
 30
0.0
 11
461.0
 21
306.653
 31
0.0
  0
LINE
  5
51A
330
1E
100
AcDbEntity
  8
0
100
AcDbLine
 10
460.0
 20
305.653
 30
0.0
 11
460.0
 21
306.9529999999999
 31
0.0
  0
LINE
  5
51B
330
1E
100
AcDbEntity
  8
0
100
AcDbLine
 10
481.0
 20
305.653
 30
0.0
 11
481.0
 21
295.153
 31
0.0
  0
LINE
  5
51C
330
1E
100
AcDbEntity
  8
0
100
AcDbLine
 10
481.0
 20
295.153
 30
0.0
 11
481.2269999999999
 21
294.653
 31
0.0
  0
LINE
  5
51D
330
1E
100
AcDbEntity
  8
0
100
AcDbLine
 10
481.0
 20
295.153
 30
0.0
 11
481.0
 21
305.653
 31
0.0
  0
LINE
  5
51E
330
1E
100
AcDbEntity
  8
0
100
AcDbLine
 10
481.2269999999999
 20
294.653
 30
0.0
 11
481.591
 21
294.653
 31
0.0
  0
LINE
  5
51F
330
1E
100
AcDbEntity
  8
0
100
AcDbLine
 10
481.949
 20
122.901
 30
0.0
 11
482.169
 21
145.2849999999999
 31
0.0
  0
LINE
  5
520
330
1E
100
AcDbEntity
  8
0
100
AcDbLine
 10
481.833
 20
100.516
 30
0.0
 11
481.894
 21
78.031
 31
0.0
  0
LINE
  5
521
330
1E
100
AcDbEntity
  8
0
100
AcDbLine
 10
481.833
 20
100.516
 30
0.0
 11
481.949
 21
122.901
 31
0.0
  0
LINE
  5
522
330
1E
100
AcDbEntity
  8
0
100
AcDbLine
 10
481.894
 20
78.031
 30
0.0
 11
482.049
 21
58.045
 31
0.0
  0
LINE
  5
523
330
1E
100
AcDbEntity
  8
0
100
AcDbLine
 10
482.169
 20
145.2849999999999
 30
0.0
 11
482.454583196288
 21
294.653
 31
0.0
  0
LINE
  5
524
330
1E
100
AcDbEntity
  8
0
100
AcDbLine
 10
482.049
 20
58.045
 30
0.0
 11
482.439
 21
42.05700000000009
 31
0.0
  0
LINE
  5
525
330
1E
100
AcDbEntity
  8
0
100
AcDbLine
 10
482.439
 20
42.05700000000009
 30
0.0
 11
483.0069999999999
 21
25.66800000000009
 31
0.0
  0
LINE
  5
526
330
1E
100
AcDbEntity
  8
0
100
AcDbLine
 10
485.744
 20
4.872000000000059
 30
0.0
 11
487.494
 21
2.343000000000009
 31
0.0
  0
LINE
  5
527
330
1E
100
AcDbEntity
  8
0
100
AcDbLine
 10
483.0069999999999
 20
25.66800000000009
 30
0.0
 11
483.6809999999999
 21
16.1750000000001
 31
0.0
  0
LINE
  5
528
330
1E
100
AcDbEntity
  8
0
100
AcDbLine
 10
483.6809999999999
 20
16.1750000000001
 30
0.0
 11
484.528
 21
9.680000000000051
 31
0.0
  0
LINE
  5
529
330
1E
100
AcDbEntity
  8
0
100
AcDbLine
 10
485.928
 20
9.680000000000051
 30
0.0
 11
487.003
 21
16.1750000000001
 31
0.0
  0
LINE
  5
52A
330
1E
100
AcDbEntity
  8
0
100
AcDbLine
 10
485.8509999999999
 20
11.068
 30
0.0
 11
486.341245873709
 21
12.1767739067329
 31
0.0
  0
LINE
  5
52B
330
1E
100
AcDbEntity
  8
0
100
AcDbLine
 10
484.528
 20
9.680000000000051
 30
0.0
 11
485.0509999999999
 21
6.67100000000004
 31
0.0
  0
LINE
  5
52C
330
1E
100
AcDbEntity
  8
0
100
AcDbLine
 10
485.0509999999999
 20
6.67100000000004
 30
0.0
 11
485.744
 21
4.872000000000059
 31
0.0
  0
LINE
  5
52D
330
1E
100
AcDbEntity
  8
0
100
AcDbLine
 10
482.545
 20
294.653
 30
0.0
 11
484.091
 21
294.653
 31
0.0
  0
LINE
  5
52E
330
1E
100
AcDbEntity
  8
0
100
AcDbLine
 10
484.091
 20
294.653
 30
0.0
 11
486.1359999999999
 21
294.653
 31
0.0
  0
LINE
  5
52F
330
1E
100
AcDbEntity
  8
0
100
AcDbLine
 10
489.958
 20
0.5009999999999661
 30
0.0
 11
493.039
 21
-0.152999999999973
 31
0.0
  0
LINE
  5
530
330
1E
100
AcDbEntity
  8
0
100
AcDbLine
 10
489.1459999999999
 20
42.05700000000009
 30
0.0
 11
490.094
 21
58.045
 31
0.0
  0
LINE
  5
531
330
1E
100
AcDbEntity
  8
0
100
AcDbLine
 10
488.008
 20
25.66800000000009
 30
0.0
 11
489.1459999999999
 21
42.05700000000009
 31
0.0
  0
LINE
  5
532
330
1E
100
AcDbEntity
  8
0
100
AcDbLine
 10
487.003
 20
16.1750000000001
 30
0.0
 11
488.008
 21
25.66800000000009
 31
0.0
  0
LINE
  5
533
330
1E
100
AcDbEntity
  8
0
100
AcDbLine
 10
487.494
 20
2.343000000000009
 30
0.0
 11
489.958
 21
0.5009999999999661
 31
0.0
  0
LINE
  5
534
330
1E
100
AcDbEntity
  8
0
100
AcDbLine
 10
493.015
 20
145.2849999999999
 30
0.0
 11
493.4099999999999
 21
294.8709999999999
 31
0.0
  0
LINE
  5
535
330
1E
100
AcDbEntity
  8
0
100
AcDbLine
 10
492.453
 20
122.901
 30
0.0
 11
493.015
 21
145.2849999999999
 31
0.0
  0
LINE
  5
536
330
1E
100
AcDbEntity
  8
0
100
AcDbLine
 10
491.791
 20
100.516
 30
0.0
 11
492.453
 21
122.901
 31
0.0
  0
LINE
  5
537
330
1E
100
AcDbEntity
  8
0
100
AcDbLine
 10
490.9449999999999
 20
78.031
 30
0.0
 11
491.791
 21
100.516
 31
0.0
  0
LINE
  5
538
330
1E
100
AcDbEntity
  8
0
100
AcDbLine
 10
490.094
 20
58.045
 30
0.0
 11
490.9449999999999
 21
78.031
 31
0.0
  0
LINE
  5
539
330
1E
100
AcDbEntity
  8
0
100
AcDbLine
 10
496.142
 20
0.393000000000019
 30
0.0
 11
498.667
 21
2.14800000000001
 31
0.0
  0
LINE
  5
53A
330
1E
100
AcDbEntity
  8
0
100
AcDbLine
 10
493.039
 20
-0.152999999999973
 30
0.0
 11
496.142
 21
0.393000000000019
 31
0.0
  0
LINE
  5
53B
330
1E
100
AcDbEntity
  8
0
100
AcDbLine
 10
508.973
 20
145.006
 30
0.0
 11
509.37
 21
294.592
 31
0.0
  0
LINE
  5
53C
330
1E
100
AcDbEntity
  8
0
100
AcDbLine
 10
508.415
 20
122.621
 30
0.0
 11
508.973
 21
145.006
 31
0.0
  0
LINE
  5
53D
330
1E
100
AcDbEntity
  8
0
100
AcDbLine
 10
507.7499999999999
 20
100.237
 30
0.0
 11
508.415
 21
122.621
 31
0.0
  0
LINE
  5
53E
330
1E
100
AcDbEntity
  8
0
100
AcDbLine
 10
506.9049999999999
 20
77.75199999999999
 30
0.0
 11
507.7499999999999
 21
100.237
 31
0.0
  0
LINE
  5
53F
330
1E
100
AcDbEntity
  8
0
100
AcDbLine
 10
506.054
 20
57.76600000000001
 30
0.0
 11
506.9049999999999
 21
77.75199999999999
 31
0.0
  0
LINE
  5
540
330
1E
100
AcDbEntity
  8
0
100
AcDbLine
 10
505.1059999999999
 20
41.778
 30
0.0
 11
506.054
 21
57.76600000000001
 31
0.0
  0
LINE
  5
541
330
1E
100
AcDbEntity
  8
0
100
AcDbLine
 10
503.968
 20
25.38899999999999
 30
0.0
 11
505.1059999999999
 21
41.778
 31
0.0
  0
LINE
  5
542
330
1E
100
AcDbEntity
  8
0
100
AcDbLine
 10
502.963
 20
15.89599999999999
 30
0.0
 11
503.968
 21
25.38899999999999
 31
0.0
  0
LINE
  5
543
330
1E
100
AcDbEntity
  8
0
100
AcDbLine
 10
501.8889999999999
 20
9.400999999999999
 30
0.0
 11
502.963
 21
15.89599999999999
 31
0.0
  0
LINE
  5
544
330
1E
100
AcDbEntity
  8
0
100
AcDbLine
 10
501.2599999999999
 20
6.412999999999999
 30
0.0
 11
501.8889999999999
 21
9.400999999999999
 31
0.0
  0
LINE
  5
545
330
1E
100
AcDbEntity
  8
0
100
AcDbLine
 10
500.5059999999999
 20
4.614000000000019
 30
0.0
 11
501.2599999999999
 21
6.412999999999999
 31
0.0
  0
LINE
  5
546
330
1E
100
AcDbEntity
  8
0
100
AcDbLine
 10
498.667
 20
2.14800000000001
 30
0.0
 11
500.5059999999999
 21
4.614000000000019
 31
0.0
  0
LINE
  5
547
330
1E
100
AcDbEntity
  8
0
100
AcDbLine
 10
496.142
 20
0.393000000000019
 30
0.0
 11
498.667
 21
2.14800000000001
 31
0.0
  0
LINE
  5
548
330
1E
100
AcDbEntity
  8
0
100
AcDbLine
 10
493.039
 20
-0.152999999999973
 30
0.0
 11
496.142
 21
0.393000000000019
 31
0.0
  0
LINE
  5
549
330
1E
100
AcDbEntity
  8
0
100
AcDbLine
 10
489.958
 20
0.5009999999999661
 30
0.0
 11
493.039
 21
-0.152999999999973
 31
0.0
  0
LINE
  5
54A
330
1E
100
AcDbEntity
  8
0
100
AcDbLine
 10
491.0
 20
294.653
 30
0.0
 11
493.4094243445239
 21
294.653
 31
0.0
  0
LINE
  5
54B
330
1E
100
AcDbEntity
  8
0
100
AcDbLine
 10
486.1359999999999
 20
294.653
 30
0.0
 11
488.4999999999999
 21
294.653
 31
0.0
  0
LINE
  5
54C
330
1E
100
AcDbEntity
  8
0
100
AcDbLine
 10
488.4999999999999
 20
294.653
 30
0.0
 11
491.0
 21
294.653
 31
0.0
  0
LINE
  5
54D
330
1E
100
AcDbEntity
  8
0
100
AcDbLine
 10
481.591
 20
294.653
 30
0.0
 11
482.454583196288
 21
294.653
 31
0.0
  0
LINE
  5
54E
330
1E
100
AcDbEntity
  8
0
100
AcDbLine
 10
481.591
 20
294.653
 30
0.0
 11
482.545
 21
294.653
 31
0.0
  0
LINE
  5
54F
330
1E
100
AcDbEntity
  8
0
100
AcDbLine
 10
523.0
 20
305.653
 30
0.0
 11
523.0
 21
306.9529999999999
 31
0.0
  0
LINE
  5
550
330
1E
100
AcDbEntity
  8
0
100
AcDbLine
 10
462.0
 20
305.653
 30
0.0
 11
481.0
 21
305.653
 31
0.0
  0
LINE
  5
551
330
1E
100
AcDbEntity
  8
0
100
AcDbLine
 10
462.0
 20
305.653
 30
0.0
 11
462.0
 21
306.9529999999999
 31
0.0
  0
LINE
  5
552
330
1E
100
AcDbEntity
  8
0
100
AcDbLine
 10
453.0
 20
306.9529999999999
 30
0.0
 11
453.0
 21
305.653
 31
0.0
  0
LINE
  5
553
330
1E
100
AcDbEntity
  8
0
100
AcDbLine
 10
453.0
 20
306.9529999999999
 30
0.0
 11
453.0
 21
310.653
 31
0.0
  0
LINE
  5
554
330
1E
100
AcDbEntity
  8
0
100
AcDbLine
 10
460.0
 20
306.9529999999999
 30
0.0
 11
460.0
 21
305.653
 31
0.0
  0
LINE
  5
555
330
1E
100
AcDbEntity
  8
0
100
AcDbLine
 10
460.0
 20
306.9529999999999
 30
0.0
 11
460.0
 21
310.653
 31
0.0
  0
LINE
  5
556
330
1E
100
AcDbEntity
  8
0
100
AcDbLine
 10
453.0
 20
310.653
 30
0.0
 11
453.0
 21
306.9529999999999
 31
0.0
  0
LINE
  5
557
330
1E
100
AcDbEntity
  8
0
100
AcDbLine
 10
453.0
 20
310.653
 30
0.0
 11
453.0
 21
316.5529999999999
 31
0.0
  0
LINE
  5
558
330
1E
100
AcDbEntity
  8
0
100
AcDbLine
 10
453.0
 20
316.5529999999999
 30
0.0
 11
453.0
 21
310.653
 31
0.0
  0
LINE
  5
559
330
1E
100
AcDbEntity
  8
0
100
AcDbLine
 10
453.0
 20
316.5529999999999
 30
0.0
 11
453.0
 21
324.2529999999999
 31
0.0
  0
LINE
  5
55A
330
1E
100
AcDbEntity
  8
0
100
AcDbLine
 10
460.0
 20
310.653
 30
0.0
 11
460.0
 21
306.9529999999999
 31
0.0
  0
LINE
  5
55B
330
1E
100
AcDbEntity
  8
0
100
AcDbLine
 10
460.0
 20
310.653
 30
0.0
 11
460.0
 21
316.5529999999999
 31
0.0
  0
LINE
  5
55C
330
1E
100
AcDbEntity
  8
0
100
AcDbLine
 10
460.0
 20
316.5529999999999
 30
0.0
 11
460.0
 21
310.653
 31
0.0
  0
LINE
  5
55D
330
1E
100
AcDbEntity
  8
0
100
AcDbLine
 10
460.0
 20
316.5529999999999
 30
0.0
 11
460.0
 21
324.2529999999999
 31
0.0
  0
LINE
  5
55E
330
1E
100
AcDbEntity
  8
0
100
AcDbLine
 10
461.0
 20
307.9529999999999
 30
0.0
 11
461.0
 21
306.653
 31
0.0
  0
LINE
  5
55F
330
1E
100
AcDbEntity
  8
0
100
AcDbLine
 10
461.0
 20
307.9529999999999
 30
0.0
 11
461.0
 21
311.4529999999999
 31
0.0
  0
LINE
  5
560
330
1E
100
AcDbEntity
  8
0
100
AcDbLine
 10
461.0
 20
311.4529999999999
 30
0.0
 11
461.0
 21
307.9529999999999
 31
0.0
  0
LINE
  5
561
330
1E
100
AcDbEntity
  8
0
100
AcDbLine
 10
461.0
 20
311.4529999999999
 30
0.0
 11
461.0
 21
317.253
 31
0.0
  0
LINE
  5
562
330
1E
100
AcDbEntity
  8
0
100
AcDbLine
 10
453.0
 20
324.2529999999999
 30
0.0
 11
453.0
 21
316.5529999999999
 31
0.0
  0
LINE
  5
563
330
1E
100
AcDbEntity
  8
0
100
AcDbLine
 10
453.0
 20
324.2529999999999
 30
0.0
 11
453.0
 21
333.153
 31
0.0
  0
LINE
  5
564
330
1E
100
AcDbEntity
  8
0
100
AcDbLine
 10
453.0
 20
333.153
 30
0.0
 11
453.0
 21
324.2529999999999
 31
0.0
  0
LINE
  5
565
330
1E
100
AcDbEntity
  8
0
100
AcDbLine
 10
453.0
 20
333.153
 30
0.0
 11
453.0
 21
342.653
 31
0.0
  0
LINE
  5
566
330
1E
100
AcDbEntity
  8
0
100
AcDbLine
 10
460.0
 20
324.2529999999999
 30
0.0
 11
460.0
 21
316.5529999999999
 31
0.0
  0
LINE
  5
567
330
1E
100
AcDbEntity
  8
0
100
AcDbLine
 10
460.0
 20
324.2529999999999
 30
0.0
 11
460.0
 21
333.153
 31
0.0
  0
LINE
  5
568
330
1E
100
AcDbEntity
  8
0
100
AcDbLine
 10
460.0
 20
333.153
 30
0.0
 11
460.0
 21
324.2529999999999
 31
0.0
  0
LINE
  5
569
330
1E
100
AcDbEntity
  8
0
100
AcDbLine
 10
460.0
 20
333.153
 30
0.0
 11
460.0
 21
342.653
 31
0.0
  0
LINE
  5
56A
330
1E
100
AcDbEntity
  8
0
100
AcDbLine
 10
461.0
 20
317.253
 30
0.0
 11
461.0
 21
311.4529999999999
 31
0.0
  0
LINE
  5
56B
330
1E
100
AcDbEntity
  8
0
100
AcDbLine
 10
461.0
 20
317.253
 30
0.0
 11
461.0
 21
324.7529999999999
 31
0.0
  0
LINE
  5
56C
330
1E
100
AcDbEntity
  8
0
100
AcDbLine
 10
461.0
 20
324.7529999999999
 30
0.0
 11
461.0
 21
317.253
 31
0.0
  0
LINE
  5
56D
330
1E
100
AcDbEntity
  8
0
100
AcDbLine
 10
461.0
 20
324.7529999999999
 30
0.0
 11
461.0
 21
333.353
 31
0.0
  0
LINE
  5
56E
330
1E
100
AcDbEntity
  8
0
100
AcDbLine
 10
461.0
 20
333.353
 30
0.0
 11
461.0
 21
324.7529999999999
 31
0.0
  0
LINE
  5
56F
330
1E
100
AcDbEntity
  8
0
100
AcDbLine
 10
461.0
 20
333.353
 30
0.0
 11
461.0
 21
342.653
 31
0.0
  0
LINE
  5
570
330
1E
100
AcDbEntity
  8
0
100
AcDbLine
 10
517.0
 20
307.653
 30
0.0
 11
517.0
 21
308.9529999999999
 31
0.0
  0
LINE
  5
571
330
1E
100
AcDbEntity
  8
0
100
AcDbLine
 10
517.0
 20
307.653
 30
0.0
 11
523.0
 21
307.653
 31
0.0
  0
LINE
  5
572
330
1E
100
AcDbEntity
  8
0
100
AcDbLine
 10
462.0
 20
306.9529999999999
 30
0.0
 11
462.0
 21
305.653
 31
0.0
  0
LINE
  5
573
330
1E
100
AcDbEntity
  8
0
100
AcDbLine
 10
462.0
 20
306.9529999999999
 30
0.0
 11
462.0
 21
310.653
 31
0.0
  0
LINE
  5
574
330
1E
100
AcDbEntity
  8
0
100
AcDbLine
 10
523.0
 20
306.9529999999999
 30
0.0
 11
523.0
 21
305.653
 31
0.0
  0
LINE
  5
575
330
1E
100
AcDbEntity
  8
0
100
AcDbLine
 10
523.0
 20
306.9529999999999
 30
0.0
 11
523.0
 21
307.653
 31
0.0
  0
LINE
  5
576
330
1E
100
AcDbEntity
  8
0
100
AcDbLine
 10
462.0
 20
310.653
 30
0.0
 11
462.0
 21
306.9529999999999
 31
0.0
  0
LINE
  5
577
330
1E
100
AcDbEntity
  8
0
100
AcDbLine
 10
462.0
 20
310.653
 30
0.0
 11
462.0
 21
316.5529999999999
 31
0.0
  0
LINE
  5
578
330
1E
100
AcDbEntity
  8
0
100
AcDbLine
 10
462.0
 20
316.5529999999999
 30
0.0
 11
462.0
 21
310.653
 31
0.0
  0
LINE
  5
579
330
1E
100
AcDbEntity
  8
0
100
AcDbLine
 10
462.0
 20
316.5529999999999
 30
0.0
 11
462.0
 21
324.2529999999999
 31
0.0
  0
LINE
  5
57A
330
1E
100
AcDbEntity
  8
0
100
AcDbLine
 10
462.0
 20
324.2529999999999
 30
0.0
 11
462.0
 21
316.5529999999999
 31
0.0
  0
LINE
  5
57B
330
1E
100
AcDbEntity
  8
0
100
AcDbLine
 10
462.0
 20
324.2529999999999
 30
0.0
 11
462.0
 21
333.153
 31
0.0
  0
LINE
  5
57C
330
1E
100
AcDbEntity
  8
0
100
AcDbLine
 10
517.0
 20
308.9529999999999
 30
0.0
 11
517.0
 21
312.353
 31
0.0
  0
LINE
  5
57D
330
1E
100
AcDbEntity
  8
0
100
AcDbLine
 10
517.0
 20
308.9529999999999
 30
0.0
 11
517.0
 21
307.653
 31
0.0
  0
LINE
  5
57E
330
1E
100
AcDbEntity
  8
0
100
AcDbLine
 10
515.0
 20
309.653
 30
0.0
 11
515.0
 21
310.853
 31
0.0
  0
LINE
  5
57F
330
1E
100
AcDbEntity
  8
0
100
AcDbLine
 10
515.0
 20
309.653
 30
0.0
 11
517.0
 21
307.653
 31
0.0
  0
LINE
  5
580
330
1E
100
AcDbEntity
  8
0
100
AcDbLine
 10
515.0
 20
310.853
 30
0.0
 11
515.0
 21
314.053
 31
0.0
  0
LINE
  5
581
330
1E
100
AcDbEntity
  8
0
100
AcDbLine
 10
515.0
 20
310.853
 30
0.0
 11
515.0
 21
309.653
 31
0.0
  0
LINE
  5
582
330
1E
100
AcDbEntity
  8
0
100
AcDbLine
 10
515.0
 20
314.053
 30
0.0
 11
515.0
 21
319.3529999999999
 31
0.0
  0
LINE
  5
583
330
1E
100
AcDbEntity
  8
0
100
AcDbLine
 10
515.0
 20
314.053
 30
0.0
 11
515.0
 21
310.853
 31
0.0
  0
LINE
  5
584
330
1E
100
AcDbEntity
  8
0
100
AcDbLine
 10
517.0
 20
312.353
 30
0.0
 11
517.0
 21
317.9529999999999
 31
0.0
  0
LINE
  5
585
330
1E
100
AcDbEntity
  8
0
100
AcDbLine
 10
517.0
 20
312.353
 30
0.0
 11
517.0
 21
308.9529999999999
 31
0.0
  0
LINE
  5
586
330
1E
100
AcDbEntity
  8
0
100
AcDbLine
 10
517.0
 20
317.9529999999999
 30
0.0
 11
517.0
 21
325.253
 31
0.0
  0
LINE
  5
587
330
1E
100
AcDbEntity
  8
0
100
AcDbLine
 10
517.0
 20
317.9529999999999
 30
0.0
 11
517.0
 21
312.353
 31
0.0
  0
LINE
  5
588
330
1E
100
AcDbEntity
  8
0
100
AcDbLine
 10
523.0
 20
308.9529999999999
 30
0.0
 11
523.0
 21
312.353
 31
0.0
  0
LINE
  5
589
330
1E
100
AcDbEntity
  8
0
100
AcDbLine
 10
523.0
 20
308.9529999999999
 30
0.0
 11
523.0
 21
307.653
 31
0.0
  0
LINE
  5
58A
330
1E
100
AcDbEntity
  8
0
100
AcDbLine
 10
523.0
 20
312.353
 30
0.0
 11
523.0
 21
317.9529999999999
 31
0.0
  0
LINE
  5
58B
330
1E
100
AcDbEntity
  8
0
100
AcDbLine
 10
523.0
 20
312.353
 30
0.0
 11
523.0
 21
308.9529999999999
 31
0.0
  0
LINE
  5
58C
330
1E
100
AcDbEntity
  8
0
100
AcDbLine
 10
515.0
 20
319.653
 30
0.0
 11
515.0
 21
319.3529999999999
 31
0.0
  0
LINE
  5
58D
330
1E
100
AcDbEntity
  8
0
100
AcDbLine
 10
509.280244917075
 20
319.653
 30
0.0
 11
515.0
 21
319.653
 31
0.0
  0
LINE
  5
58E
330
1E
100
AcDbEntity
  8
0
100
AcDbLine
 10
482.0
 20
319.653
 30
0.0
 11
482.0
 21
320.4529999999999
 31
0.0
  0
LINE
  5
58F
330
1E
100
AcDbEntity
  8
0
100
AcDbLine
 10
482.0
 20
319.653
 30
0.0
 11
493.3202497792939
 21
319.653
 31
0.0
  0
LINE
  5
590
330
1E
100
AcDbEntity
  8
0
100
AcDbLine
 10
515.0
 20
320.4529999999999
 30
0.0
 11
515.0
 21
319.653
 31
0.0
  0
LINE
  5
591
330
1E
100
AcDbEntity
  8
0
100
AcDbLine
 10
480.0
 20
321.653
 30
0.0
 11
480.0
 21
322.4529999999999
 31
0.0
  0
LINE
  5
592
330
1E
100
AcDbEntity
  8
0
100
AcDbLine
 10
480.0
 20
321.653
 30
0.0
 11
482.0
 21
319.653
 31
0.0
  0
LINE
  5
593
330
1E
100
AcDbEntity
  8
0
100
AcDbLine
 10
480.0
 20
322.4529999999999
 30
0.0
 11
480.0
 21
324.4529999999999
 31
0.0
  0
LINE
  5
594
330
1E
100
AcDbEntity
  8
0
100
AcDbLine
 10
480.0
 20
322.4529999999999
 30
0.0
 11
480.0
 21
321.653
 31
0.0
  0
LINE
  5
595
330
1E
100
AcDbEntity
  8
0
100
AcDbLine
 10
482.0
 20
320.4529999999999
 30
0.0
 11
482.0
 21
322.7529999999999
 31
0.0
  0
LINE
  5
596
330
1E
100
AcDbEntity
  8
0
100
AcDbLine
 10
482.0
 20
320.4529999999999
 30
0.0
 11
482.0
 21
319.653
 31
0.0
  0
LINE
  5
597
330
1E
100
AcDbEntity
  8
0
100
AcDbLine
 10
515.0
 20
322.7529999999999
 30
0.0
 11
515.0
 21
320.4529999999999
 31
0.0
  0
LINE
  5
598
330
1E
100
AcDbEntity
  8
0
100
AcDbLine
 10
480.0
 20
324.4529999999999
 30
0.0
 11
480.0
 21
327.8529999999999
 31
0.0
  0
LINE
  5
599
330
1E
100
AcDbEntity
  8
0
100
AcDbLine
 10
480.0
 20
324.4529999999999
 30
0.0
 11
480.0
 21
322.4529999999999
 31
0.0
  0
LINE
  5
59A
330
1E
100
AcDbEntity
  8
0
100
AcDbLine
 10
482.0
 20
322.7529999999999
 30
0.0
 11
482.0
 21
326.4529999999999
 31
0.0
  0
LINE
  5
59B
330
1E
100
AcDbEntity
  8
0
100
AcDbLine
 10
482.0
 20
322.7529999999999
 30
0.0
 11
482.0
 21
320.4529999999999
 31
0.0
  0
LINE
  5
59C
330
1E
100
AcDbEntity
  8
0
100
AcDbLine
 10
515.0
 20
319.3529999999999
 30
0.0
 11
515.0
 21
326.2529999999999
 31
0.0
  0
LINE
  5
59D
330
1E
100
AcDbEntity
  8
0
100
AcDbLine
 10
515.0
 20
319.3529999999999
 30
0.0
 11
515.0
 21
314.053
 31
0.0
  0
LINE
  5
59E
330
1E
100
AcDbEntity
  8
0
100
AcDbLine
 10
515.0
 20
319.3529999999999
 30
0.0
 11
515.0
 21
319.653
 31
0.0
  0
LINE
  5
59F
330
1E
100
AcDbEntity
  8
0
100
AcDbLine
 10
515.0
 20
326.4529999999999
 30
0.0
 11
515.0
 21
322.7529999999999
 31
0.0
  0
LINE
  5
5A0
330
1E
100
AcDbEntity
  8
0
100
AcDbLine
 10
480.0
 20
327.8529999999999
 30
0.0
 11
480.0
 21
332.253
 31
0.0
  0
LINE
  5
5A1
330
1E
100
AcDbEntity
  8
0
100
AcDbLine
 10
480.0
 20
327.8529999999999
 30
0.0
 11
480.0
 21
324.4529999999999
 31
0.0
  0
LINE
  5
5A2
330
1E
100
AcDbEntity
  8
0
100
AcDbLine
 10
482.0
 20
326.4529999999999
 30
0.0
 11
482.0
 21
331.253
 31
0.0
  0
LINE
  5
5A3
330
1E
100
AcDbEntity
  8
0
100
AcDbLine
 10
482.0
 20
326.4529999999999
 30
0.0
 11
482.0
 21
322.7529999999999
 31
0.0
  0
LINE
  5
5A4
330
1E
100
AcDbEntity
  8
0
100
AcDbLine
 10
515.0
 20
331.253
 30
0.0
 11
515.0
 21
326.4529999999999
 31
0.0
  0
LINE
  5
5A5
330
1E
100
AcDbEntity
  8
0
100
AcDbLine
 10
480.0
 20
332.253
 30
0.0
 11
480.0
 21
337.253
 31
0.0
  0
LINE
  5
5A6
330
1E
100
AcDbEntity
  8
0
100
AcDbLine
 10
480.0
 20
332.253
 30
0.0
 11
480.0
 21
327.8529999999999
 31
0.0
  0
LINE
  5
5A7
330
1E
100
AcDbEntity
  8
0
100
AcDbLine
 10
482.0
 20
331.253
 30
0.0
 11
482.0
 21
336.753
 31
0.0
  0
LINE
  5
5A8
330
1E
100
AcDbEntity
  8
0
100
AcDbLine
 10
482.0
 20
331.253
 30
0.0
 11
482.0
 21
326.4529999999999
 31
0.0
  0
LINE
  5
5A9
330
1E
100
AcDbEntity
  8
0
100
AcDbLine
 10
515.0
 20
326.2529999999999
 30
0.0
 11
515.0
 21
334.153
 31
0.0
  0
LINE
  5
5AA
330
1E
100
AcDbEntity
  8
0
100
AcDbLine
 10
515.0
 20
326.2529999999999
 30
0.0
 11
515.0
 21
319.3529999999999
 31
0.0
  0
LINE
  5
5AB
330
1E
100
AcDbEntity
  8
0
100
AcDbLine
 10
517.0
 20
325.253
 30
0.0
 11
517.0
 21
333.653
 31
0.0
  0
LINE
  5
5AC
330
1E
100
AcDbEntity
  8
0
100
AcDbLine
 10
517.0
 20
325.253
 30
0.0
 11
517.0
 21
317.9529999999999
 31
0.0
  0
LINE
  5
5AD
330
1E
100
AcDbEntity
  8
0
100
AcDbLine
 10
517.0
 20
333.653
 30
0.0
 11
517.0
 21
342.653
 31
0.0
  0
LINE
  5
5AE
330
1E
100
AcDbEntity
  8
0
100
AcDbLine
 10
517.0
 20
333.653
 30
0.0
 11
517.0
 21
325.253
 31
0.0
  0
LINE
  5
5AF
330
1E
100
AcDbEntity
  8
0
100
AcDbLine
 10
523.0
 20
317.9529999999999
 30
0.0
 11
523.0
 21
325.253
 31
0.0
  0
LINE
  5
5B0
330
1E
100
AcDbEntity
  8
0
100
AcDbLine
 10
523.0
 20
317.9529999999999
 30
0.0
 11
523.0
 21
312.353
 31
0.0
  0
LINE
  5
5B1
330
1E
100
AcDbEntity
  8
0
100
AcDbLine
 10
523.0
 20
325.253
 30
0.0
 11
523.0
 21
333.653
 31
0.0
  0
LINE
  5
5B2
330
1E
100
AcDbEntity
  8
0
100
AcDbLine
 10
523.0
 20
325.253
 30
0.0
 11
523.0
 21
317.9529999999999
 31
0.0
  0
LINE
  5
5B3
330
1E
100
AcDbEntity
  8
0
100
AcDbLine
 10
515.0
 20
334.153
 30
0.0
 11
515.0
 21
342.653
 31
0.0
  0
LINE
  5
5B4
330
1E
100
AcDbEntity
  8
0
100
AcDbLine
 10
515.0
 20
334.153
 30
0.0
 11
515.0
 21
326.2529999999999
 31
0.0
  0
LINE
  5
5B5
330
1E
100
AcDbEntity
  8
0
100
AcDbLine
 10
523.0
 20
333.653
 30
0.0
 11
523.0
 21
342.653
 31
0.0
  0
LINE
  5
5B6
330
1E
100
AcDbEntity
  8
0
100
AcDbLine
 10
523.0
 20
333.653
 30
0.0
 11
523.0
 21
325.253
 31
0.0
  0
LINE
  5
5B7
330
1E
100
AcDbEntity
  8
0
100
AcDbLine
 10
462.0
 20
333.153
 30
0.0
 11
462.0
 21
324.2529999999999
 31
0.0
  0
LINE
  5
5B8
330
1E
100
AcDbEntity
  8
0
100
AcDbLine
 10
462.0
 20
333.153
 30
0.0
 11
462.0
 21
342.653
 31
0.0
  0
LINE
  5
5B9
330
1E
100
AcDbEntity
  8
0
100
AcDbLine
 10
523.0
 20
307.653
 30
0.0
 11
523.0
 21
306.9529999999999
 31
0.0
  0
LINE
  5
5BA
330
1E
100
AcDbEntity
  8
0
100
AcDbLine
 10
523.0
 20
307.653
 30
0.0
 11
523.0
 21
308.9529999999999
 31
0.0
  0
LINE
  5
5BB
330
1E
100
AcDbEntity
  8
0
100
AcDbLine
 10
461.0
 20
306.653
 30
0.0
 11
462.0
 21
305.653
 31
0.0
  0
LINE
  5
5BC
330
1E
100
AcDbEntity
  8
0
100
AcDbLine
 10
461.0
 20
306.653
 30
0.0
 11
461.0
 21
307.9529999999999
 31
0.0
  0
LINE
  5
5BD
330
1E
100
AcDbEntity
  8
0
100
AcDbLine
 10
509.330385420684
 20
305.653
 30
0.0
 11
523.0
 21
305.653
 31
0.0
  0
LINE
  5
5BE
330
1E
100
AcDbEntity
  8
0
100
AcDbLine
 10
443.0
 20
328.753
 30
0.0
 11
443.0
 21
335.453
 31
0.0
  0
LINE
  5
5BF
330
1E
100
AcDbEntity
  8
0
100
AcDbLine
 10
443.0
 20
342.653
 30
0.0
 11
443.0
 21
334.953
 31
0.0
  0
LINE
  5
5C0
330
1E
100
AcDbEntity
  8
0
100
AcDbLine
 10
443.0
 20
342.653
 30
0.0
 11
443.0
 21
350.353
 31
0.0
  0
LINE
  5
5C1
330
1E
100
AcDbEntity
  8
0
100
AcDbLine
 10
443.0
 20
342.653
 30
0.0
 11
443.0
 21
349.853
 31
0.0
  0
LINE
  5
5C2
330
1E
100
AcDbEntity
  8
0
100
AcDbLine
 10
453.0
 20
342.653
 30
0.0
 11
453.0
 21
333.153
 31
0.0
  0
LINE
  5
5C3
330
1E
100
AcDbEntity
  8
0
100
AcDbLine
 10
453.0
 20
342.653
 30
0.0
 11
453.0
 21
352.153
 31
0.0
  0
LINE
  5
5C4
330
1E
100
AcDbEntity
  8
0
100
AcDbLine
 10
460.0
 20
342.653
 30
0.0
 11
460.0
 21
333.153
 31
0.0
  0
LINE
  5
5C5
330
1E
100
AcDbEntity
  8
0
100
AcDbLine
 10
460.0
 20
342.653
 30
0.0
 11
460.0
 21
352.153
 31
0.0
  0
LINE
  5
5C6
330
1E
100
AcDbEntity
  8
0
100
AcDbLine
 10
443.0
 20
349.853
 30
0.0
 11
443.0
 21
356.553
 31
0.0
  0
LINE
  5
5C7
330
1E
100
AcDbEntity
  8
0
100
AcDbLine
 10
443.0
 20
350.353
 30
0.0
 11
443.0
 21
342.653
 31
0.0
  0
LINE
  5
5C8
330
1E
100
AcDbEntity
  8
0
100
AcDbLine
 10
443.0
 20
350.353
 30
0.0
 11
443.0
 21
357.553
 31
0.0
  0
LINE
  5
5C9
330
1E
100
AcDbEntity
  8
0
100
AcDbLine
 10
443.0
 20
356.553
 30
0.0
 11
443.0
 21
362.453
 31
0.0
  0
LINE
  5
5CA
330
1E
100
AcDbEntity
  8
0
100
AcDbLine
 10
443.0
 20
357.553
 30
0.0
 11
443.0
 21
350.353
 31
0.0
  0
LINE
  5
5CB
330
1E
100
AcDbEntity
  8
0
100
AcDbLine
 10
443.0
 20
357.553
 30
0.0
 11
443.0
 21
363.853
 31
0.0
  0
LINE
  5
5CC
330
1E
100
AcDbEntity
  8
0
100
AcDbLine
 10
453.0
 20
352.153
 30
0.0
 11
453.0
 21
342.653
 31
0.0
  0
LINE
  5
5CD
330
1E
100
AcDbEntity
  8
0
100
AcDbLine
 10
453.0
 20
352.153
 30
0.0
 11
453.0
 21
361.053
 31
0.0
  0
LINE
  5
5CE
330
1E
100
AcDbEntity
  8
0
100
AcDbLine
 10
460.0
 20
352.153
 30
0.0
 11
460.0
 21
342.653
 31
0.0
  0
LINE
  5
5CF
330
1E
100
AcDbEntity
  8
0
100
AcDbLine
 10
460.0
 20
352.153
 30
0.0
 11
460.0
 21
361.053
 31
0.0
  0
LINE
  5
5D0
330
1E
100
AcDbEntity
  8
0
100
AcDbLine
 10
453.0
 20
361.053
 30
0.0
 11
453.0
 21
352.153
 31
0.0
  0
LINE
  5
5D1
330
1E
100
AcDbEntity
  8
0
100
AcDbLine
 10
453.0
 20
361.053
 30
0.0
 11
453.0
 21
368.753
 31
0.0
  0
LINE
  5
5D2
330
1E
100
AcDbEntity
  8
0
100
AcDbLine
 10
460.0
 20
361.053
 30
0.0
 11
460.0
 21
352.153
 31
0.0
  0
LINE
  5
5D3
330
1E
100
AcDbEntity
  8
0
100
AcDbLine
 10
460.0
 20
361.053
 30
0.0
 11
460.0
 21
368.753
 31
0.0
  0
LINE
  5
5D4
330
1E
100
AcDbEntity
  8
0
100
AcDbLine
 10
461.0
 20
360.553
 30
0.0
 11
461.0
 21
351.953
 31
0.0
  0
LINE
  5
5D5
330
1E
100
AcDbEntity
  8
0
100
AcDbLine
 10
461.0
 20
360.553
 30
0.0
 11
461.0
 21
368.053
 31
0.0
  0
LINE
  5
5D6
330
1E
100
AcDbEntity
  8
0
100
AcDbLine
 10
461.0
 20
351.953
 30
0.0
 11
461.0
 21
342.653
 31
0.0
  0
LINE
  5
5D7
330
1E
100
AcDbEntity
  8
0
100
AcDbLine
 10
461.0
 20
351.953
 30
0.0
 11
461.0
 21
360.553
 31
0.0
  0
LINE
  5
5D8
330
1E
100
AcDbEntity
  8
0
100
AcDbLine
 10
443.0
 20
366.953
 30
0.0
 11
443.0
 21
369.653
 31
0.0
  0
LINE
  5
5D9
330
1E
100
AcDbEntity
  8
0
100
AcDbLine
 10
443.0
 20
362.453
 30
0.0
 11
443.0
 21
366.953
 31
0.0
  0
LINE
  5
5DA
330
1E
100
AcDbEntity
  8
0
100
AcDbLine
 10
443.0
 20
368.653
 30
0.0
 11
443.0
 21
363.853
 31
0.0
  0
LINE
  5
5DB
330
1E
100
AcDbEntity
  8
0
100
AcDbLine
 10
443.0
 20
368.653
 30
0.0
 11
443.0
 21
371.553
 31
0.0
  0
LINE
  5
5DC
330
1E
100
AcDbEntity
  8
0
100
AcDbLine
 10
443.0
 20
363.853
 30
0.0
 11
443.0
 21
357.553
 31
0.0
  0
LINE
  5
5DD
330
1E
100
AcDbEntity
  8
0
100
AcDbLine
 10
443.0
 20
363.853
 30
0.0
 11
443.0
 21
368.653
 31
0.0
  0
LINE
  5
5DE
330
1E
100
AcDbEntity
  8
0
100
AcDbLine
 10
443.0
 20
370.653
 30
0.0
 11
443.0
 21
371.553
 31
0.0
  0
LINE
  5
5DF
330
1E
100
AcDbEntity
  8
0
100
AcDbLine
 10
443.0
 20
369.653
 30
0.0
 11
443.0
 21
370.653
 31
0.0
  0
LINE
  5
5E0
330
1E
100
AcDbEntity
  8
0
100
AcDbLine
 10
443.0
 20
372.653
 30
0.0
 11
443.0
 21
371.553
 31
0.0
  0
LINE
  5
5E1
330
1E
100
AcDbEntity
  8
0
100
AcDbLine
 10
443.0
 20
372.653
 30
0.0
 11
453.0
 21
379.653
 31
0.0
  0
LINE
  5
5E2
330
1E
100
AcDbEntity
  8
0
100
AcDbLine
 10
443.0
 20
371.553
 30
0.0
 11
443.0
 21
368.653
 31
0.0
  0
LINE
  5
5E3
330
1E
100
AcDbEntity
  8
0
100
AcDbLine
 10
443.0
 20
371.553
 30
0.0
 11
443.0
 21
372.653
 31
0.0
  0
LINE
  5
5E4
330
1E
100
AcDbEntity
  8
0
100
AcDbLine
 10
443.0
 20
371.553
 30
0.0
 11
443.0
 21
370.653
 31
0.0
  0
LINE
  5
5E5
330
1E
100
AcDbEntity
  8
0
100
AcDbLine
 10
453.0
 20
368.753
 30
0.0
 11
453.0
 21
361.053
 31
0.0
  0
LINE
  5
5E6
330
1E
100
AcDbEntity
  8
0
100
AcDbLine
 10
453.0
 20
368.753
 30
0.0
 11
453.0
 21
374.653
 31
0.0
  0
LINE
  5
5E7
330
1E
100
AcDbEntity
  8
0
100
AcDbLine
 10
460.0
 20
368.753
 30
0.0
 11
460.0
 21
361.053
 31
0.0
  0
LINE
  5
5E8
330
1E
100
AcDbEntity
  8
0
100
AcDbLine
 10
460.0
 20
368.753
 30
0.0
 11
460.0
 21
374.653
 31
0.0
  0
LINE
  5
5E9
330
1E
100
AcDbEntity
  8
0
100
AcDbLine
 10
453.0
 20
374.653
 30
0.0
 11
453.0
 21
368.753
 31
0.0
  0
LINE
  5
5EA
330
1E
100
AcDbEntity
  8
0
100
AcDbLine
 10
453.0
 20
374.653
 30
0.0
 11
453.0
 21
378.353
 31
0.0
  0
LINE
  5
5EB
330
1E
100
AcDbEntity
  8
0
100
AcDbLine
 10
460.0
 20
374.653
 30
0.0
 11
460.0
 21
368.753
 31
0.0
  0
LINE
  5
5EC
330
1E
100
AcDbEntity
  8
0
100
AcDbLine
 10
460.0
 20
374.653
 30
0.0
 11
460.0
 21
378.353
 31
0.0
  0
LINE
  5
5ED
330
1E
100
AcDbEntity
  8
0
100
AcDbLine
 10
461.0
 20
373.853
 30
0.0
 11
461.0
 21
368.053
 31
0.0
  0
LINE
  5
5EE
330
1E
100
AcDbEntity
  8
0
100
AcDbLine
 10
461.0
 20
373.853
 30
0.0
 11
461.0
 21
377.353
 31
0.0
  0
LINE
  5
5EF
330
1E
100
AcDbEntity
  8
0
100
AcDbLine
 10
461.0
 20
368.053
 30
0.0
 11
461.0
 21
360.553
 31
0.0
  0
LINE
  5
5F0
330
1E
100
AcDbEntity
  8
0
100
AcDbLine
 10
461.0
 20
368.053
 30
0.0
 11
461.0
 21
373.853
 31
0.0
  0
LINE
  5
5F1
330
1E
100
AcDbEntity
  8
0
100
AcDbLine
 10
453.0
 20
378.353
 30
0.0
 11
453.0
 21
374.653
 31
0.0
  0
LINE
  5
5F2
330
1E
100
AcDbEntity
  8
0
100
AcDbLine
 10
453.0
 20
378.353
 30
0.0
 11
453.0
 21
379.653
 31
0.0
  0
LINE
  5
5F3
330
1E
100
AcDbEntity
  8
0
100
AcDbLine
 10
460.0
 20
378.353
 30
0.0
 11
460.0
 21
374.653
 31
0.0
  0
LINE
  5
5F4
330
1E
100
AcDbEntity
  8
0
100
AcDbLine
 10
460.0
 20
378.353
 30
0.0
 11
460.0
 21
379.653
 31
0.0
  0
LINE
  5
5F5
330
1E
100
AcDbEntity
  8
0
100
AcDbLine
 10
453.0
 20
379.653
 30
0.0
 11
453.0
 21
378.353
 31
0.0
  0
LINE
  5
5F6
330
1E
100
AcDbEntity
  8
0
100
AcDbLine
 10
453.0
 20
379.653
 30
0.0
 11
460.0
 21
379.653
 31
0.0
  0
LINE
  5
5F7
330
1E
100
AcDbEntity
  8
0
100
AcDbLine
 10
460.0
 20
379.653
 30
0.0
 11
460.0
 21
378.353
 31
0.0
  0
LINE
  5
5F8
330
1E
100
AcDbEntity
  8
0
100
AcDbLine
 10
460.0
 20
379.653
 30
0.0
 11
461.0
 21
378.653
 31
0.0
  0
LINE
  5
5F9
330
1E
100
AcDbEntity
  8
0
100
AcDbLine
 10
461.0
 20
378.653
 30
0.0
 11
461.0
 21
377.353
 31
0.0
  0
LINE
  5
5FA
330
1E
100
AcDbEntity
  8
0
100
AcDbLine
 10
461.0
 20
378.653
 30
0.0
 11
462.0
 21
379.653
 31
0.0
  0
LINE
  5
5FB
330
1E
100
AcDbEntity
  8
0
100
AcDbLine
 10
461.0
 20
377.353
 30
0.0
 11
461.0
 21
373.853
 31
0.0
  0
LINE
  5
5FC
330
1E
100
AcDbEntity
  8
0
100
AcDbLine
 10
461.0
 20
377.353
 30
0.0
 11
461.0
 21
378.653
 31
0.0
  0
LINE
  5
5FD
330
1E
100
AcDbEntity
  8
0
100
AcDbLine
 10
461.183
 20
601.9299999999999
 30
0.0
 11
465.638
 21
594.0809999999999
 31
0.0
  0
LINE
  5
5FE
330
1E
100
AcDbEntity
  8
0
100
AcDbLine
 10
456.4459999999999
 20
609.7789999999999
 30
0.0
 11
461.183
 21
601.9299999999999
 31
0.0
  0
LINE
  5
5FF
330
1E
100
AcDbEntity
  8
0
100
AcDbLine
 10
450.93
 20
617.274
 30
0.0
 11
456.4459999999999
 21
609.7789999999999
 31
0.0
  0
LINE
  5
600
330
1E
100
AcDbEntity
  8
0
100
AcDbLine
 10
456.163
 20
636.6489999999999
 30
0.0
 11
463.9409999999999
 21
627.881
 31
0.0
  0
LINE
  5
601
330
1E
100
AcDbEntity
  8
0
100
AcDbLine
 10
443.93
 20
625.6889999999999
 30
0.0
 11
450.93
 21
617.274
 31
0.0
  0
LINE
  5
602
330
1E
100
AcDbEntity
  8
0
100
AcDbLine
 10
448.4549999999999
 20
645.0639999999999
 30
0.0
 11
456.163
 21
636.6489999999999
 31
0.0
  0
LINE
  5
603
330
1E
100
AcDbEntity
  8
0
100
AcDbLine
 10
439.0507
 20
654.044
 30
0.0
 11
448.4549999999999
 21
645.0639999999999
 31
0.0
  0
LINE
  5
604
330
1E
100
AcDbEntity
  8
0
100
AcDbLine
 10
462.0
 20
379.653
 30
0.0
 11
462.0
 21
378.353
 31
0.0
  0
LINE
  5
605
330
1E
100
AcDbEntity
  8
0
100
AcDbLine
 10
462.0
 20
379.653
 30
0.0
 11
471.033538461538
 21
379.653
 31
0.0
  0
LINE
  5
606
330
1E
100
AcDbEntity
  8
0
100
AcDbLine
 10
462.0
 20
378.353
 30
0.0
 11
462.0
 21
374.653
 31
0.0
  0
LINE
  5
607
330
1E
100
AcDbEntity
  8
0
100
AcDbLine
 10
462.0
 20
378.353
 30
0.0
 11
462.0
 21
379.653
 31
0.0
  0
LINE
  5
608
330
1E
100
AcDbEntity
  8
0
100
AcDbLine
 10
462.0
 20
374.653
 30
0.0
 11
462.0
 21
368.753
 31
0.0
  0
LINE
  5
609
330
1E
100
AcDbEntity
  8
0
100
AcDbLine
 10
462.0
 20
374.653
 30
0.0
 11
462.0
 21
378.353
 31
0.0
  0
LINE
  5
60A
330
1E
100
AcDbEntity
  8
0
100
AcDbLine
 10
462.0
 20
368.753
 30
0.0
 11
462.0
 21
361.053
 31
0.0
  0
LINE
  5
60B
330
1E
100
AcDbEntity
  8
0
100
AcDbLine
 10
462.0
 20
368.753
 30
0.0
 11
462.0
 21
374.653
 31
0.0
  0
LINE
  5
60C
330
1E
100
AcDbEntity
  8
0
100
AcDbLine
 10
462.0
 20
361.053
 30
0.0
 11
462.0
 21
352.153
 31
0.0
  0
LINE
  5
60D
330
1E
100
AcDbEntity
  8
0
100
AcDbLine
 10
462.0
 20
361.053
 30
0.0
 11
462.0
 21
368.753
 31
0.0
  0
LINE
  5
60E
330
1E
100
AcDbEntity
  8
0
100
AcDbLine
 10
462.0
 20
352.153
 30
0.0
 11
462.0
 21
342.653
 31
0.0
  0
LINE
  5
60F
330
1E
100
AcDbEntity
  8
0
100
AcDbLine
 10
462.0
 20
352.153
 30
0.0
 11
462.0
 21
361.053
 31
0.0
  0
LINE
  5
610
330
1E
100
AcDbEntity
  8
0
100
AcDbLine
 10
461.0
 20
342.653
 30
0.0
 11
461.0
 21
333.353
 31
0.0
  0
LINE
  5
611
330
1E
100
AcDbEntity
  8
0
100
AcDbLine
 10
461.0
 20
342.653
 30
0.0
 11
461.0
 21
351.953
 31
0.0
  0
LINE
  5
612
330
1E
100
AcDbEntity
  8
0
100
AcDbLine
 10
480.0
 20
337.253
 30
0.0
 11
480.0
 21
342.653
 31
0.0
  0
LINE
  5
613
330
1E
100
AcDbEntity
  8
0
100
AcDbLine
 10
480.0
 20
337.253
 30
0.0
 11
480.0
 21
332.253
 31
0.0
  0
LINE
  5
614
330
1E
100
AcDbEntity
  8
0
100
AcDbLine
 10
482.0
 20
336.753
 30
0.0
 11
482.0
 21
342.653
 31
0.0
  0
LINE
  5
615
330
1E
100
AcDbEntity
  8
0
100
AcDbLine
 10
482.0
 20
336.753
 30
0.0
 11
482.0
 21
331.253
 31
0.0
  0
LINE
  5
616
330
1E
100
AcDbEntity
  8
0
100
AcDbLine
 10
482.0
 20
342.653
 30
0.0
 11
482.0
 21
348.553
 31
0.0
  0
LINE
  5
617
330
1E
100
AcDbEntity
  8
0
100
AcDbLine
 10
482.0
 20
342.653
 30
0.0
 11
482.0
 21
336.753
 31
0.0
  0
LINE
  5
618
330
1E
100
AcDbEntity
  8
0
100
AcDbLine
 10
480.0
 20
342.653
 30
0.0
 11
480.0
 21
348.053
 31
0.0
  0
LINE
  5
619
330
1E
100
AcDbEntity
  8
0
100
AcDbLine
 10
480.0
 20
342.653
 30
0.0
 11
480.0
 21
337.253
 31
0.0
  0
LINE
  5
61A
330
1E
100
AcDbEntity
  8
0
100
AcDbLine
 10
480.0
 20
363.653
 30
0.0
 11
480.0
 21
362.853
 31
0.0
  0
LINE
  5
61B
330
1E
100
AcDbEntity
  8
0
100
AcDbLine
 10
480.0
 20
363.653
 30
0.0
 11
482.0
 21
365.653
 31
0.0
  0
LINE
  5
61C
330
1E
100
AcDbEntity
  8
0
100
AcDbLine
 10
480.0
 20
362.853
 30
0.0
 11
480.0
 21
360.853
 31
0.0
  0
LINE
  5
61D
330
1E
100
AcDbEntity
  8
0
100
AcDbLine
 10
480.0
 20
362.853
 30
0.0
 11
480.0
 21
363.653
 31
0.0
  0
LINE
  5
61E
330
1E
100
AcDbEntity
  8
0
100
AcDbLine
 10
480.0
 20
360.853
 30
0.0
 11
480.0
 21
357.453
 31
0.0
  0
LINE
  5
61F
330
1E
100
AcDbEntity
  8
0
100
AcDbLine
 10
480.0
 20
360.853
 30
0.0
 11
480.0
 21
362.853
 31
0.0
  0
LINE
  5
620
330
1E
100
AcDbEntity
  8
0
100
AcDbLine
 10
480.0
 20
357.453
 30
0.0
 11
480.0
 21
353.053
 31
0.0
  0
LINE
  5
621
330
1E
100
AcDbEntity
  8
0
100
AcDbLine
 10
480.0
 20
357.453
 30
0.0
 11
480.0
 21
360.853
 31
0.0
  0
LINE
  5
622
330
1E
100
AcDbEntity
  8
0
100
AcDbLine
 10
482.0
 20
364.853
 30
0.0
 11
482.0
 21
365.653
 31
0.0
  0
LINE
  5
623
330
1E
100
AcDbEntity
  8
0
100
AcDbLine
 10
482.0
 20
364.853
 30
0.0
 11
482.0
 21
362.553
 31
0.0
  0
LINE
  5
624
330
1E
100
AcDbEntity
  8
0
100
AcDbLine
 10
482.0
 20
362.553
 30
0.0
 11
482.0
 21
364.853
 31
0.0
  0
LINE
  5
625
330
1E
100
AcDbEntity
  8
0
100
AcDbLine
 10
482.0
 20
362.553
 30
0.0
 11
482.0
 21
358.8529999999999
 31
0.0
  0
LINE
  5
626
330
1E
100
AcDbEntity
  8
0
100
AcDbLine
 10
482.0
 20
358.8529999999999
 30
0.0
 11
482.0
 21
362.553
 31
0.0
  0
LINE
  5
627
330
1E
100
AcDbEntity
  8
0
100
AcDbLine
 10
482.0
 20
358.8529999999999
 30
0.0
 11
482.0
 21
354.053
 31
0.0
  0
LINE
  5
628
330
1E
100
AcDbEntity
  8
0
100
AcDbLine
 10
482.0
 20
354.053
 30
0.0
 11
482.0
 21
358.8529999999999
 31
0.0
  0
LINE
  5
629
330
1E
100
AcDbEntity
  8
0
100
AcDbLine
 10
482.0
 20
354.053
 30
0.0
 11
482.0
 21
348.553
 31
0.0
  0
LINE
  5
62A
330
1E
100
AcDbEntity
  8
0
100
AcDbLine
 10
482.0
 20
348.553
 30
0.0
 11
482.0
 21
354.053
 31
0.0
  0
LINE
  5
62B
330
1E
100
AcDbEntity
  8
0
100
AcDbLine
 10
482.0
 20
348.553
 30
0.0
 11
482.0
 21
342.653
 31
0.0
  0
LINE
  5
62C
330
1E
100
AcDbEntity
  8
0
100
AcDbLine
 10
480.0
 20
353.053
 30
0.0
 11
480.0
 21
348.053
 31
0.0
  0
LINE
  5
62D
330
1E
100
AcDbEntity
  8
0
100
AcDbLine
 10
480.0
 20
353.053
 30
0.0
 11
480.0
 21
357.453
 31
0.0
  0
LINE
  5
62E
330
1E
100
AcDbEntity
  8
0
100
AcDbLine
 10
480.0
 20
348.053
 30
0.0
 11
480.0
 21
342.653
 31
0.0
  0
LINE
  5
62F
330
1E
100
AcDbEntity
  8
0
100
AcDbLine
 10
480.0
 20
348.053
 30
0.0
 11
480.0
 21
353.053
 31
0.0
  0
LINE
  5
630
330
1E
100
AcDbEntity
  8
0
100
AcDbLine
 10
515.0
 20
336.753
 30
0.0
 11
515.0
 21
331.253
 31
0.0
  0
LINE
  5
631
330
1E
100
AcDbEntity
  8
0
100
AcDbLine
 10
515.0
 20
351.153
 30
0.0
 11
515.0
 21
359.053
 31
0.0
  0
LINE
  5
632
330
1E
100
AcDbEntity
  8
0
100
AcDbLine
 10
515.0
 20
351.153
 30
0.0
 11
515.0
 21
342.653
 31
0.0
  0
LINE
  5
633
330
1E
100
AcDbEntity
  8
0
100
AcDbLine
 10
515.0
 20
342.653
 30
0.0
 11
515.0
 21
351.153
 31
0.0
  0
LINE
  5
634
330
1E
100
AcDbEntity
  8
0
100
AcDbLine
 10
515.0
 20
342.653
 30
0.0
 11
515.0
 21
334.153
 31
0.0
  0
LINE
  5
635
330
1E
100
AcDbEntity
  8
0
100
AcDbLine
 10
515.0
 20
342.653
 30
0.0
 11
515.0
 21
336.753
 31
0.0
  0
LINE
  5
636
330
1E
100
AcDbEntity
  8
0
100
AcDbLine
 10
515.0
 20
359.053
 30
0.0
 11
515.0
 21
365.953
 31
0.0
  0
LINE
  5
637
330
1E
100
AcDbEntity
  8
0
100
AcDbLine
 10
515.0
 20
359.053
 30
0.0
 11
515.0
 21
351.153
 31
0.0
  0
LINE
  5
638
330
1E
100
AcDbEntity
  8
0
100
AcDbLine
 10
515.0
 20
364.853
 30
0.0
 11
515.0
 21
362.553
 31
0.0
  0
LINE
  5
639
330
1E
100
AcDbEntity
  8
0
100
AcDbLine
 10
515.0
 20
362.553
 30
0.0
 11
515.0
 21
358.8529999999999
 31
0.0
  0
LINE
  5
63A
330
1E
100
AcDbEntity
  8
0
100
AcDbLine
 10
515.0
 20
358.8529999999999
 30
0.0
 11
515.0
 21
354.053
 31
0.0
  0
LINE
  5
63B
330
1E
100
AcDbEntity
  8
0
100
AcDbLine
 10
515.0
 20
354.053
 30
0.0
 11
515.0
 21
348.553
 31
0.0
  0
LINE
  5
63C
330
1E
100
AcDbEntity
  8
0
100
AcDbLine
 10
517.0
 20
342.653
 30
0.0
 11
517.0
 21
351.653
 31
0.0
  0
LINE
  5
63D
330
1E
100
AcDbEntity
  8
0
100
AcDbLine
 10
517.0
 20
342.653
 30
0.0
 11
517.0
 21
333.653
 31
0.0
  0
LINE
  5
63E
330
1E
100
AcDbEntity
  8
0
100
AcDbLine
 10
517.0
 20
360.053
 30
0.0
 11
517.0
 21
367.3529999999999
 31
0.0
  0
LINE
  5
63F
330
1E
100
AcDbEntity
  8
0
100
AcDbLine
 10
517.0
 20
360.053
 30
0.0
 11
517.0
 21
351.653
 31
0.0
  0
LINE
  5
640
330
1E
100
AcDbEntity
  8
0
100
AcDbLine
 10
517.0
 20
351.653
 30
0.0
 11
517.0
 21
360.053
 31
0.0
  0
LINE
  5
641
330
1E
100
AcDbEntity
  8
0
100
AcDbLine
 10
517.0
 20
351.653
 30
0.0
 11
517.0
 21
342.653
 31
0.0
  0
LINE
  5
642
330
1E
100
AcDbEntity
  8
0
100
AcDbLine
 10
523.0
 20
360.053
 30
0.0
 11
523.0
 21
367.3529999999999
 31
0.0
  0
LINE
  5
643
330
1E
100
AcDbEntity
  8
0
100
AcDbLine
 10
523.0
 20
360.053
 30
0.0
 11
523.0
 21
351.653
 31
0.0
  0
LINE
  5
644
330
1E
100
AcDbEntity
  8
0
100
AcDbLine
 10
523.0
 20
351.653
 30
0.0
 11
523.0
 21
360.053
 31
0.0
  0
LINE
  5
645
330
1E
100
AcDbEntity
  8
0
100
AcDbLine
 10
523.0
 20
351.653
 30
0.0
 11
523.0
 21
342.653
 31
0.0
  0
LINE
  5
646
330
1E
100
AcDbEntity
  8
0
100
AcDbLine
 10
523.0
 20
342.653
 30
0.0
 11
523.0
 21
351.653
 31
0.0
  0
LINE
  5
647
330
1E
100
AcDbEntity
  8
0
100
AcDbLine
 10
523.0
 20
342.653
 30
0.0
 11
523.0
 21
333.653
 31
0.0
  0
LINE
  5
648
330
1E
100
AcDbEntity
  8
0
100
AcDbLine
 10
515.0
 20
348.553
 30
0.0
 11
515.0
 21
342.653
 31
0.0
  0
LINE
  5
649
330
1E
100
AcDbEntity
  8
0
100
AcDbLine
 10
515.0
 20
365.653
 30
0.0
 11
515.0
 21
365.953
 31
0.0
  0
LINE
  5
64A
330
1E
100
AcDbEntity
  8
0
100
AcDbLine
 10
515.0
 20
365.653
 30
0.0
 11
515.0
 21
364.853
 31
0.0
  0
LINE
  5
64B
330
1E
100
AcDbEntity
  8
0
100
AcDbLine
 10
482.0
 20
365.653
 30
0.0
 11
493.15365668138
 21
365.653
 31
0.0
  0
LINE
  5
64C
330
1E
100
AcDbEntity
  8
0
100
AcDbLine
 10
482.0
 20
365.653
 30
0.0
 11
482.0
 21
364.853
 31
0.0
  0
LINE
  5
64D
330
1E
100
AcDbEntity
  8
0
100
AcDbLine
 10
515.0
 20
375.653
 30
0.0
 11
515.0
 21
374.453
 31
0.0
  0
LINE
  5
64E
330
1E
100
AcDbEntity
  8
0
100
AcDbLine
 10
515.0
 20
375.653
 30
0.0
 11
517.0
 21
377.653
 31
0.0
  0
LINE
  5
64F
330
1E
100
AcDbEntity
  8
0
100
AcDbLine
 10
515.0
 20
374.453
 30
0.0
 11
515.0
 21
371.253
 31
0.0
  0
LINE
  5
650
330
1E
100
AcDbEntity
  8
0
100
AcDbLine
 10
515.0
 20
374.453
 30
0.0
 11
515.0
 21
375.653
 31
0.0
  0
LINE
  5
651
330
1E
100
AcDbEntity
  8
0
100
AcDbLine
 10
517.0
 20
376.353
 30
0.0
 11
517.0
 21
377.653
 31
0.0
  0
LINE
  5
652
330
1E
100
AcDbEntity
  8
0
100
AcDbLine
 10
517.0
 20
376.353
 30
0.0
 11
517.0
 21
372.953
 31
0.0
  0
LINE
  5
653
330
1E
100
AcDbEntity
  8
0
100
AcDbLine
 10
517.0
 20
372.953
 30
0.0
 11
517.0
 21
376.353
 31
0.0
  0
LINE
  5
654
330
1E
100
AcDbEntity
  8
0
100
AcDbLine
 10
517.0
 20
372.953
 30
0.0
 11
517.0
 21
367.3529999999999
 31
0.0
  0
LINE
  5
655
330
1E
100
AcDbEntity
  8
0
100
AcDbLine
 10
517.0
 20
367.3529999999999
 30
0.0
 11
517.0
 21
372.953
 31
0.0
  0
LINE
  5
656
330
1E
100
AcDbEntity
  8
0
100
AcDbLine
 10
517.0
 20
367.3529999999999
 30
0.0
 11
517.0
 21
360.053
 31
0.0
  0
LINE
  5
657
330
1E
100
AcDbEntity
  8
0
100
AcDbLine
 10
515.0
 20
371.253
 30
0.0
 11
515.0
 21
365.953
 31
0.0
  0
LINE
  5
658
330
1E
100
AcDbEntity
  8
0
100
AcDbLine
 10
515.0
 20
371.253
 30
0.0
 11
515.0
 21
374.453
 31
0.0
  0
LINE
  5
659
330
1E
100
AcDbEntity
  8
0
100
AcDbLine
 10
515.0
 20
365.953
 30
0.0
 11
515.0
 21
365.653
 31
0.0
  0
LINE
  5
65A
330
1E
100
AcDbEntity
  8
0
100
AcDbLine
 10
515.0
 20
365.953
 30
0.0
 11
515.0
 21
371.253
 31
0.0
  0
LINE
  5
65B
330
1E
100
AcDbEntity
  8
0
100
AcDbLine
 10
515.0
 20
365.953
 30
0.0
 11
515.0
 21
359.053
 31
0.0
  0
LINE
  5
65C
330
1E
100
AcDbEntity
  8
0
100
AcDbLine
 10
523.0
 20
376.353
 30
0.0
 11
523.0
 21
377.653
 31
0.0
  0
LINE
  5
65D
330
1E
100
AcDbEntity
  8
0
100
AcDbLine
 10
523.0
 20
376.353
 30
0.0
 11
523.0
 21
372.953
 31
0.0
  0
LINE
  5
65E
330
1E
100
AcDbEntity
  8
0
100
AcDbLine
 10
523.0
 20
372.953
 30
0.0
 11
523.0
 21
376.353
 31
0.0
  0
LINE
  5
65F
330
1E
100
AcDbEntity
  8
0
100
AcDbLine
 10
523.0
 20
372.953
 30
0.0
 11
523.0
 21
367.3529999999999
 31
0.0
  0
LINE
  5
660
330
1E
100
AcDbEntity
  8
0
100
AcDbLine
 10
523.0
 20
367.3529999999999
 30
0.0
 11
523.0
 21
372.953
 31
0.0
  0
LINE
  5
661
330
1E
100
AcDbEntity
  8
0
100
AcDbLine
 10
523.0
 20
367.3529999999999
 30
0.0
 11
523.0
 21
360.053
 31
0.0
  0
LINE
  5
662
330
1E
100
AcDbEntity
  8
0
100
AcDbLine
 10
517.0
 20
377.653
 30
0.0
 11
523.0
 21
377.653
 31
0.0
  0
LINE
  5
663
330
1E
100
AcDbEntity
  8
0
100
AcDbLine
 10
517.0
 20
377.653
 30
0.0
 11
517.0
 21
376.353
 31
0.0
  0
LINE
  5
664
330
1E
100
AcDbEntity
  8
0
100
AcDbLine
 10
509.115497548074
 20
365.653
 30
0.0
 11
515.0
 21
365.653
 31
0.0
  0
LINE
  5
665
330
1E
100
AcDbEntity
  8
0
100
AcDbLine
 10
523.0
 20
377.653
 30
0.0
 11
523.0
 21
378.353
 31
0.0
  0
LINE
  5
666
330
1E
100
AcDbEntity
  8
0
100
AcDbLine
 10
523.0
 20
377.653
 30
0.0
 11
523.0
 21
376.353
 31
0.0
  0
LINE
  5
667
330
1E
100
AcDbEntity
  8
0
100
AcDbLine
 10
471.0
 20
379.653
 30
0.0
 11
471.0
 21
380.403
 31
0.0
  0
LINE
  5
668
330
1E
100
AcDbEntity
  8
0
100
AcDbLine
 10
469.0
 20
390.653
 30
0.0
 11
470.0
 21
392.6529999999999
 31
0.0
  0
LINE
  5
669
330
1E
100
AcDbEntity
  8
0
100
AcDbLine
 10
469.0
 20
390.653
 30
0.0
 11
469.0
 21
387.653
 31
0.0
  0
LINE
  5
66A
330
1E
100
AcDbEntity
  8
0
100
AcDbLine
 10
470.0
 20
392.6529999999999
 30
0.0
 11
472.0
 21
394.653
 31
0.0
  0
LINE
  5
66B
330
1E
100
AcDbEntity
  8
0
100
AcDbLine
 10
469.0
 20
387.653
 30
0.0
 11
469.0
 21
384.653
 31
0.0
  0
LINE
  5
66C
330
1E
100
AcDbEntity
  8
0
100
AcDbLine
 10
469.0
 20
387.653
 30
0.0
 11
469.0
 21
390.653
 31
0.0
  0
LINE
  5
66D
330
1E
100
AcDbEntity
  8
0
100
AcDbLine
 10
469.0
 20
384.653
 30
0.0
 11
470.0
 21
382.653
 31
0.0
  0
LINE
  5
66E
330
1E
100
AcDbEntity
  8
0
100
AcDbLine
 10
469.0
 20
384.653
 30
0.0
 11
469.0
 21
387.653
 31
0.0
  0
LINE
  5
66F
330
1E
100
AcDbEntity
  8
0
100
AcDbLine
 10
471.436
 20
380.403
 30
0.0
 11
472.581
 21
380.403
 31
0.0
  0
LINE
  5
670
330
1E
100
AcDbEntity
  8
0
100
AcDbLine
 10
471.273
 20
380.653
 30
0.0
 11
471.7089999999999
 21
380.653
 31
0.0
  0
LINE
  5
671
330
1E
100
AcDbEntity
  8
0
100
AcDbLine
 10
471.0
 20
380.403
 30
0.0
 11
471.273
 21
380.653
 31
0.0
  0
LINE
  5
672
330
1E
100
AcDbEntity
  8
0
100
AcDbLine
 10
471.0
 20
380.403
 30
0.0
 11
471.0
 21
379.653
 31
0.0
  0
LINE
  5
673
330
1E
100
AcDbEntity
  8
0
100
AcDbLine
 10
471.0
 20
380.403
 30
0.0
 11
471.436
 21
380.403
 31
0.0
  0
LINE
  5
674
330
1E
100
AcDbEntity
  8
0
100
AcDbLine
 10
472.581
 20
380.403
 30
0.0
 11
474.5449999999999
 21
380.403
 31
0.0
  0
LINE
  5
675
330
1E
100
AcDbEntity
  8
0
100
AcDbLine
 10
471.7089999999999
 20
380.653
 30
0.0
 11
472.855
 21
380.653
 31
0.0
  0
LINE
  5
676
330
1E
100
AcDbEntity
  8
0
100
AcDbLine
 10
474.5449999999999
 20
380.403
 30
0.0
 11
477.055
 21
380.403
 31
0.0
  0
LINE
  5
677
330
1E
100
AcDbEntity
  8
0
100
AcDbLine
 10
477.055
 20
380.403
 30
0.0
 11
479.8909999999999
 21
380.403
 31
0.0
  0
LINE
  5
678
330
1E
100
AcDbEntity
  8
0
100
AcDbLine
 10
472.855
 20
380.653
 30
0.0
 11
474.709
 21
380.653
 31
0.0
  0
LINE
  5
679
330
1E
100
AcDbEntity
  8
0
100
AcDbLine
 10
474.709
 20
380.653
 30
0.0
 11
477.1639999999999
 21
380.653
 31
0.0
  0
LINE
  5
67A
330
1E
100
AcDbEntity
  8
0
100
AcDbLine
 10
483.0
 20
380.403
 30
0.0
 11
486.109
 21
380.403
 31
0.0
  0
LINE
  5
67B
330
1E
100
AcDbEntity
  8
0
100
AcDbLine
 10
483.0
 20
380.653
 30
0.0
 11
486.0
 21
380.653
 31
0.0
  0
LINE
  5
67C
330
1E
100
AcDbEntity
  8
0
100
AcDbLine
 10
479.8909999999999
 20
380.403
 30
0.0
 11
483.0
 21
380.403
 31
0.0
  0
LINE
  5
67D
330
1E
100
AcDbEntity
  8
0
100
AcDbLine
 10
477.1639999999999
 20
380.653
 30
0.0
 11
480.0
 21
380.653
 31
0.0
  0
LINE
  5
67E
330
1E
100
AcDbEntity
  8
0
100
AcDbLine
 10
480.0
 20
380.653
 30
0.0
 11
483.0
 21
380.653
 31
0.0
  0
LINE
  5
67F
330
1E
100
AcDbEntity
  8
0
100
AcDbLine
 10
486.109
 20
380.403
 30
0.0
 11
488.945
 21
380.403
 31
0.0
  0
LINE
  5
680
330
1E
100
AcDbEntity
  8
0
100
AcDbLine
 10
486.0
 20
380.653
 30
0.0
 11
488.836
 21
380.653
 31
0.0
  0
LINE
  5
686
330
1E
100
AcDbEntity
  8
0
100
AcDbLine
 10
473.0
 20
394.653
 30
0.0
 11
473.0
 21
582.604517041502
 31
0.0
  0
LINE
  5
687
330
1E
100
AcDbEntity
  8
0
100
AcDbLine
 10
473.0
 20
394.653
 30
0.0
 11
473.0
 21
582.604517041502
 31
0.0
  0
LINE
  5
689
330
1E
100
AcDbEntity
  8
0
100
AcDbLine
 10
483.0
 20
394.653
 30
0.0
 11
485.8
 21
394.653
 31
0.0
  0
LINE
  5
68A
330
1E
100
AcDbEntity
  8
0
100
AcDbLine
 10
485.8
 20
394.653
 30
0.0
 11
488.4999999999999
 21
394.653
 31
0.0
  0
LINE
  5
68B
330
1E
100
AcDbEntity
  8
0
100
AcDbLine
 10
480.1999999999999
 20
394.653
 30
0.0
 11
483.0
 21
394.653
 31
0.0
  0
LINE
  5
68D
330
1E
100
AcDbEntity
  8
0
100
AcDbLine
 10
477.5
 20
394.653
 30
0.0
 11
480.1999999999999
 21
394.653
 31
0.0
  0
LINE
  5
68E
330
1E
100
AcDbEntity
  8
0
100
AcDbLine
 10
475.1999999999999
 20
394.653
 30
0.0
 11
477.5
 21
394.653
 31
0.0
  0
LINE
  5
68F
330
1E
100
AcDbEntity
  8
0
100
AcDbLine
 10
473.5
 20
394.653
 30
0.0
 11
475.1999999999999
 21
394.653
 31
0.0
  0
LINE
  5
690
330
1E
100
AcDbEntity
  8
0
100
AcDbLine
 10
472.4
 20
394.653
 30
0.0
 11
473.5
 21
394.653
 31
0.0
  0
LINE
  5
691
330
1E
100
AcDbEntity
  8
0
100
AcDbLine
 10
472.0
 20
394.653
 30
0.0
 11
472.4
 21
394.653
 31
0.0
  0
LINE
  5
693
330
1E
100
AcDbEntity
  8
0
100
AcDbLine
 10
470.0
 20
382.653
 30
0.0
 11
472.0
 21
380.653
 31
0.0
  0
LINE
  5
694
330
1E
100
AcDbEntity
  8
0
100
AcDbLine
 10
484.9419999999999
 20
564.312
 30
0.0
 11
485.2949999999999
 21
564.383
 31
0.0
  0
LINE
  5
695
330
1E
100
AcDbEntity
  8
0
100
AcDbLine
 10
486.0
 20
564.067
 30
0.0
 11
488.1999999999999
 21
564.5669999999999
 31
0.0
  0
LINE
  5
696
330
1E
100
AcDbEntity
  8
0
100
AcDbLine
 10
486.0
 20
564.067
 30
0.0
 11
493.8
 21
533.067
 31
0.0
  0
LINE
  5
698
330
1E
100
AcDbEntity
  8
0
100
AcDbLine
 10
491.455
 20
380.403
 30
0.0
 11
493.100238242376
 21
380.403
 31
0.0
  0
LINE
  5
699
330
1E
100
AcDbEntity
  8
0
100
AcDbLine
 10
491.455
 20
380.403
 30
0.0
 11
493.100238242376
 21
380.403
 31
0.0
  0
LINE
  5
69A
330
1E
100
AcDbEntity
  8
0
100
AcDbLine
 10
488.945
 20
380.403
 30
0.0
 11
491.455
 21
380.403
 31
0.0
  0
LINE
  5
69B
330
1E
100
AcDbEntity
  8
0
100
AcDbLine
 10
491.291
 20
380.653
 30
0.0
 11
493.099332845104
 21
380.653
 31
0.0
  0
LINE
  5
69C
330
1E
100
AcDbEntity
  8
0
100
AcDbLine
 10
488.836
 20
380.653
 30
0.0
 11
491.291
 21
380.653
 31
0.0
  0
LINE
  5
69D
330
1E
100
AcDbEntity
  8
0
100
AcDbLine
 10
488.4999999999999
 20
394.653
 30
0.0
 11
490.8
 21
394.653
 31
0.0
  0
LINE
  5
69E
330
1E
100
AcDbEntity
  8
0
100
AcDbLine
 10
490.8
 20
394.653
 30
0.0
 11
492.4999999999999
 21
394.653
 31
0.0
  0
LINE
  5
6A0
330
1E
100
AcDbEntity
  8
0
100
AcDbLine
 10
492.4999999999999
 20
394.653
 30
0.0
 11
493.0486305979129
 21
394.653
 31
0.0
  0
LINE
  5
6A2
330
1E
100
AcDbEntity
  8
0
100
AcDbLine
 10
493.0
 20
394.653
 30
0.0
 11
493.0
 21
408.0809722991709
 31
0.0
  0
LINE
  5
6A3
330
1E
100
AcDbEntity
  8
0
100
AcDbLine
 10
493.0
 20
394.653
 30
0.0
 11
493.0
 21
408.0809722991709
 31
0.0
  0
LINE
  5
6A4
330
1E
100
AcDbEntity
  8
0
100
AcDbLine
 10
492.688
 20
494.2309999999999
 30
0.0
 11
493.4099999999999
 21
294.8709999999999
 31
0.0
  0
LINE
  5
6A8
330
1E
100
AcDbEntity
  8
0
100
AcDbLine
 10
498.8999999999999
 20
533.067
 30
0.0
 11
501.7999999999999
 21
533.067
 31
0.0
  0
LINE
  5
6A9
330
1E
100
AcDbEntity
  8
0
100
AcDbLine
 10
496.1
 20
533.067
 30
0.0
 11
498.8999999999999
 21
533.067
 31
0.0
  0
LINE
  5
6AA
330
1E
100
AcDbEntity
  8
0
100
AcDbLine
 10
493.8
 20
533.067
 30
0.0
 11
496.1
 21
533.067
 31
0.0
  0
LINE
  5
6AB
330
1E
100
AcDbEntity
  8
0
100
AcDbLine
 10
490.9769999999999
 20
525.914
 30
0.0
 11
492.688
 21
494.2309999999999
 31
0.0
  0
LINE
  5
6AC
330
1E
100
AcDbEntity
  8
0
100
AcDbLine
 10
488.125
 20
547.702
 30
0.0
 11
490.9769999999999
 21
525.914
 31
0.0
  0
LINE
  5
6AF
330
1E
100
AcDbEntity
  8
0
100
AcDbLine
 10
486.2149999999999
 20
564.595
 30
0.0
 11
487.558
 21
564.9490000000001
 31
0.0
  0
LINE
  5
6B0
330
1E
100
AcDbEntity
  8
0
100
AcDbLine
 10
485.2949999999999
 20
564.383
 30
0.0
 11
486.2149999999999
 21
564.595
 31
0.0
  0
LINE
  5
6B1
330
1E
100
AcDbEntity
  8
0
100
AcDbLine
 10
483.8109999999999
 20
565.019
 30
0.0
 11
484.9419999999999
 21
564.312
 31
0.0
  0
LINE
  5
6B3
330
1E
100
AcDbEntity
  8
0
100
AcDbLine
 10
488.1999999999999
 20
564.5669999999999
 30
0.0
 11
490.8
 21
565.0669999999999
 31
0.0
  0
LINE
  5
6BC
330
1E
100
AcDbEntity
  8
0
100
AcDbLine
 10
483.598
 20
565.939
 30
0.0
 11
484.1639999999999
 21
567.2109999999999
 31
0.0
  0
LINE
  5
6BD
330
1E
100
AcDbEntity
  8
0
100
AcDbLine
 10
483.598
 20
565.939
 30
0.0
 11
483.8109999999999
 21
565.019
 31
0.0
  0
LINE
  5
6BF
330
1E
100
AcDbEntity
  8
0
100
AcDbLine
 10
490.8
 20
565.0669999999999
 30
0.0
 11
493.5
 21
565.6669999999999
 31
0.0
  0
LINE
  5
6C0
330
1E
100
AcDbEntity
  8
0
100
AcDbLine
 10
493.5
 20
565.6669999999999
 30
0.0
 11
496.3
 21
566.3669999999999
 31
0.0
  0
LINE
  5
6C1
330
1E
100
AcDbEntity
  8
0
100
AcDbLine
 10
465.638
 20
594.0809999999999
 30
0.0
 11
469.81
 21
587.364
 31
0.0
  0
LINE
  5
6C2
330
1E
100
AcDbEntity
  8
0
100
AcDbLine
 10
463.9409999999999
 20
627.881
 30
0.0
 11
470.588
 21
620.1030000000001
 31
0.0
  0
LINE
  5
6C3
330
1E
100
AcDbEntity
  8
0
100
AcDbLine
 10
468.0
 20
1250.653
 30
0.0
 11
468.0
 21
1251.053
 31
0.0
  0
LINE
  5
6C4
330
1E
100
AcDbEntity
  8
0
100
AcDbLine
 10
468.0
 20
1250.653
 30
0.0
 11
470.0
 21
1250.653
 31
0.0
  0
LINE
  5
6C5
330
1E
100
AcDbEntity
  8
0
100
AcDbLine
 10
469.0
 20
1242.653
 30
0.0
 11
470.0
 21
1240.653
 31
0.0
  0
LINE
  5
6C6
330
1E
100
AcDbEntity
  8
0
100
AcDbLine
 10
469.0
 20
1242.653
 30
0.0
 11
469.0
 21
1245.653
 31
0.0
  0
LINE
  5
6C7
330
1E
100
AcDbEntity
  8
0
100
AcDbLine
 10
469.0
 20
1245.653
 30
0.0
 11
469.0
 21
1248.653
 31
0.0
  0
LINE
  5
6C8
330
1E
100
AcDbEntity
  8
0
100
AcDbLine
 10
469.0
 20
1245.653
 30
0.0
 11
469.0
 21
1242.653
 31
0.0
  0
LINE
  5
6C9
330
1E
100
AcDbEntity
  8
0
100
AcDbLine
 10
469.81
 20
587.364
 30
0.0
 11
474.123
 21
580.9289999999999
 31
0.0
  0
LINE
  5
6CA
330
1E
100
AcDbEntity
  8
0
100
AcDbLine
 10
470.588
 20
620.1030000000001
 30
0.0
 11
476.739
 21
611.971
 31
0.0
  0
LINE
  5
6CD
330
1E
100
AcDbEntity
  8
0
100
AcDbLine
 10
470.0
 20
1240.653
 30
0.0
 11
472.0
 21
1238.653
 31
0.0
  0
LINE
  5
6CE
330
1E
100
AcDbEntity
  8
0
100
AcDbLine
 10
471.6999999999999
 20
1250.653
 30
0.0
 11
473.8
 21
1250.653
 31
0.0
  0
LINE
  5
6CF
330
1E
100
AcDbEntity
  8
0
100
AcDbLine
 10
470.0
 20
1250.653
 30
0.0
 11
471.6999999999999
 21
1250.653
 31
0.0
  0
LINE
  5
6D0
330
1E
100
AcDbEntity
  8
0
100
AcDbLine
 10
469.0
 20
1248.653
 30
0.0
 11
470.0
 21
1250.653
 31
0.0
  0
LINE
  5
6D1
330
1E
100
AcDbEntity
  8
0
100
AcDbLine
 10
469.0
 20
1248.653
 30
0.0
 11
469.0
 21
1245.653
 31
0.0
  0
LINE
  5
6D2
330
1E
100
AcDbEntity
  8
0
100
AcDbLine
 10
474.123
 20
580.9289999999999
 30
0.0
 11
479.073
 21
574.2819999999999
 31
0.0
  0
LINE
  5
6D3
330
1E
100
AcDbEntity
  8
0
100
AcDbLine
 10
479.073
 20
574.2819999999999
 30
0.0
 11
482.679
 21
569.403
 31
0.0
  0
LINE
  5
6D4
330
1E
100
AcDbEntity
  8
0
100
AcDbLine
 10
476.739
 20
611.971
 30
0.0
 11
482.7499999999999
 21
603.981
 31
0.0
  0
LINE
  5
6D5
330
1E
100
AcDbEntity
  8
0
100
AcDbLine
 10
473.0
 20
1238.653
 30
0.0
 11
473.3999999999999
 21
1238.653
 31
0.0
  0
LINE
  5
6D6
330
1E
100
AcDbEntity
  8
0
100
AcDbLine
 10
473.3999999999999
 20
1238.653
 30
0.0
 11
474.3
 21
1238.653
 31
0.0
  0
LINE
  5
6D7
330
1E
100
AcDbEntity
  8
0
100
AcDbLine
 10
474.3
 20
1238.653
 30
0.0
 11
475.8999999999999
 21
1238.653
 31
0.0
  0
LINE
  5
6D8
330
1E
100
AcDbEntity
  8
0
100
AcDbLine
 10
475.8999999999999
 20
1238.653
 30
0.0
 11
478.0
 21
1238.653
 31
0.0
  0
LINE
  5
6D9
330
1E
100
AcDbEntity
  8
0
100
AcDbLine
 10
478.0
 20
1238.653
 30
0.0
 11
480.4
 21
1238.653
 31
0.0
  0
LINE
  5
6DA
330
1E
100
AcDbEntity
  8
0
100
AcDbLine
 10
473.0
 20
616.914187774346
 30
0.0
 11
473.0
 21
1238.653
 31
0.0
  0
LINE
  5
6DB
330
1E
100
AcDbEntity
  8
0
100
AcDbLine
 10
473.0
 20
616.914187774346
 30
0.0
 11
473.0
 21
1238.653
 31
0.0
  0
LINE
  5
6DC
330
1E
100
AcDbEntity
  8
0
100
AcDbLine
 10
482.679
 20
569.403
 30
0.0
 11
484.1639999999999
 21
567.2109999999999
 31
0.0
  0
LINE
  5
6DD
330
1E
100
AcDbEntity
  8
0
100
AcDbLine
 10
482.7499999999999
 20
603.981
 30
0.0
 11
487.9819999999999
 21
596.6269999999999
 31
0.0
  0
LINE
  5
6DE
330
1E
100
AcDbEntity
  8
0
100
AcDbLine
 10
485.4369999999999
 20
567.494
 30
0.0
 11
486.7799999999999
 21
567.848
 31
0.0
  0
LINE
  5
6DF
330
1E
100
AcDbEntity
  8
0
100
AcDbLine
 10
484.518
 20
567.2819999999999
 30
0.0
 11
485.4369999999999
 21
567.494
 31
0.0
  0
LINE
  5
6E0
330
1E
100
AcDbEntity
  8
0
100
AcDbLine
 10
484.1639999999999
 20
567.2109999999999
 30
0.0
 11
484.518
 21
567.2819999999999
 31
0.0
  0
LINE
  5
6E1
330
1E
100
AcDbEntity
  8
0
100
AcDbLine
 10
485.6
 20
1238.653
 30
0.0
 11
488.0
 21
1238.653
 31
0.0
  0
LINE
  5
6E2
330
1E
100
AcDbEntity
  8
0
100
AcDbLine
 10
480.4
 20
1238.653
 30
0.0
 11
483.0
 21
1238.653
 31
0.0
  0
LINE
  5
6E3
330
1E
100
AcDbEntity
  8
0
100
AcDbLine
 10
480.1999999999999
 20
1238.653
 30
0.0
 11
483.0
 21
1238.653
 31
0.0
  0
LINE
  5
6E4
330
1E
100
AcDbEntity
  8
0
100
AcDbLine
 10
483.0
 20
1238.653
 30
0.0
 11
485.8
 21
1238.653
 31
0.0
  0
LINE
  5
6E5
330
1E
100
AcDbEntity
  8
0
100
AcDbLine
 10
483.0
 20
1238.653
 30
0.0
 11
485.6
 21
1238.653
 31
0.0
  0
LINE
  5
6E7
330
1E
100
AcDbEntity
  8
0
100
AcDbLine
 10
487.9819999999999
 20
596.6269999999999
 30
0.0
 11
492.154
 21
590.0509999999999
 31
0.0
  0
LINE
  5
6E8
330
1E
100
AcDbEntity
  8
0
100
AcDbLine
 10
486.7799999999999
 20
567.848
 30
0.0
 11
488.619
 21
568.413
 31
0.0
  0
LINE
  5
6EA
330
1E
100
AcDbEntity
  8
0
100
AcDbLine
 10
488.0
 20
1238.653
 30
0.0
 11
490.1
 21
1238.653
 31
0.0
  0
LINE
  5
6EB
330
1E
100
AcDbEntity
  8
0
100
AcDbLine
 10
485.8
 20
1238.653
 30
0.0
 11
488.4999999999999
 21
1238.653
 31
0.0
  0
LINE
  5
6EC
330
1E
100
AcDbEntity
  8
0
100
AcDbLine
 10
477.5
 20
1238.653
 30
0.0
 11
480.1999999999999
 21
1238.653
 31
0.0
  0
LINE
  5
6ED
330
1E
100
AcDbEntity
  8
0
100
AcDbLine
 10
490.669
 20
568.908
 30
0.0
 11
493.003
 21
569.545
 31
0.0
  0
LINE
  5
6EF
330
1E
100
AcDbEntity
  8
0
100
AcDbLine
 10
488.619
 20
568.413
 30
0.0
 11
490.669
 21
568.908
 31
0.0
  0
LINE
  5
6F0
330
1E
100
AcDbEntity
  8
0
100
AcDbLine
 10
490.1
 20
1238.653
 30
0.0
 11
491.6999999999999
 21
1238.653
 31
0.0
  0
LINE
  5
6F1
330
1E
100
AcDbEntity
  8
0
100
AcDbLine
 10
488.4999999999999
 20
1238.653
 30
0.0
 11
490.8
 21
1238.653
 31
0.0
  0
LINE
  5
6F2
330
1E
100
AcDbEntity
  8
0
100
AcDbLine
 10
475.1999999999999
 20
1238.653
 30
0.0
 11
477.5
 21
1238.653
 31
0.0
  0
LINE
  5
6F3
330
1E
100
AcDbEntity
  8
0
100
AcDbLine
 10
492.154
 20
590.0509999999999
 30
0.0
 11
496.185
 21
583.0499999999999
 31
0.0
  0
LINE
  5
6F5
330
1E
100
AcDbEntity
  8
0
100
AcDbLine
 10
491.6999999999999
 20
1238.653
 30
0.0
 11
492.6
 21
1238.653
 31
0.0
  0
LINE
  5
6F6
330
1E
100
AcDbEntity
  8
0
100
AcDbLine
 10
490.8
 20
1238.653
 30
0.0
 11
492.4999999999999
 21
1238.653
 31
0.0
  0
LINE
  5
6F7
330
1E
100
AcDbEntity
  8
0
100
AcDbLine
 10
473.5
 20
1238.653
 30
0.0
 11
475.1999999999999
 21
1238.653
 31
0.0
  0
LINE
  5
6F8
330
1E
100
AcDbEntity
  8
0
100
AcDbLine
 10
493.0
 20
588.581675762838
 30
0.0
 11
493.0
 21
1238.653
 31
0.0
  0
LINE
  5
6F9
330
1E
100
AcDbEntity
  8
0
100
AcDbLine
 10
492.6
 20
1238.653
 30
0.0
 11
493.0
 21
1238.653
 31
0.0
  0
LINE
  5
6FE
330
1E
100
AcDbEntity
  8
0
100
AcDbLine
 10
496.185
 20
583.0499999999999
 30
0.0
 11
499.508
 21
576.474
 31
0.0
  0
LINE
  5
6FF
330
1E
100
AcDbEntity
  8
0
100
AcDbLine
 10
495.2659999999999
 20
570.11
 30
0.0
 11
497.316
 21
570.7469999999999
 31
0.0
  0
LINE
  5
701
330
1E
100
AcDbEntity
  8
0
100
AcDbLine
 10
493.003
 20
569.545
 30
0.0
 11
495.2659999999999
 21
570.11
 31
0.0
  0
LINE
  5
703
330
1E
100
AcDbEntity
  8
0
100
AcDbLine
 10
493.0
 20
588.581675762838
 30
0.0
 11
493.0
 21
1238.653
 31
0.0
  0
LINE
  5
704
330
1E
100
AcDbEntity
  8
0
100
AcDbLine
 10
494.0
 20
1238.653
 30
0.0
 11
496.0
 21
1240.653
 31
0.0
  0
LINE
  5
705
330
1E
100
AcDbEntity
  8
0
100
AcDbLine
 10
492.4999999999999
 20
1238.653
 30
0.0
 11
493.5999999999999
 21
1238.653
 31
0.0
  0
LINE
  5
706
330
1E
100
AcDbEntity
  8
0
100
AcDbLine
 10
493.0
 20
1238.653
 30
0.0
 11
493.5999999999999
 21
1238.653
 31
0.0
  0
LINE
  5
707
330
1E
100
AcDbEntity
  8
0
100
AcDbLine
 10
472.4
 20
1238.653
 30
0.0
 11
473.0
 21
1238.653
 31
0.0
  0
LINE
  5
708
330
1E
100
AcDbEntity
  8
0
100
AcDbLine
 10
472.4
 20
1238.653
 30
0.0
 11
473.5
 21
1238.653
 31
0.0
  0
LINE
  5
70E
330
1E
100
AcDbEntity
  8
0
100
AcDbLine
 10
473.8
 20
1250.653
 30
0.0
 11
494.3
 21
1250.653
 31
0.0
  0
LINE
  5
70F
330
1E
100
AcDbEntity
  8
0
100
AcDbLine
 10
496.0
 20
1240.653
 30
0.0
 11
497.0
 21
1242.653
 31
0.0
  0
LINE
  5
710
330
1E
100
AcDbEntity
  8
0
100
AcDbLine
 10
494.3
 20
1250.653
 30
0.0
 11
496.0
 21
1250.653
 31
0.0
  0
LINE
  5
712
330
1E
100
AcDbEntity
  8
0
100
AcDbLine
 10
497.0
 20
1242.653
 30
0.0
 11
497.0
 21
1245.653
 31
0.0
  0
LINE
  5
713
330
1E
100
AcDbEntity
  8
0
100
AcDbLine
 10
497.0
 20
1245.653
 30
0.0
 11
497.0
 21
1248.653
 31
0.0
  0
LINE
  5
714
330
1E
100
AcDbEntity
  8
0
100
AcDbLine
 10
497.0
 20
1245.653
 30
0.0
 11
497.0
 21
1242.653
 31
0.0
  0
LINE
  5
715
330
1E
100
AcDbEntity
  8
0
100
AcDbLine
 10
497.0
 20
1248.653
 30
0.0
 11
497.0
 21
1245.653
 31
0.0
  0
LINE
  5
716
330
1E
100
AcDbEntity
  8
0
100
AcDbLine
 10
496.0
 20
1250.653
 30
0.0
 11
497.0
 21
1248.653
 31
0.0
  0
LINE
  5
717
330
1E
100
AcDbEntity
  8
0
100
AcDbLine
 10
493.5999999999999
 20
1238.653
 30
0.0
 11
494.0
 21
1238.653
 31
0.0
  0
LINE
  5
718
330
1E
100
AcDbEntity
  8
0
100
AcDbLine
 10
472.0
 20
1238.653
 30
0.0
 11
472.4
 21
1238.653
 31
0.0
  0
LINE
  5
719
330
1E
100
AcDbEntity
  8
0
100
AcDbLine
 10
495.0
 20
1251.053
 30
0.0
 11
495.0
 21
1252.253
 31
0.0
  0
LINE
  5
71A
330
1E
100
AcDbEntity
  8
0
100
AcDbLine
 10
468.0
 20
1251.053
 30
0.0
 11
468.0
 21
1252.253
 31
0.0
  0
LINE
  5
71B
330
1E
100
AcDbEntity
  8
0
100
AcDbLine
 10
468.0
 20
1251.053
 30
0.0
 11
468.0
 21
1250.653
 31
0.0
  0
LINE
  5
71C
330
1E
100
AcDbEntity
  8
0
100
AcDbLine
 10
468.0
 20
1253.053
 30
0.0
 11
468.0
 21
1253.953
 31
0.0
  0
LINE
  5
71D
330
1E
100
AcDbEntity
  8
0
100
AcDbLine
 10
468.0
 20
1253.953
 30
0.0
 11
468.0
 21
1255.553
 31
0.0
  0
LINE
  5
71E
330
1E
100
AcDbEntity
  8
0
100
AcDbLine
 10
468.0
 20
1255.553
 30
0.0
 11
468.0
 21
1257.653
 31
0.0
  0
LINE
  5
71F
330
1E
100
AcDbEntity
  8
0
100
AcDbLine
 10
468.0
 20
1257.653
 30
0.0
 11
468.0
 21
1260.053
 31
0.0
  0
LINE
  5
720
330
1E
100
AcDbEntity
  8
0
100
AcDbLine
 10
468.0
 20
1254.153
 30
0.0
 11
468.0
 21
1252.253
 31
0.0
  0
LINE
  5
721
330
1E
100
AcDbEntity
  8
0
100
AcDbLine
 10
468.0
 20
1254.153
 30
0.0
 11
468.0
 21
1256.653
 31
0.0
  0
LINE
  5
722
330
1E
100
AcDbEntity
  8
0
100
AcDbLine
 10
468.0
 20
1256.653
 30
0.0
 11
468.0
 21
1254.153
 31
0.0
  0
LINE
  5
723
330
1E
100
AcDbEntity
  8
0
100
AcDbLine
 10
468.0
 20
1256.653
 30
0.0
 11
468.0
 21
1259.553
 31
0.0
  0
LINE
  5
724
330
1E
100
AcDbEntity
  8
0
100
AcDbLine
 10
468.0
 20
1260.053
 30
0.0
 11
468.0
 21
1262.653
 31
0.0
  0
LINE
  5
725
330
1E
100
AcDbEntity
  8
0
100
AcDbLine
 10
468.0
 20
1265.252999999999
 30
0.0
 11
468.0
 21
1267.653
 31
0.0
  0
LINE
  5
726
330
1E
100
AcDbEntity
  8
0
100
AcDbLine
 10
468.0
 20
1267.653
 30
0.0
 11
468.0
 21
1269.753
 31
0.0
  0
LINE
  5
727
330
1E
100
AcDbEntity
  8
0
100
AcDbLine
 10
468.0
 20
1259.553
 30
0.0
 11
468.0
 21
1256.653
 31
0.0
  0
LINE
  5
728
330
1E
100
AcDbEntity
  8
0
100
AcDbLine
 10
468.0
 20
1259.553
 30
0.0
 11
468.0
 21
1262.653
 31
0.0
  0
LINE
  5
729
330
1E
100
AcDbEntity
  8
0
100
AcDbLine
 10
468.0
 20
1262.653
 30
0.0
 11
468.0
 21
1265.753
 31
0.0
  0
LINE
  5
72A
330
1E
100
AcDbEntity
  8
0
100
AcDbLine
 10
468.0
 20
1262.653
 30
0.0
 11
468.0
 21
1259.553
 31
0.0
  0
LINE
  5
72B
330
1E
100
AcDbEntity
  8
0
100
AcDbLine
 10
468.0
 20
1262.653
 30
0.0
 11
468.0
 21
1265.252999999999
 31
0.0
  0
LINE
  5
72C
330
1E
100
AcDbEntity
  8
0
100
AcDbLine
 10
468.0
 20
1269.753
 30
0.0
 11
468.0
 21
1271.353
 31
0.0
  0
LINE
  5
72D
330
1E
100
AcDbEntity
  8
0
100
AcDbLine
 10
468.0
 20
1271.353
 30
0.0
 11
468.0
 21
1272.253
 31
0.0
  0
LINE
  5
72E
330
1E
100
AcDbEntity
  8
0
100
AcDbLine
 10
468.0
 20
1272.253
 30
0.0
 11
468.0
 21
1272.653
 31
0.0
  0
LINE
  5
72F
330
1E
100
AcDbEntity
  8
0
100
AcDbLine
 10
468.0
 20
1271.152999999999
 30
0.0
 11
468.0
 21
1268.653
 31
0.0
  0
LINE
  5
730
330
1E
100
AcDbEntity
  8
0
100
AcDbLine
 10
468.0
 20
1271.152999999999
 30
0.0
 11
468.0
 21
1273.053
 31
0.0
  0
LINE
  5
731
330
1E
100
AcDbEntity
  8
0
100
AcDbLine
 10
468.0
 20
1268.653
 30
0.0
 11
468.0
 21
1265.753
 31
0.0
  0
LINE
  5
732
330
1E
100
AcDbEntity
  8
0
100
AcDbLine
 10
468.0
 20
1268.653
 30
0.0
 11
468.0
 21
1271.152999999999
 31
0.0
  0
LINE
  5
733
330
1E
100
AcDbEntity
  8
0
100
AcDbLine
 10
468.0
 20
1265.753
 30
0.0
 11
468.0
 21
1262.653
 31
0.0
  0
LINE
  5
734
330
1E
100
AcDbEntity
  8
0
100
AcDbLine
 10
468.0
 20
1265.753
 30
0.0
 11
468.0
 21
1268.653
 31
0.0
  0
LINE
  5
735
330
1E
100
AcDbEntity
  8
0
100
AcDbLine
 10
468.0
 20
1274.253
 30
0.0
 11
468.0
 21
1274.653
 31
0.0
  0
LINE
  5
736
330
1E
100
AcDbEntity
  8
0
100
AcDbLine
 10
468.0
 20
1274.253
 30
0.0
 11
468.0
 21
1273.053
 31
0.0
  0
LINE
  5
737
330
1E
100
AcDbEntity
  8
0
100
AcDbLine
 10
468.0
 20
1274.653
 30
0.0
 11
495.0
 21
1274.653
 31
0.0
  0
LINE
  5
738
330
1E
100
AcDbEntity
  8
0
100
AcDbLine
 10
468.0
 20
1274.653
 30
0.0
 11
468.0
 21
1274.253
 31
0.0
  0
LINE
  5
739
330
1E
100
AcDbEntity
  8
0
100
AcDbLine
 10
468.0
 20
1273.053
 30
0.0
 11
468.0
 21
1274.253
 31
0.0
  0
LINE
  5
73A
330
1E
100
AcDbEntity
  8
0
100
AcDbLine
 10
468.0
 20
1273.053
 30
0.0
 11
468.0
 21
1272.653
 31
0.0
  0
LINE
  5
73B
330
1E
100
AcDbEntity
  8
0
100
AcDbLine
 10
468.0
 20
1273.053
 30
0.0
 11
468.0
 21
1271.152999999999
 31
0.0
  0
LINE
  5
73C
330
1E
100
AcDbEntity
  8
0
100
AcDbLine
 10
468.0
 20
1272.653
 30
0.0
 11
468.0
 21
1273.053
 31
0.0
  0
LINE
  5
73D
330
1E
100
AcDbEntity
  8
0
100
AcDbLine
 10
468.0
 20
1252.653
 30
0.0
 11
468.0
 21
1252.253
 31
0.0
  0
LINE
  5
73E
330
1E
100
AcDbEntity
  8
0
100
AcDbLine
 10
468.0
 20
1252.653
 30
0.0
 11
468.0
 21
1253.053
 31
0.0
  0
LINE
  5
757
330
1E
100
AcDbEntity
  8
0
100
AcDbLine
 10
495.0
 20
1252.253
 30
0.0
 11
495.0
 21
1251.053
 31
0.0
  0
LINE
  5
758
330
1E
100
AcDbEntity
  8
0
100
AcDbLine
 10
495.0
 20
1252.253
 30
0.0
 11
495.0
 21
1254.153
 31
0.0
  0
LINE
  5
759
330
1E
100
AcDbEntity
  8
0
100
AcDbLine
 10
495.0
 20
1254.153
 30
0.0
 11
495.0
 21
1252.253
 31
0.0
  0
LINE
  5
75A
330
1E
100
AcDbEntity
  8
0
100
AcDbLine
 10
495.0
 20
1254.153
 30
0.0
 11
495.0
 21
1256.653
 31
0.0
  0
LINE
  5
75B
330
1E
100
AcDbEntity
  8
0
100
AcDbLine
 10
495.0
 20
1256.653
 30
0.0
 11
495.0
 21
1254.153
 31
0.0
  0
LINE
  5
75C
330
1E
100
AcDbEntity
  8
0
100
AcDbLine
 10
495.0
 20
1256.653
 30
0.0
 11
495.0
 21
1259.553
 31
0.0
  0
LINE
  5
75D
330
1E
100
AcDbEntity
  8
0
100
AcDbLine
 10
495.0
 20
1259.553
 30
0.0
 11
495.0
 21
1256.653
 31
0.0
  0
LINE
  5
75E
330
1E
100
AcDbEntity
  8
0
100
AcDbLine
 10
495.0
 20
1259.553
 30
0.0
 11
495.0
 21
1262.653
 31
0.0
  0
LINE
  5
75F
330
1E
100
AcDbEntity
  8
0
100
AcDbLine
 10
495.4545454545449
 20
1251.198454545449
 30
0.0
 11
496.0
 21
1250.653
 31
0.0
  0
LINE
  5
760
330
1E
100
AcDbEntity
  8
0
100
AcDbLine
 10
497.0
 20
1253.053
 30
0.0
 11
497.0
 21
1252.653
 31
0.0
  0
LINE
  5
761
330
1E
100
AcDbEntity
  8
0
100
AcDbLine
 10
497.0
 20
1253.053
 30
0.0
 11
497.0
 21
1253.953
 31
0.0
  0
LINE
  5
762
330
1E
100
AcDbEntity
  8
0
100
AcDbLine
 10
497.0
 20
1253.953
 30
0.0
 11
497.0
 21
1253.053
 31
0.0
  0
LINE
  5
763
330
1E
100
AcDbEntity
  8
0
100
AcDbLine
 10
497.0
 20
1253.953
 30
0.0
 11
497.0
 21
1255.553
 31
0.0
  0
LINE
  5
764
330
1E
100
AcDbEntity
  8
0
100
AcDbLine
 10
497.0
 20
1255.553
 30
0.0
 11
497.0
 21
1253.953
 31
0.0
  0
LINE
  5
765
330
1E
100
AcDbEntity
  8
0
100
AcDbLine
 10
497.0
 20
1255.553
 30
0.0
 11
497.0
 21
1257.653
 31
0.0
  0
LINE
  5
766
330
1E
100
AcDbEntity
  8
0
100
AcDbLine
 10
497.0
 20
1257.653
 30
0.0
 11
497.0
 21
1255.553
 31
0.0
  0
LINE
  5
767
330
1E
100
AcDbEntity
  8
0
100
AcDbLine
 10
497.0
 20
1257.653
 30
0.0
 11
497.0
 21
1260.053
 31
0.0
  0
LINE
  5
768
330
1E
100
AcDbEntity
  8
0
100
AcDbLine
 10
497.0
 20
1260.053
 30
0.0
 11
497.0
 21
1257.653
 31
0.0
  0
LINE
  5
769
330
1E
100
AcDbEntity
  8
0
100
AcDbLine
 10
497.0
 20
1260.053
 30
0.0
 11
497.0
 21
1262.653
 31
0.0
  0
LINE
  5
76A
330
1E
100
AcDbEntity
  8
0
100
AcDbLine
 10
495.0
 20
1262.653
 30
0.0
 11
495.0
 21
1265.753
 31
0.0
  0
LINE
  5
76B
330
1E
100
AcDbEntity
  8
0
100
AcDbLine
 10
495.0
 20
1262.653
 30
0.0
 11
495.0
 21
1259.553
 31
0.0
  0
LINE
  5
76C
330
1E
100
AcDbEntity
  8
0
100
AcDbLine
 10
495.0
 20
1265.753
 30
0.0
 11
495.0
 21
1262.653
 31
0.0
  0
LINE
  5
76D
330
1E
100
AcDbEntity
  8
0
100
AcDbLine
 10
495.0
 20
1265.753
 30
0.0
 11
495.0
 21
1268.653
 31
0.0
  0
LINE
  5
76E
330
1E
100
AcDbEntity
  8
0
100
AcDbLine
 10
497.0
 20
1262.653
 30
0.0
 11
497.0
 21
1265.252999999999
 31
0.0
  0
LINE
  5
76F
330
1E
100
AcDbEntity
  8
0
100
AcDbLine
 10
497.0
 20
1262.653
 30
0.0
 11
497.0
 21
1260.053
 31
0.0
  0
LINE
  5
770
330
1E
100
AcDbEntity
  8
0
100
AcDbLine
 10
495.0
 20
1271.152999999999
 30
0.0
 11
495.0
 21
1268.653
 31
0.0
  0
LINE
  5
771
330
1E
100
AcDbEntity
  8
0
100
AcDbLine
 10
495.0
 20
1271.152999999999
 30
0.0
 11
495.0
 21
1273.053
 31
0.0
  0
LINE
  5
772
330
1E
100
AcDbEntity
  8
0
100
AcDbLine
 10
495.0
 20
1268.653
 30
0.0
 11
495.0
 21
1265.753
 31
0.0
  0
LINE
  5
773
330
1E
100
AcDbEntity
  8
0
100
AcDbLine
 10
495.0
 20
1268.653
 30
0.0
 11
495.0
 21
1271.152999999999
 31
0.0
  0
LINE
  5
774
330
1E
100
AcDbEntity
  8
0
100
AcDbLine
 10
497.0
 20
1272.253
 30
0.0
 11
497.0
 21
1271.353
 31
0.0
  0
LINE
  5
775
330
1E
100
AcDbEntity
  8
0
100
AcDbLine
 10
497.0
 20
1272.253
 30
0.0
 11
497.0
 21
1272.653
 31
0.0
  0
LINE
  5
776
330
1E
100
AcDbEntity
  8
0
100
AcDbLine
 10
497.0
 20
1271.353
 30
0.0
 11
497.0
 21
1269.753
 31
0.0
  0
LINE
  5
777
330
1E
100
AcDbEntity
  8
0
100
AcDbLine
 10
497.0
 20
1271.353
 30
0.0
 11
497.0
 21
1272.253
 31
0.0
  0
LINE
  5
778
330
1E
100
AcDbEntity
  8
0
100
AcDbLine
 10
497.0
 20
1269.753
 30
0.0
 11
497.0
 21
1267.653
 31
0.0
  0
LINE
  5
779
330
1E
100
AcDbEntity
  8
0
100
AcDbLine
 10
497.0
 20
1269.753
 30
0.0
 11
497.0
 21
1271.353
 31
0.0
  0
LINE
  5
77A
330
1E
100
AcDbEntity
  8
0
100
AcDbLine
 10
497.0
 20
1267.653
 30
0.0
 11
497.0
 21
1265.252999999999
 31
0.0
  0
LINE
  5
77B
330
1E
100
AcDbEntity
  8
0
100
AcDbLine
 10
497.0
 20
1267.653
 30
0.0
 11
497.0
 21
1269.753
 31
0.0
  0
LINE
  5
77C
330
1E
100
AcDbEntity
  8
0
100
AcDbLine
 10
497.0
 20
1265.252999999999
 30
0.0
 11
497.0
 21
1262.653
 31
0.0
  0
LINE
  5
77D
330
1E
100
AcDbEntity
  8
0
100
AcDbLine
 10
497.0
 20
1265.252999999999
 30
0.0
 11
497.0
 21
1267.653
 31
0.0
  0
LINE
  5
77E
330
1E
100
AcDbEntity
  8
0
100
AcDbLine
 10
495.0
 20
1274.253
 30
0.0
 11
495.0
 21
1273.053
 31
0.0
  0
LINE
  5
77F
330
1E
100
AcDbEntity
  8
0
100
AcDbLine
 10
495.0
 20
1274.253
 30
0.0
 11
495.0
 21
1274.653
 31
0.0
  0
LINE
  5
780
330
1E
100
AcDbEntity
  8
0
100
AcDbLine
 10
495.0
 20
1273.053
 30
0.0
 11
495.0
 21
1271.152999999999
 31
0.0
  0
LINE
  5
781
330
1E
100
AcDbEntity
  8
0
100
AcDbLine
 10
495.0
 20
1273.053
 30
0.0
 11
495.0
 21
1274.253
 31
0.0
  0
LINE
  5
782
330
1E
100
AcDbEntity
  8
0
100
AcDbLine
 10
495.0
 20
1274.653
 30
0.0
 11
497.0
 21
1272.653
 31
0.0
  0
LINE
  5
783
330
1E
100
AcDbEntity
  8
0
100
AcDbLine
 10
495.0
 20
1274.653
 30
0.0
 11
495.0
 21
1274.253
 31
0.0
  0
LINE
  5
784
330
1E
100
AcDbEntity
  8
0
100
AcDbLine
 10
497.0
 20
1272.653
 30
0.0
 11
499.0
 21
1274.653
 31
0.0
  0
LINE
  5
785
330
1E
100
AcDbEntity
  8
0
100
AcDbLine
 10
497.0
 20
1272.653
 30
0.0
 11
497.0
 21
1272.253
 31
0.0
  0
LINE
  5
786
330
1E
100
AcDbEntity
  8
0
100
AcDbLine
 10
468.0
 20
1252.253
 30
0.0
 11
468.0
 21
1252.653
 31
0.0
  0
LINE
  5
787
330
1E
100
AcDbEntity
  8
0
100
AcDbLine
 10
468.0
 20
1252.253
 30
0.0
 11
468.0
 21
1251.053
 31
0.0
  0
LINE
  5
788
330
1E
100
AcDbEntity
  8
0
100
AcDbLine
 10
468.0
 20
1252.253
 30
0.0
 11
468.0
 21
1254.153
 31
0.0
  0
LINE
  5
789
330
1E
100
AcDbEntity
  8
0
100
AcDbLine
 10
495.4545454545449
 20
1251.10754545455
 30
0.0
 11
497.0
 21
1252.653
 31
0.0
  0
LINE
  5
78D
330
1E
100
AcDbEntity
  8
0
100
AcDbLine
 10
497.316
 20
570.7469999999999
 30
0.0
 11
499.155
 21
571.1709999999999
 31
0.0
  0
LINE
  5
78F
330
1E
100
AcDbEntity
  8
0
100
AcDbLine
 10
497.0
 20
1252.653
 30
0.0
 11
499.0
 21
1250.653
 31
0.0
  0
LINE
  5
790
330
1E
100
AcDbEntity
  8
0
100
AcDbLine
 10
497.0
 20
1252.653
 30
0.0
 11
497.0
 21
1253.053
 31
0.0
  0
LINE
  5
791
330
1E
100
AcDbEntity
  8
0
100
AcDbLine
 10
496.3
 20
566.3669999999999
 30
0.0
 11
498.8
 21
566.8669999999999
 31
0.0
  0
LINE
  5
793
330
1E
100
AcDbEntity
  8
0
100
AcDbLine
 10
499.508
 20
576.474
 30
0.0
 11
501.7
 21
571.878
 31
0.0
  0
LINE
  5
794
330
1E
100
AcDbEntity
  8
0
100
AcDbLine
 10
499.155
 20
571.1709999999999
 30
0.0
 11
500.569
 21
571.595
 31
0.0
  0
LINE
  5
796
330
1E
100
AcDbEntity
  8
0
100
AcDbLine
 10
499.0
 20
1251.053
 30
0.0
 11
499.0
 21
1250.653
 31
0.0
  0
LINE
  5
797
330
1E
100
AcDbEntity
  8
0
100
AcDbLine
 10
499.0
 20
1251.053
 30
0.0
 11
499.0
 21
1252.253
 31
0.0
  0
LINE
  5
798
330
1E
100
AcDbEntity
  8
0
100
AcDbLine
 10
499.0
 20
1252.253
 30
0.0
 11
499.0
 21
1251.053
 31
0.0
  0
LINE
  5
799
330
1E
100
AcDbEntity
  8
0
100
AcDbLine
 10
499.0
 20
1252.253
 30
0.0
 11
499.0
 21
1254.153
 31
0.0
  0
LINE
  5
79A
330
1E
100
AcDbEntity
  8
0
100
AcDbLine
 10
499.0
 20
1254.153
 30
0.0
 11
499.0
 21
1252.253
 31
0.0
  0
LINE
  5
79B
330
1E
100
AcDbEntity
  8
0
100
AcDbLine
 10
499.0
 20
1254.153
 30
0.0
 11
499.0
 21
1256.653
 31
0.0
  0
LINE
  5
79C
330
1E
100
AcDbEntity
  8
0
100
AcDbLine
 10
499.0
 20
1256.653
 30
0.0
 11
499.0
 21
1254.153
 31
0.0
  0
LINE
  5
79D
330
1E
100
AcDbEntity
  8
0
100
AcDbLine
 10
499.0
 20
1256.653
 30
0.0
 11
499.0
 21
1259.553
 31
0.0
  0
LINE
  5
79E
330
1E
100
AcDbEntity
  8
0
100
AcDbLine
 10
499.0
 20
1259.553
 30
0.0
 11
499.0
 21
1256.653
 31
0.0
  0
LINE
  5
79F
330
1E
100
AcDbEntity
  8
0
100
AcDbLine
 10
499.0
 20
1259.553
 30
0.0
 11
499.0
 21
1262.653
 31
0.0
  0
LINE
  5
7A0
330
1E
100
AcDbEntity
  8
0
100
AcDbLine
 10
499.0
 20
1262.653
 30
0.0
 11
499.0
 21
1265.753
 31
0.0
  0
LINE
  5
7A1
330
1E
100
AcDbEntity
  8
0
100
AcDbLine
 10
499.0
 20
1262.653
 30
0.0
 11
499.0
 21
1259.553
 31
0.0
  0
LINE
  5
7A2
330
1E
100
AcDbEntity
  8
0
100
AcDbLine
 10
499.0
 20
1274.253
 30
0.0
 11
499.0
 21
1273.053
 31
0.0
  0
LINE
  5
7A3
330
1E
100
AcDbEntity
  8
0
100
AcDbLine
 10
499.0
 20
1274.253
 30
0.0
 11
499.0
 21
1274.653
 31
0.0
  0
LINE
  5
7A4
330
1E
100
AcDbEntity
  8
0
100
AcDbLine
 10
499.0
 20
1273.053
 30
0.0
 11
499.0
 21
1271.152999999999
 31
0.0
  0
LINE
  5
7A5
330
1E
100
AcDbEntity
  8
0
100
AcDbLine
 10
499.0
 20
1273.053
 30
0.0
 11
499.0
 21
1274.253
 31
0.0
  0
LINE
  5
7A6
330
1E
100
AcDbEntity
  8
0
100
AcDbLine
 10
499.0
 20
1271.152999999999
 30
0.0
 11
499.0
 21
1268.653
 31
0.0
  0
LINE
  5
7A7
330
1E
100
AcDbEntity
  8
0
100
AcDbLine
 10
499.0
 20
1271.152999999999
 30
0.0
 11
499.0
 21
1273.053
 31
0.0
  0
LINE
  5
7A8
330
1E
100
AcDbEntity
  8
0
100
AcDbLine
 10
499.0
 20
1268.653
 30
0.0
 11
499.0
 21
1265.753
 31
0.0
  0
LINE
  5
7A9
330
1E
100
AcDbEntity
  8
0
100
AcDbLine
 10
499.0
 20
1268.653
 30
0.0
 11
499.0
 21
1271.152999999999
 31
0.0
  0
LINE
  5
7AA
330
1E
100
AcDbEntity
  8
0
100
AcDbLine
 10
499.0
 20
1265.753
 30
0.0
 11
499.0
 21
1262.653
 31
0.0
  0
LINE
  5
7AB
330
1E
100
AcDbEntity
  8
0
100
AcDbLine
 10
499.0
 20
1265.753
 30
0.0
 11
499.0
 21
1268.653
 31
0.0
  0
LINE
  5
7AC
330
1E
100
AcDbEntity
  8
0
100
AcDbLine
 10
499.0
 20
1274.653
 30
0.0
 11
509.0
 21
1274.653
 31
0.0
  0
LINE
  5
7AD
330
1E
100
AcDbEntity
  8
0
100
AcDbLine
 10
499.0
 20
1274.653
 30
0.0
 11
499.0
 21
1274.253
 31
0.0
  0
LINE
  5
7AE
330
1E
100
AcDbEntity
  8
0
100
AcDbLine
 10
499.0
 20
1250.653
 30
0.0
 11
509.0
 21
1250.653
 31
0.0
  0
LINE
  5
7AF
330
1E
100
AcDbEntity
  8
0
100
AcDbLine
 10
499.0
 20
1250.653
 30
0.0
 11
499.0
 21
1251.053
 31
0.0
  0
LINE
  5
7B0
330
1E
100
AcDbEntity
  8
0
100
AcDbLine
 10
498.8
 20
566.8669999999999
 30
0.0
 11
501.0
 21
567.3669999999999
 31
0.0
  0
LINE
  5
7B1
330
1E
100
AcDbEntity
  8
0
100
AcDbLine
 10
485.11713038952
 20
564.347224525937
 30
0.0
 11
488.125
 21
547.702
 31
0.0
  0
LINE
  5
7B2
330
1E
100
AcDbEntity
  8
0
100
AcDbLine
 10
504.6999999999999
 20
533.067
 30
0.0
 11
507.5
 21
533.067
 31
0.0
  0
LINE
  5
7B3
330
1E
100
AcDbEntity
  8
0
100
AcDbLine
 10
501.7999999999999
 20
533.067
 30
0.0
 11
504.6999999999999
 21
533.067
 31
0.0
  0
LINE
  5
7B4
330
1E
100
AcDbEntity
  8
0
100
AcDbLine
 10
501.7999999999999
 20
533.067
 30
0.0
 11
523.0
 21
533.067
 31
0.0
  0
LINE
  5
7B5
330
1E
100
AcDbEntity
  8
0
100
AcDbLine
 10
507.5
 20
533.067
 30
0.0
 11
509.7999999999999
 21
533.067
 31
0.0
  0
LINE
  5
7B6
330
1E
100
AcDbEntity
  8
0
100
AcDbLine
 10
509.7999999999999
 20
533.067
 30
0.0
 11
511.6999999999999
 21
533.067
 31
0.0
  0
LINE
  5
7B7
330
1E
100
AcDbEntity
  8
0
100
AcDbLine
 10
511.6999999999999
 20
533.067
 30
0.0
 11
512.7999999999999
 21
533.067
 31
0.0
  0
LINE
  5
7B8
330
1E
100
AcDbEntity
  8
0
100
AcDbLine
 10
512.7999999999999
 20
533.067
 30
0.0
 11
513.2
 21
533.067
 31
0.0
  0
LINE
  5
7B9
330
1E
100
AcDbEntity
  8
0
100
AcDbLine
 10
508.6549999999999
 20
494.2309999999999
 30
0.0
 11
509.37
 21
294.592
 31
0.0
  0
LINE
  5
7BA
330
1E
100
AcDbEntity
  8
0
100
AcDbLine
 10
506.6589999999999
 20
528.5119999999999
 30
0.0
 11
508.6549999999999
 21
494.2309999999999
 31
0.0
  0
LINE
  5
7BB
330
1E
100
AcDbEntity
  8
0
100
AcDbLine
 10
501.0
 20
567.3669999999999
 30
0.0
 11
502.7
 21
567.7669999999999
 31
0.0
  0
LINE
  5
7BC
330
1E
100
AcDbEntity
  8
0
100
AcDbLine
 10
502.7
 20
567.7669999999999
 30
0.0
 11
503.8
 21
567.9669999999999
 31
0.0
  0
LINE
  5
7BF
330
1E
100
AcDbEntity
  8
0
100
AcDbLine
 10
501.3469999999999
 20
571.8079999999999
 30
0.0
 11
501.7
 21
571.878
 31
0.0
  0
LINE
  5
7C0
330
1E
100
AcDbEntity
  8
0
100
AcDbLine
 10
500.569
 20
571.595
 30
0.0
 11
501.3469999999999
 21
571.8079999999999
 31
0.0
  0
LINE
  5
7C3
330
1E
100
AcDbEntity
  8
0
100
AcDbLine
 10
487.558
 20
564.9490000000001
 30
0.0
 11
502.4779999999999
 21
568.979
 31
0.0
  0
LINE
  5
7C7
330
1E
100
AcDbEntity
  8
0
100
AcDbLine
 10
502.4779999999999
 20
568.979
 30
0.0
 11
503.115
 21
570.181
 31
0.0
  0
LINE
  5
7C8
330
1E
100
AcDbEntity
  8
0
100
AcDbLine
 10
502.8319999999999
 20
571.1709999999999
 30
0.0
 11
503.115
 21
570.181
 31
0.0
  0
LINE
  5
7C9
330
1E
100
AcDbEntity
  8
0
100
AcDbLine
 10
501.7
 20
571.878
 30
0.0
 11
502.8319999999999
 21
571.1709999999999
 31
0.0
  0
LINE
  5
7CA
330
1E
100
AcDbEntity
  8
0
100
AcDbLine
 10
503.8
 20
567.9669999999999
 30
0.0
 11
504.0
 21
568.067
 31
0.0
  0
LINE
  5
7CB
330
1E
100
AcDbEntity
  8
0
100
AcDbLine
 10
509.0
 20
1251.053
 30
0.0
 11
509.0
 21
1250.653
 31
0.0
  0
LINE
  5
7CC
330
1E
100
AcDbEntity
  8
0
100
AcDbLine
 10
509.0
 20
1251.053
 30
0.0
 11
509.0
 21
1252.253
 31
0.0
  0
LINE
  5
7CD
330
1E
100
AcDbEntity
  8
0
100
AcDbLine
 10
509.0
 20
1252.253
 30
0.0
 11
509.0
 21
1251.053
 31
0.0
  0
LINE
  5
7CE
330
1E
100
AcDbEntity
  8
0
100
AcDbLine
 10
509.0
 20
1252.253
 30
0.0
 11
509.0
 21
1254.153
 31
0.0
  0
LINE
  5
7CF
330
1E
100
AcDbEntity
  8
0
100
AcDbLine
 10
509.0
 20
1254.153
 30
0.0
 11
509.0
 21
1252.253
 31
0.0
  0
LINE
  5
7D0
330
1E
100
AcDbEntity
  8
0
100
AcDbLine
 10
509.0
 20
1254.153
 30
0.0
 11
509.0
 21
1256.653
 31
0.0
  0
LINE
  5
7D1
330
1E
100
AcDbEntity
  8
0
100
AcDbLine
 10
509.0
 20
1256.653
 30
0.0
 11
509.0
 21
1254.153
 31
0.0
  0
LINE
  5
7D2
330
1E
100
AcDbEntity
  8
0
100
AcDbLine
 10
509.0
 20
1256.653
 30
0.0
 11
509.0
 21
1259.553
 31
0.0
  0
LINE
  5
7D3
330
1E
100
AcDbEntity
  8
0
100
AcDbLine
 10
509.0
 20
1259.553
 30
0.0
 11
509.0
 21
1256.653
 31
0.0
  0
LINE
  5
7D4
330
1E
100
AcDbEntity
  8
0
100
AcDbLine
 10
509.0
 20
1259.553
 30
0.0
 11
509.0
 21
1262.653
 31
0.0
  0
LINE
  5
7D5
330
1E
100
AcDbEntity
  8
0
100
AcDbLine
 10
509.0
 20
1262.653
 30
0.0
 11
509.0
 21
1265.753
 31
0.0
  0
LINE
  5
7D6
330
1E
100
AcDbEntity
  8
0
100
AcDbLine
 10
509.0
 20
1262.653
 30
0.0
 11
509.0
 21
1259.553
 31
0.0
  0
LINE
  5
7D7
330
1E
100
AcDbEntity
  8
0
100
AcDbLine
 10
509.0
 20
1274.253
 30
0.0
 11
509.0
 21
1273.053
 31
0.0
  0
LINE
  5
7D8
330
1E
100
AcDbEntity
  8
0
100
AcDbLine
 10
509.0
 20
1274.253
 30
0.0
 11
509.0
 21
1274.653
 31
0.0
  0
LINE
  5
7D9
330
1E
100
AcDbEntity
  8
0
100
AcDbLine
 10
509.0
 20
1273.053
 30
0.0
 11
509.0
 21
1271.152999999999
 31
0.0
  0
LINE
  5
7DA
330
1E
100
AcDbEntity
  8
0
100
AcDbLine
 10
509.0
 20
1273.053
 30
0.0
 11
509.0
 21
1274.253
 31
0.0
  0
LINE
  5
7DB
330
1E
100
AcDbEntity
  8
0
100
AcDbLine
 10
509.0
 20
1271.152999999999
 30
0.0
 11
509.0
 21
1268.653
 31
0.0
  0
LINE
  5
7DC
330
1E
100
AcDbEntity
  8
0
100
AcDbLine
 10
509.0
 20
1271.152999999999
 30
0.0
 11
509.0
 21
1273.053
 31
0.0
  0
LINE
  5
7DD
330
1E
100
AcDbEntity
  8
0
100
AcDbLine
 10
509.0
 20
1268.653
 30
0.0
 11
509.0
 21
1265.753
 31
0.0
  0
LINE
  5
7DE
330
1E
100
AcDbEntity
  8
0
100
AcDbLine
 10
509.0
 20
1268.653
 30
0.0
 11
509.0
 21
1271.152999999999
 31
0.0
  0
LINE
  5
7DF
330
1E
100
AcDbEntity
  8
0
100
AcDbLine
 10
509.0
 20
1265.753
 30
0.0
 11
509.0
 21
1262.653
 31
0.0
  0
LINE
  5
7E0
330
1E
100
AcDbEntity
  8
0
100
AcDbLine
 10
509.0
 20
1265.753
 30
0.0
 11
509.0
 21
1268.653
 31
0.0
  0
LINE
  5
7E1
330
1E
100
AcDbEntity
  8
0
100
AcDbLine
 10
509.0
 20
1274.653
 30
0.0
 11
518.0
 21
1292.653
 31
0.0
  0
LINE
  5
7E2
330
1E
100
AcDbEntity
  8
0
100
AcDbLine
 10
509.0
 20
1274.653
 30
0.0
 11
509.0
 21
1274.253
 31
0.0
  0
LINE
  5
7E3
330
1E
100
AcDbEntity
  8
0
100
AcDbLine
 10
518.0
 20
1233.753
 30
0.0
 11
518.0
 21
1232.652999999999
 31
0.0
  0
LINE
  5
7E4
330
1E
100
AcDbEntity
  8
0
100
AcDbLine
 10
518.0
 20
1233.753
 30
0.0
 11
518.0
 21
1236.653
 31
0.0
  0
LINE
  5
7E5
330
1E
100
AcDbEntity
  8
0
100
AcDbLine
 10
518.0
 20
1236.653
 30
0.0
 11
518.0
 21
1233.753
 31
0.0
  0
LINE
  5
7E6
330
1E
100
AcDbEntity
  8
0
100
AcDbLine
 10
518.0
 20
1236.653
 30
0.0
 11
518.0
 21
1241.452999999999
 31
0.0
  0
LINE
  5
7E7
330
1E
100
AcDbEntity
  8
0
100
AcDbLine
 10
518.0
 20
1241.452999999999
 30
0.0
 11
518.0
 21
1236.653
 31
0.0
  0
LINE
  5
7E8
330
1E
100
AcDbEntity
  8
0
100
AcDbLine
 10
518.0
 20
1241.452999999999
 30
0.0
 11
518.0
 21
1247.753
 31
0.0
  0
LINE
  5
7E9
330
1E
100
AcDbEntity
  8
0
100
AcDbLine
 10
518.0
 20
1247.753
 30
0.0
 11
518.0
 21
1241.452999999999
 31
0.0
  0
LINE
  5
7EA
330
1E
100
AcDbEntity
  8
0
100
AcDbLine
 10
518.0
 20
1247.753
 30
0.0
 11
518.0
 21
1254.953
 31
0.0
  0
LINE
  5
7EB
330
1E
100
AcDbEntity
  8
0
100
AcDbLine
 10
518.0
 20
1254.953
 30
0.0
 11
518.0
 21
1247.753
 31
0.0
  0
LINE
  5
7EC
330
1E
100
AcDbEntity
  8
0
100
AcDbLine
 10
518.0
 20
1254.953
 30
0.0
 11
518.0
 21
1262.653
 31
0.0
  0
LINE
  5
7ED
330
1E
100
AcDbEntity
  8
0
100
AcDbLine
 10
518.0
 20
1262.653
 30
0.0
 11
518.0
 21
1270.353
 31
0.0
  0
LINE
  5
7EE
330
1E
100
AcDbEntity
  8
0
100
AcDbLine
 10
518.0
 20
1262.653
 30
0.0
 11
518.0
 21
1254.953
 31
0.0
  0
LINE
  5
7EF
330
1E
100
AcDbEntity
  8
0
100
AcDbLine
 10
518.0
 20
1291.553
 30
0.0
 11
518.0
 21
1288.653
 31
0.0
  0
LINE
  5
7F0
330
1E
100
AcDbEntity
  8
0
100
AcDbLine
 10
518.0
 20
1291.553
 30
0.0
 11
518.0
 21
1292.653
 31
0.0
  0
LINE
  5
7F1
330
1E
100
AcDbEntity
  8
0
100
AcDbLine
 10
518.0
 20
1288.653
 30
0.0
 11
518.0
 21
1283.853
 31
0.0
  0
LINE
  5
7F2
330
1E
100
AcDbEntity
  8
0
100
AcDbLine
 10
518.0
 20
1288.653
 30
0.0
 11
518.0
 21
1291.553
 31
0.0
  0
LINE
  5
7F3
330
1E
100
AcDbEntity
  8
0
100
AcDbLine
 10
518.0
 20
1283.853
 30
0.0
 11
518.0
 21
1277.553
 31
0.0
  0
LINE
  5
7F4
330
1E
100
AcDbEntity
  8
0
100
AcDbLine
 10
518.0
 20
1283.853
 30
0.0
 11
518.0
 21
1288.653
 31
0.0
  0
LINE
  5
7F5
330
1E
100
AcDbEntity
  8
0
100
AcDbLine
 10
518.0
 20
1277.553
 30
0.0
 11
518.0
 21
1270.353
 31
0.0
  0
LINE
  5
7F6
330
1E
100
AcDbEntity
  8
0
100
AcDbLine
 10
518.0
 20
1277.553
 30
0.0
 11
518.0
 21
1283.853
 31
0.0
  0
LINE
  5
7F7
330
1E
100
AcDbEntity
  8
0
100
AcDbLine
 10
518.0
 20
1270.353
 30
0.0
 11
518.0
 21
1262.653
 31
0.0
  0
LINE
  5
7F8
330
1E
100
AcDbEntity
  8
0
100
AcDbLine
 10
518.0
 20
1270.353
 30
0.0
 11
518.0
 21
1277.553
 31
0.0
  0
LINE
  5
7F9
330
1E
100
AcDbEntity
  8
0
100
AcDbLine
 10
518.0
 20
1292.653
 30
0.0
 11
523.0
 21
1292.653
 31
0.0
  0
LINE
  5
7FA
330
1E
100
AcDbEntity
  8
0
100
AcDbLine
 10
518.0
 20
1292.653
 30
0.0
 11
518.0
 21
1291.553
 31
0.0
  0
LINE
  5
7FB
330
1E
100
AcDbEntity
  8
0
100
AcDbLine
 10
509.0
 20
1250.653
 30
0.0
 11
518.0
 21
1232.652999999999
 31
0.0
  0
LINE
  5
7FC
330
1E
100
AcDbEntity
  8
0
100
AcDbLine
 10
509.0
 20
1250.653
 30
0.0
 11
509.0
 21
1251.053
 31
0.0
  0
LINE
  5
7FD
330
1E
100
AcDbEntity
  8
0
100
AcDbLine
 10
518.0
 20
1232.652999999999
 30
0.0
 11
523.0
 21
1232.652999999999
 31
0.0
  0
LINE
  5
7FE
330
1E
100
AcDbEntity
  8
0
100
AcDbLine
 10
518.0
 20
1232.652999999999
 30
0.0
 11
518.0
 21
1233.753
 31
0.0
  0
LINE
  5
7FF
330
1E
100
AcDbEntity
  8
0
100
AcDbLine
 10
504.0
 20
568.067
 30
0.0
 11
504.026285714286
 21
567.9669999999999
 31
0.0
  0
LINE
  5
800
330
1E
100
AcDbEntity
  8
0
100
AcDbLine
 10
504.0
 20
568.067
 30
0.0
 11
523.0
 21
568.067
 31
0.0
  0
LINE
  5
801
330
1E
100
AcDbEntity
  8
0
100
AcDbLine
 10
506.017395232017
 20
533.067
 30
0.0
 11
506.6589999999999
 21
528.5119999999999
 31
0.0
  0
LINE
  5
802
330
1E
100
AcDbEntity
  8
0
100
AcDbLine
 10
506.017395232017
 20
533.067
 30
0.0
 11
507.5
 21
533.067
 31
0.0
  0
LINE
  5
803
330
1E
100
AcDbEntity
  8
0
100
AcDbLine
 10
506.017395232017
 20
533.067
 30
0.0
 11
523.0
 21
533.067
 31
0.0
  0
LINE
  5
804
330
1E
100
AcDbEntity
  8
0
100
AcDbLine
 10
500.263870101043
 20
568.371214231147
 30
0.0
 11
500.478309380777
 21
567.2484339501769
 31
0.0
  0
LINE
  5
806
330
1E
100
AcDbEntity
  8
0
100
AcDbLine
 10
509.065357044465
 20
379.653
 30
0.0
 11
523.0
 21
379.653
 31
0.0
  0
LINE
  5
807
330
1E
100
AcDbEntity
  8
0
100
AcDbLine
 10
523.0
 20
564.067
 30
0.0
 11
523.0
 21
533.067
 31
0.0
  0
LINE
  5
808
330
1E
100
AcDbEntity
  8
0
100
AcDbLine
 10
523.0
 20
565.0669999999999
 30
0.0
 11
523.0
 21
564.067
 31
0.0
  0
LINE
  5
809
330
1E
100
AcDbEntity
  8
0
100
AcDbLine
 10
523.0
 20
565.8669999999999
 30
0.0
 11
523.0
 21
565.0669999999999
 31
0.0
  0
LINE
  5
80A
330
1E
100
AcDbEntity
  8
0
100
AcDbLine
 10
523.0
 20
566.567
 30
0.0
 11
523.0
 21
565.8669999999999
 31
0.0
  0
LINE
  5
80B
330
1E
100
AcDbEntity
  8
0
100
AcDbLine
 10
523.0
 20
566.6669999999998
 30
0.0
 11
523.0
 21
566.567
 31
0.0
  0
LINE
  5
80C
330
1E
100
AcDbEntity
  8
0
100
AcDbLine
 10
523.0
 20
567.067
 30
0.0
 11
523.0
 21
566.6669999999998
 31
0.0
  0
LINE
  5
80D
330
1E
100
AcDbEntity
  8
0
100
AcDbLine
 10
523.0
 20
567.3669999999999
 30
0.0
 11
523.0
 21
567.067
 31
0.0
  0
LINE
  5
80E
330
1E
100
AcDbEntity
  8
0
100
AcDbLine
 10
523.0
 20
567.7669999999999
 30
0.0
 11
523.0
 21
567.3669999999999
 31
0.0
  0
LINE
  5
80F
330
1E
100
AcDbEntity
  8
0
100
AcDbLine
 10
523.0
 20
1232.652999999999
 30
0.0
 11
523.0
 21
1233.753
 31
0.0
  0
LINE
  5
810
330
1E
100
AcDbEntity
  8
0
100
AcDbLine
 10
523.0
 20
1233.753
 30
0.0
 11
523.0
 21
1232.652999999999
 31
0.0
  0
LINE
  5
811
330
1E
100
AcDbEntity
  8
0
100
AcDbLine
 10
523.0
 20
1233.753
 30
0.0
 11
523.0
 21
1236.653
 31
0.0
  0
LINE
  5
812
330
1E
100
AcDbEntity
  8
0
100
AcDbLine
 10
523.0
 20
1236.653
 30
0.0
 11
523.0
 21
1233.753
 31
0.0
  0
LINE
  5
813
330
1E
100
AcDbEntity
  8
0
100
AcDbLine
 10
523.0
 20
1236.653
 30
0.0
 11
523.0
 21
1241.452999999999
 31
0.0
  0
LINE
  5
814
330
1E
100
AcDbEntity
  8
0
100
AcDbLine
 10
523.0
 20
1241.452999999999
 30
0.0
 11
523.0
 21
1236.653
 31
0.0
  0
LINE
  5
815
330
1E
100
AcDbEntity
  8
0
100
AcDbLine
 10
523.0
 20
1241.452999999999
 30
0.0
 11
523.0
 21
1247.753
 31
0.0
  0
LINE
  5
816
330
1E
100
AcDbEntity
  8
0
100
AcDbLine
 10
523.0
 20
1247.753
 30
0.0
 11
523.0
 21
1241.452999999999
 31
0.0
  0
LINE
  5
817
330
1E
100
AcDbEntity
  8
0
100
AcDbLine
 10
523.0
 20
1247.753
 30
0.0
 11
523.0
 21
1254.953
 31
0.0
  0
LINE
  5
818
330
1E
100
AcDbEntity
  8
0
100
AcDbLine
 10
523.0
 20
1254.953
 30
0.0
 11
523.0
 21
1247.753
 31
0.0
  0
LINE
  5
819
330
1E
100
AcDbEntity
  8
0
100
AcDbLine
 10
523.0
 20
1254.953
 30
0.0
 11
523.0
 21
1262.653
 31
0.0
  0
LINE
  5
81A
330
1E
100
AcDbEntity
  8
0
100
AcDbLine
 10
523.0
 20
1262.653
 30
0.0
 11
523.0
 21
1270.353
 31
0.0
  0
LINE
  5
81B
330
1E
100
AcDbEntity
  8
0
100
AcDbLine
 10
523.0
 20
1262.653
 30
0.0
 11
523.0
 21
1254.953
 31
0.0
  0
LINE
  5
81C
330
1E
100
AcDbEntity
  8
0
100
AcDbLine
 10
523.0
 20
1292.653
 30
0.0
 11
523.0
 21
1291.553
 31
0.0
  0
LINE
  5
81D
330
1E
100
AcDbEntity
  8
0
100
AcDbLine
 10
523.0
 20
1291.553
 30
0.0
 11
523.0
 21
1288.653
 31
0.0
  0
LINE
  5
81E
330
1E
100
AcDbEntity
  8
0
100
AcDbLine
 10
523.0
 20
1291.553
 30
0.0
 11
523.0
 21
1292.653
 31
0.0
  0
LINE
  5
81F
330
1E
100
AcDbEntity
  8
0
100
AcDbLine
 10
523.0
 20
1288.653
 30
0.0
 11
523.0
 21
1283.853
 31
0.0
  0
LINE
  5
820
330
1E
100
AcDbEntity
  8
0
100
AcDbLine
 10
523.0
 20
1288.653
 30
0.0
 11
523.0
 21
1291.553
 31
0.0
  0
LINE
  5
821
330
1E
100
AcDbEntity
  8
0
100
AcDbLine
 10
523.0
 20
1283.853
 30
0.0
 11
523.0
 21
1277.553
 31
0.0
  0
LINE
  5
822
330
1E
100
AcDbEntity
  8
0
100
AcDbLine
 10
523.0
 20
1283.853
 30
0.0
 11
523.0
 21
1288.653
 31
0.0
  0
LINE
  5
823
330
1E
100
AcDbEntity
  8
0
100
AcDbLine
 10
523.0
 20
1277.553
 30
0.0
 11
523.0
 21
1270.353
 31
0.0
  0
LINE
  5
824
330
1E
100
AcDbEntity
  8
0
100
AcDbLine
 10
523.0
 20
1277.553
 30
0.0
 11
523.0
 21
1283.853
 31
0.0
  0
LINE
  5
825
330
1E
100
AcDbEntity
  8
0
100
AcDbLine
 10
523.0
 20
1270.353
 30
0.0
 11
523.0
 21
1262.653
 31
0.0
  0
LINE
  5
826
330
1E
100
AcDbEntity
  8
0
100
AcDbLine
 10
523.0
 20
1270.353
 30
0.0
 11
523.0
 21
1277.553
 31
0.0
  0
LINE
  5
827
330
1E
100
AcDbEntity
  8
0
100
AcDbLine
 10
523.0
 20
568.067
 30
0.0
 11
523.0
 21
567.9669999999999
 31
0.0
  0
LINE
  5
828
330
1E
100
AcDbEntity
  8
0
100
AcDbLine
 10
523.0
 20
567.9669999999999
 30
0.0
 11
523.0
 21
568.067
 31
0.0
  0
LINE
  5
829
330
1E
100
AcDbEntity
  8
0
100
AcDbLine
 10
523.0
 20
567.9669999999999
 30
0.0
 11
523.0
 21
567.7669999999999
 31
0.0
  0
LINE
  5
82A
330
1E
100
AcDbEntity
  8
0
100
AcDbLine
 10
523.0
 20
379.653
 30
0.0
 11
523.0
 21
378.353
 31
0.0
  0
LINE
  5
82B
330
1E
100
AcDbEntity
  8
0
100
AcDbLine
 10
523.0
 20
378.353
 30
0.0
 11
523.0
 21
377.653
 31
0.0
  0
LINE
  5
82C
330
1E
100
AcDbEntity
  8
0
100
AcDbLine
 10
523.0
 20
378.353
 30
0.0
 11
523.0
 21
379.653
 31
0.0
  0
LINE
  5
82D
330
1E
100
AcDbEntity
  8
0
100
AcDbLine
 10
462.0
 20
342.653
 30
0.0
 11
462.0
 21
333.153
 31
0.0
  0
LINE
  5
82E
330
1E
100
AcDbEntity
  8
0
100
AcDbLine
 10
462.0
 20
342.653
 30
0.0
 11
462.0
 21
352.153
 31
0.0
  0
LINE
  5
82F
330
1E
100
AcDbEntity
  8
0
100
AcDbLine
 10
443.0
 20
335.453
 30
0.0
 11
443.0
 21
342.653
 31
0.0
  0
LINE
  5
830
330
1E
100
AcDbEntity
  8
0
100
AcDbLine
 10
437.0
 20
314.653
 30
0.0
 11
443.0
 21
314.653
 31
0.0
  0
LINE
  5
831
330
1E
100
AcDbEntity
  8
0
100
AcDbLine
 10
437.0
 20
314.653
 30
0.0
 11
437.0
 21
315.653
 31
0.0
  0
LINE
  5
836
330
1E
100
AcDbEntity
  8
0
100
AcDbLine
 10
348.56119
 20
681.9469999999999
 30
0.0
 11
370.9046
 21
669.047
 31
0.0
  0
LINE
  5
837
330
1E
100
AcDbEntity
  8
0
100
AcDbLine
 10
326.8238999999999
 20
694.4969999999999
 30
0.0
 11
325.19
 21
689.6669999999999
 31
0.0
  0
LINE
  5
838
330
1E
100
AcDbEntity
  8
0
100
AcDbLine
 10
354.9862
 20
656.875
 30
0.0
 11
345.97958
 21
662.0750000000001
 31
0.0
  0
ENDSEC
  0
SECTION
  2
OBJECTS
  0
DICTIONARY
  5
C
330
0
100
AcDbDictionary
281
     1
  3
ACAD_GROUP
350
D
  3
ACAD_LAYOUT
350
19
  3
ACAD_MLINESTYLE
350
16
  3
ACAD_PLOTSETTINGS
350
18
  3
ACAD_PLOTSTYLENAME
350
E
  3
AcDbVariableDictionary
350
839
  0
DICTIONARY
  5
D
102
{ACAD_REACTORS
330
C
102
}
330
C
100
AcDbDictionary
281
     1
  0
DICTIONARY
  5
19
102
{ACAD_REACTORS
330
C
102
}
330
C
100
AcDbDictionary
281
     1
  3
Layout1
350
1D
  3
Model
350
21
  0
DICTIONARY
  5
16
102
{ACAD_REACTORS
330
C
102
}
330
C
100
AcDbDictionary
281
     1
  3
Standard
350
17
  0
DICTIONARY
  5
18
102
{ACAD_REACTORS
330
C
102
}
330
C
100
AcDbDictionary
281
     1
  0
ACDBDICTIONARYWDFLT
  5
E
102
{ACAD_REACTORS
330
C
102
}
330
C
100
AcDbDictionary
281
     1
  3
Normal
350
F
100
AcDbDictionaryWithDefault
340
F
  0
DICTIONARY
  5
839
102
{ACAD_REACTORS
330
C
102
}
330
C
100
AcDbDictionary
281
     1
  3
DIMASSOC
350
83A
  0
LAYOUT
  5
1D
102
{ACAD_REACTORS
330
19
102
}
330
19
100
AcDbPlotSettings
  1

  2
hp deskjet 980c series
  4

  6

 40
0.0
 41
0.0
 42
0.0
 43
0.0
 44
0.0
 45
0.0
 46
0.0
 47
0.0
 48
0.0
 49
0.0
140
0.0
141
0.0
142
1.0
143
1.0
 70
   688
 72
     0
 73
     0
 74
     5
  7

 75
    16
147
1.0
148
0.0
149
0.0
100
AcDbLayout
  1
Layout1
 70
     1
 71
     1
 10
0.0
 20
0.0
 11
12.0
 21
9.0
 12
0.0
 22
0.0
 32
0.0
 14
1.000000000000000E+20
 24
1.000000000000000E+20
 34
1.000000000000000E+20
 15
-1.000000000000000E+20
 25
-1.000000000000000E+20
 35
-1.000000000000000E+20
146
0.0
 13
0.0
 23
0.0
 33
0.0
 16
1.0
 26
0.0
 36
0.0
 17
0.0
 27
1.0
 37
0.0
 76
     0
330
1A
  0
LAYOUT
  5
21
102
{ACAD_REACTORS
330
19
102
}
330
19
100
AcDbPlotSettings
  1

  2
hp deskjet 980c series
  4

  6

 40
0.0
 41
0.0
 42
0.0
 43
0.0
 44
0.0
 45
0.0
 46
0.0
 47
0.0
 48
0.0
 49
0.0
140
0.0
141
0.0
142
1.0
143
1.0
 70
  1712
 72
     0
 73
     0
 74
     0
  7

 75
     0
147
1.0
148
0.0
149
0.0
100
AcDbLayout
  1
Model
 70
     1
 71
     0
 10
0.0
 20
0.0
 11
12.0
 21
9.0
 12
0.0
 22
0.0
 32
0.0
 14
0.0
 24
0.0
 34
0.0
 15
0.0
 25
0.0
 35
0.0
146
0.0
 13
0.0
 23
0.0
 33
0.0
 16
1.0
 26
0.0
 36
0.0
 17
0.0
 27
1.0
 37
0.0
 76
     0
330
1E
  0
MLINESTYLE
  5
17
102
{ACAD_REACTORS
330
16
102
}
330
16
100
AcDbMlineStyle
  2
STANDARD
 70
     0
  3

 62
   256
 51
90.0
 52
90.0
 71
     2
 49
0.5
 62
   256
  6
BYLAYER
 49
-0.5
 62
   256
  6
BYLAYER
  0
ACDBPLACEHOLDER
  5
F
102
{ACAD_REACTORS
330
E
102
}
330
E
  0
DICTIONARYVAR
  5
83A
102
{ACAD_REACTORS
330
839
102
}
330
839
100
DictionaryVariables
280
     0
  1
1
  0
ENDSEC
  0
EOF
