  0
SECTION
  2
HEADER
  9
$ACADVER
  1
AC1015
  9
$ACADMAINTVER
 70
    13
  9
$DWGCODEPAGE
  3
ANSI_1252
  9
$INSBASE
 10
0.0
 20
0.0
 30
0.0
  9
$EXTMIN
 10
-0.000000000000017
 20
-0.0000000000000223
 30
0.0
  9
$EXTMAX
 10
393.0
 20
523.0
 30
0.0
  9
$LIMMIN
 10
0.0
 20
0.0
  9
$LIMMAX
 10
12.0
 20
9.0
  9
$ORTHOMODE
 70
     0
  9
$REGENMODE
 70
     1
  9
$FILLMODE
 70
     1
  9
$QTEXTMODE
 70
     0
  9
$MIRRTEXT
 70
     1
  9
$LTSCALE
 40
1.0
  9
$ATTMODE
 70
     1
  9
$TEXTSIZE
 40
0.2
  9
$TRACEWID
 40
0.05
  9
$TEXTSTYLE
  7
Standard
  9
$CLAYER
  8
0
  9
$CELTYPE
  6
Continuous
  9
$CECOLOR
 62
   256
  9
$CELTSCALE
 40
1.0
  9
$DISPSILH
 70
     0
  9
$DIMSCALE
 40
1.0
  9
$DIMASZ
 40
0.18
  9
$DIMEXO
 40
0.0625
  9
$DIMDLI
 40
0.38
  9
$DIMRND
 40
0.0
  9
$DIMDLE
 40
0.0
  9
$DIMEXE
 40
0.18
  9
$DIMTP
 40
0.0
  9
$DIMTM
 40
0.0
  9
$DIMTXT
 40
0.18
  9
$DIMCEN
 40
0.09
  9
$DIMTSZ
 40
0.0
  9
$DIMTOL
 70
     0
  9
$DIMLIM
 70
     0
  9
$DIMTIH
 70
     1
  9
$DIMTOH
 70
     1
  9
$DIMSE1
 70
     0
  9
$DIMSE2
 70
     0
  9
$DIMTAD
 70
     0
  9
$DIMZIN
 70
     0
  9
$DIMBLK
  1

  9
$DIMASO
 70
     1
  9
$DIMSHO
 70
     1
  9
$DIMPOST
  1

  9
$DIMAPOST
  1

  9
$DIMALT
 70
     0
  9
$DIMALTD
 70
     2
  9
$DIMALTF
 40
25.4
  9
$DIMLFAC
 40
1.0
  9
$DIMTOFL
 70
     0
  9
$DIMTVP
 40
0.0
  9
$DIMTIX
 70
     0
  9
$DIMSOXD
 70
     0
  9
$DIMSAH
 70
     0
  9
$DIMBLK1
  1

  9
$DIMBLK2
  1

  9
$DIMSTYLE
  2
Standard
  9
$DIMCLRD
 70
     0
  9
$DIMCLRE
 70
     0
  9
$DIMCLRT
 70
     0
  9
$DIMTFAC
 40
1.0
  9
$DIMGAP
 40
0.09
  9
$DIMJUST
 70
     0
  9
$DIMSD1
 70
     0
  9
$DIMSD2
 70
     0
  9
$DIMTOLJ
 70
     1
  9
$DIMTZIN
 70
     0
  9
$DIMALTZ
 70
     0
  9
$DIMALTTZ
 70
     0
  9
$DIMUPT
 70
     0
  9
$DIMDEC
 70
     4
  9
$DIMTDEC
 70
     4
  9
$DIMALTU
 70
     2
  9
$DIMALTTD
 70
     2
  9
$DIMTXSTY
  7
Standard
  9
$DIMAUNIT
 70
     0
  9
$DIMADEC
 70
     0
  9
$DIMALTRND
 40
0.0
  9
$DIMAZIN
 70
     0
  9
$DIMDSEP
 70
    46
  9
$DIMATFIT
 70
     3
  9
$DIMFRAC
 70
     0
  9
$DIMLDRBLK
  1

  9
$DIMLUNIT
 70
     2
  9
$DIMLWD
 70
    -2
  9
$DIMLWE
 70
    -2
  9
$DIMTMOVE
 70
     0
  9
$LUNITS
 70
     2
  9
$LUPREC
 70
     4
  9
$SKETCHINC
 40
0.1
  9
$FILLETRAD
 40
0.0
  9
$AUNITS
 70
     0
  9
$AUPREC
 70
     0
  9
$MENU
  1
.
  9
$ELEVATION
 40
0.0
  9
$PELEVATION
 40
0.0
  9
$THICKNESS
 40
0.0
  9
$LIMCHECK
 70
     0
  9
$CHAMFERA
 40
0.0
  9
$CHAMFERB
 40
0.0
  9
$CHAMFERC
 40
0.0
  9
$CHAMFERD
 40
0.0
  9
$SKPOLY
 70
     0
  9
$TDCREATE
 40
2454752.798251770
  9
$TDUCREATE
 40
2454752.714918437
  9
$TDUPDATE
 40
2454752.799811550
  9
$TDUUPDATE
 40
2454752.716478217
  9
$TDINDWG
 40
0.0015597801
  9
$TDUSRTIMER
 40
0.0015597801
  9
$USRTIMER
 70
     1
  9
$ANGBASE
 50
0.0
  9
$ANGDIR
 70
     0
  9
$PDMODE
 70
     0
  9
$PDSIZE
 40
0.0
  9
$PLINEWID
 40
0.0
  9
$SPLFRAME
 70
     0
  9
$SPLINETYPE
 70
     6
  9
$SPLINESEGS
 70
     8
  9
$HANDSEED
  5
3C2
  9
$SURFTAB1
 70
     6
  9
$SURFTAB2
 70
     6
  9
$SURFTYPE
 70
     6
  9
$SURFU
 70
     6
  9
$SURFV
 70
     6
  9
$UCSBASE
  2

  9
$UCSNAME
  2

  9
$UCSORG
 10
0.0
 20
0.0
 30
0.0
  9
$UCSXDIR
 10
1.0
 20
0.0
 30
0.0
  9
$UCSYDIR
 10
0.0
 20
1.0
 30
0.0
  9
$UCSORTHOREF
  2

  9
$UCSORTHOVIEW
 70
     1
  9
$UCSORGTOP
 10
0.0
 20
0.0
 30
0.0
  9
$UCSORGBOTTOM
 10
0.0
 20
0.0
 30
0.0
  9
$UCSORGLEFT
 10
0.0
 20
0.0
 30
0.0
  9
$UCSORGRIGHT
 10
0.0
 20
0.0
 30
0.0
  9
$UCSORGFRONT
 10
0.0
 20
0.0
 30
0.0
  9
$UCSORGBACK
 10
0.0
 20
0.0
 30
0.0
  9
$PUCSBASE
  2

  9
$PUCSNAME
  2

  9
$PUCSORG
 10
0.0
 20
0.0
 30
0.0
  9
$PUCSXDIR
 10
1.0
 20
0.0
 30
0.0
  9
$PUCSYDIR
 10
0.0
 20
1.0
 30
0.0
  9
$PUCSORTHOREF
  2

  9
$PUCSORTHOVIEW
 70
     0
  9
$PUCSORGTOP
 10
0.0
 20
0.0
 30
0.0
  9
$PUCSORGBOTTOM
 10
0.0
 20
0.0
 30
0.0
  9
$PUCSORGLEFT
 10
0.0
 20
0.0
 30
0.0
  9
$PUCSORGRIGHT
 10
0.0
 20
0.0
 30
0.0
  9
$PUCSORGFRONT
 10
0.0
 20
0.0
 30
0.0
  9
$PUCSORGBACK
 10
0.0
 20
0.0
 30
0.0
  9
$USERI1
 70
     0
  9
$USERI2
 70
     0
  9
$USERI3
 70
     0
  9
$USERI4
 70
     0
  9
$USERI5
 70
     0
  9
$USERR1
 40
0.0
  9
$USERR2
 40
0.0
  9
$USERR3
 40
0.0
  9
$USERR4
 40
0.0
  9
$USERR5
 40
0.0
  9
$WORLDVIEW
 70
     1
  9
$SHADEDGE
 70
     3
  9
$SHADEDIF
 70
    70
  9
$TILEMODE
 70
     1
  9
$MAXACTVP
 70
    64
  9
$PINSBASE
 10
0.0
 20
0.0
 30
0.0
  9
$PLIMCHECK
 70
     0
  9
$PEXTMIN
 10
1.000000000000000E+20
 20
1.000000000000000E+20
 30
1.000000000000000E+20
  9
$PEXTMAX
 10
-1.000000000000000E+20
 20
-1.000000000000000E+20
 30
-1.000000000000000E+20
  9
$PLIMMIN
 10
0.0
 20
0.0
  9
$PLIMMAX
 10
12.0
 20
9.0
  9
$UNITMODE
 70
     0
  9
$VISRETAIN
 70
     1
  9
$PLINEGEN
 70
     0
  9
$PSLTSCALE
 70
     1
  9
$TREEDEPTH
 70
  3020
  9
$CMLSTYLE
  2
Standard
  9
$CMLJUST
 70
     0
  9
$CMLSCALE
 40
1.0
  9
$PROXYGRAPHICS
 70
     1
  9
$MEASUREMENT
 70
     0
  9
$CELWEIGHT
370
    -1
  9
$ENDCAPS
280
     0
  9
$JOINSTYLE
280
     0
  9
$LWDISPLAY
290
     0
  9
$INSUNITS
 70
     0
  9
$HYPERLINKBASE
  1

  9
$STYLESHEET
  1

  9
$XEDIT
290
     1
  9
$CEPSNTYPE
380
     0
  9
$PSTYLEMODE
290
     1
  9
$FINGERPRINTGUID
  2
{0D55FA61-DD56-4A8B-8276-E964C613E99E}
  9
$VERSIONGUID
  2
{4220A107-A5A5-412A-B439-367088B80E76}
  9
$EXTNAMES
290
     1
  9
$PSVPSCALE
 40
0.0
  9
$OLESTARTUP
290
     0
  0
ENDSEC
  0
SECTION
  2
CLASSES
  0
CLASS
  1
ACDBDICTIONARYWDFLT
  2
AcDbDictionaryWithDefault
  3
AutoCAD 2000
 90
        0
280
     0
281
     0
  0
CLASS
  1
ACDBPLACEHOLDER
  2
AcDbPlaceHolder
  3
AutoCAD 2000
 90
        0
280
     0
281
     0
  0
CLASS
  1
LAYOUT
  2
AcDbLayout
  3
AutoCAD 2000
 90
        0
280
     0
281
     0
  0
CLASS
  1
DICTIONARYVAR
  2
AcDbDictionaryVar
  3
AutoCAD 2000
 90
        0
280
     0
281
     0
  0
ENDSEC
  0
SECTION
  2
TABLES
  0
TABLE
  2
VPORT
  5
8
330
0
100
AcDbSymbolTable
 70
     2
  0
VPORT
  5
3C1
330
8
100
AcDbSymbolTableRecord
100
AcDbViewportTableRecord
  2
*Active
 70
     0
 10
0.0
 20
0.0
 11
1.0
 21
1.0
 12
196.4999999999999
 22
261.5
 13
0.0
 23
0.0
 14
1.0
 24
1.0
 15
0.0
 25
0.0
 16
0.0
 26
0.0
 36
1.0
 17
0.0
 27
0.0
 37
0.0
 40
527.0127877237852
 41
2.078104993597951
 42
50.0
 43
0.0
 44
0.0
 50
0.0
 51
0.0
 71
     0
 72
   100
 73
     1
 74
     3
 75
     0
 76
     0
 77
     0
 78
     0
281
     0
 65
     1
110
0.0
120
0.0
130
0.0
111
1.0
121
0.0
131
0.0
112
0.0
122
1.0
132
0.0
 79
     1
146
0.0
  0
ENDTAB
  0
TABLE
  2
LTYPE
  5
5
330
0
100
AcDbSymbolTable
 70
     1
  0
LTYPE
  5
13
330
5
100
AcDbSymbolTableRecord
100
AcDbLinetypeTableRecord
  2
ByBlock
 70
     0
  3

 72
    65
 73
     0
 40
0.0
  0
LTYPE
  5
14
330
5
100
AcDbSymbolTableRecord
100
AcDbLinetypeTableRecord
  2
ByLayer
 70
     0
  3

 72
    65
 73
     0
 40
0.0
  0
LTYPE
  5
15
330
5
100
AcDbSymbolTableRecord
100
AcDbLinetypeTableRecord
  2
Continuous
 70
     0
  3
Solid line
 72
    65
 73
     0
 40
0.0
  0
ENDTAB
  0
TABLE
  2
LAYER
  5
2
330
0
100
AcDbSymbolTable
 70
     1
  0
LAYER
  5
10
330
2
100
AcDbSymbolTableRecord
100
AcDbLayerTableRecord
  2
0
 70
     0
 62
     7
  6
Continuous
370
    -3
390
F
  0
ENDTAB
  0
TABLE
  2
STYLE
  5
3
330
0
100
AcDbSymbolTable
 70
     1
  0
STYLE
  5
11
330
3
100
AcDbSymbolTableRecord
100
AcDbTextStyleTableRecord
  2
Standard
 70
     0
 40
0.0
 41
1.0
 50
0.0
 71
     0
 42
0.2
  3
txt
  4

  0
ENDTAB
  0
TABLE
  2
VIEW
  5
6
330
0
100
AcDbSymbolTable
 70
     0
  0
ENDTAB
  0
TABLE
  2
UCS
  5
7
330
0
100
AcDbSymbolTable
 70
     0
  0
ENDTAB
  0
TABLE
  2
APPID
  5
9
330
0
100
AcDbSymbolTable
 70
     1
  0
APPID
  5
12
330
9
100
AcDbSymbolTableRecord
100
AcDbRegAppTableRecord
  2
ACAD
 70
     0
  0
ENDTAB
  0
TABLE
  2
DIMSTYLE
  5
A
330
0
100
AcDbSymbolTable
 70
     1
100
AcDbDimStyleTable
 71
     0
  0
DIMSTYLE
105
3A5
330
A
100
AcDbSymbolTableRecord
100
AcDbDimStyleTableRecord
  2
Standard
 70
     0
340
11
  0
ENDTAB
  0
TABLE
  2
BLOCK_RECORD
  5
1
330
0
100
AcDbSymbolTable
 70
     0
  0
BLOCK_RECORD
  5
1E
330
1
100
AcDbSymbolTableRecord
100
AcDbBlockTableRecord
  2
*Model_Space
340
21
  0
BLOCK_RECORD
  5
1A
330
1
100
AcDbSymbolTableRecord
100
AcDbBlockTableRecord
  2
*Paper_Space
340
1D
  0
ENDTAB
  0
ENDSEC
  0
SECTION
  2
BLOCKS
  0
BLOCK
  5
1F
330
1E
100
AcDbEntity
  8
0
100
AcDbBlockBegin
  2
*Model_Space
 70
     0
 10
0.0
 20
0.0
 30
0.0
  3
*Model_Space
  1

  0
ENDBLK
  5
20
330
1E
100
AcDbEntity
  8
0
100
AcDbBlockEnd
  0
BLOCK
  5
1B
330
1A
100
AcDbEntity
 67
     1
  8
0
100
AcDbBlockBegin
  2
*Paper_Space
 70
     0
 10
0.0
 20
0.0
 30
0.0
  3
*Paper_Space
  1

  0
ENDBLK
  5
1C
330
1A
100
AcDbEntity
 67
     1
  8
0
100
AcDbBlockEnd
  0
ENDSEC
  0
SECTION
  2
ENTITIES
  0
LINE
  5
22
330
1E
100
AcDbEntity
  8
0
100
AcDbLine
 10
63.7
 20
12.5
 30
0.0
 11
86.0
 21
3.399999999999959
 31
0.0
  0
LINE
  5
23
330
1E
100
AcDbEntity
  8
0
100
AcDbLine
 10
29.5
 20
46.7
 30
0.0
 11
44.29999999999999
 21
27.3
 31
0.0
  0
LINE
  5
24
330
1E
100
AcDbEntity
  8
0
100
AcDbLine
 10
80.5
 20
351.00001
 30
0.0
 11
84.0
 21
350.50001
 31
0.0
  0
LINE
  5
25
330
1E
100
AcDbEntity
  8
0
100
AcDbLine
 10
78.0
 20
352.00001
 30
0.0
 11
80.5
 21
351.00001
 31
0.0
  0
LINE
  5
26
330
1E
100
AcDbEntity
  8
0
100
AcDbLine
 10
76.0
 20
353.5
 30
0.0
 11
78.0
 21
352.00001
 31
0.0
  0
LINE
  5
27
330
1E
100
AcDbEntity
  8
0
100
AcDbLine
 10
74.5
 20
355.5
 30
0.0
 11
76.0
 21
353.5
 31
0.0
  0
LINE
  5
28
330
1E
100
AcDbEntity
  8
0
100
AcDbLine
 10
80.5
 20
365.0
 30
0.0
 11
84.0
 21
365.5
 31
0.0
  0
LINE
  5
29
330
1E
100
AcDbEntity
  8
0
100
AcDbLine
 10
78.0
 20
364.0
 30
0.0
 11
80.5
 21
365.0
 31
0.0
  0
LINE
  5
2A
330
1E
100
AcDbEntity
  8
0
100
AcDbLine
 10
76.0
 20
362.5
 30
0.0
 11
78.0
 21
364.0
 31
0.0
  0
LINE
  5
2B
330
1E
100
AcDbEntity
  8
0
100
AcDbLine
 10
74.5
 20
360.4999999999999
 30
0.0
 11
76.0
 21
362.5
 31
0.0
  0
LINE
  5
2C
330
1E
100
AcDbEntity
  8
0
100
AcDbLine
 10
74.0
 20
358.0
 30
0.0
 11
74.5
 21
355.5
 31
0.0
  0
LINE
  5
2D
330
1E
100
AcDbEntity
  8
0
100
AcDbLine
 10
74.0
 20
358.0
 30
0.0
 11
74.5
 21
360.4999999999999
 31
0.0
  0
LINE
  5
2E
330
1E
100
AcDbEntity
  8
0
100
AcDbLine
 10
63.7
 20
173.5
 30
0.0
 11
86.0
 21
182.6
 31
0.0
  0
LINE
  5
2F
330
1E
100
AcDbEntity
  8
0
100
AcDbLine
 10
44.29999999999999
 20
158.6999999999999
 30
0.0
 11
63.7
 21
173.5
 31
0.0
  0
LINE
  5
30
330
1E
100
AcDbEntity
  8
0
100
AcDbLine
 10
29.5
 20
139.3
 30
0.0
 11
44.29999999999999
 21
158.6999999999999
 31
0.0
  0
LINE
  5
31
330
1E
100
AcDbEntity
  8
0
100
AcDbLine
 10
20.4
 20
117.0
 30
0.0
 11
29.5
 21
139.3
 31
0.0
  0
LINE
  5
32
330
1E
100
AcDbEntity
  8
0
100
AcDbLine
 10
17.0
 20
93.0
 30
0.0
 11
20.4
 21
69.0
 31
0.0
  0
LINE
  5
33
330
1E
100
AcDbEntity
  8
0
100
AcDbLine
 10
20.4
 20
69.0
 30
0.0
 11
29.5
 21
46.7
 31
0.0
  0
LINE
  5
34
330
1E
100
AcDbEntity
  8
0
100
AcDbLine
 10
82.0
 20
391.0
 30
0.0
 11
82.0
 21
435.0
 31
0.0
  0
LINE
  5
35
330
1E
100
AcDbEntity
  8
0
100
AcDbLine
 10
82.0
 20
391.0
 30
0.0
 11
84.0
 21
389.0
 31
0.0
  0
LINE
  5
36
330
1E
100
AcDbEntity
  8
0
100
AcDbLine
 10
82.0
 20
391.0
 30
0.0
 11
83.0
 21
391.0
 31
0.0
  0
LINE
  5
37
330
1E
100
AcDbEntity
  8
0
100
AcDbLine
 10
12.8
 20
482.0
 30
0.0
 11
15.09999999999999
 21
482.0
 31
0.0
  0
LINE
  5
38
330
1E
100
AcDbEntity
  8
0
100
AcDbLine
 10
35.0
 20
480.0
 30
0.0
 11
40.4
 21
480.0
 31
0.0
  0
LINE
  5
39
330
1E
100
AcDbEntity
  8
0
100
AcDbLine
 10
40.4
 20
480.0
 30
0.0
 11
45.4
 21
480.0
 31
0.0
  0
LINE
  5
3A
330
1E
100
AcDbEntity
  8
0
100
AcDbLine
 10
45.4
 20
480.0
 30
0.0
 11
49.8
 21
480.0
 31
0.0
  0
LINE
  5
3B
330
1E
100
AcDbEntity
  8
0
100
AcDbLine
 10
49.8
 20
480.0
 30
0.0
 11
53.2
 21
480.0
 31
0.0
  0
LINE
  5
3C
330
1E
100
AcDbEntity
  8
0
100
AcDbLine
 10
53.2
 20
480.0
 30
0.0
 11
55.2
 21
480.0
 31
0.0
  0
LINE
  5
3D
330
1E
100
AcDbEntity
  8
0
100
AcDbLine
 10
56.0
 20
480.0
 30
0.0
 11
58.0
 21
482.0
 31
0.0
  0
LINE
  5
3E
330
1E
100
AcDbEntity
  8
0
100
AcDbLine
 10
55.2
 20
480.0
 30
0.0
 11
56.0
 21
480.0
 31
0.0
  0
LINE
  5
3F
330
1E
100
AcDbEntity
  8
0
100
AcDbLine
 10
29.6
 20
480.0
 30
0.0
 11
35.0
 21
480.0
 31
0.0
  0
LINE
  5
40
330
1E
100
AcDbEntity
  8
0
100
AcDbLine
 10
24.6
 20
480.0
 30
0.0
 11
29.6
 21
480.0
 31
0.0
  0
LINE
  5
41
330
1E
100
AcDbEntity
  8
0
100
AcDbLine
 10
20.2
 20
480.0
 30
0.0
 11
24.6
 21
480.0
 31
0.0
  0
LINE
  5
42
330
1E
100
AcDbEntity
  8
0
100
AcDbLine
 10
16.8
 20
480.0
 30
0.0
 11
20.2
 21
480.0
 31
0.0
  0
LINE
  5
43
330
1E
100
AcDbEntity
  8
0
100
AcDbLine
 10
35.0
 20
482.0
 30
0.0
 11
40.89999999999999
 21
482.0
 31
0.0
  0
LINE
  5
44
330
1E
100
AcDbEntity
  8
0
100
AcDbLine
 10
40.89999999999999
 20
482.0
 30
0.0
 11
46.39999999999999
 21
482.0
 31
0.0
  0
LINE
  5
45
330
1E
100
AcDbEntity
  8
0
100
AcDbLine
 10
46.39999999999999
 20
482.0
 30
0.0
 11
51.2
 21
482.0
 31
0.0
  0
LINE
  5
46
330
1E
100
AcDbEntity
  8
0
100
AcDbLine
 10
51.2
 20
482.0
 30
0.0
 11
54.9
 21
482.0
 31
0.0
  0
LINE
  5
47
330
1E
100
AcDbEntity
  8
0
100
AcDbLine
 10
54.9
 20
482.0
 30
0.0
 11
57.2
 21
482.0
 31
0.0
  0
LINE
  5
48
330
1E
100
AcDbEntity
  8
0
100
AcDbLine
 10
57.2
 20
482.0
 30
0.0
 11
58.0
 21
482.0
 31
0.0
  0
LINE
  5
49
330
1E
100
AcDbEntity
  8
0
100
AcDbLine
 10
58.0
 20
482.0
 30
0.0
 11
58.0
 21
488.0
 31
0.0
  0
LINE
  5
4A
330
1E
100
AcDbEntity
  8
0
100
AcDbLine
 10
29.1
 20
482.0
 30
0.0
 11
35.0
 21
482.0
 31
0.0
  0
LINE
  5
4B
330
1E
100
AcDbEntity
  8
0
100
AcDbLine
 10
23.6
 20
482.0
 30
0.0
 11
29.1
 21
482.0
 31
0.0
  0
LINE
  5
4C
330
1E
100
AcDbEntity
  8
0
100
AcDbLine
 10
18.8
 20
482.0
 30
0.0
 11
23.6
 21
482.0
 31
0.0
  0
LINE
  5
4D
330
1E
100
AcDbEntity
  8
0
100
AcDbLine
 10
15.09999999999999
 20
482.0
 30
0.0
 11
18.8
 21
482.0
 31
0.0
  0
LINE
  5
4E
330
1E
100
AcDbEntity
  8
0
100
AcDbLine
 10
14.8
 20
480.0
 30
0.0
 11
16.8
 21
480.0
 31
0.0
  0
LINE
  5
4F
330
1E
100
AcDbEntity
  8
0
100
AcDbLine
 10
14.0
 20
480.0
 30
0.0
 11
14.8
 21
480.0
 31
0.0
  0
LINE
  5
50
330
1E
100
AcDbEntity
  8
0
100
AcDbLine
 10
57.9515151515151
 20
513.0
 30
0.0
 11
73.0
 21
513.0
 31
0.0
  0
LINE
  5
51
330
1E
100
AcDbEntity
  8
0
100
AcDbLine
 10
58.0
 20
513.0
 30
0.0
 11
58.0
 21
515.0
 31
0.0
  0
LINE
  5
52
330
1E
100
AcDbEntity
  8
0
100
AcDbLine
 10
58.0
 20
488.0
 30
0.0
 11
58.0
 21
482.0
 31
0.0
  0
LINE
  5
53
330
1E
100
AcDbEntity
  8
0
100
AcDbLine
 10
58.0
 20
488.0
 30
0.0
 11
73.0
 21
488.0
 31
0.0
  0
LINE
  5
54
330
1E
100
AcDbEntity
  8
0
100
AcDbLine
 10
12.0
 20
482.0
 30
0.0
 11
12.0
 21
515.0
 31
0.0
  0
LINE
  5
55
330
1E
100
AcDbEntity
  8
0
100
AcDbLine
 10
12.0
 20
482.0
 30
0.0
 11
14.0
 21
480.0
 31
0.0
  0
LINE
  5
56
330
1E
100
AcDbEntity
  8
0
100
AcDbLine
 10
12.0
 20
482.0
 30
0.0
 11
12.8
 21
482.0
 31
0.0
  0
LINE
  5
57
330
1E
100
AcDbEntity
  8
0
100
AcDbLine
 10
73.0
 20
488.0
 30
0.0
 11
73.0
 21
462.0
 31
0.0
  0
LINE
  5
58
330
1E
100
AcDbEntity
  8
0
100
AcDbLine
 10
73.0
 20
453.0
 30
0.0
 11
73.0
 21
460.0
 31
0.0
  0
LINE
  5
59
330
1E
100
AcDbEntity
  8
0
100
AcDbLine
 10
73.0
 20
453.0
 30
0.0
 11
80.0
 21
443.0
 31
0.0
  0
LINE
  5
5A
330
1E
100
AcDbEntity
  8
0
100
AcDbLine
 10
73.0
 20
453.0
 30
0.0
 11
74.29999999999999
 21
453.0
 31
0.0
  0
LINE
  5
5B
330
1E
100
AcDbEntity
  8
0
100
AcDbLine
 10
73.0
 20
460.0
 30
0.0
 11
74.0
 21
461.0
 31
0.0
  0
LINE
  5
5C
330
1E
100
AcDbEntity
  8
0
100
AcDbLine
 10
73.0
 20
460.0
 30
0.0
 11
74.29999999999999
 21
460.0
 31
0.0
  0
LINE
  5
5D
330
1E
100
AcDbEntity
  8
0
100
AcDbLine
 10
73.0
 20
460.0
 30
0.0
 11
73.0
 21
453.0
 31
0.0
  0
LINE
  5
5E
330
1E
100
AcDbEntity
  8
0
100
AcDbLine
 10
1.29999999999998
 20
517.0
 30
0.0
 11
4.69999999999998
 21
517.0
 31
0.0
  0
LINE
  5
5F
330
1E
100
AcDbEntity
  8
0
100
AcDbLine
 10
23.6
 20
515.0
 30
0.0
 11
29.1
 21
515.0
 31
0.0
  0
LINE
  5
60
330
1E
100
AcDbEntity
  8
0
100
AcDbLine
 10
18.8
 20
515.0
 30
0.0
 11
23.6
 21
515.0
 31
0.0
  0
LINE
  5
61
330
1E
100
AcDbEntity
  8
0
100
AcDbLine
 10
15.09999999999999
 20
515.0
 30
0.0
 11
18.8
 21
515.0
 31
0.0
  0
LINE
  5
62
330
1E
100
AcDbEntity
  8
0
100
AcDbLine
 10
12.8
 20
515.0
 30
0.0
 11
15.09999999999999
 21
515.0
 31
0.0
  0
LINE
  5
63
330
1E
100
AcDbEntity
  8
0
100
AcDbLine
 10
12.0
 20
515.0
 30
0.0
 11
12.0
 21
482.0
 31
0.0
  0
LINE
  5
64
330
1E
100
AcDbEntity
  8
0
100
AcDbLine
 10
12.0
 20
515.0
 30
0.0
 11
12.8
 21
515.0
 31
0.0
  0
LINE
  5
65
330
1E
100
AcDbEntity
  8
0
100
AcDbLine
 10
29.1
 20
515.0
 30
0.0
 11
35.0
 21
515.0
 31
0.0
  0
LINE
  5
66
330
1E
100
AcDbEntity
  8
0
100
AcDbLine
 10
26.5
 20
515.0
 30
0.0
 11
35.0
 21
515.0
 31
0.0
  0
LINE
  5
67
330
1E
100
AcDbEntity
  8
0
100
AcDbLine
 10
18.6
 20
515.0
 30
0.0
 11
26.5
 21
515.0
 31
0.0
  0
LINE
  5
68
330
1E
100
AcDbEntity
  8
0
100
AcDbLine
 10
40.89999999999999
 20
515.0
 30
0.0
 11
46.39999999999999
 21
515.0
 31
0.0
  0
LINE
  5
69
330
1E
100
AcDbEntity
  8
0
100
AcDbLine
 10
46.39999999999999
 20
515.0
 30
0.0
 11
51.2
 21
515.0
 31
0.0
  0
LINE
  5
6A
330
1E
100
AcDbEntity
  8
0
100
AcDbLine
 10
51.2
 20
515.0
 30
0.0
 11
54.9
 21
515.0
 31
0.0
  0
LINE
  5
6B
330
1E
100
AcDbEntity
  8
0
100
AcDbLine
 10
35.0
 20
515.0
 30
0.0
 11
43.5
 21
515.0
 31
0.0
  0
LINE
  5
6C
330
1E
100
AcDbEntity
  8
0
100
AcDbLine
 10
35.0
 20
515.0
 30
0.0
 11
40.89999999999999
 21
515.0
 31
0.0
  0
LINE
  5
6D
330
1E
100
AcDbEntity
  8
0
100
AcDbLine
 10
43.5
 20
515.0
 30
0.0
 11
51.4
 21
515.0
 31
0.0
  0
LINE
  5
6E
330
1E
100
AcDbEntity
  8
0
100
AcDbLine
 10
54.9
 20
515.0
 30
0.0
 11
57.2
 21
515.0
 31
0.0
  0
LINE
  5
6F
330
1E
100
AcDbEntity
  8
0
100
AcDbLine
 10
57.2
 20
515.0
 30
0.0
 11
58.0
 21
515.0
 31
0.0
  0
LINE
  5
70
330
1E
100
AcDbEntity
  8
0
100
AcDbLine
 10
51.4
 20
515.0
 30
0.0
 11
58.3
 21
515.0
 31
0.0
  0
LINE
  5
71
330
1E
100
AcDbEntity
  8
0
100
AcDbLine
 10
58.0
 20
515.0
 30
0.0
 11
58.3
 21
515.0
 31
0.0
  0
LINE
  5
72
330
1E
100
AcDbEntity
  8
0
100
AcDbLine
 10
58.0
 20
515.0
 30
0.0
 11
58.0
 21
513.0
 31
0.0
  0
LINE
  5
73
330
1E
100
AcDbEntity
  8
0
100
AcDbLine
 10
58.3
 20
515.0
 30
0.0
 11
63.6
 21
515.0
 31
0.0
  0
LINE
  5
74
330
1E
100
AcDbEntity
  8
0
100
AcDbLine
 10
63.6
 20
515.0
 30
0.0
 11
66.79999999999999
 21
515.0
 31
0.0
  0
LINE
  5
75
330
1E
100
AcDbEntity
  8
0
100
AcDbLine
 10
68.0
 20
515.0
 30
0.0
 11
70.0
 21
517.0
 31
0.0
  0
LINE
  5
76
330
1E
100
AcDbEntity
  8
0
100
AcDbLine
 10
66.79999999999999
 20
515.0
 30
0.0
 11
68.0
 21
515.0
 31
0.0
  0
LINE
  5
77
330
1E
100
AcDbEntity
  8
0
100
AcDbLine
 10
11.69999999999999
 20
515.0
 30
0.0
 11
12.0
 21
515.0
 31
0.0
  0
LINE
  5
78
330
1E
100
AcDbEntity
  8
0
100
AcDbLine
 10
11.69999999999999
 20
515.0
 30
0.0
 11
18.6
 21
515.0
 31
0.0
  0
LINE
  5
79
330
1E
100
AcDbEntity
  8
0
100
AcDbLine
 10
6.39999999999998
 20
515.0
 30
0.0
 11
11.69999999999999
 21
515.0
 31
0.0
  0
LINE
  5
7A
330
1E
100
AcDbEntity
  8
0
100
AcDbLine
 10
26.0
 20
517.0
 30
0.0
 11
35.0
 21
517.0
 31
0.0
  0
LINE
  5
7B
330
1E
100
AcDbEntity
  8
0
100
AcDbLine
 10
17.6
 20
517.0
 30
0.0
 11
26.0
 21
517.0
 31
0.0
  0
LINE
  5
7C
330
1E
100
AcDbEntity
  8
0
100
AcDbLine
 10
10.3
 20
517.0
 30
0.0
 11
17.6
 21
517.0
 31
0.0
  0
LINE
  5
7D
330
1E
100
AcDbEntity
  8
0
100
AcDbLine
 10
4.69999999999998
 20
517.0
 30
0.0
 11
10.3
 21
517.0
 31
0.0
  0
LINE
  5
7E
330
1E
100
AcDbEntity
  8
0
100
AcDbLine
 10
35.0
 20
517.0
 30
0.0
 11
44.0
 21
517.0
 31
0.0
  0
LINE
  5
7F
330
1E
100
AcDbEntity
  8
0
100
AcDbLine
 10
44.0
 20
517.0
 30
0.0
 11
52.4
 21
517.0
 31
0.0
  0
LINE
  5
80
330
1E
100
AcDbEntity
  8
0
100
AcDbLine
 10
52.4
 20
517.0
 30
0.0
 11
59.7
 21
517.0
 31
0.0
  0
LINE
  5
81
330
1E
100
AcDbEntity
  8
0
100
AcDbLine
 10
59.7
 20
517.0
 30
0.0
 11
65.3
 21
517.0
 31
0.0
  0
LINE
  5
82
330
1E
100
AcDbEntity
  8
0
100
AcDbLine
 10
65.3
 20
517.0
 30
0.0
 11
68.7
 21
517.0
 31
0.0
  0
LINE
  5
83
330
1E
100
AcDbEntity
  8
0
100
AcDbLine
 10
68.7
 20
517.0
 30
0.0
 11
70.0
 21
517.0
 31
0.0
  0
LINE
  5
84
330
1E
100
AcDbEntity
  8
0
100
AcDbLine
 10
70.0
 20
517.0
 30
0.0
 11
70.0
 21
523.0
 31
0.0
  0
LINE
  5
85
330
1E
100
AcDbEntity
  8
0
100
AcDbLine
 10
3.199999999999979
 20
515.0
 30
0.0
 11
6.39999999999998
 21
515.0
 31
0.0
  0
LINE
  5
86
330
1E
100
AcDbEntity
  8
0
100
AcDbLine
 10
1.99999999999998
 20
515.0
 30
0.0
 11
3.199999999999979
 21
515.0
 31
0.0
  0
LINE
  5
87
330
1E
100
AcDbEntity
  8
0
100
AcDbLine
 10
26.0
 20
523.0
 30
0.0
 11
35.0
 21
523.0
 31
0.0
  0
LINE
  5
88
330
1E
100
AcDbEntity
  8
0
100
AcDbLine
 10
17.6
 20
523.0
 30
0.0
 11
26.0
 21
523.0
 31
0.0
  0
LINE
  5
89
330
1E
100
AcDbEntity
  8
0
100
AcDbLine
 10
10.3
 20
523.0
 30
0.0
 11
17.6
 21
523.0
 31
0.0
  0
LINE
  5
8A
330
1E
100
AcDbEntity
  8
0
100
AcDbLine
 10
4.69999999999998
 20
523.0
 30
0.0
 11
10.3
 21
523.0
 31
0.0
  0
LINE
  5
8B
330
1E
100
AcDbEntity
  8
0
100
AcDbLine
 10
1.29999999999998
 20
523.0
 30
0.0
 11
4.69999999999998
 21
523.0
 31
0.0
  0
LINE
  5
8C
330
1E
100
AcDbEntity
  8
0
100
AcDbLine
 10
-0.000000000000017
 20
523.0
 30
0.0
 11
1.29999999999998
 21
523.0
 31
0.0
  0
LINE
  5
8D
330
1E
100
AcDbEntity
  8
0
100
AcDbLine
 10
-0.000000000000017
 20
523.0
 30
0.0
 11
-0.000000000000017
 21
517.0
 31
0.0
  0
LINE
  5
8E
330
1E
100
AcDbEntity
  8
0
100
AcDbLine
 10
35.0
 20
523.0
 30
0.0
 11
44.0
 21
523.0
 31
0.0
  0
LINE
  5
8F
330
1E
100
AcDbEntity
  8
0
100
AcDbLine
 10
44.0
 20
523.0
 30
0.0
 11
52.4
 21
523.0
 31
0.0
  0
LINE
  5
90
330
1E
100
AcDbEntity
  8
0
100
AcDbLine
 10
52.4
 20
523.0
 30
0.0
 11
59.7
 21
523.0
 31
0.0
  0
LINE
  5
91
330
1E
100
AcDbEntity
  8
0
100
AcDbLine
 10
59.7
 20
523.0
 30
0.0
 11
65.3
 21
523.0
 31
0.0
  0
LINE
  5
92
330
1E
100
AcDbEntity
  8
0
100
AcDbLine
 10
65.3
 20
523.0
 30
0.0
 11
68.7
 21
523.0
 31
0.0
  0
LINE
  5
93
330
1E
100
AcDbEntity
  8
0
100
AcDbLine
 10
68.7
 20
523.0
 30
0.0
 11
70.0
 21
523.0
 31
0.0
  0
LINE
  5
94
330
1E
100
AcDbEntity
  8
0
100
AcDbLine
 10
70.0
 20
523.0
 30
0.0
 11
70.0
 21
517.0
 31
0.0
  0
LINE
  5
95
330
1E
100
AcDbEntity
  8
0
100
AcDbLine
 10
-0.000000000000017
 20
517.0
 30
0.0
 11
-0.000000000000017
 21
523.0
 31
0.0
  0
LINE
  5
96
330
1E
100
AcDbEntity
  8
0
100
AcDbLine
 10
-0.000000000000017
 20
517.0
 30
0.0
 11
1.99999999999998
 21
515.0
 31
0.0
  0
LINE
  5
97
330
1E
100
AcDbEntity
  8
0
100
AcDbLine
 10
-0.000000000000017
 20
517.0
 30
0.0
 11
1.29999999999998
 21
517.0
 31
0.0
  0
LINE
  5
98
330
1E
100
AcDbEntity
  8
0
100
AcDbLine
 10
73.0
 20
523.0
 30
0.0
 11
74.29999999999999
 21
523.0
 31
0.0
  0
LINE
  5
99
330
1E
100
AcDbEntity
  8
0
100
AcDbLine
 10
73.0
 20
523.0
 30
0.0
 11
73.0
 21
513.0
 31
0.0
  0
LINE
  5
9A
330
1E
100
AcDbEntity
  8
0
100
AcDbLine
 10
73.0
 20
513.0
 30
0.0
 11
73.0
 21
523.0
 31
0.0
  0
LINE
  5
9B
330
1E
100
AcDbEntity
  8
0
100
AcDbLine
 10
82.0
 20
443.0
 30
0.0
 11
82.0
 21
437.0
 31
0.0
  0
LINE
  5
9C
330
1E
100
AcDbEntity
  8
0
100
AcDbLine
 10
82.0
 20
443.0
 30
0.0
 11
83.0
 21
443.0
 31
0.0
  0
LINE
  5
9D
330
1E
100
AcDbEntity
  8
0
100
AcDbLine
 10
81.09999999999999
 20
443.0
 30
0.0
 11
82.0
 21
443.0
 31
0.0
  0
LINE
  5
9E
330
1E
100
AcDbEntity
  8
0
100
AcDbLine
 10
81.09999999999999
 20
443.0
 30
0.0
 11
84.0
 21
443.0
 31
0.0
  0
LINE
  5
9F
330
1E
100
AcDbEntity
  8
0
100
AcDbLine
 10
74.29999999999999
 20
453.0
 30
0.0
 11
78.0
 21
453.0
 31
0.0
  0
LINE
  5
A0
330
1E
100
AcDbEntity
  8
0
100
AcDbLine
 10
74.29999999999999
 20
460.0
 30
0.0
 11
78.0
 21
460.0
 31
0.0
  0
LINE
  5
A1
330
1E
100
AcDbEntity
  8
0
100
AcDbLine
 10
74.0
 20
461.0
 30
0.0
 11
75.3
 21
461.0
 31
0.0
  0
LINE
  5
A2
330
1E
100
AcDbEntity
  8
0
100
AcDbLine
 10
74.29999999999999
 20
462.0
 30
0.0
 11
78.0
 21
462.0
 31
0.0
  0
LINE
  5
A3
330
1E
100
AcDbEntity
  8
0
100
AcDbLine
 10
78.0
 20
453.0
 30
0.0
 11
83.9
 21
453.0
 31
0.0
  0
LINE
  5
A4
330
1E
100
AcDbEntity
  8
0
100
AcDbLine
 10
78.0
 20
460.0
 30
0.0
 11
83.9
 21
460.0
 31
0.0
  0
LINE
  5
A5
330
1E
100
AcDbEntity
  8
0
100
AcDbLine
 10
75.3
 20
461.0
 30
0.0
 11
78.79999999999999
 21
461.0
 31
0.0
  0
LINE
  5
A6
330
1E
100
AcDbEntity
  8
0
100
AcDbLine
 10
81.09999999999999
 20
518.0
 30
0.0
 11
84.0
 21
518.0
 31
0.0
  0
LINE
  5
A7
330
1E
100
AcDbEntity
  8
0
100
AcDbLine
 10
80.0
 20
518.0
 30
0.0
 11
80.0
 21
523.0
 31
0.0
  0
LINE
  5
A8
330
1E
100
AcDbEntity
  8
0
100
AcDbLine
 10
80.0
 20
518.0
 30
0.0
 11
98.0
 21
509.0
 31
0.0
  0
LINE
  5
A9
330
1E
100
AcDbEntity
  8
0
100
AcDbLine
 10
80.0
 20
518.0
 30
0.0
 11
81.09999999999999
 21
518.0
 31
0.0
  0
LINE
  5
AA
330
1E
100
AcDbEntity
  8
0
100
AcDbLine
 10
78.79999999999999
 20
461.0
 30
0.0
 11
84.59999999999999
 21
461.0
 31
0.0
  0
LINE
  5
AB
330
1E
100
AcDbEntity
  8
0
100
AcDbLine
 10
78.0
 20
462.0
 30
0.0
 11
83.9
 21
462.0
 31
0.0
  0
LINE
  5
AC
330
1E
100
AcDbEntity
  8
0
100
AcDbLine
 10
81.09999999999999
 20
523.0
 30
0.0
 11
84.0
 21
523.0
 31
0.0
  0
LINE
  5
AD
330
1E
100
AcDbEntity
  8
0
100
AcDbLine
 10
80.0
 20
523.0
 30
0.0
 11
81.09999999999999
 21
523.0
 31
0.0
  0
LINE
  5
AE
330
1E
100
AcDbEntity
  8
0
100
AcDbLine
 10
80.0
 20
523.0
 30
0.0
 11
80.0
 21
518.0
 31
0.0
  0
LINE
  5
AF
330
1E
100
AcDbEntity
  8
0
100
AcDbLine
 10
78.0
 20
523.0
 30
0.0
 11
80.0
 21
523.0
 31
0.0
  0
LINE
  5
B0
330
1E
100
AcDbEntity
  8
0
100
AcDbLine
 10
74.29999999999999
 20
523.0
 30
0.0
 11
78.0
 21
523.0
 31
0.0
  0
LINE
  5
B1
330
1E
100
AcDbEntity
  8
0
100
AcDbLine
 10
80.0
 20
443.0
 30
0.0
 11
81.09999999999999
 21
443.0
 31
0.0
  0
LINE
  5
B2
330
1E
100
AcDbEntity
  8
0
100
AcDbLine
 10
73.0
 20
462.0
 30
0.0
 11
73.0
 21
488.0
 31
0.0
  0
LINE
  5
B3
330
1E
100
AcDbEntity
  8
0
100
AcDbLine
 10
73.0
 20
462.0
 30
0.0
 11
74.0
 21
461.0
 31
0.0
  0
LINE
  5
B4
330
1E
100
AcDbEntity
  8
0
100
AcDbLine
 10
73.0
 20
462.0
 30
0.0
 11
74.29999999999999
 21
462.0
 31
0.0
  0
LINE
  5
B5
330
1E
100
AcDbEntity
  8
0
100
AcDbLine
 10
82.0
 20
435.0
 30
0.0
 11
83.0
 21
436.0
 31
0.0
  0
LINE
  5
B6
330
1E
100
AcDbEntity
  8
0
100
AcDbLine
 10
82.0
 20
435.0
 30
0.0
 11
83.0
 21
435.0
 31
0.0
  0
LINE
  5
B7
330
1E
100
AcDbEntity
  8
0
100
AcDbLine
 10
82.0
 20
435.0
 30
0.0
 11
82.0
 21
391.0
 31
0.0
  0
LINE
  5
B8
330
1E
100
AcDbEntity
  8
0
100
AcDbLine
 10
84.0
 20
365.5
 30
0.0
 11
88.0
 21
365.2
 31
0.0
  0
LINE
  5
B9
330
1E
100
AcDbEntity
  8
0
100
AcDbLine
 10
84.0
 20
350.50001
 30
0.0
 11
88.0
 21
350.8000099999999
 31
0.0
  0
LINE
  5
BA
330
1E
100
AcDbEntity
  8
0
100
AcDbLine
 10
89.19999999999999
 20
81.09999999999999
 30
0.0
 11
93.1
 21
76.09999999999999
 31
0.0
  0
LINE
  5
BB
330
1E
100
AcDbEntity
  8
0
100
AcDbLine
 10
86.90000000000001
 20
86.79999999999999
 30
0.0
 11
89.19999999999999
 21
81.09999999999999
 31
0.0
  0
LINE
  5
BC
330
1E
100
AcDbEntity
  8
0
100
AcDbLine
 10
86.0
 20
182.6
 30
0.0
 11
100.0
 21
184.583333333333
 31
0.0
  0
LINE
  5
BD
330
1E
100
AcDbEntity
  8
0
100
AcDbLine
 10
88.0
 20
389.0
 30
0.0
 11
88.0
 21
384.125
 31
0.0
  0
LINE
  5
BE
330
1E
100
AcDbEntity
  8
0
100
AcDbLine
 10
88.0
 20
389.0
 30
0.0
 11
88.8
 21
389.0
 31
0.0
  0
LINE
  5
BF
330
1E
100
AcDbEntity
  8
0
100
AcDbLine
 10
88.0
 20
384.125
 30
0.0
 11
88.49999999999999
 21
384.0
 31
0.0
  0
LINE
  5
C0
330
1E
100
AcDbEntity
  8
0
100
AcDbLine
 10
88.0
 20
384.125
 30
0.0
 11
88.8
 21
384.125
 31
0.0
  0
LINE
  5
C1
330
1E
100
AcDbEntity
  8
0
100
AcDbLine
 10
88.0
 20
384.125
 30
0.0
 11
88.0
 21
389.0
 31
0.0
  0
LINE
  5
C2
330
1E
100
AcDbEntity
  8
0
100
AcDbLine
 10
88.0
 20
365.2
 30
0.0
 11
91.0
 21
365.0
 31
0.0
  0
LINE
  5
C3
330
1E
100
AcDbEntity
  8
0
100
AcDbLine
 10
89.29999999999999
 20
384.0
 30
0.0
 11
91.0
 21
384.0
 31
0.0
  0
LINE
  5
C4
330
1E
100
AcDbEntity
  8
0
100
AcDbLine
 10
88.49999999999999
 20
384.0
 30
0.0
 11
89.29999999999999
 21
384.0
 31
0.0
  0
LINE
  5
C5
330
1E
100
AcDbEntity
  8
0
100
AcDbLine
 10
88.8
 20
389.0
 30
0.0
 11
90.90000000000001
 21
389.0
 31
0.0
  0
LINE
  5
C6
330
1E
100
AcDbEntity
  8
0
100
AcDbLine
 10
90.90000000000001
 20
389.0
 30
0.0
 11
94.50000000000001
 21
389.0
 31
0.0
  0
LINE
  5
C7
330
1E
100
AcDbEntity
  8
0
100
AcDbLine
 10
90.90000000000001
 20
384.125
 30
0.0
 11
94.50000000000001
 21
384.125
 31
0.0
  0
LINE
  5
C8
330
1E
100
AcDbEntity
  8
0
100
AcDbLine
 10
88.8
 20
384.125
 30
0.0
 11
90.90000000000001
 21
384.125
 31
0.0
  0
LINE
  5
C9
330
1E
100
AcDbEntity
  8
0
100
AcDbLine
 10
91.0
 20
384.0
 30
0.0
 11
91.95
 21
381.283
 31
0.0
  0
LINE
  5
CA
330
1E
100
AcDbEntity
  8
0
100
AcDbLine
 10
91.0
 20
384.0
 30
0.0
 11
91.665
 21
384.0
 31
0.0
  0
LINE
  5
CB
330
1E
100
AcDbEntity
  8
0
100
AcDbLine
 10
91.0
 20
365.0
 30
0.0
 11
95.0
 21
364.0
 31
0.0
  0
LINE
  5
CC
330
1E
100
AcDbEntity
  8
0
100
AcDbLine
 10
91.0
 20
351.00001
 30
0.0
 11
95.0
 21
352.00001
 31
0.0
  0
LINE
  5
CD
330
1E
100
AcDbEntity
  8
0
100
AcDbLine
 10
88.0
 20
350.8000099999999
 30
0.0
 11
91.0
 21
351.00001
 31
0.0
  0
LINE
  5
CE
330
1E
100
AcDbEntity
  8
0
100
AcDbLine
 10
89.19999999999999
 20
104.9
 30
0.0
 11
93.1
 21
109.8999999999999
 31
0.0
  0
LINE
  5
CF
330
1E
100
AcDbEntity
  8
0
100
AcDbLine
 10
86.90000000000001
 20
99.20000000000001
 30
0.0
 11
89.19999999999999
 21
104.9
 31
0.0
  0
LINE
  5
D0
330
1E
100
AcDbEntity
  8
0
100
AcDbLine
 10
86.0
 20
93.0
 30
0.0
 11
86.90000000000001
 21
86.79999999999999
 31
0.0
  0
LINE
  5
D1
330
1E
100
AcDbEntity
  8
0
100
AcDbLine
 10
86.0
 20
93.0
 30
0.0
 11
86.90000000000001
 21
99.20000000000001
 31
0.0
  0
LINE
  5
D2
330
1E
100
AcDbEntity
  8
0
100
AcDbLine
 10
98.1
 20
72.2
 30
0.0
 11
103.8
 21
69.89999999999989
 31
0.0
  0
LINE
  5
D3
330
1E
100
AcDbEntity
  8
0
100
AcDbLine
 10
93.1
 20
76.09999999999999
 30
0.0
 11
98.1
 21
72.2
 31
0.0
  0
LINE
  5
D4
330
1E
100
AcDbEntity
  8
0
100
AcDbLine
 10
98.1
 20
113.7999999999999
 30
0.0
 11
100.0
 21
114.566666666667
 31
0.0
  0
LINE
  5
D5
330
1E
100
AcDbEntity
  8
0
100
AcDbLine
 10
93.1
 20
109.8999999999999
 30
0.0
 11
98.1
 21
113.7999999999999
 31
0.0
  0
LINE
  5
D6
330
1E
100
AcDbEntity
  8
0
100
AcDbLine
 10
100.0
 20
106.4
 30
0.0
 11
100.0
 21
96.4
 31
0.0
  0
LINE
  5
D7
330
1E
100
AcDbEntity
  8
0
100
AcDbLine
 10
100.0
 20
106.4
 30
0.0
 11
100.0
 21
122.3
 31
0.0
  0
LINE
  5
D8
330
1E
100
AcDbEntity
  8
0
100
AcDbLine
 10
100.0
 20
96.4
 30
0.0
 11
100.0
 21
93.0
 31
0.0
  0
LINE
  5
D9
330
1E
100
AcDbEntity
  8
0
100
AcDbLine
 10
100.0
 20
96.4
 30
0.0
 11
100.0
 21
106.4
 31
0.0
  0
LINE
  5
DA
330
1E
100
AcDbEntity
  8
0
100
AcDbLine
 10
100.0
 20
93.0
 30
0.0
 11
100.4
 21
90.4
 31
0.0
  0
LINE
  5
DB
330
1E
100
AcDbEntity
  8
0
100
AcDbLine
 10
100.0
 20
93.0
 30
0.0
 11
100.0
 21
96.4
 31
0.0
  0
LINE
  5
DC
330
1E
100
AcDbEntity
  8
0
100
AcDbLine
 10
100.0
 20
122.3
 30
0.0
 11
100.0
 21
143.0
 31
0.0
  0
LINE
  5
DD
330
1E
100
AcDbEntity
  8
0
100
AcDbLine
 10
100.0
 20
122.3
 30
0.0
 11
100.0
 21
106.4
 31
0.0
  0
LINE
  5
DE
330
1E
100
AcDbEntity
  8
0
100
AcDbLine
 10
100.0
 20
143.0
 30
0.0
 11
100.0
 21
167.1
 31
0.0
  0
LINE
  5
DF
330
1E
100
AcDbEntity
  8
0
100
AcDbLine
 10
100.0
 20
143.0
 30
0.0
 11
100.0
 21
122.3
 31
0.0
  0
LINE
  5
E0
330
1E
100
AcDbEntity
  8
0
100
AcDbLine
 10
95.0
 20
352.00001
 30
0.0
 11
98.0
 21
353.1250024999999
 31
0.0
  0
LINE
  5
E1
330
1E
100
AcDbEntity
  8
0
100
AcDbLine
 10
98.0
 20
353.0
 30
0.0
 11
99.0
 21
350.00001
 31
0.0
  0
LINE
  5
E2
330
1E
100
AcDbEntity
  8
0
100
AcDbLine
 10
97.9803917570164
 20
353.117649457902
 30
0.0
 11
98.0
 21
353.0
 31
0.0
  0
LINE
  5
E3
330
1E
100
AcDbEntity
  8
0
100
AcDbLine
 10
95.0
 20
364.0
 30
0.0
 11
97.98039215686269
 21
362.882352941176
 31
0.0
  0
LINE
  5
E4
330
1E
100
AcDbEntity
  8
0
100
AcDbLine
 10
97.98039215686269
 20
362.882352941176
 30
0.0
 11
98.0
 21
363.0
 31
0.0
  0
LINE
  5
E5
330
1E
100
AcDbEntity
  8
0
100
AcDbLine
 10
99.40000000000001
 20
348.00001
 30
0.0
 11
100.0
 21
348.00001
 31
0.0
  0
LINE
  5
E6
330
1E
100
AcDbEntity
  8
0
100
AcDbLine
 10
99.0
 20
348.00001
 30
0.0
 11
99.40000000000001
 21
348.00001
 31
0.0
  0
LINE
  5
E7
330
1E
100
AcDbEntity
  8
0
100
AcDbLine
 10
99.0
 20
348.00001
 30
0.0
 11
100.0
 21
347.342115263158
 31
0.0
  0
LINE
  5
EA
330
1E
100
AcDbEntity
  8
0
100
AcDbLine
 10
98.50000000000001
 20
348.50001
 30
0.0
 11
99.0
 21
348.00001
 31
0.0
  0
LINE
  5
EB
330
1E
100
AcDbEntity
  8
0
100
AcDbLine
 10
98.50000000000001
 20
348.50001
 30
0.0
 11
98.50000000000001
 21
349.50001
 31
0.0
  0
LINE
  5
ED
330
1E
100
AcDbEntity
  8
0
100
AcDbLine
 10
98.50000000000001
 20
349.50001
 30
0.0
 11
99.0
 21
350.00001
 31
0.0
  0
LINE
  5
EE
330
1E
100
AcDbEntity
  8
0
100
AcDbLine
 10
98.50000000000001
 20
349.50001
 30
0.0
 11
98.50000000000001
 21
348.50001
 31
0.0
  0
LINE
  5
F0
330
1E
100
AcDbEntity
  8
0
100
AcDbLine
 10
99.40000000000001
 20
350.00001
 30
0.0
 11
100.0
 21
350.00001
 31
0.0
  0
LINE
  5
F1
330
1E
100
AcDbEntity
  8
0
100
AcDbLine
 10
99.0
 20
350.00001
 30
0.0
 11
99.40000000000001
 21
350.00001
 31
0.0
  0
LINE
  5
F2
330
1E
100
AcDbEntity
  8
0
100
AcDbLine
 10
98.0
 20
363.0
 30
0.0
 11
99.0
 21
366.0
 31
0.0
  0
LINE
  5
F3
330
1E
100
AcDbEntity
  8
0
100
AcDbLine
 10
91.665
 20
384.0
 30
0.0
 11
93.565
 21
384.0
 31
0.0
  0
LINE
  5
F4
330
1E
100
AcDbEntity
  8
0
100
AcDbLine
 10
100.0
 20
370.0
 30
0.0
 11
100.0
 21
371.0
 31
0.0
  0
LINE
  5
F5
330
1E
100
AcDbEntity
  8
0
100
AcDbLine
 10
100.0
 20
371.0
 30
0.0
 11
100.0
 21
370.0
 31
0.0
  0
LINE
  5
F6
330
1E
100
AcDbEntity
  8
0
100
AcDbLine
 10
98.59999999999999
 20
373.3585
 30
0.0
 11
100.0
 21
372.691166666667
 31
0.0
  0
LINE
  5
F7
330
1E
100
AcDbEntity
  8
0
100
AcDbLine
 10
96.225
 20
375.6225999999999
 30
0.0
 11
98.59999999999999
 21
373.3585
 31
0.0
  0
LINE
  5
F8
330
1E
100
AcDbEntity
  8
0
100
AcDbLine
 10
94.50000000000001
 20
389.0
 30
0.0
 11
99.1
 21
389.0
 31
0.0
  0
LINE
  5
F9
330
1E
100
AcDbEntity
  8
0
100
AcDbLine
 10
99.1
 20
389.0
 30
0.0
 11
100.0
 21
389.0
 31
0.0
  0
LINE
  5
FA
330
1E
100
AcDbEntity
  8
0
100
AcDbLine
 10
99.1
 20
384.125
 30
0.0
 11
100.0
 21
384.125
 31
0.0
  0
LINE
  5
FB
330
1E
100
AcDbEntity
  8
0
100
AcDbLine
 10
94.50000000000001
 20
384.125
 30
0.0
 11
99.1
 21
384.125
 31
0.0
  0
LINE
  5
FC
330
1E
100
AcDbEntity
  8
0
100
AcDbLine
 10
96.605
 20
384.0
 30
0.0
 11
100.0
 21
384.0
 31
0.0
  0
LINE
  5
FD
330
1E
100
AcDbEntity
  8
0
100
AcDbLine
 10
93.565
 20
384.0
 30
0.0
 11
96.605
 21
384.0
 31
0.0
  0
LINE
  5
FE
330
1E
100
AcDbEntity
  8
0
100
AcDbLine
 10
93.84999999999999
 20
378.3396
 30
0.0
 11
96.225
 21
375.6225999999999
 31
0.0
  0
LINE
  5
FF
330
1E
100
AcDbEntity
  8
0
100
AcDbLine
 10
91.95
 20
381.283
 30
0.0
 11
93.84999999999999
 21
378.3396
 31
0.0
  0
LINE
  5
100
330
1E
100
AcDbEntity
  8
0
100
AcDbLine
 10
99.0
 20
366.0
 30
0.0
 11
100.0
 21
367.5
 31
0.0
  0
LINE
  5
101
330
1E
100
AcDbEntity
  8
0
100
AcDbLine
 10
100.0
 20
339.0
 30
0.0
 11
100.0
 21
315.0
 31
0.0
  0
LINE
  5
102
330
1E
100
AcDbEntity
  8
0
100
AcDbLine
 10
100.0
 20
339.0
 30
0.0
 11
100.0
 21
468.0
 31
0.0
  0
LINE
  5
103
330
1E
100
AcDbEntity
  8
0
100
AcDbLine
 10
100.0
 20
315.0
 30
0.0
 11
100.0
 21
289.0
 31
0.0
  0
LINE
  5
104
330
1E
100
AcDbEntity
  8
0
100
AcDbLine
 10
100.0
 20
315.0
 30
0.0
 11
100.0
 21
339.0
 31
0.0
  0
LINE
  5
105
330
1E
100
AcDbEntity
  8
0
100
AcDbLine
 10
100.0
 20
289.0
 30
0.0
 11
100.0
 21
272.1999999999999
 31
0.0
  0
LINE
  5
106
330
1E
100
AcDbEntity
  8
0
100
AcDbLine
 10
100.0
 20
289.0
 30
0.0
 11
100.0
 21
315.0
 31
0.0
  0
LINE
  5
107
330
1E
100
AcDbEntity
  8
0
100
AcDbLine
 10
100.0
 20
272.1999999999999
 30
0.0
 11
100.0
 21
256.3999999999999
 31
0.0
  0
LINE
  5
108
330
1E
100
AcDbEntity
  8
0
100
AcDbLine
 10
100.0
 20
272.1999999999999
 30
0.0
 11
100.0
 21
289.0
 31
0.0
  0
LINE
  5
109
330
1E
100
AcDbEntity
  8
0
100
AcDbLine
 10
100.0
 20
256.3999999999999
 30
0.0
 11
100.0
 21
243.0
 31
0.0
  0
LINE
  5
10A
330
1E
100
AcDbEntity
  8
0
100
AcDbLine
 10
100.0
 20
256.3999999999999
 30
0.0
 11
100.0
 21
272.1999999999999
 31
0.0
  0
LINE
  5
10B
330
1E
100
AcDbEntity
  8
0
100
AcDbLine
 10
100.0
 20
243.0
 30
0.0
 11
100.0
 21
218.9
 31
0.0
  0
LINE
  5
10C
330
1E
100
AcDbEntity
  8
0
100
AcDbLine
 10
100.0
 20
243.0
 30
0.0
 11
100.0
 21
256.3999999999999
 31
0.0
  0
LINE
  5
10D
330
1E
100
AcDbEntity
  8
0
100
AcDbLine
 10
100.0
 20
218.9
 30
0.0
 11
100.0
 21
193.0
 31
0.0
  0
LINE
  5
10E
330
1E
100
AcDbEntity
  8
0
100
AcDbLine
 10
100.0
 20
218.9
 30
0.0
 11
100.0
 21
243.0
 31
0.0
  0
LINE
  5
10F
330
1E
100
AcDbEntity
  8
0
100
AcDbLine
 10
100.0
 20
167.1
 30
0.0
 11
100.0
 21
193.0
 31
0.0
  0
LINE
  5
110
330
1E
100
AcDbEntity
  8
0
100
AcDbLine
 10
100.0
 20
167.1
 30
0.0
 11
100.0
 21
143.0
 31
0.0
  0
LINE
  5
111
330
1E
100
AcDbEntity
  8
0
100
AcDbLine
 10
110.0
 20
-0.0000000000000223
 30
0.0
 11
134.0
 21
3.399999999999959
 31
0.0
  0
LINE
  5
112
330
1E
100
AcDbEntity
  8
0
100
AcDbLine
 10
110.0
 20
-0.0000000000000222
 30
0.0
 11
134.0
 21
3.399999999999959
 31
0.0
  0
LINE
  5
113
330
1E
100
AcDbEntity
  8
0
100
AcDbLine
 10
110.0
 20
69.0
 30
0.0
 11
116.2
 21
69.89999999999989
 31
0.0
  0
LINE
  5
114
330
1E
100
AcDbEntity
  8
0
100
AcDbLine
 10
103.8
 20
69.89999999999989
 30
0.0
 11
110.0
 21
69.0
 31
0.0
  0
LINE
  5
115
330
1E
100
AcDbEntity
  8
0
100
AcDbLine
 10
116.2
 20
69.89999999999989
 30
0.0
 11
121.9
 21
72.2
 31
0.0
  0
LINE
  5
116
330
1E
100
AcDbEntity
  8
0
100
AcDbLine
 10
121.9
 20
72.2
 30
0.0
 11
126.9
 21
76.09999999999999
 31
0.0
  0
LINE
  5
117
330
1E
100
AcDbEntity
  8
0
100
AcDbLine
 10
110.0
 20
83.0
 30
0.0
 11
112.5999999999999
 21
83.3999999999999
 31
0.0
  0
LINE
  5
118
330
1E
100
AcDbEntity
  8
0
100
AcDbLine
 10
100.4
 20
90.4
 30
0.0
 11
101.2999999999999
 21
88.0
 31
0.0
  0
LINE
  5
119
330
1E
100
AcDbEntity
  8
0
100
AcDbLine
 10
101.2999999999999
 20
88.0
 30
0.0
 11
102.9
 21
85.90000000000001
 31
0.0
  0
LINE
  5
11A
330
1E
100
AcDbEntity
  8
0
100
AcDbLine
 10
120.0
 20
114.566666666667
 30
0.0
 11
121.9
 21
113.7999999999999
 31
0.0
  0
LINE
  5
11B
330
1E
100
AcDbEntity
  8
0
100
AcDbLine
 10
120.0
 20
106.4
 30
0.0
 11
120.0
 21
96.4
 31
0.0
  0
LINE
  5
11C
330
1E
100
AcDbEntity
  8
0
100
AcDbLine
 10
120.0
 20
106.4
 30
0.0
 11
120.0
 21
122.3
 31
0.0
  0
LINE
  5
11D
330
1E
100
AcDbEntity
  8
0
100
AcDbLine
 10
120.0
 20
96.4
 30
0.0
 11
120.0
 21
93.0
 31
0.0
  0
LINE
  5
11E
330
1E
100
AcDbEntity
  8
0
100
AcDbLine
 10
120.0
 20
96.4
 30
0.0
 11
120.0
 21
106.4
 31
0.0
  0
LINE
  5
11F
330
1E
100
AcDbEntity
  8
0
100
AcDbLine
 10
120.0
 20
93.0
 30
0.0
 11
120.0
 21
96.4
 31
0.0
  0
LINE
  5
120
330
1E
100
AcDbEntity
  8
0
100
AcDbLine
 10
119.5999999999999
 20
90.4
 30
0.0
 11
120.0
 21
93.0
 31
0.0
  0
LINE
  5
121
330
1E
100
AcDbEntity
  8
0
100
AcDbLine
 10
118.7
 20
88.0
 30
0.0
 11
119.5999999999999
 21
90.4
 31
0.0
  0
LINE
  5
122
330
1E
100
AcDbEntity
  8
0
100
AcDbLine
 10
117.1
 20
85.90000000000001
 30
0.0
 11
118.7
 21
88.0
 31
0.0
  0
LINE
  5
123
330
1E
100
AcDbEntity
  8
0
100
AcDbLine
 10
115.0
 20
84.29999999999999
 30
0.0
 11
117.1
 21
85.90000000000001
 31
0.0
  0
LINE
  5
124
330
1E
100
AcDbEntity
  8
0
100
AcDbLine
 10
120.0
 20
184.583333333333
 30
0.0
 11
134.0
 21
182.6
 31
0.0
  0
LINE
  5
125
330
1E
100
AcDbEntity
  8
0
100
AcDbLine
 10
120.0
 20
122.3
 30
0.0
 11
120.0
 21
143.0
 31
0.0
  0
LINE
  5
126
330
1E
100
AcDbEntity
  8
0
100
AcDbLine
 10
120.0
 20
122.3
 30
0.0
 11
120.0
 21
106.4
 31
0.0
  0
LINE
  5
127
330
1E
100
AcDbEntity
  8
0
100
AcDbLine
 10
120.0
 20
143.0
 30
0.0
 11
120.0
 21
167.1
 31
0.0
  0
LINE
  5
128
330
1E
100
AcDbEntity
  8
0
100
AcDbLine
 10
120.0
 20
143.0
 30
0.0
 11
120.0
 21
122.3
 31
0.0
  0
LINE
  5
129
330
1E
100
AcDbEntity
  8
0
100
AcDbLine
 10
120.0
 20
243.0
 30
0.0
 11
120.0
 21
218.9
 31
0.0
  0
LINE
  5
12A
330
1E
100
AcDbEntity
  8
0
100
AcDbLine
 10
120.0
 20
243.0
 30
0.0
 11
120.0
 21
256.3999999999999
 31
0.0
  0
LINE
  5
12B
330
1E
100
AcDbEntity
  8
0
100
AcDbLine
 10
120.0
 20
218.9
 30
0.0
 11
120.0
 21
193.0
 31
0.0
  0
LINE
  5
12C
330
1E
100
AcDbEntity
  8
0
100
AcDbLine
 10
120.0
 20
218.9
 30
0.0
 11
120.0
 21
243.0
 31
0.0
  0
LINE
  5
12D
330
1E
100
AcDbEntity
  8
0
100
AcDbLine
 10
120.0
 20
193.0
 30
0.0
 11
120.0
 21
167.1
 31
0.0
  0
LINE
  5
12E
330
1E
100
AcDbEntity
  8
0
100
AcDbLine
 10
120.0
 20
193.0
 30
0.0
 11
120.0
 21
218.9
 31
0.0
  0
LINE
  5
12F
330
1E
100
AcDbEntity
  8
0
100
AcDbLine
 10
121.9
 20
113.7999999999999
 30
0.0
 11
126.9
 21
109.8999999999999
 31
0.0
  0
LINE
  5
130
330
1E
100
AcDbEntity
  8
0
100
AcDbLine
 10
120.0
 20
167.1
 30
0.0
 11
120.0
 21
193.0
 31
0.0
  0
LINE
  5
131
330
1E
100
AcDbEntity
  8
0
100
AcDbLine
 10
120.0
 20
167.1
 30
0.0
 11
120.0
 21
143.0
 31
0.0
  0
LINE
  5
132
330
1E
100
AcDbEntity
  8
0
100
AcDbLine
 10
120.0
 20
347.342115263158
 30
0.0
 11
121.0
 21
348.00001
 31
0.0
  0
LINE
  5
133
330
1E
100
AcDbEntity
  8
0
100
AcDbLine
 10
120.0
 20
348.00001
 30
0.0
 11
120.5999999999999
 21
348.00001
 31
0.0
  0
LINE
  5
136
330
1E
100
AcDbEntity
  8
0
100
AcDbLine
 10
120.0
 20
384.125
 30
0.0
 11
120.9
 21
384.125
 31
0.0
  0
LINE
  5
137
330
1E
100
AcDbEntity
  8
0
100
AcDbLine
 10
120.0
 20
384.0
 30
0.0
 11
123.3949999999999
 21
384.0
 31
0.0
  0
LINE
  5
138
330
1E
100
AcDbEntity
  8
0
100
AcDbLine
 10
120.0
 20
372.691166666667
 30
0.0
 11
121.4
 21
373.3585
 31
0.0
  0
LINE
  5
139
330
1E
100
AcDbEntity
  8
0
100
AcDbLine
 10
120.0
 20
350.00001
 30
0.0
 11
120.5999999999999
 21
350.00001
 31
0.0
  0
LINE
  5
13A
330
1E
100
AcDbEntity
  8
0
100
AcDbLine
 10
120.0
 20
367.5
 30
0.0
 11
121.0
 21
366.0
 31
0.0
  0
LINE
  5
13B
330
1E
100
AcDbEntity
  8
0
100
AcDbLine
 10
120.0
 20
339.0
 30
0.0
 11
120.0
 21
315.0
 31
0.0
  0
LINE
  5
13C
330
1E
100
AcDbEntity
  8
0
100
AcDbLine
 10
120.0
 20
339.0
 30
0.0
 11
120.0
 21
468.0
 31
0.0
  0
LINE
  5
13D
330
1E
100
AcDbEntity
  8
0
100
AcDbLine
 10
120.0
 20
315.0
 30
0.0
 11
120.0
 21
289.0
 31
0.0
  0
LINE
  5
13E
330
1E
100
AcDbEntity
  8
0
100
AcDbLine
 10
120.0
 20
315.0
 30
0.0
 11
120.0
 21
339.0
 31
0.0
  0
LINE
  5
13F
330
1E
100
AcDbEntity
  8
0
100
AcDbLine
 10
120.0
 20
289.0
 30
0.0
 11
120.0
 21
272.1999999999999
 31
0.0
  0
LINE
  5
140
330
1E
100
AcDbEntity
  8
0
100
AcDbLine
 10
120.0
 20
289.0
 30
0.0
 11
120.0
 21
315.0
 31
0.0
  0
LINE
  5
141
330
1E
100
AcDbEntity
  8
0
100
AcDbLine
 10
120.5999999999999
 20
348.00001
 30
0.0
 11
121.0
 21
348.00001
 31
0.0
  0
LINE
  5
142
330
1E
100
AcDbEntity
  8
0
100
AcDbLine
 10
121.0
 20
348.00001
 30
0.0
 11
121.5
 21
348.50001
 31
0.0
  0
LINE
  5
143
330
1E
100
AcDbEntity
  8
0
100
AcDbLine
 10
120.5999999999999
 20
350.00001
 30
0.0
 11
121.0
 21
350.00001
 31
0.0
  0
LINE
  5
145
330
1E
100
AcDbEntity
  8
0
100
AcDbLine
 10
121.5
 20
349.50001
 30
0.0
 11
121.5
 21
348.50001
 31
0.0
  0
LINE
  5
147
330
1E
100
AcDbEntity
  8
0
100
AcDbLine
 10
121.5
 20
348.50001
 30
0.0
 11
121.5
 21
349.50001
 31
0.0
  0
LINE
  5
148
330
1E
100
AcDbEntity
  8
0
100
AcDbLine
 10
121.0
 20
350.00001
 30
0.0
 11
122.0
 21
353.0
 31
0.0
  0
LINE
  5
149
330
1E
100
AcDbEntity
  8
0
100
AcDbLine
 10
121.0
 20
350.00001
 30
0.0
 11
121.5
 21
349.50001
 31
0.0
  0
LINE
  5
14A
330
1E
100
AcDbEntity
  8
0
100
AcDbLine
 10
122.0
 20
362.875
 30
0.0
 11
125.0
 21
364.0
 31
0.0
  0
LINE
  5
14B
330
1E
100
AcDbEntity
  8
0
100
AcDbLine
 10
122.0
 20
353.0
 30
0.0
 11
122.019608242984
 21
353.117649457902
 31
0.0
  0
LINE
  5
14C
330
1E
100
AcDbEntity
  8
0
100
AcDbLine
 10
122.019608242984
 20
353.117649457902
 30
0.0
 11
125.0
 21
352.00001
 31
0.0
  0
LINE
  5
14D
330
1E
100
AcDbEntity
  8
0
100
AcDbLine
 10
122.0
 20
363.0
 30
0.0
 11
122.0196078431369
 21
362.882352941176
 31
0.0
  0
LINE
  5
14E
330
1E
100
AcDbEntity
  8
0
100
AcDbLine
 10
120.9
 20
389.0
 30
0.0
 11
125.5
 21
389.0
 31
0.0
  0
LINE
  5
14F
330
1E
100
AcDbEntity
  8
0
100
AcDbLine
 10
120.9
 20
384.125
 30
0.0
 11
125.5
 21
384.125
 31
0.0
  0
LINE
  5
150
330
1E
100
AcDbEntity
  8
0
100
AcDbLine
 10
121.4
 20
373.3585
 30
0.0
 11
123.775
 21
375.6225999999999
 31
0.0
  0
LINE
  5
151
330
1E
100
AcDbEntity
  8
0
100
AcDbLine
 10
121.0
 20
366.0
 30
0.0
 11
122.0
 21
363.0
 31
0.0
  0
LINE
  5
152
330
1E
100
AcDbEntity
  8
0
100
AcDbLine
 10
120.0
 20
272.1999999999999
 30
0.0
 11
120.0
 21
256.3999999999999
 31
0.0
  0
LINE
  5
153
330
1E
100
AcDbEntity
  8
0
100
AcDbLine
 10
120.0
 20
272.1999999999999
 30
0.0
 11
120.0
 21
289.0
 31
0.0
  0
LINE
  5
154
330
1E
100
AcDbEntity
  8
0
100
AcDbLine
 10
120.0
 20
256.3999999999999
 30
0.0
 11
120.0
 21
272.1999999999999
 31
0.0
  0
LINE
  5
155
330
1E
100
AcDbEntity
  8
0
100
AcDbLine
 10
120.0
 20
256.3999999999999
 30
0.0
 11
120.0
 21
243.0
 31
0.0
  0
LINE
  5
156
330
1E
100
AcDbEntity
  8
0
100
AcDbLine
 10
102.9
 20
85.90000000000001
 30
0.0
 11
105.0
 21
84.29999999999999
 31
0.0
  0
LINE
  5
157
330
1E
100
AcDbEntity
  8
0
100
AcDbLine
 10
107.4
 20
83.3999999999999
 30
0.0
 11
110.0
 21
83.0
 31
0.0
  0
LINE
  5
158
330
1E
100
AcDbEntity
  8
0
100
AcDbLine
 10
100.0
 20
193.0
 30
0.0
 11
100.0
 21
167.1
 31
0.0
  0
LINE
  5
159
330
1E
100
AcDbEntity
  8
0
100
AcDbLine
 10
100.0
 20
193.0
 30
0.0
 11
100.0
 21
218.9
 31
0.0
  0
LINE
  5
15A
330
1E
100
AcDbEntity
  8
0
100
AcDbLine
 10
97.1
 20
389.0
 30
0.0
 11
100.0
 21
389.0
 31
0.0
  0
LINE
  5
15B
330
1E
100
AcDbEntity
  8
0
100
AcDbLine
 10
91.6
 20
389.0
 30
0.0
 11
97.1
 21
389.0
 31
0.0
  0
LINE
  5
15C
330
1E
100
AcDbEntity
  8
0
100
AcDbLine
 10
120.0
 20
389.0
 30
0.0
 11
122.9
 21
389.0
 31
0.0
  0
LINE
  5
15D
330
1E
100
AcDbEntity
  8
0
100
AcDbLine
 10
120.0
 20
389.0
 30
0.0
 11
120.9
 21
389.0
 31
0.0
  0
LINE
  5
15E
330
1E
100
AcDbEntity
  8
0
100
AcDbLine
 10
126.9
 20
76.09999999999999
 30
0.0
 11
130.8
 21
81.09999999999999
 31
0.0
  0
LINE
  5
15F
330
1E
100
AcDbEntity
  8
0
100
AcDbLine
 10
123.775
 20
375.6225999999999
 30
0.0
 11
126.15
 21
378.3396
 31
0.0
  0
LINE
  5
160
330
1E
100
AcDbEntity
  8
0
100
AcDbLine
 10
125.5
 20
389.0
 30
0.0
 11
129.0999999999999
 21
389.0
 31
0.0
  0
LINE
  5
161
330
1E
100
AcDbEntity
  8
0
100
AcDbLine
 10
125.5
 20
384.125
 30
0.0
 11
129.0999999999999
 21
384.125
 31
0.0
  0
LINE
  5
162
330
1E
100
AcDbEntity
  8
0
100
AcDbLine
 10
123.3949999999999
 20
384.0
 30
0.0
 11
126.435
 21
384.0
 31
0.0
  0
LINE
  5
163
330
1E
100
AcDbEntity
  8
0
100
AcDbLine
 10
126.435
 20
384.0
 30
0.0
 11
128.335
 21
384.0
 31
0.0
  0
LINE
  5
164
330
1E
100
AcDbEntity
  8
0
100
AcDbLine
 10
126.15
 20
378.3396
 30
0.0
 11
128.05
 21
381.283
 31
0.0
  0
LINE
  5
165
330
1E
100
AcDbEntity
  8
0
100
AcDbLine
 10
129.0
 20
384.0
 30
0.0
 11
130.6999999999999
 21
384.0
 31
0.0
  0
LINE
  5
166
330
1E
100
AcDbEntity
  8
0
100
AcDbLine
 10
128.335
 20
384.0
 30
0.0
 11
129.0
 21
384.0
 31
0.0
  0
LINE
  5
167
330
1E
100
AcDbEntity
  8
0
100
AcDbLine
 10
128.05
 20
381.283
 30
0.0
 11
129.0
 21
384.0
 31
0.0
  0
LINE
  5
168
330
1E
100
AcDbEntity
  8
0
100
AcDbLine
 10
125.0
 20
364.0
 30
0.0
 11
129.0
 21
365.0
 31
0.0
  0
LINE
  5
169
330
1E
100
AcDbEntity
  8
0
100
AcDbLine
 10
129.0
 20
365.0
 30
0.0
 11
132.0
 21
365.2
 31
0.0
  0
LINE
  5
16A
330
1E
100
AcDbEntity
  8
0
100
AcDbLine
 10
125.0
 20
352.00001
 30
0.0
 11
129.0
 21
351.00001
 31
0.0
  0
LINE
  5
16B
330
1E
100
AcDbEntity
  8
0
100
AcDbLine
 10
129.0999999999999
 20
389.0
 30
0.0
 11
131.1999999999999
 21
389.0
 31
0.0
  0
LINE
  5
16C
330
1E
100
AcDbEntity
  8
0
100
AcDbLine
 10
129.0999999999999
 20
384.125
 30
0.0
 11
131.1999999999999
 21
384.125
 31
0.0
  0
LINE
  5
16D
330
1E
100
AcDbEntity
  8
0
100
AcDbLine
 10
130.6999999999999
 20
384.0
 30
0.0
 11
131.4999999999999
 21
384.0
 31
0.0
  0
LINE
  5
16E
330
1E
100
AcDbEntity
  8
0
100
AcDbLine
 10
129.0
 20
351.00001
 30
0.0
 11
132.0
 21
350.8000099999999
 31
0.0
  0
LINE
  5
16F
330
1E
100
AcDbEntity
  8
0
100
AcDbLine
 10
126.9
 20
109.8999999999999
 30
0.0
 11
130.8
 21
104.9
 31
0.0
  0
LINE
  5
170
330
1E
100
AcDbEntity
  8
0
100
AcDbLine
 10
131.1999999999999
 20
389.0
 30
0.0
 11
132.0
 21
389.0
 31
0.0
  0
LINE
  5
171
330
1E
100
AcDbEntity
  8
0
100
AcDbLine
 10
131.1999999999999
 20
384.125
 30
0.0
 11
132.0
 21
384.125
 31
0.0
  0
LINE
  5
172
330
1E
100
AcDbEntity
  8
0
100
AcDbLine
 10
132.0
 20
384.125
 30
0.0
 11
132.0
 21
389.0
 31
0.0
  0
LINE
  5
173
330
1E
100
AcDbEntity
  8
0
100
AcDbLine
 10
131.4999999999999
 20
384.0
 30
0.0
 11
132.0
 21
384.125
 31
0.0
  0
LINE
  5
174
330
1E
100
AcDbEntity
  8
0
100
AcDbLine
 10
132.0
 20
365.2
 30
0.0
 11
136.0
 21
365.5
 31
0.0
  0
LINE
  5
175
330
1E
100
AcDbEntity
  8
0
100
AcDbLine
 10
132.0
 20
350.8000099999999
 30
0.0
 11
136.0
 21
350.50001
 31
0.0
  0
LINE
  5
176
330
1E
100
AcDbEntity
  8
0
100
AcDbLine
 10
130.8
 20
104.9
 30
0.0
 11
133.0999999999999
 21
99.20000000000001
 31
0.0
  0
LINE
  5
177
330
1E
100
AcDbEntity
  8
0
100
AcDbLine
 10
130.8
 20
81.09999999999999
 30
0.0
 11
133.0999999999999
 21
86.79999999999999
 31
0.0
  0
LINE
  5
178
330
1E
100
AcDbEntity
  8
0
100
AcDbLine
 10
122.9
 20
389.0
 30
0.0
 11
128.4
 21
389.0
 31
0.0
  0
LINE
  5
179
330
1E
100
AcDbEntity
  8
0
100
AcDbLine
 10
128.4
 20
389.0
 30
0.0
 11
132.4999999999999
 21
389.0
 31
0.0
  0
LINE
  5
17B
330
1E
100
AcDbEntity
  8
0
100
AcDbLine
 10
134.0
 20
3.399999999999959
 30
0.0
 11
156.3
 21
12.5
 31
0.0
  0
LINE
  5
17C
330
1E
100
AcDbEntity
  8
0
100
AcDbLine
 10
134.0
 20
182.6
 30
0.0
 11
156.3
 21
173.5
 31
0.0
  0
LINE
  5
17D
330
1E
100
AcDbEntity
  8
0
100
AcDbLine
 10
133.0999999999999
 20
99.20000000000001
 30
0.0
 11
134.0
 21
93.0
 31
0.0
  0
LINE
  5
17E
330
1E
100
AcDbEntity
  8
0
100
AcDbLine
 10
133.0999999999999
 20
86.79999999999999
 30
0.0
 11
134.0
 21
93.0
 31
0.0
  0
LINE
  5
17F
330
1E
100
AcDbEntity
  8
0
100
AcDbLine
 10
132.0
 20
389.0
 30
0.0
 11
132.4999999999999
 21
389.0
 31
0.0
  0
LINE
  5
180
330
1E
100
AcDbEntity
  8
0
100
AcDbLine
 10
132.0
 20
389.0
 30
0.0
 11
132.0
 21
384.125
 31
0.0
  0
LINE
  5
181
330
1E
100
AcDbEntity
  8
0
100
AcDbLine
 10
132.4999999999999
 20
389.0
 30
0.0
 11
135.0999999999999
 21
389.0
 31
0.0
  0
LINE
  5
182
330
1E
100
AcDbEntity
  8
0
100
AcDbLine
 10
136.0
 20
350.50001
 30
0.0
 11
139.5
 21
351.00001
 31
0.0
  0
LINE
  5
183
330
1E
100
AcDbEntity
  8
0
100
AcDbLine
 10
139.5
 20
351.00001
 30
0.0
 11
142.0
 21
352.00001
 31
0.0
  0
LINE
  5
184
330
1E
100
AcDbEntity
  8
0
100
AcDbLine
 10
142.0
 20
352.00001
 30
0.0
 11
144.0
 21
353.5
 31
0.0
  0
LINE
  5
185
330
1E
100
AcDbEntity
  8
0
100
AcDbLine
 10
144.0
 20
353.5
 30
0.0
 11
145.5
 21
355.5
 31
0.0
  0
LINE
  5
186
330
1E
100
AcDbEntity
  8
0
100
AcDbLine
 10
136.0
 20
365.5
 30
0.0
 11
139.5
 21
365.0
 31
0.0
  0
LINE
  5
187
330
1E
100
AcDbEntity
  8
0
100
AcDbLine
 10
139.5
 20
365.0
 30
0.0
 11
142.0
 21
364.0
 31
0.0
  0
LINE
  5
188
330
1E
100
AcDbEntity
  8
0
100
AcDbLine
 10
142.0
 20
364.0
 30
0.0
 11
144.0
 21
362.5
 31
0.0
  0
LINE
  5
189
330
1E
100
AcDbEntity
  8
0
100
AcDbLine
 10
144.0
 20
362.5
 30
0.0
 11
145.5
 21
360.4999999999999
 31
0.0
  0
LINE
  5
18A
330
1E
100
AcDbEntity
  8
0
100
AcDbLine
 10
145.5
 20
360.4999999999999
 30
0.0
 11
146.0
 21
358.0
 31
0.0
  0
LINE
  5
18B
330
1E
100
AcDbEntity
  8
0
100
AcDbLine
 10
145.5
 20
355.5
 30
0.0
 11
146.0
 21
358.0
 31
0.0
  0
LINE
  5
18C
330
1E
100
AcDbEntity
  8
0
100
AcDbLine
 10
175.6999999999999
 20
158.6999999999999
 30
0.0
 11
190.5
 21
139.3
 31
0.0
  0
LINE
  5
18E
330
1E
100
AcDbEntity
  8
0
100
AcDbLine
 10
156.3
 20
12.5
 30
0.0
 11
175.6999999999999
 21
27.3
 31
0.0
  0
LINE
  5
18F
330
1E
100
AcDbEntity
  8
0
100
AcDbLine
 10
317.0
 20
348.56119
 30
0.0
 11
320.3999999999999
 21
342.49901
 31
0.0
  0
LINE
  5
190
330
1E
100
AcDbEntity
  8
0
100
AcDbLine
 10
317.0
 20
348.56119
 30
0.0
 11
317.0
 21
359.7328999999999
 31
0.0
  0
LINE
  5
191
330
1E
100
AcDbEntity
  8
0
100
AcDbLine
 10
326.8
 20
335.311
 30
0.0
 11
335.1
 21
329.7683999999999
 31
0.0
  0
LINE
  5
192
330
1E
100
AcDbEntity
  8
0
100
AcDbLine
 10
320.3999999999999
 20
342.49901
 30
0.0
 11
326.8
 21
335.311
 31
0.0
  0
LINE
  5
193
330
1E
100
AcDbEntity
  8
0
100
AcDbLine
 10
317.0
 20
359.7328999999999
 30
0.0
 11
317.0
 21
370.9046
 31
0.0
  0
LINE
  5
194
330
1E
100
AcDbEntity
  8
0
100
AcDbLine
 10
317.0
 20
359.7328999999999
 30
0.0
 11
317.0
 21
348.56119
 31
0.0
  0
LINE
  5
195
330
1E
100
AcDbEntity
  8
0
100
AcDbLine
 10
326.8
 20
384.1548
 30
0.0
 11
328.2
 21
385.4424
 31
0.0
  0
LINE
  5
196
330
1E
100
AcDbEntity
  8
0
100
AcDbLine
 10
320.3999999999999
 20
376.9667999999999
 30
0.0
 11
326.8
 21
384.1548
 31
0.0
  0
LINE
  5
197
330
1E
100
AcDbEntity
  8
0
100
AcDbLine
 10
317.0
 20
370.9046
 30
0.0
 11
317.0
 21
359.7328999999999
 31
0.0
  0
LINE
  5
198
330
1E
100
AcDbEntity
  8
0
100
AcDbLine
 10
317.0
 20
370.9046
 30
0.0
 11
320.3999999999999
 21
376.9667999999999
 31
0.0
  0
LINE
  5
199
330
1E
100
AcDbEntity
  8
0
100
AcDbLine
 10
355.0
 20
325.19
 30
0.0
 11
364.6
 21
326.3158
 31
0.0
  0
LINE
  5
19A
330
1E
100
AcDbEntity
  8
0
100
AcDbLine
 10
364.6
 20
326.3158
 30
0.0
 11
367.8999999999999
 21
326.8238999999999
 31
0.0
  0
LINE
  5
19B
330
1E
100
AcDbEntity
  8
0
100
AcDbLine
 10
364.6
 20
326.3158
 30
0.0
 11
364.9795303286889
 21
326.453996480934
 31
0.0
  0
LINE
  5
19C
330
1E
100
AcDbEntity
  8
0
100
AcDbLine
 10
367.8999999999999
 20
326.8238999999999
 30
0.0
 11
374.8999999999999
 21
329.7683999999999
 31
0.0
  0
LINE
  5
19D
330
1E
100
AcDbEntity
  8
0
100
AcDbLine
 10
374.8999999999999
 20
329.7683999999999
 30
0.0
 11
383.1999999999999
 21
335.311
 31
0.0
  0
LINE
  5
19E
330
1E
100
AcDbEntity
  8
0
100
AcDbLine
 10
345.3999999999999
 20
326.3158
 30
0.0
 11
355.0
 21
325.19
 31
0.0
  0
LINE
  5
19F
330
1E
100
AcDbEntity
  8
0
100
AcDbLine
 10
342.1
 20
326.8238999999999
 30
0.0
 11
345.3999999999999
 21
326.3158
 31
0.0
  0
LINE
  5
1A0
330
1E
100
AcDbEntity
  8
0
100
AcDbLine
 10
383.1999999999999
 20
335.311
 30
0.0
 11
389.6
 21
342.49901
 31
0.0
  0
LINE
  5
1A1
330
1E
100
AcDbEntity
  8
0
100
AcDbLine
 10
389.6
 20
342.49901
 30
0.0
 11
393.0
 21
348.56119
 31
0.0
  0
LINE
  5
1A2
330
1E
100
AcDbEntity
  8
0
100
AcDbLine
 10
383.1999999999999
 20
384.1548
 30
0.0
 11
389.6
 21
376.9667999999999
 31
0.0
  0
LINE
  5
1A3
330
1E
100
AcDbEntity
  8
0
100
AcDbLine
 10
381.7999999999999
 20
385.4424
 30
0.0
 11
383.1999999999999
 21
384.1548
 31
0.0
  0
LINE
  5
1A4
330
1E
100
AcDbEntity
  8
0
100
AcDbLine
 10
389.6
 20
376.9667999999999
 30
0.0
 11
393.0
 21
370.9046
 31
0.0
  0
LINE
  5
1A5
330
1E
100
AcDbEntity
  8
0
100
AcDbLine
 10
335.1
 20
329.7683999999999
 30
0.0
 11
342.1
 21
326.8238999999999
 31
0.0
  0
LINE
  5
1A6
330
1E
100
AcDbEntity
  8
0
100
AcDbLine
 10
328.2
 20
385.4424
 30
0.0
 11
336.1
 21
390.7251999999999
 31
0.0
  0
LINE
  5
1A7
330
1E
100
AcDbEntity
  8
0
100
AcDbLine
 10
190.5
 20
46.7
 30
0.0
 11
199.6
 21
69.0
 31
0.0
  0
LINE
  5
1A8
330
1E
100
AcDbEntity
  8
0
100
AcDbLine
 10
175.6999999999999
 20
27.3
 30
0.0
 11
190.5
 21
46.7
 31
0.0
  0
LINE
  5
1A9
330
1E
100
AcDbEntity
  8
0
100
AcDbLine
 10
136.0
 20
389.0
 30
0.0
 11
138.0
 21
391.0
 31
0.0
  0
LINE
  5
1AA
330
1E
100
AcDbEntity
  8
0
100
AcDbLine
 10
135.0999999999999
 20
389.0
 30
0.0
 11
136.0
 21
389.0
 31
0.0
  0
LINE
  5
1AB
330
1E
100
AcDbEntity
  8
0
100
AcDbLine
 10
87.5
 20
389.0
 30
0.0
 11
88.0
 21
389.0
 31
0.0
  0
LINE
  5
1AC
330
1E
100
AcDbEntity
  8
0
100
AcDbLine
 10
87.5
 20
389.0
 30
0.0
 11
91.6
 21
389.0
 31
0.0
  0
LINE
  5
1AD
330
1E
100
AcDbEntity
  8
0
100
AcDbLine
 10
84.9
 20
389.0
 30
0.0
 11
87.5
 21
389.0
 31
0.0
  0
LINE
  5
1AE
330
1E
100
AcDbEntity
  8
0
100
AcDbLine
 10
96.09999999999999
 20
391.0
 30
0.0
 11
100.0
 21
391.0
 31
0.0
  0
LINE
  5
1AF
330
1E
100
AcDbEntity
  8
0
100
AcDbLine
 10
90.20000000000001
 20
391.0
 30
0.0
 11
96.09999999999999
 21
391.0
 31
0.0
  0
LINE
  5
1B0
330
1E
100
AcDbEntity
  8
0
100
AcDbLine
 10
85.0
 20
391.0
 30
0.0
 11
90.20000000000001
 21
391.0
 31
0.0
  0
LINE
  5
1B1
330
1E
100
AcDbEntity
  8
0
100
AcDbLine
 10
83.0
 20
391.0
 30
0.0
 11
85.0
 21
391.0
 31
0.0
  0
LINE
  5
1B2
330
1E
100
AcDbEntity
  8
0
100
AcDbLine
 10
83.0
 20
435.0
 30
0.0
 11
85.0
 21
435.0
 31
0.0
  0
LINE
  5
1B3
330
1E
100
AcDbEntity
  8
0
100
AcDbLine
 10
85.0
 20
435.0
 30
0.0
 11
90.20000000000001
 21
435.0
 31
0.0
  0
LINE
  5
1B4
330
1E
100
AcDbEntity
  8
0
100
AcDbLine
 10
96.09999999999999
 20
435.0
 30
0.0
 11
100.0
 21
435.0
 31
0.0
  0
LINE
  5
1B5
330
1E
100
AcDbEntity
  8
0
100
AcDbLine
 10
90.20000000000001
 20
435.0
 30
0.0
 11
96.09999999999999
 21
435.0
 31
0.0
  0
LINE
  5
1B6
330
1E
100
AcDbEntity
  8
0
100
AcDbLine
 10
96.6
 20
436.0
 30
0.0
 11
100.0
 21
436.0
 31
0.0
  0
LINE
  5
1B7
330
1E
100
AcDbEntity
  8
0
100
AcDbLine
 10
90.90000000000001
 20
436.0
 30
0.0
 11
96.6
 21
436.0
 31
0.0
  0
LINE
  5
1B8
330
1E
100
AcDbEntity
  8
0
100
AcDbLine
 10
86.6
 20
436.0
 30
0.0
 11
90.90000000000001
 21
436.0
 31
0.0
  0
LINE
  5
1B9
330
1E
100
AcDbEntity
  8
0
100
AcDbLine
 10
84.0
 20
436.0
 30
0.0
 11
86.6
 21
436.0
 31
0.0
  0
LINE
  5
1BA
330
1E
100
AcDbEntity
  8
0
100
AcDbLine
 10
83.0
 20
436.0
 30
0.0
 11
84.0
 21
436.0
 31
0.0
  0
LINE
  5
1BB
330
1E
100
AcDbEntity
  8
0
100
AcDbLine
 10
120.0
 20
391.0
 30
0.0
 11
123.9
 21
391.0
 31
0.0
  0
LINE
  5
1BC
330
1E
100
AcDbEntity
  8
0
100
AcDbLine
 10
120.0
 20
435.0
 30
0.0
 11
123.9
 21
435.0
 31
0.0
  0
LINE
  5
1BD
330
1E
100
AcDbEntity
  8
0
100
AcDbLine
 10
120.0
 20
436.0
 30
0.0
 11
123.3999999999999
 21
436.0
 31
0.0
  0
LINE
  5
1BE
330
1E
100
AcDbEntity
  8
0
100
AcDbLine
 10
123.9
 20
391.0
 30
0.0
 11
129.8
 21
391.0
 31
0.0
  0
LINE
  5
1BF
330
1E
100
AcDbEntity
  8
0
100
AcDbLine
 10
129.8
 20
391.0
 30
0.0
 11
135.0
 21
391.0
 31
0.0
  0
LINE
  5
1C0
330
1E
100
AcDbEntity
  8
0
100
AcDbLine
 10
123.9
 20
435.0
 30
0.0
 11
129.8
 21
435.0
 31
0.0
  0
LINE
  5
1C1
330
1E
100
AcDbEntity
  8
0
100
AcDbLine
 10
129.8
 20
435.0
 30
0.0
 11
135.0
 21
435.0
 31
0.0
  0
LINE
  5
1C2
330
1E
100
AcDbEntity
  8
0
100
AcDbLine
 10
123.3999999999999
 20
436.0
 30
0.0
 11
129.0999999999999
 21
436.0
 31
0.0
  0
LINE
  5
1C3
330
1E
100
AcDbEntity
  8
0
100
AcDbLine
 10
129.0999999999999
 20
436.0
 30
0.0
 11
133.4
 21
436.0
 31
0.0
  0
LINE
  5
1C4
330
1E
100
AcDbEntity
  8
0
100
AcDbLine
 10
135.0
 20
391.0
 30
0.0
 11
137.0
 21
391.0
 31
0.0
  0
LINE
  5
1C5
330
1E
100
AcDbEntity
  8
0
100
AcDbLine
 10
137.0
 20
391.0
 30
0.0
 11
138.0
 21
391.0
 31
0.0
  0
LINE
  5
1C6
330
1E
100
AcDbEntity
  8
0
100
AcDbLine
 10
138.0
 20
391.0
 30
0.0
 11
138.0
 21
435.0
 31
0.0
  0
LINE
  5
1C7
330
1E
100
AcDbEntity
  8
0
100
AcDbLine
 10
135.0
 20
435.0
 30
0.0
 11
137.0
 21
435.0
 31
0.0
  0
LINE
  5
1C8
330
1E
100
AcDbEntity
  8
0
100
AcDbLine
 10
137.0
 20
435.0
 30
0.0
 11
138.0
 21
435.0
 31
0.0
  0
LINE
  5
1C9
330
1E
100
AcDbEntity
  8
0
100
AcDbLine
 10
133.4
 20
436.0
 30
0.0
 11
136.0
 21
436.0
 31
0.0
  0
LINE
  5
1CA
330
1E
100
AcDbEntity
  8
0
100
AcDbLine
 10
136.0
 20
436.0
 30
0.0
 11
137.0
 21
436.0
 31
0.0
  0
LINE
  5
1CB
330
1E
100
AcDbEntity
  8
0
100
AcDbLine
 10
138.0
 20
435.0
 30
0.0
 11
138.0
 21
391.0
 31
0.0
  0
LINE
  5
1CC
330
1E
100
AcDbEntity
  8
0
100
AcDbLine
 10
96.09999999999999
 20
437.0
 30
0.0
 11
100.0
 21
437.0
 31
0.0
  0
LINE
  5
1CD
330
1E
100
AcDbEntity
  8
0
100
AcDbLine
 10
90.20000000000001
 20
437.0
 30
0.0
 11
96.09999999999999
 21
437.0
 31
0.0
  0
LINE
  5
1CE
330
1E
100
AcDbEntity
  8
0
100
AcDbLine
 10
85.0
 20
437.0
 30
0.0
 11
90.20000000000001
 21
437.0
 31
0.0
  0
LINE
  5
1CF
330
1E
100
AcDbEntity
  8
0
100
AcDbLine
 10
83.0
 20
437.0
 30
0.0
 11
85.0
 21
437.0
 31
0.0
  0
LINE
  5
1D0
330
1E
100
AcDbEntity
  8
0
100
AcDbLine
 10
88.8
 20
443.0
 30
0.0
 11
95.09999999999999
 21
443.0
 31
0.0
  0
LINE
  5
1D1
330
1E
100
AcDbEntity
  8
0
100
AcDbLine
 10
84.0
 20
443.0
 30
0.0
 11
88.8
 21
443.0
 31
0.0
  0
LINE
  5
1D2
330
1E
100
AcDbEntity
  8
0
100
AcDbLine
 10
95.09999999999999
 20
443.0
 30
0.0
 11
100.0
 21
443.0
 31
0.0
  0
LINE
  5
1D3
330
1E
100
AcDbEntity
  8
0
100
AcDbLine
 10
96.09999999999999
 20
443.0
 30
0.0
 11
100.0
 21
443.0
 31
0.0
  0
LINE
  5
1D4
330
1E
100
AcDbEntity
  8
0
100
AcDbLine
 10
90.20000000000001
 20
443.0
 30
0.0
 11
96.09999999999999
 21
443.0
 31
0.0
  0
LINE
  5
1D5
330
1E
100
AcDbEntity
  8
0
100
AcDbLine
 10
91.6
 20
453.0
 30
0.0
 11
100.0
 21
453.0
 31
0.0
  0
LINE
  5
1D6
330
1E
100
AcDbEntity
  8
0
100
AcDbLine
 10
83.9
 20
453.0
 30
0.0
 11
91.6
 21
453.0
 31
0.0
  0
LINE
  5
1D7
330
1E
100
AcDbEntity
  8
0
100
AcDbLine
 10
85.0
 20
443.0
 30
0.0
 11
90.20000000000001
 21
443.0
 31
0.0
  0
LINE
  5
1D8
330
1E
100
AcDbEntity
  8
0
100
AcDbLine
 10
83.0
 20
443.0
 30
0.0
 11
85.0
 21
443.0
 31
0.0
  0
LINE
  5
1D9
330
1E
100
AcDbEntity
  8
0
100
AcDbLine
 10
120.0
 20
437.0
 30
0.0
 11
123.9
 21
437.0
 31
0.0
  0
LINE
  5
1DA
330
1E
100
AcDbEntity
  8
0
100
AcDbLine
 10
120.0
 20
443.0
 30
0.0
 11
124.9
 21
443.0
 31
0.0
  0
LINE
  5
1DB
330
1E
100
AcDbEntity
  8
0
100
AcDbLine
 10
120.0
 20
443.0
 30
0.0
 11
123.9
 21
443.0
 31
0.0
  0
LINE
  5
1DC
330
1E
100
AcDbEntity
  8
0
100
AcDbLine
 10
83.9
 20
460.0
 30
0.0
 11
91.6
 21
460.0
 31
0.0
  0
LINE
  5
1DD
330
1E
100
AcDbEntity
  8
0
100
AcDbLine
 10
91.6
 20
460.0
 30
0.0
 11
100.0
 21
460.0
 31
0.0
  0
LINE
  5
1DE
330
1E
100
AcDbEntity
  8
0
100
AcDbLine
 10
92.09999999999999
 20
461.0
 30
0.0
 11
100.0
 21
461.0
 31
0.0
  0
LINE
  5
1DF
330
1E
100
AcDbEntity
  8
0
100
AcDbLine
 10
84.59999999999999
 20
461.0
 30
0.0
 11
92.09999999999999
 21
461.0
 31
0.0
  0
LINE
  5
1E0
330
1E
100
AcDbEntity
  8
0
100
AcDbLine
 10
120.0
 20
453.0
 30
0.0
 11
128.4
 21
453.0
 31
0.0
  0
LINE
  5
1E1
330
1E
100
AcDbEntity
  8
0
100
AcDbLine
 10
120.0
 20
460.0
 30
0.0
 11
128.4
 21
460.0
 31
0.0
  0
LINE
  5
1E2
330
1E
100
AcDbEntity
  8
0
100
AcDbLine
 10
91.6
 20
462.0
 30
0.0
 11
100.0
 21
462.0
 31
0.0
  0
LINE
  5
1E3
330
1E
100
AcDbEntity
  8
0
100
AcDbLine
 10
83.9
 20
462.0
 30
0.0
 11
91.6
 21
462.0
 31
0.0
  0
LINE
  5
1E4
330
1E
100
AcDbEntity
  8
0
100
AcDbLine
 10
120.0
 20
461.0
 30
0.0
 11
127.9
 21
461.0
 31
0.0
  0
LINE
  5
1E5
330
1E
100
AcDbEntity
  8
0
100
AcDbLine
 10
123.9
 20
443.0
 30
0.0
 11
129.8
 21
443.0
 31
0.0
  0
LINE
  5
1E6
330
1E
100
AcDbEntity
  8
0
100
AcDbLine
 10
123.9
 20
437.0
 30
0.0
 11
129.8
 21
437.0
 31
0.0
  0
LINE
  5
1E7
330
1E
100
AcDbEntity
  8
0
100
AcDbLine
 10
124.9
 20
443.0
 30
0.0
 11
131.1999999999999
 21
443.0
 31
0.0
  0
LINE
  5
1E8
330
1E
100
AcDbEntity
  8
0
100
AcDbLine
 10
128.4
 20
453.0
 30
0.0
 11
136.0999999999999
 21
453.0
 31
0.0
  0
LINE
  5
1E9
330
1E
100
AcDbEntity
  8
0
100
AcDbLine
 10
129.8
 20
443.0
 30
0.0
 11
135.0
 21
443.0
 31
0.0
  0
LINE
  5
1EA
330
1E
100
AcDbEntity
  8
0
100
AcDbLine
 10
129.8
 20
437.0
 30
0.0
 11
135.0
 21
437.0
 31
0.0
  0
LINE
  5
1EB
330
1E
100
AcDbEntity
  8
0
100
AcDbLine
 10
135.0
 20
443.0
 30
0.0
 11
137.0
 21
443.0
 31
0.0
  0
LINE
  5
1EC
330
1E
100
AcDbEntity
  8
0
100
AcDbLine
 10
135.0
 20
437.0
 30
0.0
 11
137.0
 21
437.0
 31
0.0
  0
LINE
  5
1ED
330
1E
100
AcDbEntity
  8
0
100
AcDbLine
 10
131.1999999999999
 20
443.0
 30
0.0
 11
136.0
 21
443.0
 31
0.0
  0
LINE
  5
1EE
330
1E
100
AcDbEntity
  8
0
100
AcDbLine
 10
136.0
 20
443.0
 30
0.0
 11
138.9
 21
443.0
 31
0.0
  0
LINE
  5
1EF
330
1E
100
AcDbEntity
  8
0
100
AcDbLine
 10
136.0999999999999
 20
453.0
 30
0.0
 11
142.0
 21
453.0
 31
0.0
  0
LINE
  5
1F0
330
1E
100
AcDbEntity
  8
0
100
AcDbLine
 10
128.4
 20
460.0
 30
0.0
 11
136.0999999999999
 21
460.0
 31
0.0
  0
LINE
  5
1F1
330
1E
100
AcDbEntity
  8
0
100
AcDbLine
 10
136.0999999999999
 20
460.0
 30
0.0
 11
142.0
 21
460.0
 31
0.0
  0
LINE
  5
1F2
330
1E
100
AcDbEntity
  8
0
100
AcDbLine
 10
127.9
 20
461.0
 30
0.0
 11
135.4
 21
461.0
 31
0.0
  0
LINE
  5
1F3
330
1E
100
AcDbEntity
  8
0
100
AcDbLine
 10
135.4
 20
461.0
 30
0.0
 11
141.1999999999999
 21
461.0
 31
0.0
  0
LINE
  5
1F4
330
1E
100
AcDbEntity
  8
0
100
AcDbLine
 10
120.0
 20
462.0
 30
0.0
 11
128.4
 21
462.0
 31
0.0
  0
LINE
  5
1FC
330
1E
100
AcDbEntity
  8
0
100
AcDbLine
 10
97.9
 20
476.0
 30
0.0
 11
98.0
 21
475.870588235294
 31
0.0
  0
LINE
  5
1FD
330
1E
100
AcDbEntity
  8
0
100
AcDbLine
 10
97.9
 20
476.0
 30
0.0
 11
98.0
 21
475.870588235294
 31
0.0
  0
LINE
  5
203
330
1E
100
AcDbEntity
  8
0
100
AcDbLine
 10
98.0
 20
468.0
 30
0.0
 11
98.0
 21
495.0
 31
0.0
  0
LINE
  5
204
330
1E
100
AcDbEntity
  8
0
100
AcDbLine
 10
98.0
 20
468.0
 30
0.0
 11
98.40000000000001
 21
468.0
 31
0.0
  0
LINE
  5
205
330
1E
100
AcDbEntity
  8
0
100
AcDbLine
 10
84.0
 20
518.0
 30
0.0
 11
88.8
 21
518.0
 31
0.0
  0
LINE
  5
206
330
1E
100
AcDbEntity
  8
0
100
AcDbLine
 10
95.09999999999999
 20
518.0
 30
0.0
 11
102.2999999999999
 21
518.0
 31
0.0
  0
LINE
  5
207
330
1E
100
AcDbEntity
  8
0
100
AcDbLine
 10
88.8
 20
518.0
 30
0.0
 11
95.09999999999999
 21
518.0
 31
0.0
  0
LINE
  5
208
330
1E
100
AcDbEntity
  8
0
100
AcDbLine
 10
98.0
 20
509.0
 30
0.0
 11
98.40000000000001
 21
509.0
 31
0.0
  0
LINE
  5
209
330
1E
100
AcDbEntity
  8
0
100
AcDbLine
 10
98.0
 20
509.0
 30
0.0
 11
98.0
 21
499.0
 31
0.0
  0
LINE
  5
20A
330
1E
100
AcDbEntity
  8
0
100
AcDbLine
 10
95.09999999999999
 20
523.0
 30
0.0
 11
102.2999999999999
 21
523.0
 31
0.0
  0
LINE
  5
20B
330
1E
100
AcDbEntity
  8
0
100
AcDbLine
 10
88.8
 20
523.0
 30
0.0
 11
95.09999999999999
 21
523.0
 31
0.0
  0
LINE
  5
20C
330
1E
100
AcDbEntity
  8
0
100
AcDbLine
 10
84.0
 20
523.0
 30
0.0
 11
88.8
 21
523.0
 31
0.0
  0
LINE
  5
20D
330
1E
100
AcDbEntity
  8
0
100
AcDbLine
 10
98.0
 20
495.0
 30
0.0
 11
100.0
 21
497.0
 31
0.0
  0
LINE
  5
20E
330
1E
100
AcDbEntity
  8
0
100
AcDbLine
 10
98.0
 20
495.0
 30
0.0
 11
98.40000000000001
 21
495.0
 31
0.0
  0
LINE
  5
20F
330
1E
100
AcDbEntity
  8
0
100
AcDbLine
 10
98.0
 20
495.0
 30
0.0
 11
98.0
 21
468.0
 31
0.0
  0
LINE
  5
210
330
1E
100
AcDbEntity
  8
0
100
AcDbLine
 10
100.0
 20
468.0
 30
0.0
 11
100.0
 21
339.0
 31
0.0
  0
LINE
  5
211
330
1E
100
AcDbEntity
  8
0
100
AcDbLine
 10
100.0
 20
468.0
 30
0.0
 11
100.4
 21
468.0
 31
0.0
  0
LINE
  5
212
330
1E
100
AcDbEntity
  8
0
100
AcDbLine
 10
100.4
 20
468.0
 30
0.0
 11
101.2999999999999
 21
468.0
 31
0.0
  0
LINE
  5
213
330
1E
100
AcDbEntity
  8
0
100
AcDbLine
 10
101.2999999999999
 20
468.0
 30
0.0
 11
102.9
 21
468.0
 31
0.0
  0
LINE
  5
214
330
1E
100
AcDbEntity
  8
0
100
AcDbLine
 10
102.9
 20
468.0
 30
0.0
 11
105.0
 21
468.0
 31
0.0
  0
LINE
  5
215
330
1E
100
AcDbEntity
  8
0
100
AcDbLine
 10
105.0
 20
468.0
 30
0.0
 11
107.4
 21
468.0
 31
0.0
  0
LINE
  5
216
330
1E
100
AcDbEntity
  8
0
100
AcDbLine
 10
107.4
 20
468.0
 30
0.0
 11
110.0
 21
468.0
 31
0.0
  0
LINE
  5
217
330
1E
100
AcDbEntity
  8
0
100
AcDbLine
 10
115.0
 20
468.0
 30
0.0
 11
117.1
 21
468.0
 31
0.0
  0
LINE
  5
218
330
1E
100
AcDbEntity
  8
0
100
AcDbLine
 10
112.5999999999999
 20
468.0
 30
0.0
 11
115.0
 21
468.0
 31
0.0
  0
LINE
  5
219
330
1E
100
AcDbEntity
  8
0
100
AcDbLine
 10
110.0
 20
468.0
 30
0.0
 11
113.1
 21
468.0
 31
0.0
  0
LINE
  5
21A
330
1E
100
AcDbEntity
  8
0
100
AcDbLine
 10
110.0
 20
468.0
 30
0.0
 11
112.5999999999999
 21
468.0
 31
0.0
  0
LINE
  5
21B
330
1E
100
AcDbEntity
  8
0
100
AcDbLine
 10
113.1
 20
468.0
 30
0.0
 11
116.0
 21
468.0
 31
0.0
  0
LINE
  5
21C
330
1E
100
AcDbEntity
  8
0
100
AcDbLine
 10
119.5999999999999
 20
468.0
 30
0.0
 11
120.0
 21
468.0
 31
0.0
  0
LINE
  5
21D
330
1E
100
AcDbEntity
  8
0
100
AcDbLine
 10
118.7
 20
468.0
 30
0.0
 11
119.5999999999999
 21
468.0
 31
0.0
  0
LINE
  5
21E
330
1E
100
AcDbEntity
  8
0
100
AcDbLine
 10
117.1
 20
468.0
 30
0.0
 11
118.7
 21
468.0
 31
0.0
  0
LINE
  5
21F
330
1E
100
AcDbEntity
  8
0
100
AcDbLine
 10
120.0
 20
468.0
 30
0.0
 11
120.4
 21
468.0
 31
0.0
  0
LINE
  5
220
330
1E
100
AcDbEntity
  8
0
100
AcDbLine
 10
120.0
 20
468.0
 30
0.0
 11
120.0
 21
339.0
 31
0.0
  0
LINE
  5
221
330
1E
100
AcDbEntity
  8
0
100
AcDbLine
 10
116.0
 20
468.0
 30
0.0
 11
118.5
 21
468.0
 31
0.0
  0
LINE
  5
222
330
1E
100
AcDbEntity
  8
0
100
AcDbLine
 10
118.5
 20
468.0
 30
0.0
 11
120.4
 21
468.0
 31
0.0
  0
LINE
  5
223
330
1E
100
AcDbEntity
  8
0
100
AcDbLine
 10
120.4
 20
468.0
 30
0.0
 11
121.5999999999999
 21
468.0
 31
0.0
  0
LINE
  5
224
330
1E
100
AcDbEntity
  8
0
100
AcDbLine
 10
121.5999999999999
 20
468.0
 30
0.0
 11
122.0
 21
468.0
 31
0.0
  0
LINE
  5
225
330
1E
100
AcDbEntity
  8
0
100
AcDbLine
 10
122.0
 20
468.0
 30
0.0
 11
122.0
 21
495.0
 31
0.0
  0
LINE
  5
226
330
1E
100
AcDbEntity
  8
0
100
AcDbLine
 10
106.9
 20
468.0
 30
0.0
 11
110.0
 21
468.0
 31
0.0
  0
LINE
  5
227
330
1E
100
AcDbEntity
  8
0
100
AcDbLine
 10
104.0
 20
468.0
 30
0.0
 11
106.9
 21
468.0
 31
0.0
  0
LINE
  5
228
330
1E
100
AcDbEntity
  8
0
100
AcDbLine
 10
101.5
 20
468.0
 30
0.0
 11
104.0
 21
468.0
 31
0.0
  0
LINE
  5
229
330
1E
100
AcDbEntity
  8
0
100
AcDbLine
 10
99.6
 20
468.0
 30
0.0
 11
100.0
 21
468.0
 31
0.0
  0
LINE
  5
22A
330
1E
100
AcDbEntity
  8
0
100
AcDbLine
 10
99.6
 20
468.0
 30
0.0
 11
101.5
 21
468.0
 31
0.0
  0
LINE
  5
22B
330
1E
100
AcDbEntity
  8
0
100
AcDbLine
 10
98.40000000000001
 20
495.0
 30
0.0
 11
99.6
 21
495.0
 31
0.0
  0
LINE
  5
22C
330
1E
100
AcDbEntity
  8
0
100
AcDbLine
 10
98.40000000000001
 20
499.0
 30
0.0
 11
99.6
 21
499.0
 31
0.0
  0
LINE
  5
22D
330
1E
100
AcDbEntity
  8
0
100
AcDbLine
 10
99.6
 20
495.0
 30
0.0
 11
101.5
 21
495.0
 31
0.0
  0
LINE
  5
22E
330
1E
100
AcDbEntity
  8
0
100
AcDbLine
 10
101.5
 20
495.0
 30
0.0
 11
104.0
 21
495.0
 31
0.0
  0
LINE
  5
22F
330
1E
100
AcDbEntity
  8
0
100
AcDbLine
 10
101.2999999999999
 20
497.0
 30
0.0
 11
102.9
 21
497.0
 31
0.0
  0
LINE
  5
230
330
1E
100
AcDbEntity
  8
0
100
AcDbLine
 10
100.4
 20
497.0
 30
0.0
 11
101.2999999999999
 21
497.0
 31
0.0
  0
LINE
  5
231
330
1E
100
AcDbEntity
  8
0
100
AcDbLine
 10
100.0
 20
497.0
 30
0.0
 11
100.4
 21
497.0
 31
0.0
  0
LINE
  5
232
330
1E
100
AcDbEntity
  8
0
100
AcDbLine
 10
101.5
 20
499.0
 30
0.0
 11
104.0
 21
499.0
 31
0.0
  0
LINE
  5
233
330
1E
100
AcDbEntity
  8
0
100
AcDbLine
 10
99.6
 20
499.0
 30
0.0
 11
101.5
 21
499.0
 31
0.0
  0
LINE
  5
234
330
1E
100
AcDbEntity
  8
0
100
AcDbLine
 10
101.5
 20
509.0
 30
0.0
 11
104.0
 21
509.0
 31
0.0
  0
LINE
  5
235
330
1E
100
AcDbEntity
  8
0
100
AcDbLine
 10
99.6
 20
509.0
 30
0.0
 11
101.5
 21
509.0
 31
0.0
  0
LINE
  5
236
330
1E
100
AcDbEntity
  8
0
100
AcDbLine
 10
98.40000000000001
 20
509.0
 30
0.0
 11
99.6
 21
509.0
 31
0.0
  0
LINE
  5
237
330
1E
100
AcDbEntity
  8
0
100
AcDbLine
 10
102.2999999999999
 20
518.0
 30
0.0
 11
110.0
 21
518.0
 31
0.0
  0
LINE
  5
238
330
1E
100
AcDbEntity
  8
0
100
AcDbLine
 10
104.0
 20
495.0
 30
0.0
 11
106.9
 21
495.0
 31
0.0
  0
LINE
  5
239
330
1E
100
AcDbEntity
  8
0
100
AcDbLine
 10
106.9
 20
495.0
 30
0.0
 11
110.0
 21
495.0
 31
0.0
  0
LINE
  5
23A
330
1E
100
AcDbEntity
  8
0
100
AcDbLine
 10
105.0
 20
497.0
 30
0.0
 11
107.4
 21
497.0
 31
0.0
  0
LINE
  5
23B
330
1E
100
AcDbEntity
  8
0
100
AcDbLine
 10
102.9
 20
497.0
 30
0.0
 11
105.0
 21
497.0
 31
0.0
  0
LINE
  5
23C
330
1E
100
AcDbEntity
  8
0
100
AcDbLine
 10
106.9
 20
499.0
 30
0.0
 11
110.0
 21
499.0
 31
0.0
  0
LINE
  5
23D
330
1E
100
AcDbEntity
  8
0
100
AcDbLine
 10
104.0
 20
499.0
 30
0.0
 11
106.9
 21
499.0
 31
0.0
  0
LINE
  5
23E
330
1E
100
AcDbEntity
  8
0
100
AcDbLine
 10
110.0
 20
495.0
 30
0.0
 11
113.1
 21
495.0
 31
0.0
  0
LINE
  5
23F
330
1E
100
AcDbEntity
  8
0
100
AcDbLine
 10
113.1
 20
495.0
 30
0.0
 11
116.0
 21
495.0
 31
0.0
  0
LINE
  5
240
330
1E
100
AcDbEntity
  8
0
100
AcDbLine
 10
110.0
 20
497.0
 30
0.0
 11
112.5999999999999
 21
497.0
 31
0.0
  0
LINE
  5
241
330
1E
100
AcDbEntity
  8
0
100
AcDbLine
 10
112.5999999999999
 20
497.0
 30
0.0
 11
115.0
 21
497.0
 31
0.0
  0
LINE
  5
242
330
1E
100
AcDbEntity
  8
0
100
AcDbLine
 10
116.0
 20
495.0
 30
0.0
 11
118.5
 21
495.0
 31
0.0
  0
LINE
  5
243
330
1E
100
AcDbEntity
  8
0
100
AcDbLine
 10
118.5
 20
495.0
 30
0.0
 11
120.4
 21
495.0
 31
0.0
  0
LINE
  5
244
330
1E
100
AcDbEntity
  8
0
100
AcDbLine
 10
115.0
 20
497.0
 30
0.0
 11
117.1
 21
497.0
 31
0.0
  0
LINE
  5
245
330
1E
100
AcDbEntity
  8
0
100
AcDbLine
 10
117.1
 20
497.0
 30
0.0
 11
118.7
 21
497.0
 31
0.0
  0
LINE
  5
246
330
1E
100
AcDbEntity
  8
0
100
AcDbLine
 10
118.7
 20
497.0
 30
0.0
 11
119.5999999999999
 21
497.0
 31
0.0
  0
LINE
  5
247
330
1E
100
AcDbEntity
  8
0
100
AcDbLine
 10
119.5999999999999
 20
497.0
 30
0.0
 11
120.0
 21
497.0
 31
0.0
  0
LINE
  5
249
330
1E
100
AcDbEntity
  8
0
100
AcDbLine
 10
122.0
 20
475.870588235294
 30
0.0
 11
122.0999999999999
 21
476.0
 31
0.0
  0
LINE
  5
24E
330
1E
100
AcDbEntity
  8
0
100
AcDbLine
 10
122.0
 20
475.870588235294
 30
0.0
 11
122.0999999999999
 21
476.0
 31
0.0
  0
LINE
  5
24F
330
1E
100
AcDbEntity
  8
0
100
AcDbLine
 10
122.0
 20
495.0
 30
0.0
 11
122.0
 21
468.0
 31
0.0
  0
LINE
  5
250
330
1E
100
AcDbEntity
  8
0
100
AcDbLine
 10
120.4
 20
495.0
 30
0.0
 11
121.5999999999999
 21
495.0
 31
0.0
  0
LINE
  5
251
330
1E
100
AcDbEntity
  8
0
100
AcDbLine
 10
121.5999999999999
 20
495.0
 30
0.0
 11
122.0
 21
495.0
 31
0.0
  0
LINE
  5
252
330
1E
100
AcDbEntity
  8
0
100
AcDbLine
 10
120.0
 20
497.0
 30
0.0
 11
122.0
 21
499.0
 31
0.0
  0
LINE
  5
253
330
1E
100
AcDbEntity
  8
0
100
AcDbLine
 10
120.0
 20
497.0
 30
0.0
 11
122.0
 21
495.0
 31
0.0
  0
LINE
  5
254
330
1E
100
AcDbEntity
  8
0
100
AcDbLine
 10
110.0
 20
499.0
 30
0.0
 11
113.1
 21
499.0
 31
0.0
  0
LINE
  5
255
330
1E
100
AcDbEntity
  8
0
100
AcDbLine
 10
113.1
 20
499.0
 30
0.0
 11
116.0
 21
499.0
 31
0.0
  0
LINE
  5
256
330
1E
100
AcDbEntity
  8
0
100
AcDbLine
 10
116.0
 20
499.0
 30
0.0
 11
118.5
 21
499.0
 31
0.0
  0
LINE
  5
257
330
1E
100
AcDbEntity
  8
0
100
AcDbLine
 10
110.0
 20
509.0
 30
0.0
 11
113.1
 21
509.0
 31
0.0
  0
LINE
  5
258
330
1E
100
AcDbEntity
  8
0
100
AcDbLine
 10
113.1
 20
509.0
 30
0.0
 11
116.0
 21
509.0
 31
0.0
  0
LINE
  5
259
330
1E
100
AcDbEntity
  8
0
100
AcDbLine
 10
118.5
 20
499.0
 30
0.0
 11
120.4
 21
499.0
 31
0.0
  0
LINE
  5
25A
330
1E
100
AcDbEntity
  8
0
100
AcDbLine
 10
120.4
 20
499.0
 30
0.0
 11
121.5999999999999
 21
499.0
 31
0.0
  0
LINE
  5
25B
330
1E
100
AcDbEntity
  8
0
100
AcDbLine
 10
116.0
 20
509.0
 30
0.0
 11
118.5
 21
509.0
 31
0.0
  0
LINE
  5
25C
330
1E
100
AcDbEntity
  8
0
100
AcDbLine
 10
118.5
 20
509.0
 30
0.0
 11
120.4
 21
509.0
 31
0.0
  0
LINE
  5
25D
330
1E
100
AcDbEntity
  8
0
100
AcDbLine
 10
121.5999999999999
 20
499.0
 30
0.0
 11
122.0
 21
499.0
 31
0.0
  0
LINE
  5
25E
330
1E
100
AcDbEntity
  8
0
100
AcDbLine
 10
122.0
 20
499.0
 30
0.0
 11
122.0
 21
509.0
 31
0.0
  0
LINE
  5
25F
330
1E
100
AcDbEntity
  8
0
100
AcDbLine
 10
120.4
 20
509.0
 30
0.0
 11
121.5999999999999
 21
509.0
 31
0.0
  0
LINE
  5
260
330
1E
100
AcDbEntity
  8
0
100
AcDbLine
 10
121.5999999999999
 20
509.0
 30
0.0
 11
122.0
 21
509.0
 31
0.0
  0
LINE
  5
261
330
1E
100
AcDbEntity
  8
0
100
AcDbLine
 10
122.0
 20
509.0
 30
0.0
 11
140.0
 21
518.0
 31
0.0
  0
LINE
  5
262
330
1E
100
AcDbEntity
  8
0
100
AcDbLine
 10
122.0
 20
509.0
 30
0.0
 11
122.0
 21
499.0
 31
0.0
  0
LINE
  5
263
330
1E
100
AcDbEntity
  8
0
100
AcDbLine
 10
107.4
 20
497.0
 30
0.0
 11
110.0
 21
497.0
 31
0.0
  0
LINE
  5
264
330
1E
100
AcDbEntity
  8
0
100
AcDbLine
 10
106.9
 20
509.0
 30
0.0
 11
110.0
 21
509.0
 31
0.0
  0
LINE
  5
265
330
1E
100
AcDbEntity
  8
0
100
AcDbLine
 10
110.0
 20
518.0
 30
0.0
 11
117.7
 21
518.0
 31
0.0
  0
LINE
  5
266
330
1E
100
AcDbEntity
  8
0
100
AcDbLine
 10
117.7
 20
518.0
 30
0.0
 11
124.9
 21
518.0
 31
0.0
  0
LINE
  5
267
330
1E
100
AcDbEntity
  8
0
100
AcDbLine
 10
124.9
 20
518.0
 30
0.0
 11
131.1999999999999
 21
518.0
 31
0.0
  0
LINE
  5
268
330
1E
100
AcDbEntity
  8
0
100
AcDbLine
 10
110.0
 20
523.0
 30
0.0
 11
117.7
 21
523.0
 31
0.0
  0
LINE
  5
269
330
1E
100
AcDbEntity
  8
0
100
AcDbLine
 10
117.7
 20
523.0
 30
0.0
 11
124.9
 21
523.0
 31
0.0
  0
LINE
  5
26A
330
1E
100
AcDbEntity
  8
0
100
AcDbLine
 10
131.1999999999999
 20
518.0
 30
0.0
 11
136.0
 21
518.0
 31
0.0
  0
LINE
  5
26B
330
1E
100
AcDbEntity
  8
0
100
AcDbLine
 10
136.0
 20
518.0
 30
0.0
 11
138.9
 21
518.0
 31
0.0
  0
LINE
  5
26C
330
1E
100
AcDbEntity
  8
0
100
AcDbLine
 10
124.9
 20
523.0
 30
0.0
 11
131.1999999999999
 21
523.0
 31
0.0
  0
LINE
  5
26D
330
1E
100
AcDbEntity
  8
0
100
AcDbLine
 10
131.1999999999999
 20
523.0
 30
0.0
 11
136.0
 21
523.0
 31
0.0
  0
LINE
  5
26E
330
1E
100
AcDbEntity
  8
0
100
AcDbLine
 10
136.0
 20
523.0
 30
0.0
 11
138.9
 21
523.0
 31
0.0
  0
LINE
  5
26F
330
1E
100
AcDbEntity
  8
0
100
AcDbLine
 10
104.0
 20
509.0
 30
0.0
 11
106.9
 21
509.0
 31
0.0
  0
LINE
  5
270
330
1E
100
AcDbEntity
  8
0
100
AcDbLine
 10
102.2999999999999
 20
523.0
 30
0.0
 11
110.0
 21
523.0
 31
0.0
  0
LINE
  5
271
330
1E
100
AcDbEntity
  8
0
100
AcDbLine
 10
98.40000000000001
 20
468.0
 30
0.0
 11
99.6
 21
468.0
 31
0.0
  0
LINE
  5
272
330
1E
100
AcDbEntity
  8
0
100
AcDbLine
 10
98.0
 20
499.0
 30
0.0
 11
98.0
 21
509.0
 31
0.0
  0
LINE
  5
273
330
1E
100
AcDbEntity
  8
0
100
AcDbLine
 10
98.0
 20
499.0
 30
0.0
 11
100.0
 21
497.0
 31
0.0
  0
LINE
  5
274
330
1E
100
AcDbEntity
  8
0
100
AcDbLine
 10
98.0
 20
499.0
 30
0.0
 11
98.40000000000001
 21
499.0
 31
0.0
  0
LINE
  5
275
330
1E
100
AcDbEntity
  8
0
100
AcDbLine
 10
128.4
 20
462.0
 30
0.0
 11
136.0999999999999
 21
462.0
 31
0.0
  0
LINE
  5
276
330
1E
100
AcDbEntity
  8
0
100
AcDbLine
 10
137.0
 20
437.0
 30
0.0
 11
138.0
 21
437.0
 31
0.0
  0
LINE
  5
277
330
1E
100
AcDbEntity
  8
0
100
AcDbLine
 10
137.0
 20
443.0
 30
0.0
 11
138.0
 21
443.0
 31
0.0
  0
LINE
  5
278
330
1E
100
AcDbEntity
  8
0
100
AcDbLine
 10
138.0
 20
437.0
 30
0.0
 11
138.0
 21
443.0
 31
0.0
  0
LINE
  5
279
330
1E
100
AcDbEntity
  8
0
100
AcDbLine
 10
136.0999999999999
 20
462.0
 30
0.0
 11
142.0
 21
462.0
 31
0.0
  0
LINE
  5
27A
330
1E
100
AcDbEntity
  8
0
100
AcDbLine
 10
137.0
 20
436.0
 30
0.0
 11
138.0
 21
437.0
 31
0.0
  0
LINE
  5
27B
330
1E
100
AcDbEntity
  8
0
100
AcDbLine
 10
137.0
 20
436.0
 30
0.0
 11
138.0
 21
435.0
 31
0.0
  0
LINE
  5
27C
330
1E
100
AcDbEntity
  8
0
100
AcDbLine
 10
140.0
 20
443.0
 30
0.0
 11
147.0
 21
453.0
 31
0.0
  0
LINE
  5
27D
330
1E
100
AcDbEntity
  8
0
100
AcDbLine
 10
142.0
 20
453.0
 30
0.0
 11
145.6999999999999
 21
453.0
 31
0.0
  0
LINE
  5
27E
330
1E
100
AcDbEntity
  8
0
100
AcDbLine
 10
142.0
 20
460.0
 30
0.0
 11
145.6999999999999
 21
460.0
 31
0.0
  0
LINE
  5
27F
330
1E
100
AcDbEntity
  8
0
100
AcDbLine
 10
141.1999999999999
 20
461.0
 30
0.0
 11
144.6999999999999
 21
461.0
 31
0.0
  0
LINE
  5
280
330
1E
100
AcDbEntity
  8
0
100
AcDbLine
 10
145.6999999999999
 20
453.0
 30
0.0
 11
147.0
 21
453.0
 31
0.0
  0
LINE
  5
281
330
1E
100
AcDbEntity
  8
0
100
AcDbLine
 10
147.0
 20
453.0
 30
0.0
 11
147.0
 21
460.0
 31
0.0
  0
LINE
  5
282
330
1E
100
AcDbEntity
  8
0
100
AcDbLine
 10
145.6999999999999
 20
460.0
 30
0.0
 11
147.0
 21
460.0
 31
0.0
  0
LINE
  5
283
330
1E
100
AcDbEntity
  8
0
100
AcDbLine
 10
144.6999999999999
 20
461.0
 30
0.0
 11
146.0
 21
461.0
 31
0.0
  0
LINE
  5
284
330
1E
100
AcDbEntity
  8
0
100
AcDbLine
 10
138.9
 20
443.0
 30
0.0
 11
140.0
 21
443.0
 31
0.0
  0
LINE
  5
285
330
1E
100
AcDbEntity
  8
0
100
AcDbLine
 10
147.0
 20
460.0
 30
0.0
 11
147.0
 21
453.0
 31
0.0
  0
LINE
  5
286
330
1E
100
AcDbEntity
  8
0
100
AcDbLine
 10
138.9
 20
518.0
 30
0.0
 11
140.0
 21
518.0
 31
0.0
  0
LINE
  5
287
330
1E
100
AcDbEntity
  8
0
100
AcDbLine
 10
140.0
 20
518.0
 30
0.0
 11
140.0
 21
523.0
 31
0.0
  0
LINE
  5
288
330
1E
100
AcDbEntity
  8
0
100
AcDbLine
 10
142.0
 20
462.0
 30
0.0
 11
145.6999999999999
 21
462.0
 31
0.0
  0
LINE
  5
289
330
1E
100
AcDbEntity
  8
0
100
AcDbLine
 10
145.6999999999999
 20
462.0
 30
0.0
 11
147.0
 21
462.0
 31
0.0
  0
LINE
  5
28A
330
1E
100
AcDbEntity
  8
0
100
AcDbLine
 10
140.0
 20
523.0
 30
0.0
 11
142.0
 21
523.0
 31
0.0
  0
LINE
  5
28B
330
1E
100
AcDbEntity
  8
0
100
AcDbLine
 10
142.0
 20
523.0
 30
0.0
 11
145.6999999999999
 21
523.0
 31
0.0
  0
LINE
  5
28C
330
1E
100
AcDbEntity
  8
0
100
AcDbLine
 10
147.0
 20
482.1637705314009
 30
0.0
 11
157.518
 21
482.439
 31
0.0
  0
LINE
  5
28D
330
1E
100
AcDbEntity
  8
0
100
AcDbLine
 10
147.0
 20
513.0
 30
0.0
 11
147.0
 21
523.0
 31
0.0
  0
LINE
  5
28E
330
1E
100
AcDbEntity
  8
0
100
AcDbLine
 10
147.0
 20
513.0
 30
0.0
 11
162.0484848484849
 21
513.0
 31
0.0
  0
LINE
  5
28F
330
1E
100
AcDbEntity
  8
0
100
AcDbLine
 10
147.0
 20
462.0
 30
0.0
 11
147.0
 21
488.0
 31
0.0
  0
LINE
  5
290
330
1E
100
AcDbEntity
  8
0
100
AcDbLine
 10
145.6999999999999
 20
523.0
 30
0.0
 11
147.0
 21
523.0
 31
0.0
  0
LINE
  5
291
330
1E
100
AcDbEntity
  8
0
100
AcDbLine
 10
146.0
 20
461.0
 30
0.0
 11
147.0
 21
462.0
 31
0.0
  0
LINE
  5
292
330
1E
100
AcDbEntity
  8
0
100
AcDbLine
 10
146.0
 20
461.0
 30
0.0
 11
147.0
 21
460.0
 31
0.0
  0
LINE
  5
293
330
1E
100
AcDbEntity
  8
0
100
AcDbLine
 10
166.8
 20
480.0
 30
0.0
 11
170.1999999999999
 21
480.0
 31
0.0
  0
LINE
  5
294
330
1E
100
AcDbEntity
  8
0
100
AcDbLine
 10
164.8
 20
480.0
 30
0.0
 11
166.8
 21
480.0
 31
0.0
  0
LINE
  5
295
330
1E
100
AcDbEntity
  8
0
100
AcDbLine
 10
164.0
 20
480.0
 30
0.0
 11
164.8
 21
480.0
 31
0.0
  0
LINE
  5
296
330
1E
100
AcDbEntity
  8
0
100
AcDbLine
 10
174.5999999999999
 20
480.0
 30
0.0
 11
179.6
 21
480.0
 31
0.0
  0
LINE
  5
297
330
1E
100
AcDbEntity
  8
0
100
AcDbLine
 10
170.1999999999999
 20
480.0
 30
0.0
 11
174.5999999999999
 21
480.0
 31
0.0
  0
LINE
  5
298
330
1E
100
AcDbEntity
  8
0
100
AcDbLine
 10
185.0
 20
480.0
 30
0.0
 11
190.4
 21
480.0
 31
0.0
  0
LINE
  5
299
330
1E
100
AcDbEntity
  8
0
100
AcDbLine
 10
190.4
 20
480.0
 30
0.0
 11
195.4
 21
480.0
 31
0.0
  0
LINE
  5
29A
330
1E
100
AcDbEntity
  8
0
100
AcDbLine
 10
195.4
 20
480.0
 30
0.0
 11
199.8
 21
480.0
 31
0.0
  0
LINE
  5
29B
330
1E
100
AcDbEntity
  8
0
100
AcDbLine
 10
199.8
 20
480.0
 30
0.0
 11
203.2
 21
480.0
 31
0.0
  0
LINE
  5
29C
330
1E
100
AcDbEntity
  8
0
100
AcDbLine
 10
203.2
 20
480.0
 30
0.0
 11
205.2
 21
480.0
 31
0.0
  0
LINE
  5
29D
330
1E
100
AcDbEntity
  8
0
100
AcDbLine
 10
336.1
 20
390.7251999999999
 30
0.0
 11
337.9
 21
391.4538999999999
 31
0.0
  0
LINE
  5
29E
330
1E
100
AcDbEntity
  8
0
100
AcDbLine
 10
360.8999999999999
 20
391.2917
 30
0.0
 11
361.8999999999999
 21
391.8772999999999
 31
0.0
  0
LINE
  5
29F
330
1E
100
AcDbEntity
  8
0
100
AcDbLine
 10
361.8999999999999
 20
391.8772999999999
 30
0.0
 11
362.6999999999999
 21
392.5362
 31
0.0
  0
LINE
  5
2A0
330
1E
100
AcDbEntity
  8
0
100
AcDbLine
 10
373.8999999999999
 20
390.7251999999999
 30
0.0
 11
381.7999999999999
 21
385.4424
 31
0.0
  0
LINE
  5
2A1
330
1E
100
AcDbEntity
  8
0
100
AcDbLine
 10
372.1
 20
391.4538999999999
 30
0.0
 11
373.8999999999999
 21
390.7251999999999
 31
0.0
  0
LINE
  5
2A2
330
1E
100
AcDbEntity
  8
0
100
AcDbLine
 10
363.0
 20
393.2316
 30
0.0
 11
363.0
 21
403.6239
 31
0.0
  0
LINE
  5
2A3
330
1E
100
AcDbEntity
  8
0
100
AcDbLine
 10
362.6999999999999
 20
392.5362
 30
0.0
 11
363.0
 21
393.2316
 31
0.0
  0
LINE
  5
2A4
330
1E
100
AcDbEntity
  8
0
100
AcDbLine
 10
348.1
 20
391.8772999999999
 30
0.0
 11
349.1
 21
391.2917
 31
0.0
  0
LINE
  5
2A5
330
1E
100
AcDbEntity
  8
0
100
AcDbLine
 10
347.3
 20
392.5362
 30
0.0
 11
348.1
 21
391.8772999999999
 31
0.0
  0
LINE
  5
2A6
330
1E
100
AcDbEntity
  8
0
100
AcDbLine
 10
346.1
 20
394.3984
 30
0.0
 11
347.0
 21
394.499245
 31
0.0
  0
LINE
  5
2A7
330
1E
100
AcDbEntity
  8
0
100
AcDbLine
 10
344.0
 20
478.932
 30
0.0
 11
344.2
 21
474.194
 31
0.0
  0
LINE
  5
2A8
330
1E
100
AcDbEntity
  8
0
100
AcDbLine
 10
344.2
 20
474.194
 30
0.0
 11
344.7
 21
468.961
 31
0.0
  0
LINE
  5
2A9
330
1E
100
AcDbEntity
  8
0
100
AcDbLine
 10
344.7
 20
468.961
 30
0.0
 11
345.3
 21
463.5869999999999
 31
0.0
  0
LINE
  5
2AA
330
1E
100
AcDbEntity
  8
0
100
AcDbLine
 10
345.3
 20
463.5869999999999
 30
0.0
 11
346.0
 21
457.4349999999999
 31
0.0
  0
LINE
  5
2AB
330
1E
100
AcDbEntity
  8
0
100
AcDbLine
 10
346.0
 20
457.4349999999999
 30
0.0
 11
346.4999999999999
 21
450.082
 31
0.0
  0
LINE
  5
2AC
330
1E
100
AcDbEntity
  8
0
100
AcDbLine
 10
346.4999999999999
 20
450.082
 30
0.0
 11
347.0
 21
442.5862
 31
0.0
  0
LINE
  5
2AD
330
1E
100
AcDbEntity
  8
0
100
AcDbLine
 10
347.0
 20
442.5862
 30
0.0
 11
347.0
 21
433.2524
 31
0.0
  0
LINE
  5
2AE
330
1E
100
AcDbEntity
  8
0
100
AcDbLine
 10
347.0
 20
433.2524
 30
0.0
 11
347.0
 21
424.3428999999999
 31
0.0
  0
LINE
  5
2AF
330
1E
100
AcDbEntity
  8
0
100
AcDbLine
 10
347.0
 20
433.2524
 30
0.0
 11
347.0
 21
442.5862
 31
0.0
  0
LINE
  5
2B0
330
1E
100
AcDbEntity
  8
0
100
AcDbLine
 10
347.0
 20
424.3428999999999
 30
0.0
 11
347.0
 21
414.1605
 31
0.0
  0
LINE
  5
2B1
330
1E
100
AcDbEntity
  8
0
100
AcDbLine
 10
347.0
 20
424.3428999999999
 30
0.0
 11
347.0
 21
433.2524
 31
0.0
  0
LINE
  5
2B2
330
1E
100
AcDbEntity
  8
0
100
AcDbLine
 10
347.0
 20
414.1605
 30
0.0
 11
347.0
 21
403.6239
 31
0.0
  0
LINE
  5
2B3
330
1E
100
AcDbEntity
  8
0
100
AcDbLine
 10
347.0
 20
414.1605
 30
0.0
 11
347.3
 21
415.5746999999999
 31
0.0
  0
LINE
  5
2B4
330
1E
100
AcDbEntity
  8
0
100
AcDbLine
 10
347.0
 20
414.1605
 30
0.0
 11
347.0
 21
424.3428999999999
 31
0.0
  0
LINE
  5
2B5
330
1E
100
AcDbEntity
  8
0
100
AcDbLine
 10
362.6999999999999
 20
415.5746999999999
 30
0.0
 11
363.0
 21
414.1605
 31
0.0
  0
LINE
  5
2B6
330
1E
100
AcDbEntity
  8
0
100
AcDbLine
 10
363.0
 20
414.1605
 30
0.0
 11
363.0
 21
403.6239
 31
0.0
  0
LINE
  5
2B7
330
1E
100
AcDbEntity
  8
0
100
AcDbLine
 10
363.0
 20
414.1605
 30
0.0
 11
363.0
 21
424.3428999999999
 31
0.0
  0
LINE
  5
2B8
330
1E
100
AcDbEntity
  8
0
100
AcDbLine
 10
363.0
 20
403.6239
 30
0.0
 11
363.0
 21
393.2316
 31
0.0
  0
LINE
  5
2B9
330
1E
100
AcDbEntity
  8
0
100
AcDbLine
 10
363.0
 20
403.6239
 30
0.0
 11
363.0
 21
414.1605
 31
0.0
  0
LINE
  5
2BA
330
1E
100
AcDbEntity
  8
0
100
AcDbLine
 10
363.0
 20
394.499245
 30
0.0
 11
363.8999999999999
 21
394.3984
 31
0.0
  0
LINE
  5
2BB
330
1E
100
AcDbEntity
  8
0
100
AcDbLine
 10
363.8999999999999
 20
394.3984
 30
0.0
 11
372.1
 21
391.4538999999999
 31
0.0
  0
LINE
  5
2BC
330
1E
100
AcDbEntity
  8
0
100
AcDbLine
 10
360.6
 20
418.1203
 30
0.0
 11
361.8999999999999
 21
416.989
 31
0.0
  0
LINE
  5
2BD
330
1E
100
AcDbEntity
  8
0
100
AcDbLine
 10
361.8999999999999
 20
416.989
 30
0.0
 11
362.6999999999999
 21
415.5746999999999
 31
0.0
  0
LINE
  5
2BE
330
1E
100
AcDbEntity
  8
0
100
AcDbLine
 10
357.1
 20
419.6051999999999
 30
0.0
 11
359.0
 21
419.0395999999999
 31
0.0
  0
LINE
  5
2BF
330
1E
100
AcDbEntity
  8
0
100
AcDbLine
 10
359.0
 20
419.0395999999999
 30
0.0
 11
360.6
 21
418.1203
 31
0.0
  0
LINE
  5
2C0
330
1E
100
AcDbEntity
  8
0
100
AcDbLine
 10
363.0
 20
442.5862
 30
0.0
 11
363.0
 21
433.2524
 31
0.0
  0
LINE
  5
2C1
330
1E
100
AcDbEntity
  8
0
100
AcDbLine
 10
363.0
 20
442.5862
 30
0.0
 11
363.5
 21
450.082
 31
0.0
  0
LINE
  5
2C2
330
1E
100
AcDbEntity
  8
0
100
AcDbLine
 10
366.0
 20
478.932
 30
0.0
 11
366.1999999999999
 21
483.174
 31
0.0
  0
LINE
  5
2C3
330
1E
100
AcDbEntity
  8
0
100
AcDbLine
 10
365.8
 20
474.194
 30
0.0
 11
366.0
 21
478.932
 31
0.0
  0
LINE
  5
2C4
330
1E
100
AcDbEntity
  8
0
100
AcDbLine
 10
365.3
 20
468.961
 30
0.0
 11
365.8
 21
474.194
 31
0.0
  0
LINE
  5
2C5
330
1E
100
AcDbEntity
  8
0
100
AcDbLine
 10
364.6999999999999
 20
463.5869999999999
 30
0.0
 11
365.3
 21
468.961
 31
0.0
  0
LINE
  5
2C6
330
1E
100
AcDbEntity
  8
0
100
AcDbLine
 10
364.0
 20
457.4349999999999
 30
0.0
 11
364.6999999999999
 21
463.5869999999999
 31
0.0
  0
LINE
  5
2C7
330
1E
100
AcDbEntity
  8
0
100
AcDbLine
 10
363.5
 20
450.082
 30
0.0
 11
364.0
 21
457.4349999999999
 31
0.0
  0
LINE
  5
2C8
330
1E
100
AcDbEntity
  8
0
100
AcDbLine
 10
363.0
 20
433.2524
 30
0.0
 11
363.0
 21
424.3428999999999
 31
0.0
  0
LINE
  5
2C9
330
1E
100
AcDbEntity
  8
0
100
AcDbLine
 10
363.0
 20
433.2524
 30
0.0
 11
363.0
 21
442.5862
 31
0.0
  0
LINE
  5
2CA
330
1E
100
AcDbEntity
  8
0
100
AcDbLine
 10
363.0
 20
424.3428999999999
 30
0.0
 11
363.0
 21
414.1605
 31
0.0
  0
LINE
  5
2CB
330
1E
100
AcDbEntity
  8
0
100
AcDbLine
 10
363.0
 20
424.3428999999999
 30
0.0
 11
363.0
 21
433.2524
 31
0.0
  0
LINE
  5
2CC
330
1E
100
AcDbEntity
  8
0
100
AcDbLine
 10
355.0
 20
419.8173999999999
 30
0.0
 11
357.1
 21
419.6051999999999
 31
0.0
  0
LINE
  5
2CD
330
1E
100
AcDbEntity
  8
0
100
AcDbLine
 10
352.8999999999999
 20
419.6051999999999
 30
0.0
 11
355.0
 21
419.8173999999999
 31
0.0
  0
LINE
  5
2CE
330
1E
100
AcDbEntity
  8
0
100
AcDbLine
 10
351.0
 20
419.0395999999999
 30
0.0
 11
352.8999999999999
 21
419.6051999999999
 31
0.0
  0
LINE
  5
2CF
330
1E
100
AcDbEntity
  8
0
100
AcDbLine
 10
349.3999999999999
 20
418.1203
 30
0.0
 11
351.0
 21
419.0395999999999
 31
0.0
  0
LINE
  5
2D0
330
1E
100
AcDbEntity
  8
0
100
AcDbLine
 10
348.1
 20
416.989
 30
0.0
 11
349.3999999999999
 21
418.1203
 31
0.0
  0
LINE
  5
2D1
330
1E
100
AcDbEntity
  8
0
100
AcDbLine
 10
347.3
 20
415.5746999999999
 30
0.0
 11
348.1
 21
416.989
 31
0.0
  0
LINE
  5
2D2
330
1E
100
AcDbEntity
  8
0
100
AcDbLine
 10
347.0
 20
403.6239
 30
0.0
 11
347.0
 21
393.2316
 31
0.0
  0
LINE
  5
2D3
330
1E
100
AcDbEntity
  8
0
100
AcDbLine
 10
347.0
 20
403.6239
 30
0.0
 11
347.0
 21
414.1605
 31
0.0
  0
LINE
  5
2D4
330
1E
100
AcDbEntity
  8
0
100
AcDbLine
 10
347.0
 20
393.2316
 30
0.0
 11
347.0
 21
403.6239
 31
0.0
  0
LINE
  5
2D5
330
1E
100
AcDbEntity
  8
0
100
AcDbLine
 10
347.0
 20
393.2316
 30
0.0
 11
347.3
 21
392.5362
 31
0.0
  0
LINE
  5
2D6
330
1E
100
AcDbEntity
  8
0
100
AcDbLine
 10
337.9
 20
391.4538999999999
 30
0.0
 11
346.1
 21
394.3984
 31
0.0
  0
LINE
  5
2D7
330
1E
100
AcDbEntity
  8
0
100
AcDbLine
 10
206.0
 20
480.0
 30
0.0
 11
208.0
 21
482.0
 31
0.0
  0
LINE
  5
2D8
330
1E
100
AcDbEntity
  8
0
100
AcDbLine
 10
205.2
 20
480.0
 30
0.0
 11
206.0
 21
480.0
 31
0.0
  0
LINE
  5
2D9
330
1E
100
AcDbEntity
  8
0
100
AcDbLine
 10
185.0
 20
482.0
 30
0.0
 11
190.8999999999999
 21
482.0
 31
0.0
  0
LINE
  5
2DA
330
1E
100
AcDbEntity
  8
0
100
AcDbLine
 10
190.8999999999999
 20
482.0
 30
0.0
 11
196.4
 21
482.0
 31
0.0
  0
LINE
  5
2DB
330
1E
100
AcDbEntity
  8
0
100
AcDbLine
 10
196.4
 20
482.0
 30
0.0
 11
201.2
 21
482.0
 31
0.0
  0
LINE
  5
2DC
330
1E
100
AcDbEntity
  8
0
100
AcDbLine
 10
201.2
 20
482.0
 30
0.0
 11
204.8999999999999
 21
482.0
 31
0.0
  0
LINE
  5
2DD
330
1E
100
AcDbEntity
  8
0
100
AcDbLine
 10
204.8999999999999
 20
482.0
 30
0.0
 11
207.2
 21
482.0
 31
0.0
  0
LINE
  5
2DE
330
1E
100
AcDbEntity
  8
0
100
AcDbLine
 10
208.0
 20
482.0
 30
0.0
 11
208.0
 21
515.0
 31
0.0
  0
LINE
  5
2DF
330
1E
100
AcDbEntity
  8
0
100
AcDbLine
 10
207.2
 20
482.0
 30
0.0
 11
208.0
 21
482.0
 31
0.0
  0
LINE
  5
2E0
330
1E
100
AcDbEntity
  8
0
100
AcDbLine
 10
179.6
 20
480.0
 30
0.0
 11
185.0
 21
480.0
 31
0.0
  0
LINE
  5
2E1
330
1E
100
AcDbEntity
  8
0
100
AcDbLine
 10
179.0999999999999
 20
482.0
 30
0.0
 11
185.0
 21
482.0
 31
0.0
  0
LINE
  5
2E2
330
1E
100
AcDbEntity
  8
0
100
AcDbLine
 10
173.5999999999999
 20
482.0
 30
0.0
 11
179.0999999999999
 21
482.0
 31
0.0
  0
LINE
  5
2E3
330
1E
100
AcDbEntity
  8
0
100
AcDbLine
 10
168.8
 20
482.0
 30
0.0
 11
173.5999999999999
 21
482.0
 31
0.0
  0
LINE
  5
2E4
330
1E
100
AcDbEntity
  8
0
100
AcDbLine
 10
165.0999999999999
 20
482.0
 30
0.0
 11
168.8
 21
482.0
 31
0.0
  0
LINE
  5
2E5
330
1E
100
AcDbEntity
  8
0
100
AcDbLine
 10
162.8
 20
482.0
 30
0.0
 11
165.0999999999999
 21
482.0
 31
0.0
  0
LINE
  5
2E6
330
1E
100
AcDbEntity
  8
0
100
AcDbLine
 10
157.518
 20
482.439
 30
0.0
 11
162.0
 21
482.5729036398059
 31
0.0
  0
LINE
  5
2E7
330
1E
100
AcDbEntity
  8
0
100
AcDbLine
 10
162.0
 20
488.0
 30
0.0
 11
162.0
 21
482.0
 31
0.0
  0
LINE
  5
2E8
330
1E
100
AcDbEntity
  8
0
100
AcDbLine
 10
161.6999999999999
 20
515.0
 30
0.0
 11
168.5999999999999
 21
515.0
 31
0.0
  0
LINE
  5
2E9
330
1E
100
AcDbEntity
  8
0
100
AcDbLine
 10
161.6999999999999
 20
515.0
 30
0.0
 11
162.0
 21
515.0
 31
0.0
  0
LINE
  5
2EA
330
1E
100
AcDbEntity
  8
0
100
AcDbLine
 10
156.4
 20
515.0
 30
0.0
 11
161.6999999999999
 21
515.0
 31
0.0
  0
LINE
  5
2EB
330
1E
100
AcDbEntity
  8
0
100
AcDbLine
 10
153.2
 20
515.0
 30
0.0
 11
156.4
 21
515.0
 31
0.0
  0
LINE
  5
2EC
330
1E
100
AcDbEntity
  8
0
100
AcDbLine
 10
152.0
 20
515.0
 30
0.0
 11
153.2
 21
515.0
 31
0.0
  0
LINE
  5
2ED
330
1E
100
AcDbEntity
  8
0
100
AcDbLine
 10
150.0
 20
517.0
 30
0.0
 11
150.0
 21
523.0
 31
0.0
  0
LINE
  5
2EE
330
1E
100
AcDbEntity
  8
0
100
AcDbLine
 10
150.0
 20
517.0
 30
0.0
 11
151.3
 21
517.0
 31
0.0
  0
LINE
  5
2EF
330
1E
100
AcDbEntity
  8
0
100
AcDbLine
 10
150.0
 20
517.0
 30
0.0
 11
152.0
 21
515.0
 31
0.0
  0
LINE
  5
2F0
330
1E
100
AcDbEntity
  8
0
100
AcDbLine
 10
154.6999999999999
 20
517.0
 30
0.0
 11
160.3
 21
517.0
 31
0.0
  0
LINE
  5
2F1
330
1E
100
AcDbEntity
  8
0
100
AcDbLine
 10
151.3
 20
517.0
 30
0.0
 11
154.6999999999999
 21
517.0
 31
0.0
  0
LINE
  5
2F2
330
1E
100
AcDbEntity
  8
0
100
AcDbLine
 10
160.3
 20
517.0
 30
0.0
 11
167.5999999999999
 21
517.0
 31
0.0
  0
LINE
  5
2F3
330
1E
100
AcDbEntity
  8
0
100
AcDbLine
 10
160.3
 20
523.0
 30
0.0
 11
167.5999999999999
 21
523.0
 31
0.0
  0
LINE
  5
2F4
330
1E
100
AcDbEntity
  8
0
100
AcDbLine
 10
154.6999999999999
 20
523.0
 30
0.0
 11
160.3
 21
523.0
 31
0.0
  0
LINE
  5
2F5
330
1E
100
AcDbEntity
  8
0
100
AcDbLine
 10
151.3
 20
523.0
 30
0.0
 11
154.6999999999999
 21
523.0
 31
0.0
  0
LINE
  5
2F6
330
1E
100
AcDbEntity
  8
0
100
AcDbLine
 10
150.0
 20
523.0
 30
0.0
 11
151.3
 21
523.0
 31
0.0
  0
LINE
  5
2F7
330
1E
100
AcDbEntity
  8
0
100
AcDbLine
 10
150.0
 20
523.0
 30
0.0
 11
150.0
 21
517.0
 31
0.0
  0
LINE
  5
2F8
330
1E
100
AcDbEntity
  8
0
100
AcDbLine
 10
162.0
 20
515.0
 30
0.0
 11
162.8
 21
515.0
 31
0.0
  0
LINE
  5
2F9
330
1E
100
AcDbEntity
  8
0
100
AcDbLine
 10
162.0
 20
515.0
 30
0.0
 11
162.0
 21
513.0
 31
0.0
  0
LINE
  5
2FA
330
1E
100
AcDbEntity
  8
0
100
AcDbLine
 10
168.5999999999999
 20
515.0
 30
0.0
 11
176.5
 21
515.0
 31
0.0
  0
LINE
  5
2FB
330
1E
100
AcDbEntity
  8
0
100
AcDbLine
 10
185.0
 20
515.0
 30
0.0
 11
190.8999999999999
 21
515.0
 31
0.0
  0
LINE
  5
2FC
330
1E
100
AcDbEntity
  8
0
100
AcDbLine
 10
185.0
 20
515.0
 30
0.0
 11
193.5
 21
515.0
 31
0.0
  0
LINE
  5
2FD
330
1E
100
AcDbEntity
  8
0
100
AcDbLine
 10
193.5
 20
515.0
 30
0.0
 11
201.4
 21
515.0
 31
0.0
  0
LINE
  5
2FE
330
1E
100
AcDbEntity
  8
0
100
AcDbLine
 10
190.8999999999999
 20
515.0
 30
0.0
 11
196.4
 21
515.0
 31
0.0
  0
LINE
  5
2FF
330
1E
100
AcDbEntity
  8
0
100
AcDbLine
 10
196.4
 20
515.0
 30
0.0
 11
201.2
 21
515.0
 31
0.0
  0
LINE
  5
300
330
1E
100
AcDbEntity
  8
0
100
AcDbLine
 10
201.4
 20
515.0
 30
0.0
 11
208.3
 21
515.0
 31
0.0
  0
LINE
  5
301
330
1E
100
AcDbEntity
  8
0
100
AcDbLine
 10
201.2
 20
515.0
 30
0.0
 11
204.8999999999999
 21
515.0
 31
0.0
  0
LINE
  5
302
330
1E
100
AcDbEntity
  8
0
100
AcDbLine
 10
204.8999999999999
 20
515.0
 30
0.0
 11
207.2
 21
515.0
 31
0.0
  0
LINE
  5
303
330
1E
100
AcDbEntity
  8
0
100
AcDbLine
 10
208.0
 20
500.1749185867179
 30
0.0
 11
215.925
 21
500.489
 31
0.0
  0
LINE
  5
304
330
1E
100
AcDbEntity
  8
0
100
AcDbLine
 10
208.0
 20
484.186397513786
 30
0.0
 11
216.63
 21
484.528
 31
0.0
  0
LINE
  5
305
330
1E
100
AcDbEntity
  8
0
100
AcDbLine
 10
215.925
 20
500.489
 30
0.0
 11
231.529
 21
501.1589999999999
 31
0.0
  0
LINE
  5
306
330
1E
100
AcDbEntity
  8
0
100
AcDbLine
 10
216.63
 20
484.528
 30
0.0
 11
232.224
 21
485.1989999999999
 31
0.0
  0
LINE
  5
307
330
1E
100
AcDbEntity
  8
0
100
AcDbLine
 10
208.3
 20
515.0
 30
0.0
 11
213.6
 21
515.0
 31
0.0
  0
LINE
  5
308
330
1E
100
AcDbEntity
  8
0
100
AcDbLine
 10
213.6
 20
515.0
 30
0.0
 11
216.8
 21
515.0
 31
0.0
  0
LINE
  5
309
330
1E
100
AcDbEntity
  8
0
100
AcDbLine
 10
343.8
 20
483.174
 30
0.0
 11
344.0
 21
478.932
 31
0.0
  0
LINE
  5
30A
330
1E
100
AcDbEntity
  8
0
100
AcDbLine
 10
343.8
 20
483.174
 30
0.0
 11
343.8
 21
487.6999999999999
 31
0.0
  0
LINE
  5
30B
330
1E
100
AcDbEntity
  8
0
100
AcDbLine
 10
343.8
 20
487.6999999999999
 30
0.0
 11
343.8
 21
483.174
 31
0.0
  0
LINE
  5
30C
330
1E
100
AcDbEntity
  8
0
100
AcDbLine
 10
343.8
 20
487.6999999999999
 30
0.0
 11
344.0
 21
491.023
 31
0.0
  0
LINE
  5
30D
330
1E
100
AcDbEntity
  8
0
100
AcDbLine
 10
342.5
 20
488.1999999999999
 30
0.0
 11
343.8
 21
486.517647058823
 31
0.0
  0
LINE
  5
30E
330
1E
100
AcDbEntity
  8
0
100
AcDbLine
 10
343.3999999999999
 20
490.7399999999999
 30
0.0
 11
343.9235439845049
 21
489.752683302554
 31
0.0
  0
LINE
  5
30F
330
1E
100
AcDbEntity
  8
0
100
AcDbLine
 10
344.0
 20
491.023
 30
0.0
 11
344.0
 21
493.003
 31
0.0
  0
LINE
  5
310
330
1E
100
AcDbEntity
  8
0
100
AcDbLine
 10
344.0
 20
493.003
 30
0.0
 11
344.3999999999999
 21
495.2659999999999
 31
0.0
  0
LINE
  5
311
330
1E
100
AcDbEntity
  8
0
100
AcDbLine
 10
344.0
 20
493.003
 30
0.0
 11
344.0
 21
491.023
 31
0.0
  0
LINE
  5
312
330
1E
100
AcDbEntity
  8
0
100
AcDbLine
 10
343.3999999999999
 20
495.973
 30
0.0
 11
344.6
 21
498.306
 31
0.0
  0
LINE
  5
313
330
1E
100
AcDbEntity
  8
0
100
AcDbLine
 10
343.0
 20
493.498
 30
0.0
 11
343.0
 21
493.215
 31
0.0
  0
LINE
  5
314
330
1E
100
AcDbEntity
  8
0
100
AcDbLine
 10
343.0
 20
493.498
 30
0.0
 11
343.0225453096989
 21
493.354499103764
 31
0.0
  0
LINE
  5
315
330
1E
100
AcDbEntity
  8
0
100
AcDbLine
 10
343.0
 20
493.498
 30
0.0
 11
343.3999999999999
 21
495.973
 31
0.0
  0
LINE
  5
316
330
1E
100
AcDbEntity
  8
0
100
AcDbLine
 10
344.6
 20
498.306
 30
0.0
 11
346.4999999999999
 21
500.286
 31
0.0
  0
LINE
  5
317
330
1E
100
AcDbEntity
  8
0
100
AcDbLine
 10
346.4999999999999
 20
500.286
 30
0.0
 11
349.0
 21
501.771
 31
0.0
  0
LINE
  5
318
330
1E
100
AcDbEntity
  8
0
100
AcDbLine
 10
346.4999999999999
 20
500.074
 30
0.0
 11
349.0
 21
501.559
 31
0.0
  0
LINE
  5
319
330
1E
100
AcDbEntity
  8
0
100
AcDbLine
 10
345.5
 20
497.316
 30
0.0
 11
347.1999999999999
 21
499.155
 31
0.0
  0
LINE
  5
31A
330
1E
100
AcDbEntity
  8
0
100
AcDbLine
 10
344.6
 20
498.023
 30
0.0
 11
346.4999999999999
 21
500.074
 31
0.0
  0
LINE
  5
31B
330
1E
100
AcDbEntity
  8
0
100
AcDbLine
 10
344.3999999999999
 20
495.2659999999999
 30
0.0
 11
345.5
 21
497.316
 31
0.0
  0
LINE
  5
31C
330
1E
100
AcDbEntity
  8
0
100
AcDbLine
 10
343.3999999999999
 20
495.69
 30
0.0
 11
344.6
 21
498.023
 31
0.0
  0
LINE
  5
31D
330
1E
100
AcDbEntity
  8
0
100
AcDbLine
 10
343.0
 20
493.215
 30
0.0
 11
343.3999999999999
 21
490.7399999999999
 31
0.0
  0
LINE
  5
31E
330
1E
100
AcDbEntity
  8
0
100
AcDbLine
 10
343.0
 20
493.215
 30
0.0
 11
343.3999999999999
 21
495.69
 31
0.0
  0
LINE
  5
31F
330
1E
100
AcDbEntity
  8
0
100
AcDbLine
 10
343.0
 20
493.215
 30
0.0
 11
343.0
 21
493.498
 31
0.0
  0
LINE
  5
320
330
1E
100
AcDbEntity
  8
0
100
AcDbLine
 10
341.0
 20
493.5
 30
0.0
 11
341.0
 21
523.0
 31
0.0
  0
LINE
  5
321
330
1E
100
AcDbEntity
  8
0
100
AcDbLine
 10
341.0
 20
493.5
 30
0.0
 11
341.3999999999999
 21
490.8
 31
0.0
  0
LINE
  5
322
330
1E
100
AcDbEntity
  8
0
100
AcDbLine
 10
341.3999999999999
 20
490.8
 30
0.0
 11
342.5
 21
488.1999999999999
 31
0.0
  0
LINE
  5
323
330
1E
100
AcDbEntity
  8
0
100
AcDbLine
 10
360.4999999999999
 20
500.569
 30
0.0
 11
362.8
 21
499.155
 31
0.0
  0
LINE
  5
324
330
1E
100
AcDbEntity
  8
0
100
AcDbLine
 10
349.5
 20
500.569
 30
0.0
 11
352.1999999999999
 21
501.3469999999999
 31
0.0
  0
LINE
  5
325
330
1E
100
AcDbEntity
  8
0
100
AcDbLine
 10
347.1999999999999
 20
499.155
 30
0.0
 11
349.5
 21
500.569
 31
0.0
  0
LINE
  5
328
330
1E
100
AcDbEntity
  8
0
100
AcDbLine
 10
332.939
 20
490.9449999999999
 30
0.0
 11
341.274912048525
 21
491.6443436724559
 31
0.0
  0
LINE
  5
329
330
1E
100
AcDbEntity
  8
0
100
AcDbLine
 10
321.7609999999999
 20
490.094
 30
0.0
 11
332.939
 21
490.9449999999999
 31
0.0
  0
LINE
  5
32A
330
1E
100
AcDbEntity
  8
0
100
AcDbLine
 10
306.8799999999999
 20
489.1459999999999
 30
0.0
 11
321.7609999999999
 21
490.094
 31
0.0
  0
LINE
  5
32B
330
1E
100
AcDbEntity
  8
0
100
AcDbLine
 10
287.8909999999999
 20
488.008
 30
0.0
 11
306.8799999999999
 21
489.1459999999999
 31
0.0
  0
LINE
  5
32C
330
1E
100
AcDbEntity
  8
0
100
AcDbLine
 10
269.2039999999999
 20
487.003
 30
0.0
 11
287.8909999999999
 21
488.008
 31
0.0
  0
LINE
  5
32D
330
1E
100
AcDbEntity
  8
0
100
AcDbLine
 10
247.814
 20
485.928
 30
0.0
 11
269.2039999999999
 21
487.003
 31
0.0
  0
LINE
  5
32E
330
1E
100
AcDbEntity
  8
0
100
AcDbLine
 10
232.224
 20
485.1989999999999
 30
0.0
 11
247.814
 21
485.928
 31
0.0
  0
LINE
  5
32F
330
1E
100
AcDbEntity
  8
0
100
AcDbLine
 10
349.0
 20
501.771
 30
0.0
 11
351.8999999999999
 21
502.761
 31
0.0
  0
LINE
  5
330
330
1E
100
AcDbEntity
  8
0
100
AcDbLine
 10
357.8
 20
501.3469999999999
 30
0.0
 11
360.4999999999999
 21
500.569
 31
0.0
  0
LINE
  5
331
330
1E
100
AcDbEntity
  8
0
100
AcDbLine
 10
361.0
 20
501.771
 30
0.0
 11
363.5
 21
500.286
 31
0.0
  0
LINE
  5
332
330
1E
100
AcDbEntity
  8
0
100
AcDbLine
 10
355.0
 20
501.7
 30
0.0
 11
357.8
 21
501.3469999999999
 31
0.0
  0
LINE
  5
333
330
1E
100
AcDbEntity
  8
0
100
AcDbLine
 10
361.0
 20
501.559
 30
0.0
 11
363.5
 21
500.074
 31
0.0
  0
LINE
  5
334
330
1E
100
AcDbEntity
  8
0
100
AcDbLine
 10
352.1999999999999
 20
501.3469999999999
 30
0.0
 11
355.0
 21
501.7
 31
0.0
  0
LINE
  5
335
330
1E
100
AcDbEntity
  8
0
100
AcDbLine
 10
349.0
 20
501.559
 30
0.0
 11
351.8999999999999
 21
502.549
 31
0.0
  0
LINE
  5
336
330
1E
100
AcDbEntity
  8
0
100
AcDbLine
 10
358.1
 20
502.549
 30
0.0
 11
361.0
 21
501.559
 31
0.0
  0
LINE
  5
337
330
1E
100
AcDbEntity
  8
0
100
AcDbLine
 10
351.8999999999999
 20
502.549
 30
0.0
 11
355.0
 21
502.8319999999999
 31
0.0
  0
LINE
  5
338
330
1E
100
AcDbEntity
  8
0
100
AcDbLine
 10
341.0
 20
501.7999999999999
 30
0.0
 11
341.0
 21
523.0
 31
0.0
  0
LINE
  5
339
330
1E
100
AcDbEntity
  8
0
100
AcDbLine
 10
247.119
 20
501.8889999999999
 30
0.0
 11
268.509
 21
502.963
 31
0.0
  0
LINE
  5
33A
330
1E
100
AcDbEntity
  8
0
100
AcDbLine
 10
231.529
 20
501.1589999999999
 30
0.0
 11
247.119
 21
501.8889999999999
 31
0.0
  0
LINE
  5
33B
330
1E
100
AcDbEntity
  8
0
100
AcDbLine
 10
362.8
 20
499.155
 30
0.0
 11
364.5
 21
497.316
 31
0.0
  0
LINE
  5
33C
330
1E
100
AcDbEntity
  8
0
100
AcDbLine
 10
366.1999999999999
 20
483.174
 30
0.0
 11
366.1999999999999
 21
487.6999999999999
 31
0.0
  0
LINE
  5
33D
330
1E
100
AcDbEntity
  8
0
100
AcDbLine
 10
366.1999999999999
 20
487.6999999999999
 30
0.0
 11
366.1999999999999
 21
483.174
 31
0.0
  0
LINE
  5
33E
330
1E
100
AcDbEntity
  8
0
100
AcDbLine
 10
366.1999999999999
 20
486.517647058823
 30
0.0
 11
367.5
 21
488.1999999999999
 31
0.0
  0
LINE
  5
33F
330
1E
100
AcDbEntity
  8
0
100
AcDbLine
 10
366.0
 20
493.003
 30
0.0
 11
366.0
 21
491.023
 31
0.0
  0
LINE
  5
340
330
1E
100
AcDbEntity
  8
0
100
AcDbLine
 10
366.0
 20
491.023
 30
0.0
 11
366.1999999999999
 21
487.6999999999999
 31
0.0
  0
LINE
  5
341
330
1E
100
AcDbEntity
  8
0
100
AcDbLine
 10
366.0
 20
491.023
 30
0.0
 11
366.0
 21
493.003
 31
0.0
  0
LINE
  5
342
330
1E
100
AcDbEntity
  8
0
100
AcDbLine
 10
366.6
 20
495.973
 30
0.0
 11
367.0
 21
493.498
 31
0.0
  0
LINE
  5
343
330
1E
100
AcDbEntity
  8
0
100
AcDbLine
 10
365.3999999999999
 20
498.306
 30
0.0
 11
366.6
 21
495.973
 31
0.0
  0
LINE
  5
344
330
1E
100
AcDbEntity
  8
0
100
AcDbLine
 10
363.5
 20
500.286
 30
0.0
 11
365.3999999999999
 21
498.306
 31
0.0
  0
LINE
  5
345
330
1E
100
AcDbEntity
  8
0
100
AcDbLine
 10
363.5
 20
500.074
 30
0.0
 11
365.3999999999999
 21
498.023
 31
0.0
  0
LINE
  5
346
330
1E
100
AcDbEntity
  8
0
100
AcDbLine
 10
365.3999999999999
 20
498.023
 30
0.0
 11
366.6
 21
495.69
 31
0.0
  0
LINE
  5
347
330
1E
100
AcDbEntity
  8
0
100
AcDbLine
 10
364.5
 20
497.316
 30
0.0
 11
365.6
 21
495.2659999999999
 31
0.0
  0
LINE
  5
348
330
1E
100
AcDbEntity
  8
0
100
AcDbLine
 10
366.6
 20
495.69
 30
0.0
 11
367.0
 21
493.215
 31
0.0
  0
LINE
  5
349
330
1E
100
AcDbEntity
  8
0
100
AcDbLine
 10
365.6
 20
495.2659999999999
 30
0.0
 11
366.0
 21
493.003
 31
0.0
  0
LINE
  5
34A
330
1E
100
AcDbEntity
  8
0
100
AcDbLine
 10
367.0
 20
493.215
 30
0.0
 11
367.0
 21
493.498
 31
0.0
  0
LINE
  5
34B
330
1E
100
AcDbEntity
  8
0
100
AcDbLine
 10
367.0
 20
493.498
 30
0.0
 11
367.0
 21
493.215
 31
0.0
  0
LINE
  5
34C
330
1E
100
AcDbEntity
  8
0
100
AcDbLine
 10
366.9774546903009
 20
493.354499103764
 30
0.0
 11
367.0
 21
493.498
 31
0.0
  0
LINE
  5
34D
330
1E
100
AcDbEntity
  8
0
100
AcDbLine
 10
366.6
 20
490.7399999999999
 30
0.0
 11
367.0
 21
493.215
 31
0.0
  0
LINE
  5
34E
330
1E
100
AcDbEntity
  8
0
100
AcDbLine
 10
366.076456015495
 20
489.752683302554
 30
0.0
 11
366.6
 21
490.7399999999999
 31
0.0
  0
LINE
  5
34F
330
1E
100
AcDbEntity
  8
0
100
AcDbLine
 10
369.0
 20
493.5
 30
0.0
 11
369.0
 21
523.0
 31
0.0
  0
LINE
  5
350
330
1E
100
AcDbEntity
  8
0
100
AcDbLine
 10
368.6
 20
490.8
 30
0.0
 11
369.0
 21
493.5
 31
0.0
  0
LINE
  5
351
330
1E
100
AcDbEntity
  8
0
100
AcDbLine
 10
367.5
 20
488.1999999999999
 30
0.0
 11
368.6
 21
490.8
 31
0.0
  0
LINE
  5
355
330
1E
100
AcDbEntity
  8
0
100
AcDbLine
 10
351.8999999999999
 20
502.761
 30
0.0
 11
355.0
 21
503.115
 31
0.0
  0
LINE
  5
357
330
1E
100
AcDbEntity
  8
0
100
AcDbLine
 10
358.1
 20
502.761
 30
0.0
 11
361.0
 21
501.771
 31
0.0
  0
LINE
  5
358
330
1E
100
AcDbEntity
  8
0
100
AcDbLine
 10
355.0
 20
503.115
 30
0.0
 11
358.1
 21
502.761
 31
0.0
  0
LINE
  5
359
330
1E
100
AcDbEntity
  8
0
100
AcDbLine
 10
355.0
 20
502.8319999999999
 30
0.0
 11
358.1
 21
502.549
 31
0.0
  0
LINE
  5
35E
330
1E
100
AcDbEntity
  8
0
100
AcDbLine
 10
332.244
 20
506.9049999999999
 30
0.0
 11
341.0
 21
507.6386460089239
 31
0.0
  0
LINE
  5
35F
330
1E
100
AcDbEntity
  8
0
100
AcDbLine
 10
321.0659999999999
 20
506.054
 30
0.0
 11
332.244
 21
506.9049999999999
 31
0.0
  0
LINE
  5
360
330
1E
100
AcDbEntity
  8
0
100
AcDbLine
 10
306.1749999999999
 20
505.1059999999999
 30
0.0
 11
321.0659999999999
 21
506.054
 31
0.0
  0
LINE
  5
361
330
1E
100
AcDbEntity
  8
0
100
AcDbLine
 10
287.197
 20
503.968
 30
0.0
 11
306.1749999999999
 21
505.1059999999999
 31
0.0
  0
LINE
  5
362
330
1E
100
AcDbEntity
  8
0
100
AcDbLine
 10
268.509
 20
502.963
 30
0.0
 11
287.197
 21
503.968
 31
0.0
  0
LINE
  5
364
330
1E
100
AcDbEntity
  8
0
100
AcDbLine
 10
218.0
 20
515.0
 30
0.0
 11
220.0
 21
517.0
 31
0.0
  0
LINE
  5
365
330
1E
100
AcDbEntity
  8
0
100
AcDbLine
 10
216.8
 20
515.0
 30
0.0
 11
218.0
 21
515.0
 31
0.0
  0
LINE
  5
366
330
1E
100
AcDbEntity
  8
0
100
AcDbLine
 10
207.2
 20
515.0
 30
0.0
 11
208.0
 21
515.0
 31
0.0
  0
LINE
  5
367
330
1E
100
AcDbEntity
  8
0
100
AcDbLine
 10
208.0
 20
515.0
 30
0.0
 11
208.0
 21
482.0
 31
0.0
  0
LINE
  5
368
330
1E
100
AcDbEntity
  8
0
100
AcDbLine
 10
208.0
 20
515.0
 30
0.0
 11
208.3
 21
515.0
 31
0.0
  0
LINE
  5
369
330
1E
100
AcDbEntity
  8
0
100
AcDbLine
 10
176.5
 20
515.0
 30
0.0
 11
185.0
 21
515.0
 31
0.0
  0
LINE
  5
36A
330
1E
100
AcDbEntity
  8
0
100
AcDbLine
 10
179.0999999999999
 20
515.0
 30
0.0
 11
185.0
 21
515.0
 31
0.0
  0
LINE
  5
36B
330
1E
100
AcDbEntity
  8
0
100
AcDbLine
 10
173.5999999999999
 20
515.0
 30
0.0
 11
179.0999999999999
 21
515.0
 31
0.0
  0
LINE
  5
36C
330
1E
100
AcDbEntity
  8
0
100
AcDbLine
 10
168.8
 20
515.0
 30
0.0
 11
173.5999999999999
 21
515.0
 31
0.0
  0
LINE
  5
36D
330
1E
100
AcDbEntity
  8
0
100
AcDbLine
 10
165.0999999999999
 20
515.0
 30
0.0
 11
168.8
 21
515.0
 31
0.0
  0
LINE
  5
36E
330
1E
100
AcDbEntity
  8
0
100
AcDbLine
 10
167.5999999999999
 20
517.0
 30
0.0
 11
176.0
 21
517.0
 31
0.0
  0
LINE
  5
36F
330
1E
100
AcDbEntity
  8
0
100
AcDbLine
 10
185.0
 20
517.0
 30
0.0
 11
194.0
 21
517.0
 31
0.0
  0
LINE
  5
370
330
1E
100
AcDbEntity
  8
0
100
AcDbLine
 10
194.0
 20
517.0
 30
0.0
 11
202.4
 21
517.0
 31
0.0
  0
LINE
  5
371
330
1E
100
AcDbEntity
  8
0
100
AcDbLine
 10
202.4
 20
517.0
 30
0.0
 11
209.6999999999999
 21
517.0
 31
0.0
  0
LINE
  5
372
330
1E
100
AcDbEntity
  8
0
100
AcDbLine
 10
185.0
 20
523.0
 30
0.0
 11
194.0
 21
523.0
 31
0.0
  0
LINE
  5
373
330
1E
100
AcDbEntity
  8
0
100
AcDbLine
 10
194.0
 20
523.0
 30
0.0
 11
202.4
 21
523.0
 31
0.0
  0
LINE
  5
374
330
1E
100
AcDbEntity
  8
0
100
AcDbLine
 10
209.6999999999999
 20
517.0
 30
0.0
 11
215.3
 21
517.0
 31
0.0
  0
LINE
  5
375
330
1E
100
AcDbEntity
  8
0
100
AcDbLine
 10
215.3
 20
517.0
 30
0.0
 11
218.6999999999999
 21
517.0
 31
0.0
  0
LINE
  5
376
330
1E
100
AcDbEntity
  8
0
100
AcDbLine
 10
202.4
 20
523.0
 30
0.0
 11
209.6999999999999
 21
523.0
 31
0.0
  0
LINE
  5
377
330
1E
100
AcDbEntity
  8
0
100
AcDbLine
 10
209.6999999999999
 20
523.0
 30
0.0
 11
215.3
 21
523.0
 31
0.0
  0
LINE
  5
378
330
1E
100
AcDbEntity
  8
0
100
AcDbLine
 10
220.0
 20
517.0
 30
0.0
 11
220.0
 21
523.0
 31
0.0
  0
LINE
  5
379
330
1E
100
AcDbEntity
  8
0
100
AcDbLine
 10
220.0
 20
523.0
 30
0.0
 11
220.0
 21
517.0
 31
0.0
  0
LINE
  5
37A
330
1E
100
AcDbEntity
  8
0
100
AcDbLine
 10
218.6999999999999
 20
517.0
 30
0.0
 11
220.0
 21
517.0
 31
0.0
  0
LINE
  5
37B
330
1E
100
AcDbEntity
  8
0
100
AcDbLine
 10
215.3
 20
523.0
 30
0.0
 11
218.6999999999999
 21
523.0
 31
0.0
  0
LINE
  5
37C
330
1E
100
AcDbEntity
  8
0
100
AcDbLine
 10
218.6999999999999
 20
523.0
 30
0.0
 11
220.0
 21
523.0
 31
0.0
  0
LINE
  5
37D
330
1E
100
AcDbEntity
  8
0
100
AcDbLine
 10
176.0
 20
517.0
 30
0.0
 11
185.0
 21
517.0
 31
0.0
  0
LINE
  5
37E
330
1E
100
AcDbEntity
  8
0
100
AcDbLine
 10
176.0
 20
523.0
 30
0.0
 11
185.0
 21
523.0
 31
0.0
  0
LINE
  5
37F
330
1E
100
AcDbEntity
  8
0
100
AcDbLine
 10
167.5999999999999
 20
523.0
 30
0.0
 11
176.0
 21
523.0
 31
0.0
  0
LINE
  5
380
330
1E
100
AcDbEntity
  8
0
100
AcDbLine
 10
162.8
 20
515.0
 30
0.0
 11
165.0999999999999
 21
515.0
 31
0.0
  0
LINE
  5
381
330
1E
100
AcDbEntity
  8
0
100
AcDbLine
 10
162.0
 20
513.0
 30
0.0
 11
162.0
 21
515.0
 31
0.0
  0
LINE
  5
382
330
1E
100
AcDbEntity
  8
0
100
AcDbLine
 10
162.0
 20
482.0
 30
0.0
 11
162.0
 21
488.0
 31
0.0
  0
LINE
  5
383
330
1E
100
AcDbEntity
  8
0
100
AcDbLine
 10
162.0
 20
482.0
 30
0.0
 11
162.8
 21
482.0
 31
0.0
  0
LINE
  5
384
330
1E
100
AcDbEntity
  8
0
100
AcDbLine
 10
162.0
 20
482.0
 30
0.0
 11
164.0
 21
480.0
 31
0.0
  0
LINE
  5
385
330
1E
100
AcDbEntity
  8
0
100
AcDbLine
 10
147.0
 20
488.0
 30
0.0
 11
147.0
 21
462.0
 31
0.0
  0
LINE
  5
386
330
1E
100
AcDbEntity
  8
0
100
AcDbLine
 10
147.0
 20
488.0
 30
0.0
 11
162.0
 21
488.0
 31
0.0
  0
LINE
  5
387
330
1E
100
AcDbEntity
  8
0
100
AcDbLine
 10
140.0
 20
523.0
 30
0.0
 11
140.0
 21
518.0
 31
0.0
  0
LINE
  5
388
330
1E
100
AcDbEntity
  8
0
100
AcDbLine
 10
138.9
 20
523.0
 30
0.0
 11
140.0
 21
523.0
 31
0.0
  0
LINE
  5
389
330
1E
100
AcDbEntity
  8
0
100
AcDbLine
 10
341.0
 20
523.0
 30
0.0
 11
341.6
 21
523.0
 31
0.0
  0
LINE
  5
38A
330
1E
100
AcDbEntity
  8
0
100
AcDbLine
 10
341.0
 20
523.0
 30
0.0
 11
341.0
 21
493.5
 31
0.0
  0
LINE
  5
38B
330
1E
100
AcDbEntity
  8
0
100
AcDbLine
 10
341.0
 20
523.0
 30
0.0
 11
341.0
 21
501.7999999999999
 31
0.0
  0
LINE
  5
38C
330
1E
100
AcDbEntity
  8
0
100
AcDbLine
 10
341.6
 20
523.0
 30
0.0
 11
342.7
 21
523.0
 31
0.0
  0
LINE
  5
38D
330
1E
100
AcDbEntity
  8
0
100
AcDbLine
 10
342.7
 20
523.0
 30
0.0
 11
344.0
 21
523.0
 31
0.0
  0
LINE
  5
38E
330
1E
100
AcDbEntity
  8
0
100
AcDbLine
 10
344.0
 20
523.0
 30
0.0
 11
344.3999999999999
 21
523.0
 31
0.0
  0
LINE
  5
38F
330
1E
100
AcDbEntity
  8
0
100
AcDbLine
 10
344.3999999999999
 20
523.0
 30
0.0
 11
345.5
 21
523.0
 31
0.0
  0
LINE
  5
390
330
1E
100
AcDbEntity
  8
0
100
AcDbLine
 10
345.5
 20
523.0
 30
0.0
 11
347.1999999999999
 21
523.0
 31
0.0
  0
LINE
  5
391
330
1E
100
AcDbEntity
  8
0
100
AcDbLine
 10
347.1999999999999
 20
523.0
 30
0.0
 11
349.5
 21
523.0
 31
0.0
  0
LINE
  5
392
330
1E
100
AcDbEntity
  8
0
100
AcDbLine
 10
349.5
 20
523.0
 30
0.0
 11
352.1999999999999
 21
523.0
 31
0.0
  0
LINE
  5
393
330
1E
100
AcDbEntity
  8
0
100
AcDbLine
 10
369.0
 20
523.0
 30
0.0
 11
369.0
 21
493.5
 31
0.0
  0
LINE
  5
394
330
1E
100
AcDbEntity
  8
0
100
AcDbLine
 10
368.3999999999999
 20
523.0
 30
0.0
 11
369.0
 21
523.0
 31
0.0
  0
LINE
  5
395
330
1E
100
AcDbEntity
  8
0
100
AcDbLine
 10
367.3
 20
523.0
 30
0.0
 11
368.3999999999999
 21
523.0
 31
0.0
  0
LINE
  5
396
330
1E
100
AcDbEntity
  8
0
100
AcDbLine
 10
366.0
 20
523.0
 30
0.0
 11
367.3
 21
523.0
 31
0.0
  0
LINE
  5
397
330
1E
100
AcDbEntity
  8
0
100
AcDbLine
 10
365.6
 20
523.0
 30
0.0
 11
366.0
 21
523.0
 31
0.0
  0
LINE
  5
398
330
1E
100
AcDbEntity
  8
0
100
AcDbLine
 10
364.5
 20
523.0
 30
0.0
 11
365.6
 21
523.0
 31
0.0
  0
LINE
  5
399
330
1E
100
AcDbEntity
  8
0
100
AcDbLine
 10
362.8
 20
523.0
 30
0.0
 11
364.5
 21
523.0
 31
0.0
  0
LINE
  5
39A
330
1E
100
AcDbEntity
  8
0
100
AcDbLine
 10
360.4999999999999
 20
523.0
 30
0.0
 11
362.8
 21
523.0
 31
0.0
  0
LINE
  5
39B
330
1E
100
AcDbEntity
  8
0
100
AcDbLine
 10
357.8
 20
523.0
 30
0.0
 11
360.4999999999999
 21
523.0
 31
0.0
  0
LINE
  5
39C
330
1E
100
AcDbEntity
  8
0
100
AcDbLine
 10
355.0
 20
523.0
 30
0.0
 11
357.8
 21
523.0
 31
0.0
  0
LINE
  5
39D
330
1E
100
AcDbEntity
  8
0
100
AcDbLine
 10
352.1999999999999
 20
523.0
 30
0.0
 11
355.0
 21
523.0
 31
0.0
  0
LINE
  5
39E
330
1E
100
AcDbEntity
  8
0
100
AcDbLine
 10
147.0
 20
523.0
 30
0.0
 11
147.0
 21
513.0
 31
0.0
  0
LINE
  5
39F
330
1E
100
AcDbEntity
  8
0
100
AcDbLine
 10
138.0
 20
443.0
 30
0.0
 11
138.0
 21
437.0
 31
0.0
  0
LINE
  5
3A0
330
1E
100
AcDbEntity
  8
0
100
AcDbLine
 10
138.0
 20
443.0
 30
0.0
 11
138.9
 21
443.0
 31
0.0
  0
LINE
  5
3A1
330
1E
100
AcDbEntity
  8
0
100
AcDbLine
 10
84.0
 20
389.0
 30
0.0
 11
84.9
 21
389.0
 31
0.0
  0
LINE
  5
3A2
330
1E
100
AcDbEntity
  8
0
100
AcDbLine
 10
82.0
 20
437.0
 30
0.0
 11
82.0
 21
443.0
 31
0.0
  0
LINE
  5
3A3
330
1E
100
AcDbEntity
  8
0
100
AcDbLine
 10
82.0
 20
437.0
 30
0.0
 11
83.0
 21
436.0
 31
0.0
  0
LINE
  5
3A4
330
1E
100
AcDbEntity
  8
0
100
AcDbLine
 10
82.0
 20
437.0
 30
0.0
 11
83.0
 21
437.0
 31
0.0
  0
LINE
  5
3A9
330
1E
100
AcDbEntity
  8
0
100
AcDbLine
 10
86.0
 20
3.399999999999959
 30
0.0
 11
110.0
 21
-0.0000000000000222
 31
0.0
  0
LINE
  5
3AA
330
1E
100
AcDbEntity
  8
0
100
AcDbLine
 10
63.7
 20
12.5
 30
0.0
 11
44.29999999999999
 21
27.3
 31
0.0
  0
LINE
  5
3B0
330
1E
100
AcDbEntity
  8
0
100
AcDbLine
 10
203.0
 20
93.0
 30
0.0
 11
199.6
 21
69.0
 31
0.0
  0
LINE
  5
3B1
330
1E
100
AcDbEntity
  8
0
100
AcDbLine
 10
17.0
 20
93.0
 30
0.0
 11
20.4
 21
117.0
 31
0.0
  0
LINE
  5
3B2
330
1E
100
AcDbEntity
  8
0
100
AcDbLine
 10
203.0
 20
93.0
 30
0.0
 11
199.6
 21
117.0
 31
0.0
  0
LINE
  5
3B3
330
1E
100
AcDbEntity
  8
0
100
AcDbLine
 10
156.3
 20
173.5
 30
0.0
 11
175.6999999999999
 21
158.6999999999999
 31
0.0
  0
LINE
  5
3B4
330
1E
100
AcDbEntity
  8
0
100
AcDbLine
 10
199.6
 20
117.0
 30
0.0
 11
190.5
 21
139.3
 31
0.0
  0
LINE
  5
3B5
330
1E
100
AcDbEntity
  8
0
100
AcDbLine
 10
107.4
 20
83.3999999999999
 30
0.0
 11
105.0
 21
84.29999999999999
 31
0.0
  0
LINE
  5
3B6
330
1E
100
AcDbEntity
  8
0
100
AcDbLine
 10
112.5999999999999
 20
83.3999999999999
 30
0.0
 11
115.0
 21
84.29999999999999
 31
0.0
  0
LINE
  5
3B7
330
1E
100
AcDbEntity
  8
0
100
AcDbLine
 10
393.0
 20
370.9046
 30
0.0
 11
393.0
 21
348.56119
 31
0.0
  0
LINE
  5
3B8
330
1E
100
AcDbEntity
  8
0
100
AcDbLine
 10
349.1
 20
391.2917
 30
0.0
 11
350.9412584483411
 21
390.5523213502476
 31
0.0
  0
LINE
  5
3B9
330
1E
100
AcDbEntity
  8
0
100
AcDbLine
 10
350.9412584483411
 20
390.5523213502476
 30
0.0
 11
352.5523851990283
 21
390.2259586804709
 31
0.0
  0
LINE
  5
3BA
330
1E
100
AcDbEntity
  8
0
100
AcDbLine
 10
352.5523851990283
 20
390.2259586804709
 30
0.0
 11
354.4900895255868
 21
390.0083835672865
 31
0.0
  0
LINE
  5
3BB
330
1E
100
AcDbEntity
  8
0
100
AcDbLine
 10
354.4900895255868
 20
390.0083835672865
 30
0.0
 11
356.3624773169981
 21
390.1389291260161
 31
0.0
  0
LINE
  5
3BC
330
1E
100
AcDbEntity
  8
0
100
AcDbLine
 10
356.3624773169981
 20
390.1389291260161
 30
0.0
 11
358.5832165626193
 21
390.48704979793
 31
0.0
  0
LINE
  5
3BD
330
1E
100
AcDbEntity
  8
0
100
AcDbLine
 10
358.5832165626193
 20
390.48704979793
 30
0.0
 11
359.954851051054
 21
390.8569272449342
 31
0.0
  0
LINE
  5
3BE
330
1E
100
AcDbEntity
  8
0
100
AcDbLine
 10
359.954851051054
 20
390.8569272449342
 30
0.0
 11
360.8999999999999
 21
391.2917
 31
0.0
  0
ENDSEC
  0
SECTION
  2
OBJECTS
  0
DICTIONARY
  5
C
330
0
100
AcDbDictionary
281
     1
  3
ACAD_GROUP
350
D
  3
ACAD_LAYOUT
350
19
  3
ACAD_MLINESTYLE
350
16
  3
ACAD_PLOTSETTINGS
350
18
  3
ACAD_PLOTSTYLENAME
350
E
  3
AcDbVariableDictionary
350
3BF
  0
DICTIONARY
  5
D
102
{ACAD_REACTORS
330
C
102
}
330
C
100
AcDbDictionary
281
     1
  0
DICTIONARY
  5
19
102
{ACAD_REACTORS
330
C
102
}
330
C
100
AcDbDictionary
281
     1
  3
Layout1
350
1D
  3
Model
350
21
  0
DICTIONARY
  5
16
102
{ACAD_REACTORS
330
C
102
}
330
C
100
AcDbDictionary
281
     1
  3
Standard
350
17
  0
DICTIONARY
  5
18
102
{ACAD_REACTORS
330
C
102
}
330
C
100
AcDbDictionary
281
     1
  0
ACDBDICTIONARYWDFLT
  5
E
102
{ACAD_REACTORS
330
C
102
}
330
C
100
AcDbDictionary
281
     1
  3
Normal
350
F
100
AcDbDictionaryWithDefault
340
F
  0
DICTIONARY
  5
3BF
102
{ACAD_REACTORS
330
C
102
}
330
C
100
AcDbDictionary
281
     1
  3
DIMASSOC
350
3C0
  0
LAYOUT
  5
1D
102
{ACAD_REACTORS
330
19
102
}
330
19
100
AcDbPlotSettings
  1

  2
hp deskjet 980c series
  4

  6

 40
0.0
 41
0.0
 42
0.0
 43
0.0
 44
0.0
 45
0.0
 46
0.0
 47
0.0
 48
0.0
 49
0.0
140
0.0
141
0.0
142
1.0
143
1.0
 70
   688
 72
     0
 73
     0
 74
     5
  7

 75
    16
147
1.0
148
0.0
149
0.0
100
AcDbLayout
  1
Layout1
 70
     1
 71
     1
 10
0.0
 20
0.0
 11
12.0
 21
9.0
 12
0.0
 22
0.0
 32
0.0
 14
1.000000000000000E+20
 24
1.000000000000000E+20
 34
1.000000000000000E+20
 15
-1.000000000000000E+20
 25
-1.000000000000000E+20
 35
-1.000000000000000E+20
146
0.0
 13
0.0
 23
0.0
 33
0.0
 16
1.0
 26
0.0
 36
0.0
 17
0.0
 27
1.0
 37
0.0
 76
     0
330
1A
  0
LAYOUT
  5
21
102
{ACAD_REACTORS
330
19
102
}
330
19
100
AcDbPlotSettings
  1

  2
hp deskjet 980c series
  4

  6

 40
0.0
 41
0.0
 42
0.0
 43
0.0
 44
0.0
 45
0.0
 46
0.0
 47
0.0
 48
0.0
 49
0.0
140
0.0
141
0.0
142
1.0
143
1.0
 70
  1712
 72
     0
 73
     0
 74
     0
  7

 75
     0
147
1.0
148
0.0
149
0.0
100
AcDbLayout
  1
Model
 70
     1
 71
     0
 10
0.0
 20
0.0
 11
12.0
 21
9.0
 12
0.0
 22
0.0
 32
0.0
 14
0.0
 24
0.0
 34
0.0
 15
0.0
 25
0.0
 35
0.0
146
0.0
 13
0.0
 23
0.0
 33
0.0
 16
1.0
 26
0.0
 36
0.0
 17
0.0
 27
1.0
 37
0.0
 76
     0
330
1E
  0
MLINESTYLE
  5
17
102
{ACAD_REACTORS
330
16
102
}
330
16
100
AcDbMlineStyle
  2
STANDARD
 70
     0
  3

 62
   256
 51
90.0
 52
90.0
 71
     2
 49
0.5
 62
   256
  6
BYLAYER
 49
-0.5
 62
   256
  6
BYLAYER
  0
ACDBPLACEHOLDER
  5
F
102
{ACAD_REACTORS
330
E
102
}
330
E
  0
DICTIONARYVAR
  5
3C0
102
{ACAD_REACTORS
330
3BF
102
}
330
3BF
100
DictionaryVariables
280
     0
  1
1
  0
ENDSEC
  0
EOF
