  0
SECTION
  2
HEADER
  9
$ACADVER
  1
AC1015
  9
$ACADMAINTVER
 70
    13
  9
$DWGCODEPAGE
  3
ANSI_1252
  9
$INSBASE
 10
0.0
 20
0.0
 30
0.0
  9
$EXTMIN
 10
-0.000000000000017
 20
-0.152999999999973
 30
0.0
  9
$EXTMAX
 10
393.0
 20
1309.153
 30
0.0
  9
$LIMMIN
 10
0.0
 20
0.0
  9
$LIMMAX
 10
12.0
 20
9.0
  9
$ORTHOMODE
 70
     0
  9
$REGENMODE
 70
     1
  9
$FILLMODE
 70
     1
  9
$QTEXTMODE
 70
     0
  9
$MIRRTEXT
 70
     1
  9
$LTSCALE
 40
1.0
  9
$ATTMODE
 70
     1
  9
$TEXTSIZE
 40
0.2
  9
$TRACEWID
 40
0.05
  9
$TEXTSTYLE
  7
Standard
  9
$CLAYER
  8
0
  9
$CELTYPE
  6
Continuous
  9
$CECOLOR
 62
   256
  9
$CELTSCALE
 40
1.0
  9
$DISPSILH
 70
     0
  9
$DIMSCALE
 40
1.0
  9
$DIMASZ
 40
0.18
  9
$DIMEXO
 40
0.0625
  9
$DIMDLI
 40
0.38
  9
$DIMRND
 40
0.0
  9
$DIMDLE
 40
0.0
  9
$DIMEXE
 40
0.18
  9
$DIMTP
 40
0.0
  9
$DIMTM
 40
0.0
  9
$DIMTXT
 40
0.18
  9
$DIMCEN
 40
0.09
  9
$DIMTSZ
 40
0.0
  9
$DIMTOL
 70
     0
  9
$DIMLIM
 70
     0
  9
$DIMTIH
 70
     1
  9
$DIMTOH
 70
     1
  9
$DIMSE1
 70
     0
  9
$DIMSE2
 70
     0
  9
$DIMTAD
 70
     0
  9
$DIMZIN
 70
     0
  9
$DIMBLK
  1

  9
$DIMASO
 70
     1
  9
$DIMSHO
 70
     1
  9
$DIMPOST
  1

  9
$DIMAPOST
  1

  9
$DIMALT
 70
     0
  9
$DIMALTD
 70
     2
  9
$DIMALTF
 40
25.4
  9
$DIMLFAC
 40
1.0
  9
$DIMTOFL
 70
     0
  9
$DIMTVP
 40
0.0
  9
$DIMTIX
 70
     0
  9
$DIMSOXD
 70
     0
  9
$DIMSAH
 70
     0
  9
$DIMBLK1
  1

  9
$DIMBLK2
  1

  9
$DIMSTYLE
  2
Standard
  9
$DIMCLRD
 70
     0
  9
$DIMCLRE
 70
     0
  9
$DIMCLRT
 70
     0
  9
$DIMTFAC
 40
1.0
  9
$DIMGAP
 40
0.09
  9
$DIMJUST
 70
     0
  9
$DIMSD1
 70
     0
  9
$DIMSD2
 70
     0
  9
$DIMTOLJ
 70
     1
  9
$DIMTZIN
 70
     0
  9
$DIMALTZ
 70
     0
  9
$DIMALTTZ
 70
     0
  9
$DIMUPT
 70
     0
  9
$DIMDEC
 70
     4
  9
$DIMTDEC
 70
     4
  9
$DIMALTU
 70
     2
  9
$DIMALTTD
 70
     2
  9
$DIMTXSTY
  7
Standard
  9
$DIMAUNIT
 70
     0
  9
$DIMADEC
 70
     0
  9
$DIMALTRND
 40
0.0
  9
$DIMAZIN
 70
     0
  9
$DIMDSEP
 70
    46
  9
$DIMATFIT
 70
     3
  9
$DIMFRAC
 70
     0
  9
$DIMLDRBLK
  1

  9
$DIMLUNIT
 70
     2
  9
$DIMLWD
 70
    -2
  9
$DIMLWE
 70
    -2
  9
$DIMTMOVE
 70
     0
  9
$LUNITS
 70
     2
  9
$LUPREC
 70
     4
  9
$SKETCHINC
 40
0.1
  9
$FILLETRAD
 40
0.0
  9
$AUNITS
 70
     0
  9
$AUPREC
 70
     0
  9
$MENU
  1
.
  9
$ELEVATION
 40
0.0
  9
$PELEVATION
 40
0.0
  9
$THICKNESS
 40
0.0
  9
$LIMCHECK
 70
     0
  9
$CHAMFERA
 40
0.0
  9
$CHAMFERB
 40
0.0
  9
$CHAMFERC
 40
0.0
  9
$CHAMFERD
 40
0.0
  9
$SKPOLY
 70
     0
  9
$TDCREATE
 40
2454752.798246157
  9
$TDUCREATE
 40
2454752.714912824
  9
$TDUPDATE
 40
2454752.802228541
  9
$TDUUPDATE
 40
2454752.718895208
  9
$TDINDWG
 40
0.0039823843
  9
$TDUSRTIMER
 40
0.0039823843
  9
$USRTIMER
 70
     1
  9
$ANGBASE
 50
0.0
  9
$ANGDIR
 70
     0
  9
$PDMODE
 70
     0
  9
$PDSIZE
 40
0.0
  9
$PLINEWID
 40
0.0
  9
$SPLFRAME
 70
     0
  9
$SPLINETYPE
 70
     6
  9
$SPLINESEGS
 70
     8
  9
$HANDSEED
  5
6CC
  9
$SURFTAB1
 70
     6
  9
$SURFTAB2
 70
     6
  9
$SURFTYPE
 70
     6
  9
$SURFU
 70
     6
  9
$SURFV
 70
     6
  9
$UCSBASE
  2

  9
$UCSNAME
  2

  9
$UCSORG
 10
0.0
 20
0.0
 30
0.0
  9
$UCSXDIR
 10
1.0
 20
0.0
 30
0.0
  9
$UCSYDIR
 10
0.0
 20
1.0
 30
0.0
  9
$UCSORTHOREF
  2

  9
$UCSORTHOVIEW
 70
     1
  9
$UCSORGTOP
 10
0.0
 20
0.0
 30
0.0
  9
$UCSORGBOTTOM
 10
0.0
 20
0.0
 30
0.0
  9
$UCSORGLEFT
 10
0.0
 20
0.0
 30
0.0
  9
$UCSORGRIGHT
 10
0.0
 20
0.0
 30
0.0
  9
$UCSORGFRONT
 10
0.0
 20
0.0
 30
0.0
  9
$UCSORGBACK
 10
0.0
 20
0.0
 30
0.0
  9
$PUCSBASE
  2

  9
$PUCSNAME
  2

  9
$PUCSORG
 10
0.0
 20
0.0
 30
0.0
  9
$PUCSXDIR
 10
1.0
 20
0.0
 30
0.0
  9
$PUCSYDIR
 10
0.0
 20
1.0
 30
0.0
  9
$PUCSORTHOREF
  2

  9
$PUCSORTHOVIEW
 70
     0
  9
$PUCSORGTOP
 10
0.0
 20
0.0
 30
0.0
  9
$PUCSORGBOTTOM
 10
0.0
 20
0.0
 30
0.0
  9
$PUCSORGLEFT
 10
0.0
 20
0.0
 30
0.0
  9
$PUCSORGRIGHT
 10
0.0
 20
0.0
 30
0.0
  9
$PUCSORGFRONT
 10
0.0
 20
0.0
 30
0.0
  9
$PUCSORGBACK
 10
0.0
 20
0.0
 30
0.0
  9
$USERI1
 70
     0
  9
$USERI2
 70
     0
  9
$USERI3
 70
     0
  9
$USERI4
 70
     0
  9
$USERI5
 70
     0
  9
$USERR1
 40
0.0
  9
$USERR2
 40
0.0
  9
$USERR3
 40
0.0
  9
$USERR4
 40
0.0
  9
$USERR5
 40
0.0
  9
$WORLDVIEW
 70
     1
  9
$SHADEDGE
 70
     3
  9
$SHADEDIF
 70
    70
  9
$TILEMODE
 70
     1
  9
$MAXACTVP
 70
    64
  9
$PINSBASE
 10
0.0
 20
0.0
 30
0.0
  9
$PLIMCHECK
 70
     0
  9
$PEXTMIN
 10
1.000000000000000E+20
 20
1.000000000000000E+20
 30
1.000000000000000E+20
  9
$PEXTMAX
 10
-1.000000000000000E+20
 20
-1.000000000000000E+20
 30
-1.000000000000000E+20
  9
$PLIMMIN
 10
0.0
 20
0.0
  9
$PLIMMAX
 10
12.0
 20
9.0
  9
$UNITMODE
 70
     0
  9
$VISRETAIN
 70
     1
  9
$PLINEGEN
 70
     0
  9
$PSLTSCALE
 70
     1
  9
$TREEDEPTH
 70
  3020
  9
$CMLSTYLE
  2
Standard
  9
$CMLJUST
 70
     0
  9
$CMLSCALE
 40
1.0
  9
$PROXYGRAPHICS
 70
     1
  9
$MEASUREMENT
 70
     0
  9
$CELWEIGHT
370
    -1
  9
$ENDCAPS
280
     0
  9
$JOINSTYLE
280
     0
  9
$LWDISPLAY
290
     0
  9
$INSUNITS
 70
     0
  9
$HYPERLINKBASE
  1

  9
$STYLESHEET
  1

  9
$XEDIT
290
     1
  9
$CEPSNTYPE
380
     0
  9
$PSTYLEMODE
290
     1
  9
$FINGERPRINTGUID
  2
{84A9F639-3BA7-44E3-A9DF-7E8910EDCD2D}
  9
$VERSIONGUID
  2
{876FA9DE-E8D7-444F-88AD-E6A79112AD9B}
  9
$EXTNAMES
290
     1
  9
$PSVPSCALE
 40
0.0
  9
$OLESTARTUP
290
     0
  0
ENDSEC
  0
SECTION
  2
CLASSES
  0
CLASS
  1
ACDBDICTIONARYWDFLT
  2
AcDbDictionaryWithDefault
  3
AutoCAD 2000
 90
        0
280
     0
281
     0
  0
CLASS
  1
ACDBPLACEHOLDER
  2
AcDbPlaceHolder
  3
AutoCAD 2000
 90
        0
280
     0
281
     0
  0
CLASS
  1
LAYOUT
  2
AcDbLayout
  3
AutoCAD 2000
 90
        0
280
     0
281
     0
  0
CLASS
  1
DICTIONARYVAR
  2
AcDbDictionaryVar
  3
AutoCAD 2000
 90
        0
280
     0
281
     0
  0
ENDSEC
  0
SECTION
  2
TABLES
  0
TABLE
  2
VPORT
  5
8
330
0
100
AcDbSymbolTable
 70
     2
  0
VPORT
  5
6CB
330
8
100
AcDbSymbolTableRecord
100
AcDbViewportTableRecord
  2
*Active
 70
     0
 10
0.0
 20
0.0
 11
1.0
 21
1.0
 12
196.4999999999999
 22
654.4999999999999
 13
0.0
 23
0.0
 14
1.0
 24
1.0
 15
0.0
 25
0.0
 16
0.0
 26
0.0
 36
1.0
 17
0.0
 27
0.0
 37
0.0
 40
1319.351826086956
 41
2.078104993597951
 42
50.0
 43
0.0
 44
0.0
 50
0.0
 51
0.0
 71
     0
 72
   100
 73
     1
 74
     3
 75
     0
 76
     0
 77
     0
 78
     0
281
     0
 65
     1
110
0.0
120
0.0
130
0.0
111
1.0
121
0.0
131
0.0
112
0.0
122
1.0
132
0.0
 79
     1
146
0.0
  0
ENDTAB
  0
TABLE
  2
LTYPE
  5
5
330
0
100
AcDbSymbolTable
 70
     1
  0
LTYPE
  5
13
330
5
100
AcDbSymbolTableRecord
100
AcDbLinetypeTableRecord
  2
ByBlock
 70
     0
  3

 72
    65
 73
     0
 40
0.0
  0
LTYPE
  5
14
330
5
100
AcDbSymbolTableRecord
100
AcDbLinetypeTableRecord
  2
ByLayer
 70
     0
  3

 72
    65
 73
     0
 40
0.0
  0
LTYPE
  5
15
330
5
100
AcDbSymbolTableRecord
100
AcDbLinetypeTableRecord
  2
Continuous
 70
     0
  3
Solid line
 72
    65
 73
     0
 40
0.0
  0
ENDTAB
  0
TABLE
  2
LAYER
  5
2
330
0
100
AcDbSymbolTable
 70
     1
  0
LAYER
  5
10
330
2
100
AcDbSymbolTableRecord
100
AcDbLayerTableRecord
  2
0
 70
     0
 62
     7
  6
Continuous
370
    -3
390
F
  0
ENDTAB
  0
TABLE
  2
STYLE
  5
3
330
0
100
AcDbSymbolTable
 70
     1
  0
STYLE
  5
11
330
3
100
AcDbSymbolTableRecord
100
AcDbTextStyleTableRecord
  2
Standard
 70
     0
 40
0.0
 41
1.0
 50
0.0
 71
     0
 42
0.2
  3
txt
  4

  0
ENDTAB
  0
TABLE
  2
VIEW
  5
6
330
0
100
AcDbSymbolTable
 70
     0
  0
ENDTAB
  0
TABLE
  2
UCS
  5
7
330
0
100
AcDbSymbolTable
 70
     0
  0
ENDTAB
  0
TABLE
  2
APPID
  5
9
330
0
100
AcDbSymbolTable
 70
     1
  0
APPID
  5
12
330
9
100
AcDbSymbolTableRecord
100
AcDbRegAppTableRecord
  2
ACAD
 70
     0
  0
ENDTAB
  0
TABLE
  2
DIMSTYLE
  5
A
330
0
100
AcDbSymbolTable
 70
     1
100
AcDbDimStyleTable
 71
     0
  0
DIMSTYLE
105
6C0
330
A
100
AcDbSymbolTableRecord
100
AcDbDimStyleTableRecord
  2
Standard
 70
     0
340
11
  0
ENDTAB
  0
TABLE
  2
BLOCK_RECORD
  5
1
330
0
100
AcDbSymbolTable
 70
     0
  0
BLOCK_RECORD
  5
1E
330
1
100
AcDbSymbolTableRecord
100
AcDbBlockTableRecord
  2
*Model_Space
340
21
  0
BLOCK_RECORD
  5
1A
330
1
100
AcDbSymbolTableRecord
100
AcDbBlockTableRecord
  2
*Paper_Space
340
1D
  0
ENDTAB
  0
ENDSEC
  0
SECTION
  2
BLOCKS
  0
BLOCK
  5
1F
330
1E
100
AcDbEntity
  8
0
100
AcDbBlockBegin
  2
*Model_Space
 70
     0
 10
0.0
 20
0.0
 30
0.0
  3
*Model_Space
  1

  0
ENDBLK
  5
20
330
1E
100
AcDbEntity
  8
0
100
AcDbBlockEnd
  0
BLOCK
  5
1B
330
1A
100
AcDbEntity
 67
     1
  8
0
100
AcDbBlockBegin
  2
*Paper_Space
 70
     0
 10
0.0
 20
0.0
 30
0.0
  3
*Paper_Space
  1

  0
ENDBLK
  5
1C
330
1A
100
AcDbEntity
 67
     1
  8
0
100
AcDbBlockEnd
  0
ENDSEC
  0
SECTION
  2
ENTITIES
  0
LINE
  5
22
330
1E
100
AcDbEntity
  8
0
100
AcDbLine
 10
18.6
 20
314.053
 30
0.0
 11
26.5
 21
310.853
 31
0.0
  0
LINE
  5
23
330
1E
100
AcDbEntity
  8
0
100
AcDbLine
 10
17.6
 20
312.353
 30
0.0
 11
26.0
 21
308.9529999999999
 31
0.0
  0
LINE
  5
24
330
1E
100
AcDbEntity
  8
0
100
AcDbLine
 10
11.69999999999999
 20
319.3529999999999
 30
0.0
 11
18.6
 21
314.053
 31
0.0
  0
LINE
  5
25
330
1E
100
AcDbEntity
  8
0
100
AcDbLine
 10
10.3
 20
317.9529999999999
 30
0.0
 11
17.6
 21
312.353
 31
0.0
  0
LINE
  5
26
330
1E
100
AcDbEntity
  8
0
100
AcDbLine
 10
35.0
 20
309.653
 30
0.0
 11
43.5
 21
310.853
 31
0.0
  0
LINE
  5
27
330
1E
100
AcDbEntity
  8
0
100
AcDbLine
 10
43.5
 20
310.853
 30
0.0
 11
51.4
 21
314.053
 31
0.0
  0
LINE
  5
28
330
1E
100
AcDbEntity
  8
0
100
AcDbLine
 10
35.0
 20
307.653
 30
0.0
 11
44.0
 21
308.9529999999999
 31
0.0
  0
LINE
  5
29
330
1E
100
AcDbEntity
  8
0
100
AcDbLine
 10
44.0
 20
308.9529999999999
 30
0.0
 11
52.4
 21
312.353
 31
0.0
  0
LINE
  5
2A
330
1E
100
AcDbEntity
  8
0
100
AcDbLine
 10
35.0
 20
319.653
 30
0.0
 11
40.89999999999999
 21
320.4529999999999
 31
0.0
  0
LINE
  5
2B
330
1E
100
AcDbEntity
  8
0
100
AcDbLine
 10
40.89999999999999
 20
320.4529999999999
 30
0.0
 11
46.39999999999999
 21
322.7529999999999
 31
0.0
  0
LINE
  5
2C
330
1E
100
AcDbEntity
  8
0
100
AcDbLine
 10
51.4
 20
314.053
 30
0.0
 11
58.3
 21
319.3529999999999
 31
0.0
  0
LINE
  5
2D
330
1E
100
AcDbEntity
  8
0
100
AcDbLine
 10
58.3
 20
319.3529999999999
 30
0.0
 11
63.6
 21
326.2529999999999
 31
0.0
  0
LINE
  5
2E
330
1E
100
AcDbEntity
  8
0
100
AcDbLine
 10
59.7
 20
317.9529999999999
 30
0.0
 11
65.3
 21
325.253
 31
0.0
  0
LINE
  5
2F
330
1E
100
AcDbEntity
  8
0
100
AcDbLine
 10
52.4
 20
312.353
 30
0.0
 11
59.7
 21
317.9529999999999
 31
0.0
  0
LINE
  5
30
330
1E
100
AcDbEntity
  8
0
100
AcDbLine
 10
26.5
 20
310.853
 30
0.0
 11
35.0
 21
309.653
 31
0.0
  0
LINE
  5
31
330
1E
100
AcDbEntity
  8
0
100
AcDbLine
 10
26.0
 20
308.9529999999999
 30
0.0
 11
35.0
 21
307.653
 31
0.0
  0
LINE
  5
32
330
1E
100
AcDbEntity
  8
0
100
AcDbLine
 10
35.0
 20
321.653
 30
0.0
 11
40.4
 21
322.4529999999999
 31
0.0
  0
LINE
  5
33
330
1E
100
AcDbEntity
  8
0
100
AcDbLine
 10
40.4
 20
322.4529999999999
 30
0.0
 11
45.4
 21
324.4529999999999
 31
0.0
  0
LINE
  5
34
330
1E
100
AcDbEntity
  8
0
100
AcDbLine
 10
46.39999999999999
 20
322.7529999999999
 30
0.0
 11
51.2
 21
326.4529999999999
 31
0.0
  0
LINE
  5
35
330
1E
100
AcDbEntity
  8
0
100
AcDbLine
 10
29.6
 20
322.4529999999999
 30
0.0
 11
35.0
 21
321.653
 31
0.0
  0
LINE
  5
36
330
1E
100
AcDbEntity
  8
0
100
AcDbLine
 10
29.1
 20
320.4529999999999
 30
0.0
 11
35.0
 21
319.653
 31
0.0
  0
LINE
  5
37
330
1E
100
AcDbEntity
  8
0
100
AcDbLine
 10
23.6
 20
322.7529999999999
 30
0.0
 11
29.1
 21
320.4529999999999
 31
0.0
  0
LINE
  5
38
330
1E
100
AcDbEntity
  8
0
100
AcDbLine
 10
6.39999999999998
 20
326.2529999999999
 30
0.0
 11
11.69999999999999
 21
319.3529999999999
 31
0.0
  0
LINE
  5
39
330
1E
100
AcDbEntity
  8
0
100
AcDbLine
 10
3.199999999999979
 20
334.153
 30
0.0
 11
6.39999999999998
 21
326.2529999999999
 31
0.0
  0
LINE
  5
3A
330
1E
100
AcDbEntity
  8
0
100
AcDbLine
 10
1.99999999999998
 20
342.653
 30
0.0
 11
3.199999999999979
 21
334.153
 31
0.0
  0
LINE
  5
3B
330
1E
100
AcDbEntity
  8
0
100
AcDbLine
 10
1.99999999999998
 20
342.653
 30
0.0
 11
3.199999999999979
 21
351.153
 31
0.0
  0
LINE
  5
3C
330
1E
100
AcDbEntity
  8
0
100
AcDbLine
 10
4.69999999999998
 20
325.253
 30
0.0
 11
10.3
 21
317.9529999999999
 31
0.0
  0
LINE
  5
3D
330
1E
100
AcDbEntity
  8
0
100
AcDbLine
 10
1.29999999999998
 20
333.653
 30
0.0
 11
4.69999999999998
 21
325.253
 31
0.0
  0
LINE
  5
3E
330
1E
100
AcDbEntity
  8
0
100
AcDbLine
 10
-0.000000000000017
 20
342.653
 30
0.0
 11
1.29999999999998
 21
333.653
 31
0.0
  0
LINE
  5
3F
330
1E
100
AcDbEntity
  8
0
100
AcDbLine
 10
-0.000000000000017
 20
342.653
 30
0.0
 11
1.29999999999998
 21
351.653
 31
0.0
  0
LINE
  5
40
330
1E
100
AcDbEntity
  8
0
100
AcDbLine
 10
45.4
 20
324.4529999999999
 30
0.0
 11
49.8
 21
327.8529999999999
 31
0.0
  0
LINE
  5
41
330
1E
100
AcDbEntity
  8
0
100
AcDbLine
 10
49.8
 20
327.8529999999999
 30
0.0
 11
53.2
 21
332.253
 31
0.0
  0
LINE
  5
42
330
1E
100
AcDbEntity
  8
0
100
AcDbLine
 10
51.2
 20
326.4529999999999
 30
0.0
 11
54.9
 21
331.253
 31
0.0
  0
LINE
  5
43
330
1E
100
AcDbEntity
  8
0
100
AcDbLine
 10
51.2
 20
326.4529999999999
 30
0.0
 11
54.0520833333333
 21
330.153
 31
0.0
  0
LINE
  5
44
330
1E
100
AcDbEntity
  8
0
100
AcDbLine
 10
63.6
 20
326.2529999999999
 30
0.0
 11
65.17974683544299
 21
330.153
 31
0.0
  0
LINE
  5
45
330
1E
100
AcDbEntity
  8
0
100
AcDbLine
 10
65.3
 20
325.253
 30
0.0
 11
67.2833333333333
 21
330.153
 31
0.0
  0
LINE
  5
46
330
1E
100
AcDbEntity
  8
0
100
AcDbLine
 10
24.6
 20
324.4529999999999
 30
0.0
 11
29.6
 21
322.4529999999999
 31
0.0
  0
LINE
  5
47
330
1E
100
AcDbEntity
  8
0
100
AcDbLine
 10
54.0520833333333
 20
330.153
 30
0.0
 11
75.54719101123599
 21
330.153
 31
0.0
  0
LINE
  5
48
330
1E
100
AcDbEntity
  8
0
100
AcDbLine
 10
54.9
 20
331.253
 30
0.0
 11
57.2
 21
336.753
 31
0.0
  0
LINE
  5
49
330
1E
100
AcDbEntity
  8
0
100
AcDbLine
 10
20.2
 20
327.8529999999999
 30
0.0
 11
24.6
 21
324.4529999999999
 31
0.0
  0
LINE
  5
4A
330
1E
100
AcDbEntity
  8
0
100
AcDbLine
 10
18.8
 20
326.4529999999999
 30
0.0
 11
23.6
 21
322.7529999999999
 31
0.0
  0
LINE
  5
4B
330
1E
100
AcDbEntity
  8
0
100
AcDbLine
 10
53.2
 20
332.253
 30
0.0
 11
55.2
 21
337.253
 31
0.0
  0
LINE
  5
4C
330
1E
100
AcDbEntity
  8
0
100
AcDbLine
 10
55.2
 20
337.253
 30
0.0
 11
56.0
 21
342.653
 31
0.0
  0
LINE
  5
4D
330
1E
100
AcDbEntity
  8
0
100
AcDbLine
 10
57.2
 20
336.753
 30
0.0
 11
58.0
 21
342.653
 31
0.0
  0
LINE
  5
4E
330
1E
100
AcDbEntity
  8
0
100
AcDbLine
 10
16.8
 20
332.253
 30
0.0
 11
20.2
 21
327.8529999999999
 31
0.0
  0
LINE
  5
4F
330
1E
100
AcDbEntity
  8
0
100
AcDbLine
 10
14.8
 20
337.253
 30
0.0
 11
16.8
 21
332.253
 31
0.0
  0
LINE
  5
50
330
1E
100
AcDbEntity
  8
0
100
AcDbLine
 10
14.0
 20
342.653
 30
0.0
 11
14.8
 21
337.253
 31
0.0
  0
LINE
  5
51
330
1E
100
AcDbEntity
  8
0
100
AcDbLine
 10
14.0
 20
342.653
 30
0.0
 11
14.8
 21
348.053
 31
0.0
  0
LINE
  5
52
330
1E
100
AcDbEntity
  8
0
100
AcDbLine
 10
15.09999999999999
 20
331.253
 30
0.0
 11
18.8
 21
326.4529999999999
 31
0.0
  0
LINE
  5
53
330
1E
100
AcDbEntity
  8
0
100
AcDbLine
 10
12.8
 20
336.753
 30
0.0
 11
15.09999999999999
 21
331.253
 31
0.0
  0
LINE
  5
54
330
1E
100
AcDbEntity
  8
0
100
AcDbLine
 10
14.8
 20
348.053
 30
0.0
 11
16.8
 21
353.053
 31
0.0
  0
LINE
  5
55
330
1E
100
AcDbEntity
  8
0
100
AcDbLine
 10
12.8
 20
348.553
 30
0.0
 11
15.09999999999999
 21
354.053
 31
0.0
  0
LINE
  5
56
330
1E
100
AcDbEntity
  8
0
100
AcDbLine
 10
53.2
 20
353.053
 30
0.0
 11
55.2
 21
348.053
 31
0.0
  0
LINE
  5
57
330
1E
100
AcDbEntity
  8
0
100
AcDbLine
 10
55.2
 20
348.053
 30
0.0
 11
56.0
 21
342.653
 31
0.0
  0
LINE
  5
58
330
1E
100
AcDbEntity
  8
0
100
AcDbLine
 10
54.0520833333333
 20
355.153
 30
0.0
 11
75.54719101123599
 21
355.153
 31
0.0
  0
LINE
  5
59
330
1E
100
AcDbEntity
  8
0
100
AcDbLine
 10
49.8
 20
357.453
 30
0.0
 11
53.2
 21
353.053
 31
0.0
  0
LINE
  5
5A
330
1E
100
AcDbEntity
  8
0
100
AcDbLine
 10
54.9
 20
354.053
 30
0.0
 11
57.2
 21
348.553
 31
0.0
  0
LINE
  5
5B
330
1E
100
AcDbEntity
  8
0
100
AcDbLine
 10
57.2
 20
348.553
 30
0.0
 11
58.0
 21
342.653
 31
0.0
  0
LINE
  5
5C
330
1E
100
AcDbEntity
  8
0
100
AcDbLine
 10
51.2
 20
358.8529999999999
 30
0.0
 11
54.9
 21
354.053
 31
0.0
  0
LINE
  5
5D
330
1E
100
AcDbEntity
  8
0
100
AcDbLine
 10
20.2
 20
357.453
 30
0.0
 11
24.6
 21
360.853
 31
0.0
  0
LINE
  5
5E
330
1E
100
AcDbEntity
  8
0
100
AcDbLine
 10
16.8
 20
353.053
 30
0.0
 11
20.2
 21
357.453
 31
0.0
  0
LINE
  5
5F
330
1E
100
AcDbEntity
  8
0
100
AcDbLine
 10
18.8
 20
358.8529999999999
 30
0.0
 11
23.6
 21
362.553
 31
0.0
  0
LINE
  5
60
330
1E
100
AcDbEntity
  8
0
100
AcDbLine
 10
15.09999999999999
 20
354.053
 30
0.0
 11
18.8
 21
358.8529999999999
 31
0.0
  0
LINE
  5
61
330
1E
100
AcDbEntity
  8
0
100
AcDbLine
 10
6.39999999999998
 20
359.053
 30
0.0
 11
11.69999999999999
 21
365.953
 31
0.0
  0
LINE
  5
62
330
1E
100
AcDbEntity
  8
0
100
AcDbLine
 10
3.199999999999979
 20
351.153
 30
0.0
 11
6.39999999999998
 21
359.053
 31
0.0
  0
LINE
  5
63
330
1E
100
AcDbEntity
  8
0
100
AcDbLine
 10
45.4
 20
360.853
 30
0.0
 11
49.8
 21
357.453
 31
0.0
  0
LINE
  5
64
330
1E
100
AcDbEntity
  8
0
100
AcDbLine
 10
35.0
 20
363.653
 30
0.0
 11
40.4
 21
362.853
 31
0.0
  0
LINE
  5
65
330
1E
100
AcDbEntity
  8
0
100
AcDbLine
 10
40.4
 20
362.853
 30
0.0
 11
45.4
 21
360.853
 31
0.0
  0
LINE
  5
66
330
1E
100
AcDbEntity
  8
0
100
AcDbLine
 10
40.89999999999999
 20
364.853
 30
0.0
 11
46.39999999999999
 21
362.553
 31
0.0
  0
LINE
  5
67
330
1E
100
AcDbEntity
  8
0
100
AcDbLine
 10
46.39999999999999
 20
362.553
 30
0.0
 11
51.2
 21
358.8529999999999
 31
0.0
  0
LINE
  5
68
330
1E
100
AcDbEntity
  8
0
100
AcDbLine
 10
29.6
 20
362.853
 30
0.0
 11
35.0
 21
363.653
 31
0.0
  0
LINE
  5
69
330
1E
100
AcDbEntity
  8
0
100
AcDbLine
 10
24.6
 20
360.853
 30
0.0
 11
29.6
 21
362.853
 31
0.0
  0
LINE
  5
6A
330
1E
100
AcDbEntity
  8
0
100
AcDbLine
 10
23.6
 20
362.553
 30
0.0
 11
29.1
 21
364.853
 31
0.0
  0
LINE
  5
6B
330
1E
100
AcDbEntity
  8
0
100
AcDbLine
 10
35.0
 20
365.653
 30
0.0
 11
40.89999999999999
 21
364.853
 31
0.0
  0
LINE
  5
6C
330
1E
100
AcDbEntity
  8
0
100
AcDbLine
 10
29.1
 20
364.853
 30
0.0
 11
35.0
 21
365.653
 31
0.0
  0
LINE
  5
6D
330
1E
100
AcDbEntity
  8
0
100
AcDbLine
 10
11.69999999999999
 20
365.953
 30
0.0
 11
18.6
 21
371.253
 31
0.0
  0
LINE
  5
6E
330
1E
100
AcDbEntity
  8
0
100
AcDbLine
 10
4.69999999999998
 20
360.053
 30
0.0
 11
10.3
 21
367.3529999999999
 31
0.0
  0
LINE
  5
6F
330
1E
100
AcDbEntity
  8
0
100
AcDbLine
 10
1.29999999999998
 20
351.653
 30
0.0
 11
4.69999999999998
 21
360.053
 31
0.0
  0
LINE
  5
70
330
1E
100
AcDbEntity
  8
0
100
AcDbLine
 10
18.6
 20
371.253
 30
0.0
 11
26.5
 21
374.453
 31
0.0
  0
LINE
  5
71
330
1E
100
AcDbEntity
  8
0
100
AcDbLine
 10
17.6
 20
372.953
 30
0.0
 11
26.0
 21
376.353
 31
0.0
  0
LINE
  5
72
330
1E
100
AcDbEntity
  8
0
100
AcDbLine
 10
10.3
 20
367.3529999999999
 30
0.0
 11
17.6
 21
372.953
 31
0.0
  0
LINE
  5
73
330
1E
100
AcDbEntity
  8
0
100
AcDbLine
 10
51.4
 20
371.253
 30
0.0
 11
58.3
 21
365.953
 31
0.0
  0
LINE
  5
74
330
1E
100
AcDbEntity
  8
0
100
AcDbLine
 10
58.3
 20
365.953
 30
0.0
 11
63.6
 21
359.053
 31
0.0
  0
LINE
  5
75
330
1E
100
AcDbEntity
  8
0
100
AcDbLine
 10
63.6
 20
359.053
 30
0.0
 11
65.17974683544299
 21
355.153
 31
0.0
  0
LINE
  5
76
330
1E
100
AcDbEntity
  8
0
100
AcDbLine
 10
59.7
 20
367.3529999999999
 30
0.0
 11
65.3
 21
360.053
 31
0.0
  0
LINE
  5
77
330
1E
100
AcDbEntity
  8
0
100
AcDbLine
 10
26.5
 20
374.453
 30
0.0
 11
35.0
 21
375.653
 31
0.0
  0
LINE
  5
78
330
1E
100
AcDbEntity
  8
0
100
AcDbLine
 10
26.0
 20
376.353
 30
0.0
 11
35.0
 21
377.653
 31
0.0
  0
LINE
  5
79
330
1E
100
AcDbEntity
  8
0
100
AcDbLine
 10
35.0
 20
375.653
 30
0.0
 11
43.5
 21
374.453
 31
0.0
  0
LINE
  5
7A
330
1E
100
AcDbEntity
  8
0
100
AcDbLine
 10
43.5
 20
374.453
 30
0.0
 11
51.4
 21
371.253
 31
0.0
  0
LINE
  5
7B
330
1E
100
AcDbEntity
  8
0
100
AcDbLine
 10
19.0
 20
1129.153
 30
0.0
 11
22.29999999999999
 21
1129.153
 31
0.0
  0
LINE
  5
7C
330
1E
100
AcDbEntity
  8
0
100
AcDbLine
 10
17.0
 20
1131.153
 30
0.0
 11
17.0
 21
1133.153
 31
0.0
  0
LINE
  5
7D
330
1E
100
AcDbEntity
  8
0
100
AcDbLine
 10
17.0
 20
1131.153
 30
0.0
 11
20.4
 21
1131.153
 31
0.0
  0
LINE
  5
7E
330
1E
100
AcDbEntity
  8
0
100
AcDbLine
 10
17.0
 20
1131.153
 30
0.0
 11
19.0
 21
1129.153
 31
0.0
  0
LINE
  5
7F
330
1E
100
AcDbEntity
  8
0
100
AcDbLine
 10
17.0
 20
1133.153
 30
0.0
 11
19.0
 21
1154.152999999999
 31
0.0
  0
LINE
  5
80
330
1E
100
AcDbEntity
  8
0
100
AcDbLine
 10
17.0
 20
1133.153
 30
0.0
 11
17.0
 21
1131.153
 31
0.0
  0
LINE
  5
81
330
1E
100
AcDbEntity
  8
0
100
AcDbLine
 10
22.29999999999999
 20
1129.153
 30
0.0
 11
31.2
 21
1129.153
 31
0.0
  0
LINE
  5
82
330
1E
100
AcDbEntity
  8
0
100
AcDbLine
 10
22.29999999999999
 20
1129.153
 30
0.0
 11
25.0
 21
1129.153
 31
0.0
  0
LINE
  5
83
330
1E
100
AcDbEntity
  8
0
100
AcDbLine
 10
20.4
 20
1131.153
 30
0.0
 11
29.5
 21
1131.153
 31
0.0
  0
LINE
  5
84
330
1E
100
AcDbEntity
  8
0
100
AcDbLine
 10
19.0
 20
1154.152999999999
 30
0.0
 11
21.0
 21
1159.153
 31
0.0
  0
LINE
  5
85
330
1E
100
AcDbEntity
  8
0
100
AcDbLine
 10
21.0
 20
1159.153
 30
0.0
 11
25.0
 21
1162.152999999999
 31
0.0
  0
LINE
  5
86
330
1E
100
AcDbEntity
  8
0
100
AcDbLine
 10
25.0
 20
1162.152999999999
 30
0.0
 11
78.0
 21
1173.153
 31
0.0
  0
LINE
  5
87
330
1E
100
AcDbEntity
  8
0
100
AcDbLine
 10
25.0
 20
1127.153
 30
0.0
 11
25.0
 21
1129.153
 31
0.0
  0
LINE
  5
88
330
1E
100
AcDbEntity
  8
0
100
AcDbLine
 10
25.0
 20
1127.153
 30
0.0
 11
27.0
 21
1127.153
 31
0.0
  0
LINE
  5
89
330
1E
100
AcDbEntity
  8
0
100
AcDbLine
 10
30.08698
 20
1127.153
 30
0.0
 11
30.08698
 21
1129.153
 31
0.0
  0
LINE
  5
8A
330
1E
100
AcDbEntity
  8
0
100
AcDbLine
 10
38.61989
 20
1127.153
 30
0.0
 11
38.61989
 21
1129.153
 31
0.0
  0
LINE
  5
8B
330
1E
100
AcDbEntity
  8
0
100
AcDbLine
 10
37.61989
 20
1127.153
 30
0.0
 11
38.61989
 21
1127.153
 31
0.0
  0
LINE
  5
8C
330
1E
100
AcDbEntity
  8
0
100
AcDbLine
 10
36.88784
 20
1127.153
 30
0.0
 11
38.61989
 21
1127.153
 31
0.0
  0
LINE
  5
8D
330
1E
100
AcDbEntity
  8
0
100
AcDbLine
 10
36.88784
 20
1127.153
 30
0.0
 11
36.88784
 21
1129.153
 31
0.0
  0
LINE
  5
8E
330
1E
100
AcDbEntity
  8
0
100
AcDbLine
 10
35.88784099999999
 20
1127.153
 30
0.0
 11
35.88784099999999
 21
1129.153
 31
0.0
  0
LINE
  5
8F
330
1E
100
AcDbEntity
  8
0
100
AcDbLine
 10
35.88784099999999
 20
1127.153
 30
0.0
 11
37.61989
 21
1127.153
 31
0.0
  0
LINE
  5
90
330
1E
100
AcDbEntity
  8
0
100
AcDbLine
 10
35.88784099999999
 20
1127.153
 30
0.0
 11
36.88784
 21
1127.153
 31
0.0
  0
LINE
  5
91
330
1E
100
AcDbEntity
  8
0
100
AcDbLine
 10
29.56934
 20
1127.153
 30
0.0
 11
30.08698
 21
1127.153
 31
0.0
  0
LINE
  5
92
330
1E
100
AcDbEntity
  8
0
100
AcDbLine
 10
28.15512
 20
1127.153
 30
0.0
 11
30.08698
 21
1127.153
 31
0.0
  0
LINE
  5
93
330
1E
100
AcDbEntity
  8
0
100
AcDbLine
 10
28.15512
 20
1127.153
 30
0.0
 11
28.15512
 21
1129.153
 31
0.0
  0
LINE
  5
94
330
1E
100
AcDbEntity
  8
0
100
AcDbLine
 10
31.2
 20
1129.153
 30
0.0
 11
45.7
 21
1129.153
 31
0.0
  0
LINE
  5
95
330
1E
100
AcDbEntity
  8
0
100
AcDbLine
 10
31.2
 20
1129.153
 30
0.0
 11
35.88784099999999
 21
1129.153
 31
0.0
  0
LINE
  5
96
330
1E
100
AcDbEntity
  8
0
100
AcDbLine
 10
30.08698
 20
1129.153
 30
0.0
 11
30.08698
 21
1127.153
 31
0.0
  0
LINE
  5
97
330
1E
100
AcDbEntity
  8
0
100
AcDbLine
 10
30.08698
 20
1129.153
 30
0.0
 11
31.2
 21
1129.153
 31
0.0
  0
LINE
  5
98
330
1E
100
AcDbEntity
  8
0
100
AcDbLine
 10
28.15512
 20
1129.153
 30
0.0
 11
28.15512
 21
1127.153
 31
0.0
  0
LINE
  5
99
330
1E
100
AcDbEntity
  8
0
100
AcDbLine
 10
28.15512
 20
1129.153
 30
0.0
 11
30.08698
 21
1129.153
 31
0.0
  0
LINE
  5
9A
330
1E
100
AcDbEntity
  8
0
100
AcDbLine
 10
38.61989
 20
1129.153
 30
0.0
 11
38.61989
 21
1127.153
 31
0.0
  0
LINE
  5
9B
330
1E
100
AcDbEntity
  8
0
100
AcDbLine
 10
38.61989
 20
1129.153
 30
0.0
 11
40.0
 21
1129.153
 31
0.0
  0
LINE
  5
9C
330
1E
100
AcDbEntity
  8
0
100
AcDbLine
 10
36.88784
 20
1129.153
 30
0.0
 11
36.88784
 21
1127.153
 31
0.0
  0
LINE
  5
9D
330
1E
100
AcDbEntity
  8
0
100
AcDbLine
 10
36.88784
 20
1129.153
 30
0.0
 11
38.61989
 21
1129.153
 31
0.0
  0
LINE
  5
9E
330
1E
100
AcDbEntity
  8
0
100
AcDbLine
 10
35.88784099999999
 20
1129.153
 30
0.0
 11
35.88784099999999
 21
1127.153
 31
0.0
  0
LINE
  5
9F
330
1E
100
AcDbEntity
  8
0
100
AcDbLine
 10
35.88784099999999
 20
1129.153
 30
0.0
 11
36.88784
 21
1129.153
 31
0.0
  0
LINE
  5
A0
330
1E
100
AcDbEntity
  8
0
100
AcDbLine
 10
27.63749
 20
1129.153
 30
0.0
 11
27.63749
 21
1127.153
 31
0.0
  0
LINE
  5
A1
330
1E
100
AcDbEntity
  8
0
100
AcDbLine
 10
27.63749
 20
1129.153
 30
0.0
 11
28.15512
 21
1129.153
 31
0.0
  0
LINE
  5
A2
330
1E
100
AcDbEntity
  8
0
100
AcDbLine
 10
27.63749
 20
1127.153
 30
0.0
 11
27.63749
 21
1129.153
 31
0.0
  0
LINE
  5
A3
330
1E
100
AcDbEntity
  8
0
100
AcDbLine
 10
27.63749
 20
1127.153
 30
0.0
 11
29.56934
 21
1127.153
 31
0.0
  0
LINE
  5
A4
330
1E
100
AcDbEntity
  8
0
100
AcDbLine
 10
27.63749
 20
1127.153
 30
0.0
 11
28.15512
 21
1127.153
 31
0.0
  0
LINE
  5
A5
330
1E
100
AcDbEntity
  8
0
100
AcDbLine
 10
42.64400999999999
 20
1127.153
 30
0.0
 11
44.57586
 21
1127.153
 31
0.0
  0
LINE
  5
A6
330
1E
100
AcDbEntity
  8
0
100
AcDbLine
 10
42.64400999999999
 20
1127.153
 30
0.0
 11
42.64400999999999
 21
1129.153
 31
0.0
  0
LINE
  5
A7
330
1E
100
AcDbEntity
  8
0
100
AcDbLine
 10
42.64400999999999
 20
1129.153
 30
0.0
 11
42.64400999999999
 21
1127.153
 31
0.0
  0
LINE
  5
A8
330
1E
100
AcDbEntity
  8
0
100
AcDbLine
 10
42.64400999999999
 20
1129.153
 30
0.0
 11
44.57586
 21
1129.153
 31
0.0
  0
LINE
  5
A9
330
1E
100
AcDbEntity
  8
0
100
AcDbLine
 10
42.12636999999999
 20
1129.153
 30
0.0
 11
42.12636999999999
 21
1127.153
 31
0.0
  0
LINE
  5
AA
330
1E
100
AcDbEntity
  8
0
100
AcDbLine
 10
42.12636999999999
 20
1129.153
 30
0.0
 11
42.64400999999999
 21
1129.153
 31
0.0
  0
LINE
  5
AB
330
1E
100
AcDbEntity
  8
0
100
AcDbLine
 10
42.12636999999999
 20
1127.153
 30
0.0
 11
42.12636999999999
 21
1129.153
 31
0.0
  0
LINE
  5
AC
330
1E
100
AcDbEntity
  8
0
100
AcDbLine
 10
42.12636999999999
 20
1127.153
 30
0.0
 11
44.05821999999999
 21
1127.153
 31
0.0
  0
LINE
  5
AD
330
1E
100
AcDbEntity
  8
0
100
AcDbLine
 10
42.12636999999999
 20
1127.153
 30
0.0
 11
42.64400999999999
 21
1127.153
 31
0.0
  0
LINE
  5
AE
330
1E
100
AcDbEntity
  8
0
100
AcDbLine
 10
42.0
 20
1127.153
 30
0.0
 11
42.0
 21
1129.153
 31
0.0
  0
LINE
  5
AF
330
1E
100
AcDbEntity
  8
0
100
AcDbLine
 10
42.0
 20
1129.153
 30
0.0
 11
42.0
 21
1127.153
 31
0.0
  0
LINE
  5
B0
330
1E
100
AcDbEntity
  8
0
100
AcDbLine
 10
42.0
 20
1129.153
 30
0.0
 11
42.12636999999999
 21
1129.153
 31
0.0
  0
LINE
  5
B1
330
1E
100
AcDbEntity
  8
0
100
AcDbLine
 10
40.0
 20
1127.153
 30
0.0
 11
40.0
 21
1129.153
 31
0.0
  0
LINE
  5
B2
330
1E
100
AcDbEntity
  8
0
100
AcDbLine
 10
40.0
 20
1127.153
 30
0.0
 11
42.0
 21
1127.153
 31
0.0
  0
LINE
  5
B3
330
1E
100
AcDbEntity
  8
0
100
AcDbLine
 10
40.0
 20
1129.153
 30
0.0
 11
42.0
 21
1129.153
 31
0.0
  0
LINE
  5
B4
330
1E
100
AcDbEntity
  8
0
100
AcDbLine
 10
40.0
 20
1129.153
 30
0.0
 11
40.0
 21
1127.153
 31
0.0
  0
LINE
  5
B5
330
1E
100
AcDbEntity
  8
0
100
AcDbLine
 10
27.0
 20
1127.153
 30
0.0
 11
27.0
 21
1129.153
 31
0.0
  0
LINE
  5
B6
330
1E
100
AcDbEntity
  8
0
100
AcDbLine
 10
29.5
 20
1131.153
 30
0.0
 11
44.29999999999999
 21
1131.153
 31
0.0
  0
LINE
  5
B7
330
1E
100
AcDbEntity
  8
0
100
AcDbLine
 10
27.0
 20
1129.153
 30
0.0
 11
27.0
 21
1127.153
 31
0.0
  0
LINE
  5
B8
330
1E
100
AcDbEntity
  8
0
100
AcDbLine
 10
27.0
 20
1129.153
 30
0.0
 11
27.63749
 21
1129.153
 31
0.0
  0
LINE
  5
B9
330
1E
100
AcDbEntity
  8
0
100
AcDbLine
 10
25.0
 20
1129.153
 30
0.0
 11
27.0
 21
1129.153
 31
0.0
  0
LINE
  5
BA
330
1E
100
AcDbEntity
  8
0
100
AcDbLine
 10
25.0
 20
1129.153
 30
0.0
 11
25.0
 21
1127.153
 31
0.0
  0
LINE
  5
BB
330
1E
100
AcDbEntity
  8
0
100
AcDbLine
 10
35.0
 20
377.653
 30
0.0
 11
44.0
 21
376.353
 31
0.0
  0
LINE
  5
BC
330
1E
100
AcDbEntity
  8
0
100
AcDbLine
 10
44.57586
 20
1127.153
 30
0.0
 11
44.57586
 21
1129.153
 31
0.0
  0
LINE
  5
BD
330
1E
100
AcDbEntity
  8
0
100
AcDbLine
 10
48.8782
 20
1127.153
 30
0.0
 11
48.8782
 21
1129.153
 31
0.0
  0
LINE
  5
BE
330
1E
100
AcDbEntity
  8
0
100
AcDbLine
 10
48.8782
 20
1127.153
 30
0.0
 11
50.6103
 21
1127.153
 31
0.0
  0
LINE
  5
BF
330
1E
100
AcDbEntity
  8
0
100
AcDbLine
 10
48.8782
 20
1127.153
 30
0.0
 11
49.8782
 21
1127.153
 31
0.0
  0
LINE
  5
C0
330
1E
100
AcDbEntity
  8
0
100
AcDbLine
 10
49.1888
 20
1127.153
 30
0.0
 11
49.1888
 21
1129.153
 31
0.0
  0
LINE
  5
C1
330
1E
100
AcDbEntity
  8
0
100
AcDbLine
 10
49.1888
 20
1127.153
 30
0.0
 11
50.603
 21
1127.153
 31
0.0
  0
LINE
  5
C2
330
1E
100
AcDbEntity
  8
0
100
AcDbLine
 10
49.8782
 20
1127.153
 30
0.0
 11
51.6103
 21
1127.153
 31
0.0
  0
LINE
  5
C3
330
1E
100
AcDbEntity
  8
0
100
AcDbLine
 10
50.6103
 20
1127.153
 30
0.0
 11
51.6103
 21
1127.153
 31
0.0
  0
LINE
  5
C4
330
1E
100
AcDbEntity
  8
0
100
AcDbLine
 10
52.0172
 20
1127.153
 30
0.0
 11
52.0172
 21
1129.153
 31
0.0
  0
LINE
  5
C5
330
1E
100
AcDbEntity
  8
0
100
AcDbLine
 10
50.603
 20
1127.153
 30
0.0
 11
52.0172
 21
1127.153
 31
0.0
  0
LINE
  5
C6
330
1E
100
AcDbEntity
  8
0
100
AcDbLine
 10
50.603
 20
1127.153
 30
0.0
 11
50.603
 21
1129.153
 31
0.0
  0
LINE
  5
C7
330
1E
100
AcDbEntity
  8
0
100
AcDbLine
 10
50.603
 20
1127.153
 30
0.0
 11
52.0172
 21
1127.153
 31
0.0
  0
LINE
  5
C8
330
1E
100
AcDbEntity
  8
0
100
AcDbLine
 10
49.1888
 20
1127.153
 30
0.0
 11
50.603
 21
1127.153
 31
0.0
  0
LINE
  5
C9
330
1E
100
AcDbEntity
  8
0
100
AcDbLine
 10
45.7
 20
1129.153
 30
0.0
 11
64.7
 21
1129.153
 31
0.0
  0
LINE
  5
CA
330
1E
100
AcDbEntity
  8
0
100
AcDbLine
 10
45.7
 20
1129.153
 30
0.0
 11
48.8782
 21
1129.153
 31
0.0
  0
LINE
  5
CB
330
1E
100
AcDbEntity
  8
0
100
AcDbLine
 10
44.57586
 20
1129.153
 30
0.0
 11
44.57586
 21
1127.153
 31
0.0
  0
LINE
  5
CC
330
1E
100
AcDbEntity
  8
0
100
AcDbLine
 10
44.57586
 20
1129.153
 30
0.0
 11
45.7
 21
1129.153
 31
0.0
  0
LINE
  5
CD
330
1E
100
AcDbEntity
  8
0
100
AcDbLine
 10
52.0172
 20
1129.153
 30
0.0
 11
52.0172
 21
1127.153
 31
0.0
  0
LINE
  5
CE
330
1E
100
AcDbEntity
  8
0
100
AcDbLine
 10
52.0172
 20
1129.153
 30
0.0
 11
55.0
 21
1129.153
 31
0.0
  0
LINE
  5
CF
330
1E
100
AcDbEntity
  8
0
100
AcDbLine
 10
50.603
 20
1129.153
 30
0.0
 11
50.603
 21
1127.153
 31
0.0
  0
LINE
  5
D0
330
1E
100
AcDbEntity
  8
0
100
AcDbLine
 10
50.603
 20
1129.153
 30
0.0
 11
52.0172
 21
1129.153
 31
0.0
  0
LINE
  5
D1
330
1E
100
AcDbEntity
  8
0
100
AcDbLine
 10
49.1888
 20
1129.153
 30
0.0
 11
49.1888
 21
1127.153
 31
0.0
  0
LINE
  5
D2
330
1E
100
AcDbEntity
  8
0
100
AcDbLine
 10
49.1888
 20
1129.153
 30
0.0
 11
50.603
 21
1129.153
 31
0.0
  0
LINE
  5
D3
330
1E
100
AcDbEntity
  8
0
100
AcDbLine
 10
48.8782
 20
1129.153
 30
0.0
 11
48.8782
 21
1127.153
 31
0.0
  0
LINE
  5
D4
330
1E
100
AcDbEntity
  8
0
100
AcDbLine
 10
48.8782
 20
1129.153
 30
0.0
 11
49.1888
 21
1129.153
 31
0.0
  0
LINE
  5
D5
330
1E
100
AcDbEntity
  8
0
100
AcDbLine
 10
44.05821999999999
 20
1127.153
 30
0.0
 11
44.57586
 21
1127.153
 31
0.0
  0
LINE
  5
D6
330
1E
100
AcDbEntity
  8
0
100
AcDbLine
 10
61.2096
 20
1127.153
 30
0.0
 11
62.6238
 21
1127.153
 31
0.0
  0
LINE
  5
D7
330
1E
100
AcDbEntity
  8
0
100
AcDbLine
 10
59.0648
 20
1127.153
 30
0.0
 11
59.0648
 21
1129.153
 31
0.0
  0
LINE
  5
D8
330
1E
100
AcDbEntity
  8
0
100
AcDbLine
 10
59.7954
 20
1127.153
 30
0.0
 11
59.7954
 21
1129.153
 31
0.0
  0
LINE
  5
D9
330
1E
100
AcDbEntity
  8
0
100
AcDbLine
 10
59.7954
 20
1127.153
 30
0.0
 11
61.2096
 21
1127.153
 31
0.0
  0
LINE
  5
DA
330
1E
100
AcDbEntity
  8
0
100
AcDbLine
 10
64.6007
 20
1127.153
 30
0.0
 11
64.6007
 21
1129.153
 31
0.0
  0
LINE
  5
DB
330
1E
100
AcDbEntity
  8
0
100
AcDbLine
 10
63.6007
 20
1127.153
 30
0.0
 11
64.6007
 21
1127.153
 31
0.0
  0
LINE
  5
DC
330
1E
100
AcDbEntity
  8
0
100
AcDbLine
 10
62.8686
 20
1127.153
 30
0.0
 11
64.6007
 21
1127.153
 31
0.0
  0
LINE
  5
DD
330
1E
100
AcDbEntity
  8
0
100
AcDbLine
 10
62.8686
 20
1127.153
 30
0.0
 11
62.8686
 21
1129.153
 31
0.0
  0
LINE
  5
DE
330
1E
100
AcDbEntity
  8
0
100
AcDbLine
 10
61.8686
 20
1127.153
 30
0.0
 11
63.6007
 21
1127.153
 31
0.0
  0
LINE
  5
DF
330
1E
100
AcDbEntity
  8
0
100
AcDbLine
 10
61.8686
 20
1127.153
 30
0.0
 11
62.8686
 21
1127.153
 31
0.0
  0
LINE
  5
E0
330
1E
100
AcDbEntity
  8
0
100
AcDbLine
 10
62.6238
 20
1127.153
 30
0.0
 11
62.6238
 21
1129.153
 31
0.0
  0
LINE
  5
E1
330
1E
100
AcDbEntity
  8
0
100
AcDbLine
 10
61.2096
 20
1127.153
 30
0.0
 11
62.6238
 21
1127.153
 31
0.0
  0
LINE
  5
E2
330
1E
100
AcDbEntity
  8
0
100
AcDbLine
 10
61.2096
 20
1127.153
 30
0.0
 11
61.2096
 21
1129.153
 31
0.0
  0
LINE
  5
E3
330
1E
100
AcDbEntity
  8
0
100
AcDbLine
 10
61.2096
 20
1127.153
 30
0.0
 11
62.6238
 21
1127.153
 31
0.0
  0
LINE
  5
E4
330
1E
100
AcDbEntity
  8
0
100
AcDbLine
 10
59.7954
 20
1127.153
 30
0.0
 11
59.7954
 21
1129.153
 31
0.0
  0
LINE
  5
E5
330
1E
100
AcDbEntity
  8
0
100
AcDbLine
 10
59.7954
 20
1127.153
 30
0.0
 11
61.2096
 21
1127.153
 31
0.0
  0
LINE
  5
E6
330
1E
100
AcDbEntity
  8
0
100
AcDbLine
 10
59.7954
 20
1127.153
 30
0.0
 11
61.2096
 21
1127.153
 31
0.0
  0
LINE
  5
E7
330
1E
100
AcDbEntity
  8
0
100
AcDbLine
 10
58.5471
 20
1127.153
 30
0.0
 11
59.0648
 21
1127.153
 31
0.0
  0
LINE
  5
E8
330
1E
100
AcDbEntity
  8
0
100
AcDbLine
 10
57.1329
 20
1127.153
 30
0.0
 11
59.0648
 21
1127.153
 31
0.0
  0
LINE
  5
E9
330
1E
100
AcDbEntity
  8
0
100
AcDbLine
 10
57.1329
 20
1127.153
 30
0.0
 11
57.1329
 21
1129.153
 31
0.0
  0
LINE
  5
EA
330
1E
100
AcDbEntity
  8
0
100
AcDbLine
 10
56.61529999999999
 20
1127.153
 30
0.0
 11
58.5471
 21
1127.153
 31
0.0
  0
LINE
  5
EB
330
1E
100
AcDbEntity
  8
0
100
AcDbLine
 10
56.61529999999999
 20
1127.153
 30
0.0
 11
57.1329
 21
1127.153
 31
0.0
  0
LINE
  5
EC
330
1E
100
AcDbEntity
  8
0
100
AcDbLine
 10
56.61529999999999
 20
1127.153
 30
0.0
 11
56.61529999999999
 21
1129.153
 31
0.0
  0
LINE
  5
ED
330
1E
100
AcDbEntity
  8
0
100
AcDbLine
 10
59.0648
 20
1129.153
 30
0.0
 11
59.0648
 21
1127.153
 31
0.0
  0
LINE
  5
EE
330
1E
100
AcDbEntity
  8
0
100
AcDbLine
 10
59.0648
 20
1129.153
 30
0.0
 11
59.7954
 21
1129.153
 31
0.0
  0
LINE
  5
EF
330
1E
100
AcDbEntity
  8
0
100
AcDbLine
 10
57.1329
 20
1129.153
 30
0.0
 11
57.1329
 21
1127.153
 31
0.0
  0
LINE
  5
F0
330
1E
100
AcDbEntity
  8
0
100
AcDbLine
 10
57.1329
 20
1129.153
 30
0.0
 11
59.0648
 21
1129.153
 31
0.0
  0
LINE
  5
F1
330
1E
100
AcDbEntity
  8
0
100
AcDbLine
 10
56.61529999999999
 20
1129.153
 30
0.0
 11
56.61529999999999
 21
1127.153
 31
0.0
  0
LINE
  5
F2
330
1E
100
AcDbEntity
  8
0
100
AcDbLine
 10
56.61529999999999
 20
1129.153
 30
0.0
 11
57.1329
 21
1129.153
 31
0.0
  0
LINE
  5
F3
330
1E
100
AcDbEntity
  8
0
100
AcDbLine
 10
61.2096
 20
1129.153
 30
0.0
 11
61.2096
 21
1127.153
 31
0.0
  0
LINE
  5
F4
330
1E
100
AcDbEntity
  8
0
100
AcDbLine
 10
61.2096
 20
1129.153
 30
0.0
 11
62.6238
 21
1129.153
 31
0.0
  0
LINE
  5
F5
330
1E
100
AcDbEntity
  8
0
100
AcDbLine
 10
64.7
 20
1129.153
 30
0.0
 11
86.6
 21
1129.153
 31
0.0
  0
LINE
  5
F6
330
1E
100
AcDbEntity
  8
0
100
AcDbLine
 10
64.7
 20
1129.153
 30
0.0
 11
66.634
 21
1129.153
 31
0.0
  0
LINE
  5
F7
330
1E
100
AcDbEntity
  8
0
100
AcDbLine
 10
64.6007
 20
1129.153
 30
0.0
 11
64.6007
 21
1127.153
 31
0.0
  0
LINE
  5
F8
330
1E
100
AcDbEntity
  8
0
100
AcDbLine
 10
64.6007
 20
1129.153
 30
0.0
 11
64.7
 21
1129.153
 31
0.0
  0
LINE
  5
F9
330
1E
100
AcDbEntity
  8
0
100
AcDbLine
 10
62.8686
 20
1129.153
 30
0.0
 11
62.8686
 21
1127.153
 31
0.0
  0
LINE
  5
FA
330
1E
100
AcDbEntity
  8
0
100
AcDbLine
 10
62.8686
 20
1129.153
 30
0.0
 11
64.6007
 21
1129.153
 31
0.0
  0
LINE
  5
FB
330
1E
100
AcDbEntity
  8
0
100
AcDbLine
 10
62.6238
 20
1129.153
 30
0.0
 11
62.8686
 21
1129.153
 31
0.0
  0
LINE
  5
FC
330
1E
100
AcDbEntity
  8
0
100
AcDbLine
 10
62.6238
 20
1129.153
 30
0.0
 11
62.6238
 21
1127.153
 31
0.0
  0
LINE
  5
FD
330
1E
100
AcDbEntity
  8
0
100
AcDbLine
 10
59.7954
 20
1129.153
 30
0.0
 11
59.7954
 21
1127.153
 31
0.0
  0
LINE
  5
FE
330
1E
100
AcDbEntity
  8
0
100
AcDbLine
 10
59.7954
 20
1129.153
 30
0.0
 11
59.7954
 21
1127.153
 31
0.0
  0
LINE
  5
FF
330
1E
100
AcDbEntity
  8
0
100
AcDbLine
 10
59.7954
 20
1129.153
 30
0.0
 11
61.2096
 21
1129.153
 31
0.0
  0
LINE
  5
100
330
1E
100
AcDbEntity
  8
0
100
AcDbLine
 10
55.0
 20
1127.153
 30
0.0
 11
55.0
 21
1129.153
 31
0.0
  0
LINE
  5
101
330
1E
100
AcDbEntity
  8
0
100
AcDbLine
 10
55.0
 20
1127.153
 30
0.0
 11
57.0
 21
1127.153
 31
0.0
  0
LINE
  5
102
330
1E
100
AcDbEntity
  8
0
100
AcDbLine
 10
63.7
 20
1131.153
 30
0.0
 11
86.0
 21
1131.153
 31
0.0
  0
LINE
  5
103
330
1E
100
AcDbEntity
  8
0
100
AcDbLine
 10
44.29999999999999
 20
1131.153
 30
0.0
 11
63.7
 21
1131.153
 31
0.0
  0
LINE
  5
104
330
1E
100
AcDbEntity
  8
0
100
AcDbLine
 10
55.0
 20
1129.153
 30
0.0
 11
56.61529999999999
 21
1129.153
 31
0.0
  0
LINE
  5
105
330
1E
100
AcDbEntity
  8
0
100
AcDbLine
 10
55.0
 20
1129.153
 30
0.0
 11
55.0
 21
1127.153
 31
0.0
  0
LINE
  5
106
330
1E
100
AcDbEntity
  8
0
100
AcDbLine
 10
44.0
 20
376.353
 30
0.0
 11
52.4
 21
372.953
 31
0.0
  0
LINE
  5
107
330
1E
100
AcDbEntity
  8
0
100
AcDbLine
 10
52.4
 20
372.953
 30
0.0
 11
59.7
 21
367.3529999999999
 31
0.0
  0
LINE
  5
108
330
1E
100
AcDbEntity
  8
0
100
AcDbLine
 10
67.634
 20
1127.153
 30
0.0
 11
69.366
 21
1127.153
 31
0.0
  0
LINE
  5
109
330
1E
100
AcDbEntity
  8
0
100
AcDbLine
 10
68.366
 20
1127.153
 30
0.0
 11
69.366
 21
1127.153
 31
0.0
  0
LINE
  5
10A
330
1E
100
AcDbEntity
  8
0
100
AcDbLine
 10
66.634
 20
1127.153
 30
0.0
 11
66.634
 21
1129.153
 31
0.0
  0
LINE
  5
10B
330
1E
100
AcDbEntity
  8
0
100
AcDbLine
 10
66.634
 20
1127.153
 30
0.0
 11
67.634
 21
1127.153
 31
0.0
  0
LINE
  5
10C
330
1E
100
AcDbEntity
  8
0
100
AcDbLine
 10
66.634
 20
1127.153
 30
0.0
 11
68.366
 21
1127.153
 31
0.0
  0
LINE
  5
10D
330
1E
100
AcDbEntity
  8
0
100
AcDbLine
 10
66.634
 20
1129.153
 30
0.0
 11
66.634
 21
1127.153
 31
0.0
  0
LINE
  5
10E
330
1E
100
AcDbEntity
  8
0
100
AcDbLine
 10
66.634
 20
1129.153
 30
0.0
 11
66.634
 21
1127.153
 31
0.0
  0
LINE
  5
10F
330
1E
100
AcDbEntity
  8
0
100
AcDbLine
 10
66.634
 20
1129.153
 30
0.0
 11
68.366
 21
1129.153
 31
0.0
  0
LINE
  5
110
330
1E
100
AcDbEntity
  8
0
100
AcDbLine
 10
68.366
 20
1127.153
 30
0.0
 11
68.366
 21
1129.153
 31
0.0
  0
LINE
  5
111
330
1E
100
AcDbEntity
  8
0
100
AcDbLine
 10
68.366
 20
1127.153
 30
0.0
 11
69.366
 21
1127.153
 31
0.0
  0
LINE
  5
112
330
1E
100
AcDbEntity
  8
0
100
AcDbLine
 10
69.366
 20
1129.153
 30
0.0
 11
69.366
 21
1127.153
 31
0.0
  0
LINE
  5
113
330
1E
100
AcDbEntity
  8
0
100
AcDbLine
 10
69.366
 20
1129.153
 30
0.0
 11
70.0
 21
1129.153
 31
0.0
  0
LINE
  5
114
330
1E
100
AcDbEntity
  8
0
100
AcDbLine
 10
68.366
 20
1129.153
 30
0.0
 11
68.366
 21
1127.153
 31
0.0
  0
LINE
  5
115
330
1E
100
AcDbEntity
  8
0
100
AcDbLine
 10
68.366
 20
1129.153
 30
0.0
 11
69.366
 21
1129.153
 31
0.0
  0
LINE
  5
116
330
1E
100
AcDbEntity
  8
0
100
AcDbLine
 10
69.366
 20
1127.153
 30
0.0
 11
69.366
 21
1129.153
 31
0.0
  0
LINE
  5
117
330
1E
100
AcDbEntity
  8
0
100
AcDbLine
 10
67.634
 20
1127.153
 30
0.0
 11
69.366
 21
1127.153
 31
0.0
  0
LINE
  5
118
330
1E
100
AcDbEntity
  8
0
100
AcDbLine
 10
66.634
 20
1127.153
 30
0.0
 11
66.634
 21
1129.153
 31
0.0
  0
LINE
  5
119
330
1E
100
AcDbEntity
  8
0
100
AcDbLine
 10
66.634
 20
1127.153
 30
0.0
 11
67.634
 21
1127.153
 31
0.0
  0
LINE
  5
11A
330
1E
100
AcDbEntity
  8
0
100
AcDbLine
 10
66.634
 20
1127.153
 30
0.0
 11
68.366
 21
1127.153
 31
0.0
  0
LINE
  5
11B
330
1E
100
AcDbEntity
  8
0
100
AcDbLine
 10
70.402
 20
1127.153
 30
0.0
 11
71.81619999999999
 21
1127.153
 31
0.0
  0
LINE
  5
11C
330
1E
100
AcDbEntity
  8
0
100
AcDbLine
 10
70.402
 20
1127.153
 30
0.0
 11
70.402
 21
1129.153
 31
0.0
  0
LINE
  5
11D
330
1E
100
AcDbEntity
  8
0
100
AcDbLine
 10
71.81619999999999
 20
1127.153
 30
0.0
 11
73.2304
 21
1127.153
 31
0.0
  0
LINE
  5
11E
330
1E
100
AcDbEntity
  8
0
100
AcDbLine
 10
71.81619999999999
 20
1127.153
 30
0.0
 11
71.81619999999999
 21
1129.153
 31
0.0
  0
LINE
  5
11F
330
1E
100
AcDbEntity
  8
0
100
AcDbLine
 10
71.62179999999999
 20
1127.153
 30
0.0
 11
73.55360000000001
 21
1127.153
 31
0.0
  0
LINE
  5
120
330
1E
100
AcDbEntity
  8
0
100
AcDbLine
 10
71.1041
 20
1127.153
 30
0.0
 11
73.036
 21
1127.153
 31
0.0
  0
LINE
  5
121
330
1E
100
AcDbEntity
  8
0
100
AcDbLine
 10
71.1041
 20
1127.153
 30
0.0
 11
71.62179999999999
 21
1127.153
 31
0.0
  0
LINE
  5
122
330
1E
100
AcDbEntity
  8
0
100
AcDbLine
 10
71.81619999999999
 20
1129.153
 30
0.0
 11
71.81619999999999
 21
1127.153
 31
0.0
  0
LINE
  5
123
330
1E
100
AcDbEntity
  8
0
100
AcDbLine
 10
71.81619999999999
 20
1129.153
 30
0.0
 11
73.2304
 21
1129.153
 31
0.0
  0
LINE
  5
124
330
1E
100
AcDbEntity
  8
0
100
AcDbLine
 10
70.402
 20
1129.153
 30
0.0
 11
70.402
 21
1127.153
 31
0.0
  0
LINE
  5
125
330
1E
100
AcDbEntity
  8
0
100
AcDbLine
 10
70.402
 20
1129.153
 30
0.0
 11
71.81619999999999
 21
1129.153
 31
0.0
  0
LINE
  5
126
330
1E
100
AcDbEntity
  8
0
100
AcDbLine
 10
70.0
 20
1127.153
 30
0.0
 11
70.0
 21
1129.153
 31
0.0
  0
LINE
  5
127
330
1E
100
AcDbEntity
  8
0
100
AcDbLine
 10
70.0
 20
1127.153
 30
0.0
 11
72.0
 21
1127.153
 31
0.0
  0
LINE
  5
128
330
1E
100
AcDbEntity
  8
0
100
AcDbLine
 10
70.0
 20
1129.153
 30
0.0
 11
70.402
 21
1129.153
 31
0.0
  0
LINE
  5
129
330
1E
100
AcDbEntity
  8
0
100
AcDbLine
 10
70.0
 20
1129.153
 30
0.0
 11
70.0
 21
1127.153
 31
0.0
  0
LINE
  5
12A
330
1E
100
AcDbEntity
  8
0
100
AcDbLine
 10
65.3
 20
360.053
 30
0.0
 11
67.2833333333333
 21
355.153
 31
0.0
  0
LINE
  5
12B
330
1E
100
AcDbEntity
  8
0
100
AcDbLine
 10
12.0
 20
342.653
 30
0.0
 11
12.8
 21
336.753
 31
0.0
  0
LINE
  5
12C
330
1E
100
AcDbEntity
  8
0
100
AcDbLine
 10
12.0
 20
342.653
 30
0.0
 11
12.8
 21
348.553
 31
0.0
  0
LINE
  5
12D
330
1E
100
AcDbEntity
  8
0
100
AcDbLine
 10
80.5
 20
335.653
 30
0.0
 11
84.0
 21
335.153
 31
0.0
  0
LINE
  5
12E
330
1E
100
AcDbEntity
  8
0
100
AcDbLine
 10
78.0
 20
336.653
 30
0.0
 11
80.5
 21
335.653
 31
0.0
  0
LINE
  5
12F
330
1E
100
AcDbEntity
  8
0
100
AcDbLine
 10
76.0
 20
338.153
 30
0.0
 11
78.0
 21
336.653
 31
0.0
  0
LINE
  5
130
330
1E
100
AcDbEntity
  8
0
100
AcDbLine
 10
74.5
 20
345.153
 30
0.0
 11
76.0
 21
347.153
 31
0.0
  0
LINE
  5
131
330
1E
100
AcDbEntity
  8
0
100
AcDbLine
 10
74.5
 20
340.153
 30
0.0
 11
76.0
 21
338.153
 31
0.0
  0
LINE
  5
132
330
1E
100
AcDbEntity
  8
0
100
AcDbLine
 10
74.0
 20
342.653
 30
0.0
 11
74.5
 21
340.153
 31
0.0
  0
LINE
  5
133
330
1E
100
AcDbEntity
  8
0
100
AcDbLine
 10
74.0
 20
342.653
 30
0.0
 11
74.5
 21
345.153
 31
0.0
  0
LINE
  5
134
330
1E
100
AcDbEntity
  8
0
100
AcDbLine
 10
73.2304
 20
1127.153
 30
0.0
 11
73.2304
 21
1129.153
 31
0.0
  0
LINE
  5
135
330
1E
100
AcDbEntity
  8
0
100
AcDbLine
 10
73.55360000000001
 20
1127.153
 30
0.0
 11
73.55360000000001
 21
1129.153
 31
0.0
  0
LINE
  5
136
330
1E
100
AcDbEntity
  8
0
100
AcDbLine
 10
74.134
 20
1127.153
 30
0.0
 11
74.134
 21
1129.153
 31
0.0
  0
LINE
  5
137
330
1E
100
AcDbEntity
  8
0
100
AcDbLine
 10
74.134
 20
1127.153
 30
0.0
 11
75.134
 21
1127.153
 31
0.0
  0
LINE
  5
138
330
1E
100
AcDbEntity
  8
0
100
AcDbLine
 10
74.134
 20
1127.153
 30
0.0
 11
75.866
 21
1127.153
 31
0.0
  0
LINE
  5
139
330
1E
100
AcDbEntity
  8
0
100
AcDbLine
 10
75.134
 20
1127.153
 30
0.0
 11
76.866
 21
1127.153
 31
0.0
  0
LINE
  5
13A
330
1E
100
AcDbEntity
  8
0
100
AcDbLine
 10
75.134
 20
1127.153
 30
0.0
 11
76.866
 21
1127.153
 31
0.0
  0
LINE
  5
13B
330
1E
100
AcDbEntity
  8
0
100
AcDbLine
 10
74.134
 20
1127.153
 30
0.0
 11
74.134
 21
1129.153
 31
0.0
  0
LINE
  5
13C
330
1E
100
AcDbEntity
  8
0
100
AcDbLine
 10
74.134
 20
1127.153
 30
0.0
 11
75.134
 21
1127.153
 31
0.0
  0
LINE
  5
13D
330
1E
100
AcDbEntity
  8
0
100
AcDbLine
 10
74.134
 20
1127.153
 30
0.0
 11
75.866
 21
1127.153
 31
0.0
  0
LINE
  5
13E
330
1E
100
AcDbEntity
  8
0
100
AcDbLine
 10
73.55360000000001
 20
1129.153
 30
0.0
 11
73.55360000000001
 21
1127.153
 31
0.0
  0
LINE
  5
13F
330
1E
100
AcDbEntity
  8
0
100
AcDbLine
 10
73.55360000000001
 20
1129.153
 30
0.0
 11
74.134
 21
1129.153
 31
0.0
  0
LINE
  5
140
330
1E
100
AcDbEntity
  8
0
100
AcDbLine
 10
73.2304
 20
1129.153
 30
0.0
 11
73.55360000000001
 21
1129.153
 31
0.0
  0
LINE
  5
141
330
1E
100
AcDbEntity
  8
0
100
AcDbLine
 10
73.2304
 20
1129.153
 30
0.0
 11
73.2304
 21
1127.153
 31
0.0
  0
LINE
  5
142
330
1E
100
AcDbEntity
  8
0
100
AcDbLine
 10
74.134
 20
1129.153
 30
0.0
 11
74.134
 21
1127.153
 31
0.0
  0
LINE
  5
143
330
1E
100
AcDbEntity
  8
0
100
AcDbLine
 10
74.134
 20
1129.153
 30
0.0
 11
74.134
 21
1127.153
 31
0.0
  0
LINE
  5
144
330
1E
100
AcDbEntity
  8
0
100
AcDbLine
 10
74.134
 20
1129.153
 30
0.0
 11
75.866
 21
1129.153
 31
0.0
  0
LINE
  5
145
330
1E
100
AcDbEntity
  8
0
100
AcDbLine
 10
74.85899999999999
 20
1127.153
 30
0.0
 11
76.59100000000001
 21
1127.153
 31
0.0
  0
LINE
  5
146
330
1E
100
AcDbEntity
  8
0
100
AcDbLine
 10
74.85899999999999
 20
1127.153
 30
0.0
 11
75.85899999999999
 21
1127.153
 31
0.0
  0
LINE
  5
147
330
1E
100
AcDbEntity
  8
0
100
AcDbLine
 10
73.036
 20
1127.153
 30
0.0
 11
73.55360000000001
 21
1127.153
 31
0.0
  0
LINE
  5
148
330
1E
100
AcDbEntity
  8
0
100
AcDbLine
 10
74.29999999999999
 20
352.153
 30
0.0
 11
78.0
 21
361.053
 31
0.0
  0
LINE
  5
149
330
1E
100
AcDbEntity
  8
0
100
AcDbLine
 10
80.5
 20
349.653
 30
0.0
 11
84.0
 21
350.153
 31
0.0
  0
LINE
  5
14A
330
1E
100
AcDbEntity
  8
0
100
AcDbLine
 10
78.0
 20
348.653
 30
0.0
 11
80.5
 21
349.653
 31
0.0
  0
LINE
  5
14B
330
1E
100
AcDbEntity
  8
0
100
AcDbLine
 10
76.0
 20
347.153
 30
0.0
 11
78.0
 21
348.653
 31
0.0
  0
LINE
  5
14C
330
1E
100
AcDbEntity
  8
0
100
AcDbLine
 10
81.0104166666667
 20
349.725916666667
 30
0.0
 11
81.09999999999999
 21
350.353
 31
0.0
  0
LINE
  5
14D
330
1E
100
AcDbEntity
  8
0
100
AcDbLine
 10
75.866
 20
1127.153
 30
0.0
 11
75.866
 21
1129.153
 31
0.0
  0
LINE
  5
14E
330
1E
100
AcDbEntity
  8
0
100
AcDbLine
 10
75.866
 20
1127.153
 30
0.0
 11
76.866
 21
1127.153
 31
0.0
  0
LINE
  5
14F
330
1E
100
AcDbEntity
  8
0
100
AcDbLine
 10
75.866
 20
1127.153
 30
0.0
 11
76.866
 21
1127.153
 31
0.0
  0
LINE
  5
150
330
1E
100
AcDbEntity
  8
0
100
AcDbLine
 10
77.591
 20
1127.153
 30
0.0
 11
77.591
 21
1129.153
 31
0.0
  0
LINE
  5
151
330
1E
100
AcDbEntity
  8
0
100
AcDbLine
 10
76.866
 20
1127.153
 30
0.0
 11
76.866
 21
1129.153
 31
0.0
  0
LINE
  5
152
330
1E
100
AcDbEntity
  8
0
100
AcDbLine
 10
76.59100000000001
 20
1127.153
 30
0.0
 11
77.591
 21
1127.153
 31
0.0
  0
LINE
  5
153
330
1E
100
AcDbEntity
  8
0
100
AcDbLine
 10
77.591
 20
1129.153
 30
0.0
 11
77.591
 21
1127.153
 31
0.0
  0
LINE
  5
154
330
1E
100
AcDbEntity
  8
0
100
AcDbLine
 10
77.591
 20
1129.153
 30
0.0
 11
81.0086
 21
1129.153
 31
0.0
  0
LINE
  5
155
330
1E
100
AcDbEntity
  8
0
100
AcDbLine
 10
78.0
 20
1173.153
 30
0.0
 11
83.0
 21
1176.153
 31
0.0
  0
LINE
  5
156
330
1E
100
AcDbEntity
  8
0
100
AcDbLine
 10
76.866
 20
1129.153
 30
0.0
 11
76.866
 21
1127.153
 31
0.0
  0
LINE
  5
157
330
1E
100
AcDbEntity
  8
0
100
AcDbLine
 10
76.866
 20
1129.153
 30
0.0
 11
77.591
 21
1129.153
 31
0.0
  0
LINE
  5
158
330
1E
100
AcDbEntity
  8
0
100
AcDbLine
 10
75.866
 20
1129.153
 30
0.0
 11
75.866
 21
1127.153
 31
0.0
  0
LINE
  5
159
330
1E
100
AcDbEntity
  8
0
100
AcDbLine
 10
75.866
 20
1129.153
 30
0.0
 11
76.866
 21
1129.153
 31
0.0
  0
LINE
  5
15A
330
1E
100
AcDbEntity
  8
0
100
AcDbLine
 10
75.85899999999999
 20
1127.153
 30
0.0
 11
77.591
 21
1127.153
 31
0.0
  0
LINE
  5
15B
330
1E
100
AcDbEntity
  8
0
100
AcDbLine
 10
81.0086
 20
1129.153
 30
0.0
 11
81.0086
 21
1127.153
 31
0.0
  0
LINE
  5
15C
330
1E
100
AcDbEntity
  8
0
100
AcDbLine
 10
81.0086
 20
1129.153
 30
0.0
 11
81.63400000000001
 21
1129.153
 31
0.0
  0
LINE
  5
15D
330
1E
100
AcDbEntity
  8
0
100
AcDbLine
 10
81.0086
 20
1127.153
 30
0.0
 11
81.0086
 21
1129.153
 31
0.0
  0
LINE
  5
15E
330
1E
100
AcDbEntity
  8
0
100
AcDbLine
 10
81.0086
 20
1127.153
 30
0.0
 11
82.42279999999999
 21
1127.153
 31
0.0
  0
LINE
  5
15F
330
1E
100
AcDbEntity
  8
0
100
AcDbLine
 10
80.0
 20
1262.653
 30
0.0
 11
81.09999999999999
 21
1254.953
 31
0.0
  0
LINE
  5
160
330
1E
100
AcDbEntity
  8
0
100
AcDbLine
 10
80.0
 20
1262.653
 30
0.0
 11
81.09999999999999
 21
1270.353
 31
0.0
  0
LINE
  5
161
330
1E
100
AcDbEntity
  8
0
100
AcDbLine
 10
78.0
 20
361.053
 30
0.0
 11
83.9
 21
368.753
 31
0.0
  0
LINE
  5
162
330
1E
100
AcDbEntity
  8
0
100
AcDbLine
 10
75.54719101123599
 20
355.153
 30
0.0
 11
78.0
 21
361.053
 31
0.0
  0
LINE
  5
163
330
1E
100
AcDbEntity
  8
0
100
AcDbLine
 10
81.09999999999999
 20
1270.353
 30
0.0
 11
84.0
 21
1277.553
 31
0.0
  0
LINE
  5
164
330
1E
100
AcDbEntity
  8
0
100
AcDbLine
 10
82.634
 20
1127.153
 30
0.0
 11
84.366
 21
1127.153
 31
0.0
  0
LINE
  5
165
330
1E
100
AcDbEntity
  8
0
100
AcDbLine
 10
81.63400000000001
 20
1127.153
 30
0.0
 11
82.634
 21
1127.153
 31
0.0
  0
LINE
  5
166
330
1E
100
AcDbEntity
  8
0
100
AcDbLine
 10
81.63400000000001
 20
1127.153
 30
0.0
 11
83.366
 21
1127.153
 31
0.0
  0
LINE
  5
167
330
1E
100
AcDbEntity
  8
0
100
AcDbLine
 10
81.63400000000001
 20
1127.153
 30
0.0
 11
81.63400000000001
 21
1129.153
 31
0.0
  0
LINE
  5
168
330
1E
100
AcDbEntity
  8
0
100
AcDbLine
 10
81.63400000000001
 20
1127.153
 30
0.0
 11
83.366
 21
1127.153
 31
0.0
  0
LINE
  5
169
330
1E
100
AcDbEntity
  8
0
100
AcDbLine
 10
83.0
 20
1176.153
 30
0.0
 11
86.0
 21
1179.153
 31
0.0
  0
LINE
  5
16A
330
1E
100
AcDbEntity
  8
0
100
AcDbLine
 10
81.63400000000001
 20
1129.153
 30
0.0
 11
81.63400000000001
 21
1127.153
 31
0.0
  0
LINE
  5
16B
330
1E
100
AcDbEntity
  8
0
100
AcDbLine
 10
81.63400000000001
 20
1129.153
 30
0.0
 11
83.366
 21
1129.153
 31
0.0
  0
LINE
  5
16C
330
1E
100
AcDbEntity
  8
0
100
AcDbLine
 10
82.42279999999999
 20
1127.153
 30
0.0
 11
83.83700000000001
 21
1127.153
 31
0.0
  0
LINE
  5
16D
330
1E
100
AcDbEntity
  8
0
100
AcDbLine
 10
81.09999999999999
 20
1254.953
 30
0.0
 11
84.0
 21
1247.753
 31
0.0
  0
LINE
  5
16E
330
1E
100
AcDbEntity
  8
0
100
AcDbLine
 10
81.09999999999999
 20
350.353
 30
0.0
 11
84.0
 21
357.553
 31
0.0
  0
LINE
  5
170
330
1E
100
AcDbEntity
  8
0
100
AcDbLine
 10
81.09999999999999
 20
334.953
 30
0.0
 11
84.0
 21
327.753
 31
0.0
  0
LINE
  5
171
330
1E
100
AcDbEntity
  8
0
100
AcDbLine
 10
81.0104166666667
 20
335.5800833333329
 30
0.0
 11
81.09999999999999
 21
334.953
 31
0.0
  0
LINE
  5
172
330
1E
100
AcDbEntity
  8
0
100
AcDbLine
 10
74.29999999999999
 20
333.153
 30
0.0
 11
78.0
 21
324.2529999999999
 31
0.0
  0
LINE
  5
173
330
1E
100
AcDbEntity
  8
0
100
AcDbLine
 10
73.0
 20
342.653
 30
0.0
 11
74.29999999999999
 21
333.153
 31
0.0
  0
LINE
  5
174
330
1E
100
AcDbEntity
  8
0
100
AcDbLine
 10
73.0
 20
342.653
 30
0.0
 11
74.29999999999999
 21
352.153
 31
0.0
  0
LINE
  5
175
330
1E
100
AcDbEntity
  8
0
100
AcDbLine
 10
78.0
 20
324.2529999999999
 30
0.0
 11
83.9
 21
316.5529999999999
 31
0.0
  0
LINE
  5
176
330
1E
100
AcDbEntity
  8
0
100
AcDbLine
 10
88.8
 20
321.4529999999999
 30
0.0
 11
95.09999999999999
 21
316.653
 31
0.0
  0
LINE
  5
177
330
1E
100
AcDbEntity
  8
0
100
AcDbLine
 10
84.0
 20
327.753
 30
0.0
 11
88.8
 21
321.4529999999999
 31
0.0
  0
LINE
  5
178
330
1E
100
AcDbEntity
  8
0
100
AcDbLine
 10
83.9
 20
316.5529999999999
 30
0.0
 11
91.6
 21
310.653
 31
0.0
  0
LINE
  5
179
330
1E
100
AcDbEntity
  8
0
100
AcDbLine
 10
100.0
 20
307.160865168539
 30
0.0
 11
100.0
 21
295.153
 31
0.0
  0
LINE
  5
17A
330
1E
100
AcDbEntity
  8
0
100
AcDbLine
 10
100.0
 20
295.153
 30
0.0
 11
100.2272999999999
 21
294.653
 31
0.0
  0
LINE
  5
17B
330
1E
100
AcDbEntity
  8
0
100
AcDbLine
 10
100.0
 20
295.153
 30
0.0
 11
100.0
 21
307.160865168539
 31
0.0
  0
LINE
  5
17C
330
1E
100
AcDbEntity
  8
0
100
AcDbLine
 10
100.2272999999999
 20
294.653
 30
0.0
 11
100.5909
 21
294.653
 31
0.0
  0
LINE
  5
17D
330
1E
100
AcDbEntity
  8
0
100
AcDbLine
 10
91.6
 20
310.653
 30
0.0
 11
100.5
 21
306.9529999999999
 31
0.0
  0
LINE
  5
17E
330
1E
100
AcDbEntity
  8
0
100
AcDbLine
 10
102.8
 20
264.653
 30
0.0
 11
103.2
 21
277.653
 31
0.0
  0
LINE
  5
17F
330
1E
100
AcDbEntity
  8
0
100
AcDbLine
 10
102.4999999999999
 20
255.6529999999999
 30
0.0
 11
103.0
 21
252.1529999999999
 31
0.0
  0
LINE
  5
180
330
1E
100
AcDbEntity
  8
0
100
AcDbLine
 10
102.4999999999999
 20
255.6529999999999
 30
0.0
 11
102.8
 21
264.653
 31
0.0
  0
LINE
  5
181
330
1E
100
AcDbEntity
  8
0
100
AcDbLine
 10
103.0
 20
252.1529999999999
 30
0.0
 11
104.0
 21
249.6529999999999
 31
0.0
  0
LINE
  5
182
330
1E
100
AcDbEntity
  8
0
100
AcDbLine
 10
101.797035166616
 20
294.653
 30
0.0
 11
103.0023
 21
144.746
 31
0.0
  0
LINE
  5
183
330
1E
100
AcDbEntity
  8
0
100
AcDbLine
 10
112.5
 20
246.1529999999999
 30
0.0
 11
114.5
 21
247.6529999999999
 31
0.0
  0
LINE
  5
184
330
1E
100
AcDbEntity
  8
0
100
AcDbLine
 10
110.0
 20
245.6529999999999
 30
0.0
 11
112.5
 21
246.1529999999999
 31
0.0
  0
LINE
  5
185
330
1E
100
AcDbEntity
  8
0
100
AcDbLine
 10
103.2
 20
277.653
 30
0.0
 11
104.0
 21
296.653
 31
0.0
  0
LINE
  5
186
330
1E
100
AcDbEntity
  8
0
100
AcDbLine
 10
104.0
 20
249.6529999999999
 30
0.0
 11
105.4999999999999
 21
247.6529999999999
 31
0.0
  0
LINE
  5
187
330
1E
100
AcDbEntity
  8
0
100
AcDbLine
 10
105.4999999999999
 20
247.6529999999999
 30
0.0
 11
107.4999999999999
 21
246.1529999999999
 31
0.0
  0
LINE
  5
188
330
1E
100
AcDbEntity
  8
0
100
AcDbLine
 10
107.4999999999999
 20
246.1529999999999
 30
0.0
 11
110.0
 21
245.6529999999999
 31
0.0
  0
LINE
  5
189
330
1E
100
AcDbEntity
  8
0
100
AcDbLine
 10
103.0023
 20
144.746
 30
0.0
 11
106.9214
 21
121.362
 31
0.0
  0
LINE
  5
18A
330
1E
100
AcDbEntity
  8
0
100
AcDbLine
 10
106.9214
 20
121.362
 30
0.0
 11
113.4395
 21
97.57899999999999
 31
0.0
  0
LINE
  5
18B
330
1E
100
AcDbEntity
  8
0
100
AcDbLine
 10
114.5
 20
247.6529999999999
 30
0.0
 11
116.0
 21
249.6529999999999
 31
0.0
  0
LINE
  5
18C
330
1E
100
AcDbEntity
  8
0
100
AcDbLine
 10
113.4395
 20
97.57899999999999
 30
0.0
 11
124.1552999999999
 21
73.89499999999999
 31
0.0
  0
LINE
  5
18D
330
1E
100
AcDbEntity
  8
0
100
AcDbLine
 10
103.0909
 20
294.653
 30
0.0
 11
103.915789473684
 21
294.653
 31
0.0
  0
LINE
  5
18E
330
1E
100
AcDbEntity
  8
0
100
AcDbLine
 10
101.5454
 20
294.653
 30
0.0
 11
103.0909
 21
294.653
 31
0.0
  0
LINE
  5
18F
330
1E
100
AcDbEntity
  8
0
100
AcDbLine
 10
101.5454
 20
294.653
 30
0.0
 11
101.797035166616
 21
294.653
 31
0.0
  0
LINE
  5
190
330
1E
100
AcDbEntity
  8
0
100
AcDbLine
 10
103.0
 20
313.153
 30
0.0
 11
104.0
 21
310.653
 31
0.0
  0
LINE
  5
191
330
1E
100
AcDbEntity
  8
0
100
AcDbLine
 10
104.0
 20
310.653
 30
0.0
 11
105.4999999999999
 21
308.653
 31
0.0
  0
LINE
  5
192
330
1E
100
AcDbEntity
  8
0
100
AcDbLine
 10
105.4999999999999
 20
308.653
 30
0.0
 11
107.4999999999999
 21
307.153
 31
0.0
  0
LINE
  5
193
330
1E
100
AcDbEntity
  8
0
100
AcDbLine
 10
114.5
 20
308.653
 30
0.0
 11
116.0
 21
310.653
 31
0.0
  0
LINE
  5
194
330
1E
100
AcDbEntity
  8
0
100
AcDbLine
 10
112.5
 20
307.153
 30
0.0
 11
114.5
 21
308.653
 31
0.0
  0
LINE
  5
195
330
1E
100
AcDbEntity
  8
0
100
AcDbLine
 10
110.0
 20
306.653
 30
0.0
 11
112.5
 21
307.153
 31
0.0
  0
LINE
  5
196
330
1E
100
AcDbEntity
  8
0
100
AcDbLine
 10
107.4999999999999
 20
307.153
 30
0.0
 11
110.0
 21
306.653
 31
0.0
  0
LINE
  5
197
330
1E
100
AcDbEntity
  8
0
100
AcDbLine
 10
115.045454545455
 20
309.380272727273
 30
0.0
 11
116.0
 21
296.653
 31
0.0
  0
LINE
  5
198
330
1E
100
AcDbEntity
  8
0
100
AcDbLine
 10
104.0
 20
296.653
 30
0.0
 11
104.9545454545449
 21
309.380272727273
 31
0.0
  0
LINE
  5
199
330
1E
100
AcDbEntity
  8
0
100
AcDbLine
 10
100.5909
 20
294.653
 30
0.0
 11
101.5454
 21
294.653
 31
0.0
  0
LINE
  5
19A
330
1E
100
AcDbEntity
  8
0
100
AcDbLine
 10
116.7999999999999
 20
277.653
 30
0.0
 11
117.2
 21
264.653
 31
0.0
  0
LINE
  5
19B
330
1E
100
AcDbEntity
  8
0
100
AcDbLine
 10
116.0
 20
249.6529999999999
 30
0.0
 11
117.0
 21
252.1529999999999
 31
0.0
  0
LINE
  5
19C
330
1E
100
AcDbEntity
  8
0
100
AcDbLine
 10
116.0
 20
310.653
 30
0.0
 11
117.0
 21
313.153
 31
0.0
  0
LINE
  5
19D
330
1E
100
AcDbEntity
  8
0
100
AcDbLine
 10
116.0
 20
296.653
 30
0.0
 11
116.7999999999999
 21
277.653
 31
0.0
  0
LINE
  5
19E
330
1E
100
AcDbEntity
  8
0
100
AcDbLine
 10
116.084210526316
 20
294.653
 30
0.0
 11
116.9090999999999
 21
294.653
 31
0.0
  0
LINE
  5
19F
330
1E
100
AcDbEntity
  8
0
100
AcDbLine
 10
117.0
 20
313.153
 30
0.0
 11
117.5
 21
316.653
 31
0.0
  0
LINE
  5
1A0
330
1E
100
AcDbEntity
  8
0
100
AcDbLine
 10
117.2
 20
264.653
 30
0.0
 11
117.5
 21
255.6529999999999
 31
0.0
  0
LINE
  5
1A1
330
1E
100
AcDbEntity
  8
0
100
AcDbLine
 10
117.0
 20
252.1529999999999
 30
0.0
 11
117.5
 21
255.6529999999999
 31
0.0
  0
LINE
  5
1A2
330
1E
100
AcDbEntity
  8
0
100
AcDbLine
 10
116.9090999999999
 20
294.653
 30
0.0
 11
118.4544999999999
 21
294.653
 31
0.0
  0
LINE
  5
1A3
330
1E
100
AcDbEntity
  8
0
100
AcDbLine
 10
117.0729166666669
 20
313.663416666667
 30
0.0
 11
117.7
 21
313.7529999999999
 31
0.0
  0
LINE
  5
1A4
330
1E
100
AcDbEntity
  8
0
100
AcDbLine
 10
115.270903881219
 20
306.3742815837459
 30
0.0
 11
119.5
 21
306.9529999999999
 31
0.0
  0
LINE
  5
1A5
330
1E
100
AcDbEntity
  8
0
100
AcDbLine
 10
102.2999999999999
 20
313.7529999999999
 30
0.0
 11
102.927083333333
 21
313.663416666667
 31
0.0
  0
LINE
  5
1A6
330
1E
100
AcDbEntity
  8
0
100
AcDbLine
 10
100.5
 20
306.9529999999999
 30
0.0
 11
104.729096118781
 21
306.3742815837459
 31
0.0
  0
LINE
  5
1A7
330
1E
100
AcDbEntity
  8
0
100
AcDbLine
 10
102.4999999999999
 20
316.653
 30
0.0
 11
103.0
 21
313.153
 31
0.0
  0
LINE
  5
1A8
330
1E
100
AcDbEntity
  8
0
100
AcDbLine
 10
102.4999999999999
 20
316.653
 30
0.0
 11
102.8
 21
320.653
 31
0.0
  0
LINE
  5
1A9
330
1E
100
AcDbEntity
  8
0
100
AcDbLine
 10
95.09999999999999
 20
316.653
 30
0.0
 11
102.2999999999999
 21
313.7529999999999
 31
0.0
  0
LINE
  5
1AB
330
1E
100
AcDbEntity
  8
0
100
AcDbLine
 10
119.0029
 20
145.5439999999999
 30
0.0
 11
122.7192999999999
 21
124.16
 31
0.0
  0
LINE
  5
1AC
330
1E
100
AcDbEntity
  8
0
100
AcDbLine
 10
117.7888432239859
 20
294.653
 30
0.0
 11
118.4544999999999
 21
294.653
 31
0.0
  0
LINE
  5
1AD
330
1E
100
AcDbEntity
  8
0
100
AcDbLine
 10
117.7888432239859
 20
294.653
 30
0.0
 11
119.0029
 21
145.5439999999999
 31
0.0
  0
LINE
  5
1AE
330
1E
100
AcDbEntity
  8
0
100
AcDbLine
 10
118.4544999999999
 20
294.653
 30
0.0
 11
119.4091
 21
294.653
 31
0.0
  0
LINE
  5
1AF
330
1E
100
AcDbEntity
  8
0
100
AcDbLine
 10
122.7192999999999
 20
124.16
 30
0.0
 11
128.4343
 21
103.075
 31
0.0
  0
LINE
  5
1B0
330
1E
100
AcDbEntity
  8
0
100
AcDbLine
 10
124.1552999999999
 20
73.89499999999999
 30
0.0
 11
136.1669999999999
 21
52.71
 31
0.0
  0
LINE
  5
1B1
330
1E
100
AcDbEntity
  8
0
100
AcDbLine
 10
120.0
 20
295.153
 30
0.0
 11
120.0
 21
307.160865168539
 31
0.0
  0
LINE
  5
1B2
330
1E
100
AcDbEntity
  8
0
100
AcDbLine
 10
119.7728
 20
294.653
 30
0.0
 11
120.0
 21
295.153
 31
0.0
  0
LINE
  5
1B3
330
1E
100
AcDbEntity
  8
0
100
AcDbLine
 10
119.4091
 20
294.653
 30
0.0
 11
119.7728
 21
294.653
 31
0.0
  0
LINE
  5
1B4
330
1E
100
AcDbEntity
  8
0
100
AcDbLine
 10
120.0
 20
307.160865168539
 30
0.0
 11
120.0
 21
295.153
 31
0.0
  0
LINE
  5
1B5
330
1E
100
AcDbEntity
  8
0
100
AcDbLine
 10
117.7
 20
313.7529999999999
 30
0.0
 11
124.9
 21
316.653
 31
0.0
  0
LINE
  5
1B6
330
1E
100
AcDbEntity
  8
0
100
AcDbLine
 10
119.5
 20
306.9529999999999
 30
0.0
 11
128.4
 21
310.653
 31
0.0
  0
LINE
  5
1B7
330
1E
100
AcDbEntity
  8
0
100
AcDbLine
 10
128.4343
 20
103.075
 30
0.0
 11
138.047
 21
81.889
 31
0.0
  0
LINE
  5
1B8
330
1E
100
AcDbEntity
  8
0
100
AcDbLine
 10
138.047
 20
81.889
 30
0.0
 11
148.357
 21
63.002
 31
0.0
  0
LINE
  5
1B9
330
1E
100
AcDbEntity
  8
0
100
AcDbLine
 10
148.357
 20
63.002
 30
0.0
 11
162.36
 21
48.01300000000001
 31
0.0
  0
LINE
  5
1BA
330
1E
100
AcDbEntity
  8
0
100
AcDbLine
 10
136.1669999999999
 20
52.71
 30
0.0
 11
152.071
 21
36.021
 31
0.0
  0
LINE
  5
1BB
330
1E
100
AcDbEntity
  8
0
100
AcDbLine
 10
162.36
 20
48.01300000000001
 30
0.0
 11
180.1709999999999
 21
32.42399999999999
 31
0.0
  0
LINE
  5
1BC
330
1E
100
AcDbEntity
  8
0
100
AcDbLine
 10
152.071
 20
36.021
 30
0.0
 11
172.184
 21
18.534
 31
0.0
  0
LINE
  5
1BD
330
1E
100
AcDbEntity
  8
0
100
AcDbLine
 10
180.1709999999999
 20
32.42399999999999
 30
0.0
 11
197.674
 21
23.53
 31
0.0
  0
LINE
  5
1BE
330
1E
100
AcDbEntity
  8
0
100
AcDbLine
 10
172.184
 20
18.534
 30
0.0
 11
192.1859999999999
 21
8.540000000000009
 31
0.0
  0
LINE
  5
1BF
330
1E
100
AcDbEntity
  8
0
100
AcDbLine
 10
192.1859999999999
 20
8.540000000000009
 30
0.0
 11
214.884
 21
1.645000000000029
 31
0.0
  0
LINE
  5
1C0
330
1E
100
AcDbEntity
  8
0
100
AcDbLine
 10
176.0
 20
308.9529999999999
 30
0.0
 11
185.0
 21
307.653
 31
0.0
  0
LINE
  5
1C1
330
1E
100
AcDbEntity
  8
0
100
AcDbLine
 10
176.5
 20
310.853
 30
0.0
 11
185.0
 21
309.653
 31
0.0
  0
LINE
  5
1C2
330
1E
100
AcDbEntity
  8
0
100
AcDbLine
 10
167.5999999999999
 20
312.353
 30
0.0
 11
176.0
 21
308.9529999999999
 31
0.0
  0
LINE
  5
1C3
330
1E
100
AcDbEntity
  8
0
100
AcDbLine
 10
185.0
 20
309.653
 30
0.0
 11
193.5
 21
310.853
 31
0.0
  0
LINE
  5
1C4
330
1E
100
AcDbEntity
  8
0
100
AcDbLine
 10
193.5
 20
310.853
 30
0.0
 11
201.4
 21
314.053
 31
0.0
  0
LINE
  5
1C5
330
1E
100
AcDbEntity
  8
0
100
AcDbLine
 10
185.0
 20
307.653
 30
0.0
 11
194.0
 21
308.9529999999999
 31
0.0
  0
LINE
  5
1C6
330
1E
100
AcDbEntity
  8
0
100
AcDbLine
 10
231.877
 20
-0.152999999999973
 30
0.0
 11
248.8759999999999
 21
1.645000000000029
 31
0.0
  0
LINE
  5
1C7
330
1E
100
AcDbEntity
  8
0
100
AcDbLine
 10
248.8759999999999
 20
1.645000000000029
 30
0.0
 11
271.565
 21
8.540000000000009
 31
0.0
  0
LINE
  5
1C8
330
1E
100
AcDbEntity
  8
0
100
AcDbLine
 10
248.8759999999999
 20
1.645000000000029
 30
0.0
 11
271.565
 21
8.540000000000009
 31
0.0
  0
LINE
  5
1C9
330
1E
100
AcDbEntity
  8
0
100
AcDbLine
 10
231.877
 20
-0.152999999999973
 30
0.0
 11
248.8759999999999
 21
1.645000000000029
 31
0.0
  0
LINE
  5
1CA
330
1E
100
AcDbEntity
  8
0
100
AcDbLine
 10
197.674
 20
23.53
 30
0.0
 11
217.6709999999999
 21
17.434
 31
0.0
  0
LINE
  5
1CB
330
1E
100
AcDbEntity
  8
0
100
AcDbLine
 10
271.565
 20
8.540000000000009
 30
0.0
 11
291.5509999999999
 21
18.534
 31
0.0
  0
LINE
  5
1CC
330
1E
100
AcDbEntity
  8
0
100
AcDbLine
 10
291.5509999999999
 20
18.534
 30
0.0
 11
311.6279999999999
 21
36.021
 31
0.0
  0
LINE
  5
1CD
330
1E
100
AcDbEntity
  8
0
100
AcDbLine
 10
344.535
 20
145.5439999999999
 30
0.0
 11
345.719
 21
294.732
 31
0.0
  0
LINE
  5
1CE
330
1E
100
AcDbEntity
  8
0
100
AcDbLine
 10
360.538
 20
144.746
 30
0.0
 11
361.721
 21
294.732
 31
0.0
  0
LINE
  5
1CF
330
1E
100
AcDbEntity
  8
0
100
AcDbLine
 10
340.856
 20
124.16
 30
0.0
 11
344.535
 21
145.5439999999999
 31
0.0
  0
LINE
  5
1D0
330
1E
100
AcDbEntity
  8
0
100
AcDbLine
 10
356.651
 20
121.362
 30
0.0
 11
360.538
 21
144.746
 31
0.0
  0
LINE
  5
1D1
330
1E
100
AcDbEntity
  8
0
100
AcDbLine
 10
335.176
 20
103.075
 30
0.0
 11
340.856
 21
124.16
 31
0.0
  0
LINE
  5
1D2
330
1E
100
AcDbEntity
  8
0
100
AcDbLine
 10
350.1759999999999
 20
97.57899999999999
 30
0.0
 11
356.651
 21
121.362
 31
0.0
  0
LINE
  5
1D3
330
1E
100
AcDbEntity
  8
0
100
AcDbLine
 10
325.59
 20
81.889
 30
0.0
 11
335.176
 21
103.075
 31
0.0
  0
LINE
  5
1D4
330
1E
100
AcDbEntity
  8
0
100
AcDbLine
 10
339.493
 20
73.89499999999999
 30
0.0
 11
350.1759999999999
 21
97.57899999999999
 31
0.0
  0
LINE
  5
1D5
330
1E
100
AcDbEntity
  8
0
100
AcDbLine
 10
315.31
 20
63.002
 30
0.0
 11
325.59
 21
81.889
 31
0.0
  0
LINE
  5
1D6
330
1E
100
AcDbEntity
  8
0
100
AcDbLine
 10
327.517
 20
52.71
 30
0.0
 11
339.493
 21
73.89499999999999
 31
0.0
  0
LINE
  5
1D7
330
1E
100
AcDbEntity
  8
0
100
AcDbLine
 10
301.3269999999999
 20
48.01300000000001
 30
0.0
 11
315.31
 21
63.002
 31
0.0
  0
LINE
  5
1D8
330
1E
100
AcDbEntity
  8
0
100
AcDbLine
 10
311.6279999999999
 20
36.021
 30
0.0
 11
327.517
 21
52.71
 31
0.0
  0
LINE
  5
1D9
330
1E
100
AcDbEntity
  8
0
100
AcDbLine
 10
283.537
 20
32.42399999999999
 30
0.0
 11
301.3269999999999
 21
48.01300000000001
 31
0.0
  0
LINE
  5
1DA
330
1E
100
AcDbEntity
  8
0
100
AcDbLine
 10
266.0579999999999
 20
23.53
 30
0.0
 11
283.537
 21
32.42399999999999
 31
0.0
  0
LINE
  5
1DB
330
1E
100
AcDbEntity
  8
0
100
AcDbLine
 10
246.0669999999999
 20
17.434
 30
0.0
 11
266.0579999999999
 21
23.53
 31
0.0
  0
LINE
  5
1DC
330
1E
100
AcDbEntity
  8
0
100
AcDbLine
 10
231.8659999999999
 20
15.835
 30
0.0
 11
246.0669999999999
 21
17.434
 31
0.0
  0
LINE
  5
1DD
330
1E
100
AcDbEntity
  8
0
100
AcDbLine
 10
217.6709999999999
 20
17.434
 30
0.0
 11
231.8659999999999
 21
15.835
 31
0.0
  0
LINE
  5
1DE
330
1E
100
AcDbEntity
  8
0
100
AcDbLine
 10
214.884
 20
1.645000000000029
 30
0.0
 11
231.877
 21
-0.152999999999973
 31
0.0
  0
LINE
  5
1DF
330
1E
100
AcDbEntity
  8
0
100
AcDbLine
 10
214.884
 20
1.645000000000029
 30
0.0
 11
231.877
 21
-0.152999999999973
 31
0.0
  0
LINE
  5
1E0
330
1E
100
AcDbEntity
  8
0
100
AcDbLine
 10
194.0
 20
308.9529999999999
 30
0.0
 11
202.4
 21
312.353
 31
0.0
  0
LINE
  5
1E1
330
1E
100
AcDbEntity
  8
0
100
AcDbLine
 10
168.5999999999999
 20
314.053
 30
0.0
 11
176.5
 21
310.853
 31
0.0
  0
LINE
  5
1E2
330
1E
100
AcDbEntity
  8
0
100
AcDbLine
 10
201.4
 20
314.053
 30
0.0
 11
208.3
 21
319.3529999999999
 31
0.0
  0
LINE
  5
1E3
330
1E
100
AcDbEntity
  8
0
100
AcDbLine
 10
202.4
 20
312.353
 30
0.0
 11
209.6999999999999
 21
317.9529999999999
 31
0.0
  0
LINE
  5
1E4
330
1E
100
AcDbEntity
  8
0
100
AcDbLine
 10
128.4
 20
310.653
 30
0.0
 11
136.0999999999999
 21
316.5529999999999
 31
0.0
  0
LINE
  5
1E5
330
1E
100
AcDbEntity
  8
0
100
AcDbLine
 10
160.3
 20
317.9529999999999
 30
0.0
 11
167.5999999999999
 21
312.353
 31
0.0
  0
LINE
  5
1E6
330
1E
100
AcDbEntity
  8
0
100
AcDbLine
 10
209.6999999999999
 20
317.9529999999999
 30
0.0
 11
215.3
 21
325.253
 31
0.0
  0
LINE
  5
1E7
330
1E
100
AcDbEntity
  8
0
100
AcDbLine
 10
124.9
 20
316.653
 30
0.0
 11
131.1999999999999
 21
321.4529999999999
 31
0.0
  0
LINE
  5
1E8
330
1E
100
AcDbEntity
  8
0
100
AcDbLine
 10
136.0999999999999
 20
316.5529999999999
 30
0.0
 11
142.0
 21
324.2529999999999
 31
0.0
  0
LINE
  5
1E9
330
1E
100
AcDbEntity
  8
0
100
AcDbLine
 10
117.4101641907739
 20
317.8508107896789
 30
0.0
 11
122.9
 21
320.153
 31
0.0
  0
LINE
  5
1EC
330
1E
100
AcDbEntity
  8
0
100
AcDbLine
 10
161.6999999999999
 20
319.3529999999999
 30
0.0
 11
168.5999999999999
 21
314.053
 31
0.0
  0
LINE
  5
1ED
330
1E
100
AcDbEntity
  8
0
100
AcDbLine
 10
185.0
 20
319.653
 30
0.0
 11
190.8999999999999
 21
320.4529999999999
 31
0.0
  0
LINE
  5
1EE
330
1E
100
AcDbEntity
  8
0
100
AcDbLine
 10
208.3
 20
319.3529999999999
 30
0.0
 11
213.6
 21
326.2529999999999
 31
0.0
  0
LINE
  5
1EF
330
1E
100
AcDbEntity
  8
0
100
AcDbLine
 10
122.9
 20
320.153
 30
0.0
 11
128.4
 21
324.2529999999999
 31
0.0
  0
LINE
  5
1F0
330
1E
100
AcDbEntity
  8
0
100
AcDbLine
 10
117.2
 20
320.653
 30
0.0
 11
117.5
 21
316.653
 31
0.0
  0
LINE
  5
1F2
330
1E
100
AcDbEntity
  8
0
100
AcDbLine
 10
102.8
 20
320.653
 30
0.0
 11
103.2
 21
323.653
 31
0.0
  0
LINE
  5
1F3
330
1E
100
AcDbEntity
  8
0
100
AcDbLine
 10
131.1999999999999
 20
321.4529999999999
 30
0.0
 11
136.0
 21
327.753
 31
0.0
  0
LINE
  5
1F6
330
1E
100
AcDbEntity
  8
0
100
AcDbLine
 10
116.7999999999999
 20
323.653
 30
0.0
 11
117.2
 21
320.653
 31
0.0
  0
LINE
  5
1F8
330
1E
100
AcDbEntity
  8
0
100
AcDbLine
 10
100.5
 20
326.218
 30
0.0
 11
103.4658461538459
 21
324.982230769231
 31
0.0
  0
LINE
  5
1F9
330
1E
100
AcDbEntity
  8
0
100
AcDbLine
 10
116.5341538461539
 20
324.982230769231
 30
0.0
 11
119.5
 21
326.218
 31
0.0
  0
LINE
  5
1FB
330
1E
100
AcDbEntity
  8
0
100
AcDbLine
 10
119.5
 20
326.218
 30
0.0
 11
123.3949999999999
 21
329.258
 31
0.0
  0
LINE
  5
1FC
330
1E
100
AcDbEntity
  8
0
100
AcDbLine
 10
116.0
 20
327.653
 30
0.0
 11
116.7999999999999
 21
323.653
 31
0.0
  0
LINE
  5
1FD
330
1E
100
AcDbEntity
  8
0
100
AcDbLine
 10
104.0
 20
327.653
 30
0.0
 11
105.34347826087
 21
331.235608695652
 31
0.0
  0
LINE
  5
1FE
330
1E
100
AcDbEntity
  8
0
100
AcDbLine
 10
103.2
 20
323.653
 30
0.0
 11
104.0
 21
327.653
 31
0.0
  0
LINE
  5
1FF
330
1E
100
AcDbEntity
  8
0
100
AcDbLine
 10
128.4
 20
324.2529999999999
 30
0.0
 11
132.4999999999999
 21
329.753
 31
0.0
  0
LINE
  5
201
330
1E
100
AcDbEntity
  8
0
100
AcDbLine
 10
179.0999999999999
 20
320.4529999999999
 30
0.0
 11
185.0
 21
319.653
 31
0.0
  0
LINE
  5
202
330
1E
100
AcDbEntity
  8
0
100
AcDbLine
 10
179.6
 20
322.4529999999999
 30
0.0
 11
185.0
 21
321.653
 31
0.0
  0
LINE
  5
203
330
1E
100
AcDbEntity
  8
0
100
AcDbLine
 10
173.5999999999999
 20
322.7529999999999
 30
0.0
 11
179.0999999999999
 21
320.4529999999999
 31
0.0
  0
LINE
  5
204
330
1E
100
AcDbEntity
  8
0
100
AcDbLine
 10
185.0
 20
321.653
 30
0.0
 11
190.4
 21
322.4529999999999
 31
0.0
  0
LINE
  5
205
330
1E
100
AcDbEntity
  8
0
100
AcDbLine
 10
190.4
 20
322.4529999999999
 30
0.0
 11
195.4
 21
324.4529999999999
 31
0.0
  0
LINE
  5
206
330
1E
100
AcDbEntity
  8
0
100
AcDbLine
 10
190.8999999999999
 20
320.4529999999999
 30
0.0
 11
196.4
 21
322.7529999999999
 31
0.0
  0
LINE
  5
207
330
1E
100
AcDbEntity
  8
0
100
AcDbLine
 10
196.4
 20
322.7529999999999
 30
0.0
 11
201.2
 21
326.4529999999999
 31
0.0
  0
LINE
  5
208
330
1E
100
AcDbEntity
  8
0
100
AcDbLine
 10
174.5999999999999
 20
324.4529999999999
 30
0.0
 11
179.6
 21
322.4529999999999
 31
0.0
  0
LINE
  5
209
330
1E
100
AcDbEntity
  8
0
100
AcDbLine
 10
154.6999999999999
 20
325.253
 30
0.0
 11
160.3
 21
317.9529999999999
 31
0.0
  0
LINE
  5
20A
330
1E
100
AcDbEntity
  8
0
100
AcDbLine
 10
195.4
 20
324.4529999999999
 30
0.0
 11
199.8
 21
327.8529999999999
 31
0.0
  0
LINE
  5
20B
330
1E
100
AcDbEntity
  8
0
100
AcDbLine
 10
168.8
 20
326.4529999999999
 30
0.0
 11
173.5999999999999
 21
322.7529999999999
 31
0.0
  0
LINE
  5
20C
330
1E
100
AcDbEntity
  8
0
100
AcDbLine
 10
156.4
 20
326.2529999999999
 30
0.0
 11
161.6999999999999
 21
319.3529999999999
 31
0.0
  0
LINE
  5
20D
330
1E
100
AcDbEntity
  8
0
100
AcDbLine
 10
170.1999999999999
 20
327.8529999999999
 30
0.0
 11
174.5999999999999
 21
324.4529999999999
 31
0.0
  0
LINE
  5
20E
330
1E
100
AcDbEntity
  8
0
100
AcDbLine
 10
199.8
 20
327.8529999999999
 30
0.0
 11
203.2
 21
332.253
 31
0.0
  0
LINE
  5
20F
330
1E
100
AcDbEntity
  8
0
100
AcDbLine
 10
201.2
 20
326.4529999999999
 30
0.0
 11
204.8999999999999
 21
331.253
 31
0.0
  0
LINE
  5
210
330
1E
100
AcDbEntity
  8
0
100
AcDbLine
 10
213.6
 20
326.2529999999999
 30
0.0
 11
216.8
 21
334.153
 31
0.0
  0
LINE
  5
211
330
1E
100
AcDbEntity
  8
0
100
AcDbLine
 10
215.3
 20
325.253
 30
0.0
 11
218.6999999999999
 21
333.653
 31
0.0
  0
LINE
  5
212
330
1E
100
AcDbEntity
  8
0
100
AcDbLine
 10
136.0
 20
327.753
 30
0.0
 11
138.9
 21
334.953
 31
0.0
  0
LINE
  5
213
330
1E
100
AcDbEntity
  8
0
100
AcDbLine
 10
142.0
 20
324.2529999999999
 30
0.0
 11
144.452808988764
 21
330.153
 31
0.0
  0
LINE
  5
214
330
1E
100
AcDbEntity
  8
0
100
AcDbLine
 10
142.0
 20
324.2529999999999
 30
0.0
 11
145.6999999999999
 21
333.153
 31
0.0
  0
LINE
  5
216
330
1E
100
AcDbEntity
  8
0
100
AcDbLine
 10
97.1
 20
320.153
 30
0.0
 11
102.589835809226
 21
317.8508107896789
 31
0.0
  0
LINE
  5
217
330
1E
100
AcDbEntity
  8
0
100
AcDbLine
 10
91.6
 20
324.2529999999999
 30
0.0
 11
97.1
 21
320.153
 31
0.0
  0
LINE
  5
21B
330
1E
100
AcDbEntity
  8
0
100
AcDbLine
 10
84.0
 20
350.153
 30
0.0
 11
88.0
 21
349.853
 31
0.0
  0
LINE
  5
21C
330
1E
100
AcDbEntity
  8
0
100
AcDbLine
 10
84.0
 20
335.153
 30
0.0
 11
88.0
 21
335.453
 31
0.0
  0
LINE
  5
21D
330
1E
100
AcDbEntity
  8
0
100
AcDbLine
 10
85.19781078967941
 20
350.063164190774
 30
0.0
 11
87.5
 21
355.553
 31
0.0
  0
LINE
  5
21E
330
1E
100
AcDbEntity
  8
0
100
AcDbLine
 10
83.366
 20
1129.153
 30
0.0
 11
83.366
 21
1127.153
 31
0.0
  0
LINE
  5
21F
330
1E
100
AcDbEntity
  8
0
100
AcDbLine
 10
83.366
 20
1129.153
 30
0.0
 11
84.366
 21
1129.153
 31
0.0
  0
LINE
  5
220
330
1E
100
AcDbEntity
  8
0
100
AcDbLine
 10
83.366
 20
1127.153
 30
0.0
 11
83.366
 21
1129.153
 31
0.0
  0
LINE
  5
221
330
1E
100
AcDbEntity
  8
0
100
AcDbLine
 10
83.366
 20
1127.153
 30
0.0
 11
84.366
 21
1127.153
 31
0.0
  0
LINE
  5
222
330
1E
100
AcDbEntity
  8
0
100
AcDbLine
 10
83.366
 20
1127.153
 30
0.0
 11
84.366
 21
1127.153
 31
0.0
  0
LINE
  5
223
330
1E
100
AcDbEntity
  8
0
100
AcDbLine
 10
84.0
 20
1277.553
 30
0.0
 11
88.8
 21
1283.853
 31
0.0
  0
LINE
  5
224
330
1E
100
AcDbEntity
  8
0
100
AcDbLine
 10
84.366
 20
1129.153
 30
0.0
 11
84.366
 21
1127.153
 31
0.0
  0
LINE
  5
225
330
1E
100
AcDbEntity
  8
0
100
AcDbLine
 10
84.366
 20
1129.153
 30
0.0
 11
85.0
 21
1129.153
 31
0.0
  0
LINE
  5
226
330
1E
100
AcDbEntity
  8
0
100
AcDbLine
 10
84.366
 20
1127.153
 30
0.0
 11
84.366
 21
1129.153
 31
0.0
  0
LINE
  5
227
330
1E
100
AcDbEntity
  8
0
100
AcDbLine
 10
85.0
 20
1127.153
 30
0.0
 11
85.0
 21
1129.153
 31
0.0
  0
LINE
  5
228
330
1E
100
AcDbEntity
  8
0
100
AcDbLine
 10
85.0
 20
1127.153
 30
0.0
 11
87.0
 21
1127.153
 31
0.0
  0
LINE
  5
229
330
1E
100
AcDbEntity
  8
0
100
AcDbLine
 10
85.0
 20
1129.153
 30
0.0
 11
85.59299999999998
 21
1129.153
 31
0.0
  0
LINE
  5
22A
330
1E
100
AcDbEntity
  8
0
100
AcDbLine
 10
85.0
 20
1129.153
 30
0.0
 11
85.0
 21
1127.153
 31
0.0
  0
LINE
  5
22B
330
1E
100
AcDbEntity
  8
0
100
AcDbLine
 10
84.0
 20
1247.753
 30
0.0
 11
88.8
 21
1241.452999999999
 31
0.0
  0
LINE
  5
22C
330
1E
100
AcDbEntity
  8
0
100
AcDbLine
 10
84.0
 20
357.553
 30
0.0
 11
88.8
 21
363.853
 31
0.0
  0
LINE
  5
22D
330
1E
100
AcDbEntity
  8
0
100
AcDbLine
 10
83.9
 20
368.753
 30
0.0
 11
91.6
 21
374.653
 31
0.0
  0
LINE
  5
22F
330
1E
100
AcDbEntity
  8
0
100
AcDbLine
 10
123.3949999999999
 20
329.258
 30
0.0
 11
126.435
 21
333.153
 31
0.0
  0
LINE
  5
230
330
1E
100
AcDbEntity
  8
0
100
AcDbLine
 10
96.605
 20
329.258
 30
0.0
 11
100.5
 21
326.218
 31
0.0
  0
LINE
  5
231
330
1E
100
AcDbEntity
  8
0
100
AcDbLine
 10
132.4999999999999
 20
329.753
 30
0.0
 11
134.802189210321
 21
335.242835809226
 31
0.0
  0
LINE
  5
233
330
1E
100
AcDbEntity
  8
0
100
AcDbLine
 10
93.565
 20
333.153
 30
0.0
 11
96.605
 21
329.258
 31
0.0
  0
LINE
  5
234
330
1E
100
AcDbEntity
  8
0
100
AcDbLine
 10
110.0
 20
331.153
 30
0.0
 11
113.0
 21
331.553
 31
0.0
  0
LINE
  5
235
330
1E
100
AcDbEntity
  8
0
100
AcDbLine
 10
113.0
 20
331.553
 30
0.0
 11
115.7
 21
332.653
 31
0.0
  0
LINE
  5
236
330
1E
100
AcDbEntity
  8
0
100
AcDbLine
 10
110.0
 20
331.653
 30
0.0
 11
112.7999999999999
 21
332.053
 31
0.0
  0
LINE
  5
237
330
1E
100
AcDbEntity
  8
0
100
AcDbLine
 10
107.0
 20
331.553
 30
0.0
 11
110.0
 21
331.153
 31
0.0
  0
LINE
  5
238
330
1E
100
AcDbEntity
  8
0
100
AcDbLine
 10
114.65652173913
 20
331.235608695652
 30
0.0
 11
116.0
 21
327.653
 31
0.0
  0
LINE
  5
239
330
1E
100
AcDbEntity
  8
0
100
AcDbLine
 10
114.702173913043
 20
331.113869565217
 30
0.0
 11
116.3
 21
331.753
 31
0.0
  0
LINE
  5
23A
330
1E
100
AcDbEntity
  8
0
100
AcDbLine
 10
144.452808988764
 20
330.153
 30
0.0
 11
165.9479166666669
 21
330.153
 31
0.0
  0
LINE
  5
23C
330
1E
100
AcDbEntity
  8
0
100
AcDbLine
 10
116.3
 20
331.753
 30
0.0
 11
118.9
 21
333.753
 31
0.0
  0
LINE
  5
23D
330
1E
100
AcDbEntity
  8
0
100
AcDbLine
 10
112.7999999999999
 20
332.053
 30
0.0
 11
115.5
 21
333.153
 31
0.0
  0
LINE
  5
23E
330
1E
100
AcDbEntity
  8
0
100
AcDbLine
 10
115.5
 20
333.153
 30
0.0
 11
117.7999999999999
 21
334.853
 31
0.0
  0
LINE
  5
23F
330
1E
100
AcDbEntity
  8
0
100
AcDbLine
 10
115.7
 20
332.653
 30
0.0
 11
118.1
 21
334.553
 31
0.0
  0
LINE
  5
240
330
1E
100
AcDbEntity
  8
0
100
AcDbLine
 10
107.2
 20
332.053
 30
0.0
 11
110.0
 21
331.653
 31
0.0
  0
LINE
  5
241
330
1E
100
AcDbEntity
  8
0
100
AcDbLine
 10
118.1
 20
334.553
 30
0.0
 11
120.0
 21
336.953
 31
0.0
  0
LINE
  5
242
330
1E
100
AcDbEntity
  8
0
100
AcDbLine
 10
104.4999999999999
 20
333.153
 30
0.0
 11
107.2
 21
332.053
 31
0.0
  0
LINE
  5
243
330
1E
100
AcDbEntity
  8
0
100
AcDbLine
 10
104.2999999999999
 20
332.653
 30
0.0
 11
107.0
 21
331.553
 31
0.0
  0
LINE
  5
244
330
1E
100
AcDbEntity
  8
0
100
AcDbLine
 10
117.7999999999999
 20
334.853
 30
0.0
 11
119.5
 21
337.153
 31
0.0
  0
LINE
  5
245
330
1E
100
AcDbEntity
  8
0
100
AcDbLine
 10
102.2
 20
334.853
 30
0.0
 11
104.4999999999999
 21
333.153
 31
0.0
  0
LINE
  5
246
330
1E
100
AcDbEntity
  8
0
100
AcDbLine
 10
101.9
 20
334.553
 30
0.0
 11
104.2999999999999
 21
332.653
 31
0.0
  0
LINE
  5
247
330
1E
100
AcDbEntity
  8
0
100
AcDbLine
 10
126.435
 20
333.153
 30
0.0
 11
127.670769230769
 21
336.118846153846
 31
0.0
  0
LINE
  5
248
330
1E
100
AcDbEntity
  8
0
100
AcDbLine
 10
118.9
 20
333.753
 30
0.0
 11
120.9
 21
336.353
 31
0.0
  0
LINE
  5
249
330
1E
100
AcDbEntity
  8
0
100
AcDbLine
 10
103.7
 20
331.753
 30
0.0
 11
105.297826086957
 21
331.113869565217
 31
0.0
  0
LINE
  5
24A
330
1E
100
AcDbEntity
  8
0
100
AcDbLine
 10
101.0999999999999
 20
333.753
 30
0.0
 11
103.7
 21
331.753
 31
0.0
  0
LINE
  5
24C
330
1E
100
AcDbEntity
  8
0
100
AcDbLine
 10
92.3292307692308
 20
336.118846153846
 30
0.0
 11
93.565
 21
333.153
 31
0.0
  0
LINE
  5
24D
330
1E
100
AcDbEntity
  8
0
100
AcDbLine
 10
95.0
 20
336.653
 30
0.0
 11
98.51881918819191
 21
337.972557195572
 31
0.0
  0
LINE
  5
24E
330
1E
100
AcDbEntity
  8
0
100
AcDbLine
 10
91.0
 20
335.853
 30
0.0
 11
95.0
 21
336.653
 31
0.0
  0
LINE
  5
24F
330
1E
100
AcDbEntity
  8
0
100
AcDbLine
 10
88.0
 20
335.453
 30
0.0
 11
91.0
 21
335.853
 31
0.0
  0
LINE
  5
251
330
1E
100
AcDbEntity
  8
0
100
AcDbLine
 10
95.0
 20
348.653
 30
0.0
 11
98.52455516014229
 21
347.3312918149469
 31
0.0
  0
LINE
  5
252
330
1E
100
AcDbEntity
  8
0
100
AcDbLine
 10
90.90000000000001
 20
353.553
 30
0.0
 11
94.50000000000001
 21
358.153
 31
0.0
  0
LINE
  5
253
330
1E
100
AcDbEntity
  8
0
100
AcDbLine
 10
89.3339416058394
 20
349.6751411192209
 30
0.0
 11
90.90000000000001
 21
353.553
 31
0.0
  0
LINE
  5
254
330
1E
100
AcDbEntity
  8
0
100
AcDbLine
 10
94.50000000000001
 20
358.153
 30
0.0
 11
99.1
 21
361.753
 31
0.0
  0
LINE
  5
257
330
1E
100
AcDbEntity
  8
0
100
AcDbLine
 10
91.0
 20
349.453
 30
0.0
 11
95.0
 21
348.653
 31
0.0
  0
LINE
  5
258
330
1E
100
AcDbEntity
  8
0
100
AcDbLine
 10
88.0
 20
349.853
 30
0.0
 11
91.0
 21
349.453
 31
0.0
  0
LINE
  5
259
330
1E
100
AcDbEntity
  8
0
100
AcDbLine
 10
98.40170940170942
 20
347.207273504273
 30
0.0
 11
99.1
 21
348.953
 31
0.0
  0
LINE
  5
25A
330
1E
100
AcDbEntity
  8
0
100
AcDbLine
 10
129.0
 20
335.853
 30
0.0
 11
132.0
 21
335.453
 31
0.0
  0
LINE
  5
25B
330
1E
100
AcDbEntity
  8
0
100
AcDbLine
 10
132.0
 20
335.453
 30
0.0
 11
136.0
 21
335.153
 31
0.0
  0
LINE
  5
25C
330
1E
100
AcDbEntity
  8
0
100
AcDbLine
 10
120.9
 20
336.353
 30
0.0
 11
121.598290598291
 21
338.098726495727
 31
0.0
  0
LINE
  5
25D
330
1E
100
AcDbEntity
  8
0
100
AcDbLine
 10
99.0
 20
342.653
 30
0.0
 11
99.40000000000001
 21
339.853
 31
0.0
  0
LINE
  5
25E
330
1E
100
AcDbEntity
  8
0
100
AcDbLine
 10
99.0
 20
342.653
 30
0.0
 11
99.40000000000001
 21
345.453
 31
0.0
  0
LINE
  5
25F
330
1E
100
AcDbEntity
  8
0
100
AcDbLine
 10
98.9
 20
339.653
 30
0.0
 11
100.0
 21
336.953
 31
0.0
  0
LINE
  5
260
330
1E
100
AcDbEntity
  8
0
100
AcDbLine
 10
98.9
 20
345.653
 30
0.0
 11
100.0
 21
348.353
 31
0.0
  0
LINE
  5
261
330
1E
100
AcDbEntity
  8
0
100
AcDbLine
 10
98.50000000000001
 20
342.653
 30
0.0
 11
98.9
 21
339.653
 31
0.0
  0
LINE
  5
262
330
1E
100
AcDbEntity
  8
0
100
AcDbLine
 10
98.50000000000001
 20
342.653
 30
0.0
 11
98.9
 21
345.653
 31
0.0
  0
LINE
  5
263
330
1E
100
AcDbEntity
  8
0
100
AcDbLine
 10
99.40000000000001
 20
345.453
 30
0.0
 11
100.5
 21
348.153
 31
0.0
  0
LINE
  5
264
330
1E
100
AcDbEntity
  8
0
100
AcDbLine
 10
100.0
 20
348.353
 30
0.0
 11
101.9
 21
350.753
 31
0.0
  0
LINE
  5
265
330
1E
100
AcDbEntity
  8
0
100
AcDbLine
 10
99.40000000000001
 20
339.853
 30
0.0
 11
100.5
 21
337.153
 31
0.0
  0
LINE
  5
266
330
1E
100
AcDbEntity
  8
0
100
AcDbLine
 10
119.5
 20
337.153
 30
0.0
 11
120.5999999999999
 21
339.853
 31
0.0
  0
LINE
  5
267
330
1E
100
AcDbEntity
  8
0
100
AcDbLine
 10
120.0
 20
336.953
 30
0.0
 11
121.1
 21
339.653
 31
0.0
  0
LINE
  5
268
330
1E
100
AcDbEntity
  8
0
100
AcDbLine
 10
100.5
 20
348.153
 30
0.0
 11
102.2
 21
350.453
 31
0.0
  0
LINE
  5
269
330
1E
100
AcDbEntity
  8
0
100
AcDbLine
 10
119.5
 20
348.153
 30
0.0
 11
120.5999999999999
 21
345.453
 31
0.0
  0
LINE
  5
26A
330
1E
100
AcDbEntity
  8
0
100
AcDbLine
 10
120.5999999999999
 20
345.453
 30
0.0
 11
121.0
 21
342.653
 31
0.0
  0
LINE
  5
26B
330
1E
100
AcDbEntity
  8
0
100
AcDbLine
 10
117.7999999999999
 20
350.453
 30
0.0
 11
119.5
 21
348.153
 31
0.0
  0
LINE
  5
26C
330
1E
100
AcDbEntity
  8
0
100
AcDbLine
 10
120.0
 20
348.353
 30
0.0
 11
121.1
 21
345.653
 31
0.0
  0
LINE
  5
26D
330
1E
100
AcDbEntity
  8
0
100
AcDbLine
 10
120.5999999999999
 20
339.853
 30
0.0
 11
121.0
 21
342.653
 31
0.0
  0
LINE
  5
26E
330
1E
100
AcDbEntity
  8
0
100
AcDbLine
 10
118.1
 20
350.753
 30
0.0
 11
120.0
 21
348.353
 31
0.0
  0
LINE
  5
26F
330
1E
100
AcDbEntity
  8
0
100
AcDbLine
 10
102.2
 20
350.453
 30
0.0
 11
104.4999999999999
 21
352.153
 31
0.0
  0
LINE
  5
270
330
1E
100
AcDbEntity
  8
0
100
AcDbLine
 10
101.9
 20
350.753
 30
0.0
 11
104.2999999999999
 21
352.653
 31
0.0
  0
LINE
  5
271
330
1E
100
AcDbEntity
  8
0
100
AcDbLine
 10
100.5
 20
337.153
 30
0.0
 11
102.2
 21
334.853
 31
0.0
  0
LINE
  5
272
330
1E
100
AcDbEntity
  8
0
100
AcDbLine
 10
100.0
 20
336.953
 30
0.0
 11
101.9
 21
334.553
 31
0.0
  0
LINE
  5
273
330
1E
100
AcDbEntity
  8
0
100
AcDbLine
 10
118.9
 20
351.553
 30
0.0
 11
120.9
 21
348.953
 31
0.0
  0
LINE
  5
274
330
1E
100
AcDbEntity
  8
0
100
AcDbLine
 10
121.1
 20
345.653
 30
0.0
 11
121.5
 21
342.653
 31
0.0
  0
LINE
  5
275
330
1E
100
AcDbEntity
  8
0
100
AcDbLine
 10
121.1
 20
339.653
 30
0.0
 11
121.5
 21
342.653
 31
0.0
  0
LINE
  5
276
330
1E
100
AcDbEntity
  8
0
100
AcDbLine
 10
121.4811808118079
 20
347.333442804428
 30
0.0
 11
125.0
 21
348.653
 31
0.0
  0
LINE
  5
277
330
1E
100
AcDbEntity
  8
0
100
AcDbLine
 10
125.0
 20
348.653
 30
0.0
 11
129.0
 21
349.453
 31
0.0
  0
LINE
  5
278
330
1E
100
AcDbEntity
  8
0
100
AcDbLine
 10
129.0
 20
349.453
 30
0.0
 11
132.0
 21
349.853
 31
0.0
  0
LINE
  5
279
330
1E
100
AcDbEntity
  8
0
100
AcDbLine
 10
132.0
 20
349.853
 30
0.0
 11
136.0
 21
350.153
 31
0.0
  0
LINE
  5
27A
330
1E
100
AcDbEntity
  8
0
100
AcDbLine
 10
121.4754448398579
 20
337.9747081850529
 30
0.0
 11
125.0
 21
336.653
 31
0.0
  0
LINE
  5
27B
330
1E
100
AcDbEntity
  8
0
100
AcDbLine
 10
125.0
 20
336.653
 30
0.0
 11
129.0
 21
335.853
 31
0.0
  0
LINE
  5
27C
330
1E
100
AcDbEntity
  8
0
100
AcDbLine
 10
120.9
 20
348.953
 30
0.0
 11
121.598290598291
 21
347.207273504273
 31
0.0
  0
LINE
  5
27E
330
1E
100
AcDbEntity
  8
0
100
AcDbLine
 10
110.0
 20
353.653
 30
0.0
 11
112.7999999999999
 21
353.253
 31
0.0
  0
LINE
  5
27F
330
1E
100
AcDbEntity
  8
0
100
AcDbLine
 10
112.7999999999999
 20
353.253
 30
0.0
 11
115.5
 21
352.153
 31
0.0
  0
LINE
  5
280
330
1E
100
AcDbEntity
  8
0
100
AcDbLine
 10
113.0
 20
353.753
 30
0.0
 11
115.7
 21
352.653
 31
0.0
  0
LINE
  5
281
330
1E
100
AcDbEntity
  8
0
100
AcDbLine
 10
107.2
 20
353.253
 30
0.0
 11
110.0
 21
353.653
 31
0.0
  0
LINE
  5
282
330
1E
100
AcDbEntity
  8
0
100
AcDbLine
 10
104.4999999999999
 20
352.153
 30
0.0
 11
107.2
 21
353.253
 31
0.0
  0
LINE
  5
283
330
1E
100
AcDbEntity
  8
0
100
AcDbLine
 10
104.2999999999999
 20
352.653
 30
0.0
 11
107.0
 21
353.753
 31
0.0
  0
LINE
  5
284
330
1E
100
AcDbEntity
  8
0
100
AcDbLine
 10
110.0
 20
354.153
 30
0.0
 11
113.0
 21
353.753
 31
0.0
  0
LINE
  5
285
330
1E
100
AcDbEntity
  8
0
100
AcDbLine
 10
107.0
 20
353.753
 30
0.0
 11
110.0
 21
354.153
 31
0.0
  0
LINE
  5
286
330
1E
100
AcDbEntity
  8
0
100
AcDbLine
 10
115.5
 20
352.153
 30
0.0
 11
117.7999999999999
 21
350.453
 31
0.0
  0
LINE
  5
287
330
1E
100
AcDbEntity
  8
0
100
AcDbLine
 10
115.7
 20
352.653
 30
0.0
 11
118.1
 21
350.753
 31
0.0
  0
LINE
  5
288
330
1E
100
AcDbEntity
  8
0
100
AcDbLine
 10
114.65652173913
 20
354.070391304348
 30
0.0
 11
116.0
 21
357.653
 31
0.0
  0
LINE
  5
289
330
1E
100
AcDbEntity
  8
0
100
AcDbLine
 10
116.0
 20
357.653
 30
0.0
 11
116.7999999999999
 21
361.653
 31
0.0
  0
LINE
  5
28A
330
1E
100
AcDbEntity
  8
0
100
AcDbLine
 10
114.702173913043
 20
354.1921304347829
 30
0.0
 11
116.3
 21
353.553
 31
0.0
  0
LINE
  5
28B
330
1E
100
AcDbEntity
  8
0
100
AcDbLine
 10
129.0999999999999
 20
353.553
 30
0.0
 11
130.6660583941609
 21
349.6751411192209
 31
0.0
  0
LINE
  5
28E
330
1E
100
AcDbEntity
  8
0
100
AcDbLine
 10
116.3
 20
353.553
 30
0.0
 11
118.9
 21
351.553
 31
0.0
  0
LINE
  5
290
330
1E
100
AcDbEntity
  8
0
100
AcDbLine
 10
125.5
 20
358.153
 30
0.0
 11
129.0999999999999
 21
353.553
 31
0.0
  0
LINE
  5
292
330
1E
100
AcDbEntity
  8
0
100
AcDbLine
 10
104.0
 20
357.653
 30
0.0
 11
105.34347826087
 21
354.070391304348
 31
0.0
  0
LINE
  5
293
330
1E
100
AcDbEntity
  8
0
100
AcDbLine
 10
103.7
 20
353.553
 30
0.0
 11
105.297826086957
 21
354.1921304347829
 31
0.0
  0
LINE
  5
294
330
1E
100
AcDbEntity
  8
0
100
AcDbLine
 10
101.0999999999999
 20
351.553
 30
0.0
 11
103.7
 21
353.553
 31
0.0
  0
LINE
  5
295
330
1E
100
AcDbEntity
  8
0
100
AcDbLine
 10
99.1
 20
348.953
 30
0.0
 11
101.0999999999999
 21
351.553
 31
0.0
  0
LINE
  5
296
330
1E
100
AcDbEntity
  8
0
100
AcDbLine
 10
99.1
 20
336.353
 30
0.0
 11
101.0999999999999
 21
333.753
 31
0.0
  0
LINE
  5
297
330
1E
100
AcDbEntity
  8
0
100
AcDbLine
 10
98.40170940170942
 20
338.098726495727
 30
0.0
 11
99.1
 21
336.353
 31
0.0
  0
LINE
  5
298
330
1E
100
AcDbEntity
  8
0
100
AcDbLine
 10
91.6
 20
361.053
 30
0.0
 11
97.1
 21
365.153
 31
0.0
  0
LINE
  5
299
330
1E
100
AcDbEntity
  8
0
100
AcDbLine
 10
87.5
 20
355.553
 30
0.0
 11
91.6
 21
361.053
 31
0.0
  0
LINE
  5
29A
330
1E
100
AcDbEntity
  8
0
100
AcDbLine
 10
116.7999999999999
 20
361.653
 30
0.0
 11
117.2
 21
364.653
 31
0.0
  0
LINE
  5
29B
330
1E
100
AcDbEntity
  8
0
100
AcDbLine
 10
120.9
 20
361.753
 30
0.0
 11
125.5
 21
358.153
 31
0.0
  0
LINE
  5
29C
330
1E
100
AcDbEntity
  8
0
100
AcDbLine
 10
99.1
 20
361.753
 30
0.0
 11
102.9778588807789
 21
363.319058394161
 31
0.0
  0
LINE
  5
29D
330
1E
100
AcDbEntity
  8
0
100
AcDbLine
 10
103.2
 20
361.653
 30
0.0
 11
104.0
 21
357.653
 31
0.0
  0
LINE
  5
29F
330
1E
100
AcDbEntity
  8
0
100
AcDbLine
 10
128.4
 20
361.053
 30
0.0
 11
132.4999999999999
 21
355.553
 31
0.0
  0
LINE
  5
2A0
330
1E
100
AcDbEntity
  8
0
100
AcDbLine
 10
132.4999999999999
 20
355.553
 30
0.0
 11
134.802189210321
 21
350.063164190774
 31
0.0
  0
LINE
  5
2A1
330
1E
100
AcDbEntity
  8
0
100
AcDbLine
 10
117.022141119221
 20
363.319058394161
 30
0.0
 11
120.9
 21
361.753
 31
0.0
  0
LINE
  5
2A2
330
1E
100
AcDbEntity
  8
0
100
AcDbLine
 10
88.8
 20
363.853
 30
0.0
 11
95.09999999999999
 21
368.653
 31
0.0
  0
LINE
  5
2A4
330
1E
100
AcDbEntity
  8
0
100
AcDbLine
 10
136.0
 20
350.153
 30
0.0
 11
139.5
 21
349.653
 31
0.0
  0
LINE
  5
2A5
330
1E
100
AcDbEntity
  8
0
100
AcDbLine
 10
136.0
 20
335.153
 30
0.0
 11
139.5
 21
335.653
 31
0.0
  0
LINE
  5
2A7
330
1E
100
AcDbEntity
  8
0
100
AcDbLine
 10
117.2
 20
364.653
 30
0.0
 11
117.5
 21
368.653
 31
0.0
  0
LINE
  5
2A8
330
1E
100
AcDbEntity
  8
0
100
AcDbLine
 10
102.8
 20
364.653
 30
0.0
 11
103.2
 21
361.653
 31
0.0
  0
LINE
  5
2A9
330
1E
100
AcDbEntity
  8
0
100
AcDbLine
 10
97.1
 20
365.153
 30
0.0
 11
102.589835809226
 21
367.4551892103209
 31
0.0
  0
LINE
  5
2AB
330
1E
100
AcDbEntity
  8
0
100
AcDbLine
 10
102.4999999999999
 20
368.653
 30
0.0
 11
103.0
 21
372.153
 31
0.0
  0
LINE
  5
2AC
330
1E
100
AcDbEntity
  8
0
100
AcDbLine
 10
102.4999999999999
 20
368.653
 30
0.0
 11
102.8
 21
364.653
 31
0.0
  0
LINE
  5
2AD
330
1E
100
AcDbEntity
  8
0
100
AcDbLine
 10
95.09999999999999
 20
368.653
 30
0.0
 11
102.2999999999999
 21
371.553
 31
0.0
  0
LINE
  5
2AE
330
1E
100
AcDbEntity
  8
0
100
AcDbLine
 10
117.4101641907739
 20
367.4551892103209
 30
0.0
 11
122.9
 21
365.153
 31
0.0
  0
LINE
  5
2AF
330
1E
100
AcDbEntity
  8
0
100
AcDbLine
 10
122.9
 20
365.153
 30
0.0
 11
128.4
 21
361.053
 31
0.0
  0
LINE
  5
2B0
330
1E
100
AcDbEntity
  8
0
100
AcDbLine
 10
102.2999999999999
 20
371.553
 30
0.0
 11
102.927083333333
 21
371.6425833333329
 31
0.0
  0
LINE
  5
2B3
330
1E
100
AcDbEntity
  8
0
100
AcDbLine
 10
103.0
 20
372.153
 30
0.0
 11
104.0
 21
374.653
 31
0.0
  0
LINE
  5
2B4
330
1E
100
AcDbEntity
  8
0
100
AcDbLine
 10
104.0
 20
374.653
 30
0.0
 11
105.4999999999999
 21
376.653
 31
0.0
  0
LINE
  5
2B5
330
1E
100
AcDbEntity
  8
0
100
AcDbLine
 10
91.6
 20
374.653
 30
0.0
 11
98.0
 21
377.313674157303
 31
0.0
  0
LINE
  5
2B6
330
1E
100
AcDbEntity
  8
0
100
AcDbLine
 10
91.6
 20
374.653
 30
0.0
 11
100.5
 21
378.353
 31
0.0
  0
LINE
  5
2B7
330
1E
100
AcDbEntity
  8
0
100
AcDbLine
 10
117.0
 20
372.153
 30
0.0
 11
117.5
 21
368.653
 31
0.0
  0
LINE
  5
2B8
330
1E
100
AcDbEntity
  8
0
100
AcDbLine
 10
116.0
 20
374.653
 30
0.0
 11
117.0
 21
372.153
 31
0.0
  0
LINE
  5
2B9
330
1E
100
AcDbEntity
  8
0
100
AcDbLine
 10
117.0729166666669
 20
371.6425833333329
 30
0.0
 11
117.7
 21
371.553
 31
0.0
  0
LINE
  5
2BA
330
1E
100
AcDbEntity
  8
0
100
AcDbLine
 10
117.7
 20
371.553
 30
0.0
 11
124.9
 21
368.653
 31
0.0
  0
LINE
  5
2BB
330
1E
100
AcDbEntity
  8
0
100
AcDbLine
 10
124.9
 20
368.653
 30
0.0
 11
131.1999999999999
 21
363.853
 31
0.0
  0
LINE
  5
2BC
330
1E
100
AcDbEntity
  8
0
100
AcDbLine
 10
131.1999999999999
 20
363.853
 30
0.0
 11
136.0
 21
357.553
 31
0.0
  0
LINE
  5
2BD
330
1E
100
AcDbEntity
  8
0
100
AcDbLine
 10
136.0
 20
357.553
 30
0.0
 11
138.9
 21
350.353
 31
0.0
  0
LINE
  5
2BE
330
1E
100
AcDbEntity
  8
0
100
AcDbLine
 10
114.5
 20
376.653
 30
0.0
 11
116.0
 21
374.653
 31
0.0
  0
LINE
  5
2BF
330
1E
100
AcDbEntity
  8
0
100
AcDbLine
 10
105.4999999999999
 20
376.653
 30
0.0
 11
107.4999999999999
 21
378.153
 31
0.0
  0
LINE
  5
2C0
330
1E
100
AcDbEntity
  8
0
100
AcDbLine
 10
98.0
 20
377.313674157303
 30
0.0
 11
98.0
 21
380.403
 31
0.0
  0
LINE
  5
2C1
330
1E
100
AcDbEntity
  8
0
100
AcDbLine
 10
128.4
 20
374.653
 30
0.0
 11
136.0999999999999
 21
368.753
 31
0.0
  0
LINE
  5
2C2
330
1E
100
AcDbEntity
  8
0
100
AcDbLine
 10
139.5
 20
349.653
 30
0.0
 11
142.0
 21
348.653
 31
0.0
  0
LINE
  5
2C3
330
1E
100
AcDbEntity
  8
0
100
AcDbLine
 10
142.0
 20
348.653
 30
0.0
 11
144.0
 21
347.153
 31
0.0
  0
LINE
  5
2C4
330
1E
100
AcDbEntity
  8
0
100
AcDbLine
 10
139.5
 20
335.653
 30
0.0
 11
142.0
 21
336.653
 31
0.0
  0
LINE
  5
2C5
330
1E
100
AcDbEntity
  8
0
100
AcDbLine
 10
142.0
 20
336.653
 30
0.0
 11
144.0
 21
338.153
 31
0.0
  0
LINE
  5
2C6
330
1E
100
AcDbEntity
  8
0
100
AcDbLine
 10
138.9
 20
350.353
 30
0.0
 11
138.9895833333329
 21
349.725916666667
 31
0.0
  0
LINE
  5
2C7
330
1E
100
AcDbEntity
  8
0
100
AcDbLine
 10
136.0999999999999
 20
368.753
 30
0.0
 11
142.0
 21
361.053
 31
0.0
  0
LINE
  5
2C8
330
1E
100
AcDbEntity
  8
0
100
AcDbLine
 10
112.5
 20
378.153
 30
0.0
 11
114.5
 21
376.653
 31
0.0
  0
LINE
  5
2C9
330
1E
100
AcDbEntity
  8
0
100
AcDbLine
 10
110.0
 20
378.653
 30
0.0
 11
112.5
 21
378.153
 31
0.0
  0
LINE
  5
2CA
330
1E
100
AcDbEntity
  8
0
100
AcDbLine
 10
107.4999999999999
 20
378.153
 30
0.0
 11
110.0
 21
378.653
 31
0.0
  0
LINE
  5
2CB
330
1E
100
AcDbEntity
  8
0
100
AcDbLine
 10
100.5
 20
378.353
 30
0.0
 11
110.0
 21
379.653
 31
0.0
  0
LINE
  5
2CC
330
1E
100
AcDbEntity
  8
0
100
AcDbLine
 10
86.11069999999999
 20
1127.153
 30
0.0
 11
88.04250000000001
 21
1127.153
 31
0.0
  0
LINE
  5
2CD
330
1E
100
AcDbEntity
  8
0
100
AcDbLine
 10
86.11069999999999
 20
1127.153
 30
0.0
 11
86.11069999999999
 21
1129.153
 31
0.0
  0
LINE
  5
2CE
330
1E
100
AcDbEntity
  8
0
100
AcDbLine
 10
86.6
 20
1129.153
 30
0.0
 11
110.0
 21
1129.153
 31
0.0
  0
LINE
  5
2CF
330
1E
100
AcDbEntity
  8
0
100
AcDbLine
 10
86.0
 20
1131.153
 30
0.0
 11
110.0
 21
1131.153
 31
0.0
  0
LINE
  5
2D0
330
1E
100
AcDbEntity
  8
0
100
AcDbLine
 10
86.90000000000001
 20
1179.153
 30
0.0
 11
89.19999999999999
 21
1179.153
 31
0.0
  0
LINE
  5
2D1
330
1E
100
AcDbEntity
  8
0
100
AcDbLine
 10
86.0
 20
1179.153
 30
0.0
 11
86.90000000000001
 21
1179.153
 31
0.0
  0
LINE
  5
2D2
330
1E
100
AcDbEntity
  8
0
100
AcDbLine
 10
86.11069999999999
 20
1129.153
 30
0.0
 11
86.11069999999999
 21
1127.153
 31
0.0
  0
LINE
  5
2D3
330
1E
100
AcDbEntity
  8
0
100
AcDbLine
 10
86.11069999999999
 20
1129.153
 30
0.0
 11
87.0345
 21
1129.153
 31
0.0
  0
LINE
  5
2D4
330
1E
100
AcDbEntity
  8
0
100
AcDbLine
 10
85.59299999999998
 20
1129.153
 30
0.0
 11
85.59299999999998
 21
1127.153
 31
0.0
  0
LINE
  5
2D5
330
1E
100
AcDbEntity
  8
0
100
AcDbLine
 10
85.59299999999998
 20
1129.153
 30
0.0
 11
86.11069999999999
 21
1129.153
 31
0.0
  0
LINE
  5
2D6
330
1E
100
AcDbEntity
  8
0
100
AcDbLine
 10
85.59299999999998
 20
1127.153
 30
0.0
 11
87.52489999999999
 21
1127.153
 31
0.0
  0
LINE
  5
2D7
330
1E
100
AcDbEntity
  8
0
100
AcDbLine
 10
85.59299999999998
 20
1127.153
 30
0.0
 11
86.11069999999999
 21
1127.153
 31
0.0
  0
LINE
  5
2D8
330
1E
100
AcDbEntity
  8
0
100
AcDbLine
 10
85.59299999999998
 20
1127.153
 30
0.0
 11
85.59299999999998
 21
1129.153
 31
0.0
  0
LINE
  5
2D9
330
1E
100
AcDbEntity
  8
0
100
AcDbLine
 10
87.55209999999999
 20
1127.153
 30
0.0
 11
89.48390000000001
 21
1127.153
 31
0.0
  0
LINE
  5
2DA
330
1E
100
AcDbEntity
  8
0
100
AcDbLine
 10
87.0345
 20
1127.153
 30
0.0
 11
87.0345
 21
1129.153
 31
0.0
  0
LINE
  5
2DB
330
1E
100
AcDbEntity
  8
0
100
AcDbLine
 10
87.0345
 20
1127.153
 30
0.0
 11
87.55209999999999
 21
1127.153
 31
0.0
  0
LINE
  5
2DC
330
1E
100
AcDbEntity
  8
0
100
AcDbLine
 10
87.0345
 20
1127.153
 30
0.0
 11
88.9663
 21
1127.153
 31
0.0
  0
LINE
  5
2DD
330
1E
100
AcDbEntity
  8
0
100
AcDbLine
 10
87.55209999999999
 20
1127.153
 30
0.0
 11
89.48390000000001
 21
1127.153
 31
0.0
  0
LINE
  5
2DE
330
1E
100
AcDbEntity
  8
0
100
AcDbLine
 10
87.0345
 20
1127.153
 30
0.0
 11
87.55209999999999
 21
1127.153
 31
0.0
  0
LINE
  5
2DF
330
1E
100
AcDbEntity
  8
0
100
AcDbLine
 10
87.0345
 20
1127.153
 30
0.0
 11
88.9663
 21
1127.153
 31
0.0
  0
LINE
  5
2E0
330
1E
100
AcDbEntity
  8
0
100
AcDbLine
 10
87.8494
 20
1127.153
 30
0.0
 11
89.5814
 21
1127.153
 31
0.0
  0
LINE
  5
2E1
330
1E
100
AcDbEntity
  8
0
100
AcDbLine
 10
87.8494
 20
1127.153
 30
0.0
 11
88.8494
 21
1127.153
 31
0.0
  0
LINE
  5
2E2
330
1E
100
AcDbEntity
  8
0
100
AcDbLine
 10
87.0345
 20
1129.153
 30
0.0
 11
87.0345
 21
1127.153
 31
0.0
  0
LINE
  5
2E3
330
1E
100
AcDbEntity
  8
0
100
AcDbLine
 10
87.0345
 20
1129.153
 30
0.0
 11
88.9663
 21
1129.153
 31
0.0
  0
LINE
  5
2E4
330
1E
100
AcDbEntity
  8
0
100
AcDbLine
 10
87.52489999999999
 20
1127.153
 30
0.0
 11
88.04250000000001
 21
1127.153
 31
0.0
  0
LINE
  5
2E5
330
1E
100
AcDbEntity
  8
0
100
AcDbLine
 10
88.8
 20
1283.853
 30
0.0
 11
95.09999999999999
 21
1288.653
 31
0.0
  0
LINE
  5
2E6
330
1E
100
AcDbEntity
  8
0
100
AcDbLine
 10
97.0
 20
390.653
 30
0.0
 11
97.0
 21
392.6529999999999
 31
0.0
  0
LINE
  5
2E7
330
1E
100
AcDbEntity
  8
0
100
AcDbLine
 10
97.0
 20
390.653
 30
0.0
 11
97.0
 21
387.653
 31
0.0
  0
LINE
  5
2E8
330
1E
100
AcDbEntity
  8
0
100
AcDbLine
 10
88.9663
 20
1127.153
 30
0.0
 11
88.9663
 21
1129.153
 31
0.0
  0
LINE
  5
2E9
330
1E
100
AcDbEntity
  8
0
100
AcDbLine
 10
88.9663
 20
1127.153
 30
0.0
 11
89.48390000000001
 21
1127.153
 31
0.0
  0
LINE
  5
2EA
330
1E
100
AcDbEntity
  8
0
100
AcDbLine
 10
89.48390000000001
 20
1127.153
 30
0.0
 11
89.48390000000001
 21
1129.153
 31
0.0
  0
LINE
  5
2EB
330
1E
100
AcDbEntity
  8
0
100
AcDbLine
 10
88.9663
 20
1127.153
 30
0.0
 11
89.48390000000001
 21
1127.153
 31
0.0
  0
LINE
  5
2EC
330
1E
100
AcDbEntity
  8
0
100
AcDbLine
 10
90.134
 20
1127.153
 30
0.0
 11
91.866
 21
1127.153
 31
0.0
  0
LINE
  5
2ED
330
1E
100
AcDbEntity
  8
0
100
AcDbLine
 10
91.4344
 20
1127.153
 30
0.0
 11
93.36620000000001
 21
1127.153
 31
0.0
  0
LINE
  5
2EE
330
1E
100
AcDbEntity
  8
0
100
AcDbLine
 10
90.9167
 20
1127.153
 30
0.0
 11
90.9167
 21
1129.153
 31
0.0
  0
LINE
  5
2EF
330
1E
100
AcDbEntity
  8
0
100
AcDbLine
 10
90.9167
 20
1127.153
 30
0.0
 11
91.4344
 21
1127.153
 31
0.0
  0
LINE
  5
2F0
330
1E
100
AcDbEntity
  8
0
100
AcDbLine
 10
90.9167
 20
1127.153
 30
0.0
 11
92.8486
 21
1127.153
 31
0.0
  0
LINE
  5
2F1
330
1E
100
AcDbEntity
  8
0
100
AcDbLine
 10
91.4344
 20
1127.153
 30
0.0
 11
93.36620000000001
 21
1127.153
 31
0.0
  0
LINE
  5
2F2
330
1E
100
AcDbEntity
  8
0
100
AcDbLine
 10
90.9167
 20
1127.153
 30
0.0
 11
91.4344
 21
1127.153
 31
0.0
  0
LINE
  5
2F3
330
1E
100
AcDbEntity
  8
0
100
AcDbLine
 10
90.9167
 20
1127.153
 30
0.0
 11
92.8486
 21
1127.153
 31
0.0
  0
LINE
  5
2F4
330
1E
100
AcDbEntity
  8
0
100
AcDbLine
 10
90.866
 20
1127.153
 30
0.0
 11
91.866
 21
1127.153
 31
0.0
  0
LINE
  5
2F5
330
1E
100
AcDbEntity
  8
0
100
AcDbLine
 10
90.866
 20
1127.153
 30
0.0
 11
90.866
 21
1129.153
 31
0.0
  0
LINE
  5
2F6
330
1E
100
AcDbEntity
  8
0
100
AcDbLine
 10
89.13400000000001
 20
1127.153
 30
0.0
 11
90.134
 21
1127.153
 31
0.0
  0
LINE
  5
2F7
330
1E
100
AcDbEntity
  8
0
100
AcDbLine
 10
89.13400000000001
 20
1127.153
 30
0.0
 11
90.866
 21
1127.153
 31
0.0
  0
LINE
  5
2F8
330
1E
100
AcDbEntity
  8
0
100
AcDbLine
 10
92.8486
 20
1127.153
 30
0.0
 11
93.36620000000001
 21
1127.153
 31
0.0
  0
LINE
  5
2F9
330
1E
100
AcDbEntity
  8
0
100
AcDbLine
 10
92.8486
 20
1127.153
 30
0.0
 11
92.8486
 21
1129.153
 31
0.0
  0
LINE
  5
2FA
330
1E
100
AcDbEntity
  8
0
100
AcDbLine
 10
92.8486
 20
1127.153
 30
0.0
 11
93.36620000000001
 21
1127.153
 31
0.0
  0
LINE
  5
2FB
330
1E
100
AcDbEntity
  8
0
100
AcDbLine
 10
94.44360000000001
 20
1127.153
 30
0.0
 11
94.44360000000001
 21
1129.153
 31
0.0
  0
LINE
  5
2FC
330
1E
100
AcDbEntity
  8
0
100
AcDbLine
 10
94.79899999999998
 20
1127.153
 30
0.0
 11
94.79899999999998
 21
1129.153
 31
0.0
  0
LINE
  5
2FD
330
1E
100
AcDbEntity
  8
0
100
AcDbLine
 10
94.79899999999998
 20
1127.153
 30
0.0
 11
95.3167
 21
1127.153
 31
0.0
  0
LINE
  5
2FE
330
1E
100
AcDbEntity
  8
0
100
AcDbLine
 10
94.79899999999998
 20
1127.153
 30
0.0
 11
96.73090000000001
 21
1127.153
 31
0.0
  0
LINE
  5
2FF
330
1E
100
AcDbEntity
  8
0
100
AcDbLine
 10
93.36620000000001
 20
1127.153
 30
0.0
 11
93.36620000000001
 21
1129.153
 31
0.0
  0
LINE
  5
300
330
1E
100
AcDbEntity
  8
0
100
AcDbLine
 10
96.73090000000001
 20
1127.153
 30
0.0
 11
96.73090000000001
 21
1129.153
 31
0.0
  0
LINE
  5
301
330
1E
100
AcDbEntity
  8
0
100
AcDbLine
 10
96.73090000000001
 20
1127.153
 30
0.0
 11
97.24850000000001
 21
1127.153
 31
0.0
  0
LINE
  5
302
330
1E
100
AcDbEntity
  8
0
100
AcDbLine
 10
96.63400000000001
 20
1127.153
 30
0.0
 11
97.634
 21
1127.153
 31
0.0
  0
LINE
  5
303
330
1E
100
AcDbEntity
  8
0
100
AcDbLine
 10
96.63400000000001
 20
1127.153
 30
0.0
 11
98.366
 21
1127.153
 31
0.0
  0
LINE
  5
304
330
1E
100
AcDbEntity
  8
0
100
AcDbLine
 10
95.3167
 20
1127.153
 30
0.0
 11
97.24850000000001
 21
1127.153
 31
0.0
  0
LINE
  5
305
330
1E
100
AcDbEntity
  8
0
100
AcDbLine
 10
96.73090000000001
 20
1127.153
 30
0.0
 11
97.24850000000001
 21
1127.153
 31
0.0
  0
LINE
  5
306
330
1E
100
AcDbEntity
  8
0
100
AcDbLine
 10
95.3167
 20
1127.153
 30
0.0
 11
97.24850000000001
 21
1127.153
 31
0.0
  0
LINE
  5
307
330
1E
100
AcDbEntity
  8
0
100
AcDbLine
 10
94.79899999999998
 20
1127.153
 30
0.0
 11
94.79899999999998
 21
1129.153
 31
0.0
  0
LINE
  5
308
330
1E
100
AcDbEntity
  8
0
100
AcDbLine
 10
94.79899999999998
 20
1127.153
 30
0.0
 11
95.3167
 21
1127.153
 31
0.0
  0
LINE
  5
309
330
1E
100
AcDbEntity
  8
0
100
AcDbLine
 10
94.79899999999998
 20
1127.153
 30
0.0
 11
96.73090000000001
 21
1127.153
 31
0.0
  0
LINE
  5
30A
330
1E
100
AcDbEntity
  8
0
100
AcDbLine
 10
93.02939999999999
 20
1127.153
 30
0.0
 11
94.44360000000001
 21
1127.153
 31
0.0
  0
LINE
  5
30B
330
1E
100
AcDbEntity
  8
0
100
AcDbLine
 10
91.61520000000001
 20
1127.153
 30
0.0
 11
93.02939999999999
 21
1127.153
 31
0.0
  0
LINE
  5
30C
330
1E
100
AcDbEntity
  8
0
100
AcDbLine
 10
88.9663
 20
1129.153
 30
0.0
 11
88.9663
 21
1127.153
 31
0.0
  0
LINE
  5
30D
330
1E
100
AcDbEntity
  8
0
100
AcDbLine
 10
88.9663
 20
1129.153
 30
0.0
 11
89.48390000000001
 21
1129.153
 31
0.0
  0
LINE
  5
30E
330
1E
100
AcDbEntity
  8
0
100
AcDbLine
 10
92.8486
 20
1129.153
 30
0.0
 11
92.8486
 21
1127.153
 31
0.0
  0
LINE
  5
30F
330
1E
100
AcDbEntity
  8
0
100
AcDbLine
 10
92.8486
 20
1129.153
 30
0.0
 11
93.36620000000001
 21
1129.153
 31
0.0
  0
LINE
  5
310
330
1E
100
AcDbEntity
  8
0
100
AcDbLine
 10
90.9167
 20
1129.153
 30
0.0
 11
90.9167
 21
1127.153
 31
0.0
  0
LINE
  5
311
330
1E
100
AcDbEntity
  8
0
100
AcDbLine
 10
90.9167
 20
1129.153
 30
0.0
 11
92.8486
 21
1129.153
 31
0.0
  0
LINE
  5
312
330
1E
100
AcDbEntity
  8
0
100
AcDbLine
 10
94.44360000000001
 20
1129.153
 30
0.0
 11
94.44360000000001
 21
1127.153
 31
0.0
  0
LINE
  5
313
330
1E
100
AcDbEntity
  8
0
100
AcDbLine
 10
94.44360000000001
 20
1129.153
 30
0.0
 11
94.79899999999998
 21
1129.153
 31
0.0
  0
LINE
  5
314
330
1E
100
AcDbEntity
  8
0
100
AcDbLine
 10
93.36620000000001
 20
1129.153
 30
0.0
 11
94.44360000000001
 21
1129.153
 31
0.0
  0
LINE
  5
315
330
1E
100
AcDbEntity
  8
0
100
AcDbLine
 10
93.36620000000001
 20
1129.153
 30
0.0
 11
93.36620000000001
 21
1127.153
 31
0.0
  0
LINE
  5
316
330
1E
100
AcDbEntity
  8
0
100
AcDbLine
 10
90.866
 20
1129.153
 30
0.0
 11
90.866
 21
1127.153
 31
0.0
  0
LINE
  5
317
330
1E
100
AcDbEntity
  8
0
100
AcDbLine
 10
90.866
 20
1129.153
 30
0.0
 11
90.9167
 21
1129.153
 31
0.0
  0
LINE
  5
318
330
1E
100
AcDbEntity
  8
0
100
AcDbLine
 10
93.1
 20
1179.153
 30
0.0
 11
98.1
 21
1179.153
 31
0.0
  0
LINE
  5
319
330
1E
100
AcDbEntity
  8
0
100
AcDbLine
 10
89.19999999999999
 20
1179.153
 30
0.0
 11
93.1
 21
1179.153
 31
0.0
  0
LINE
  5
31A
330
1E
100
AcDbEntity
  8
0
100
AcDbLine
 10
89.48390000000001
 20
1129.153
 30
0.0
 11
90.866
 21
1129.153
 31
0.0
  0
LINE
  5
31B
330
1E
100
AcDbEntity
  8
0
100
AcDbLine
 10
89.48390000000001
 20
1129.153
 30
0.0
 11
89.48390000000001
 21
1127.153
 31
0.0
  0
LINE
  5
31C
330
1E
100
AcDbEntity
  8
0
100
AcDbLine
 10
96.73090000000001
 20
1129.153
 30
0.0
 11
96.73090000000001
 21
1127.153
 31
0.0
  0
LINE
  5
31D
330
1E
100
AcDbEntity
  8
0
100
AcDbLine
 10
96.73090000000001
 20
1129.153
 30
0.0
 11
97.24850000000001
 21
1129.153
 31
0.0
  0
LINE
  5
31E
330
1E
100
AcDbEntity
  8
0
100
AcDbLine
 10
94.79899999999998
 20
1129.153
 30
0.0
 11
94.79899999999998
 21
1127.153
 31
0.0
  0
LINE
  5
31F
330
1E
100
AcDbEntity
  8
0
100
AcDbLine
 10
94.79899999999998
 20
1129.153
 30
0.0
 11
94.79899999999998
 21
1127.153
 31
0.0
  0
LINE
  5
320
330
1E
100
AcDbEntity
  8
0
100
AcDbLine
 10
94.79899999999998
 20
1129.153
 30
0.0
 11
96.73090000000001
 21
1129.153
 31
0.0
  0
LINE
  5
321
330
1E
100
AcDbEntity
  8
0
100
AcDbLine
 10
89.5814
 20
1127.153
 30
0.0
 11
90.58139999999999
 21
1127.153
 31
0.0
  0
LINE
  5
322
330
1E
100
AcDbEntity
  8
0
100
AcDbLine
 10
88.8494
 20
1127.153
 30
0.0
 11
90.58139999999999
 21
1127.153
 31
0.0
  0
LINE
  5
324
330
1E
100
AcDbEntity
  8
0
100
AcDbLine
 10
97.0
 20
392.6529999999999
 30
0.0
 11
99.0
 21
394.653
 31
0.0
  0
LINE
  5
325
330
1E
100
AcDbEntity
  8
0
100
AcDbLine
 10
97.0
 20
392.6529999999999
 30
0.0
 11
97.0
 21
390.653
 31
0.0
  0
LINE
  5
326
330
1E
100
AcDbEntity
  8
0
100
AcDbLine
 10
97.0
 20
387.653
 30
0.0
 11
97.0
 21
384.653
 31
0.0
  0
LINE
  5
327
330
1E
100
AcDbEntity
  8
0
100
AcDbLine
 10
97.0
 20
387.653
 30
0.0
 11
97.0
 21
390.653
 31
0.0
  0
LINE
  5
328
330
1E
100
AcDbEntity
  8
0
100
AcDbLine
 10
97.0
 20
384.653
 30
0.0
 11
97.0
 21
382.653
 31
0.0
  0
LINE
  5
329
330
1E
100
AcDbEntity
  8
0
100
AcDbLine
 10
97.0
 20
384.653
 30
0.0
 11
97.0
 21
387.653
 31
0.0
  0
LINE
  5
32A
330
1E
100
AcDbEntity
  8
0
100
AcDbLine
 10
98.4364
 20
380.403
 30
0.0
 11
99.58190000000001
 21
380.403
 31
0.0
  0
LINE
  5
32B
330
1E
100
AcDbEntity
  8
0
100
AcDbLine
 10
98.0
 20
380.403
 30
0.0
 11
98.4364
 21
380.403
 31
0.0
  0
LINE
  5
32C
330
1E
100
AcDbEntity
  8
0
100
AcDbLine
 10
98.0
 20
380.403
 30
0.0
 11
98.2727
 21
380.653
 31
0.0
  0
LINE
  5
32D
330
1E
100
AcDbEntity
  8
0
100
AcDbLine
 10
98.0
 20
380.403
 30
0.0
 11
98.0
 21
377.313674157303
 31
0.0
  0
LINE
  5
32E
330
1E
100
AcDbEntity
  8
0
100
AcDbLine
 10
99.58190000000001
 20
380.403
 30
0.0
 11
101.5454999999999
 21
380.403
 31
0.0
  0
LINE
  5
32F
330
1E
100
AcDbEntity
  8
0
100
AcDbLine
 10
99.8545
 20
380.653
 30
0.0
 11
101.7091
 21
380.653
 31
0.0
  0
LINE
  5
330
330
1E
100
AcDbEntity
  8
0
100
AcDbLine
 10
98.70910000000002
 20
380.653
 30
0.0
 11
99.8545
 21
380.653
 31
0.0
  0
LINE
  5
331
330
1E
100
AcDbEntity
  8
0
100
AcDbLine
 10
98.2727
 20
380.653
 30
0.0
 11
98.70910000000002
 21
380.653
 31
0.0
  0
LINE
  5
332
330
1E
100
AcDbEntity
  8
0
100
AcDbLine
 10
104.0545
 20
380.403
 30
0.0
 11
106.8909
 21
380.403
 31
0.0
  0
LINE
  5
333
330
1E
100
AcDbEntity
  8
0
100
AcDbLine
 10
101.5454999999999
 20
380.403
 30
0.0
 11
104.0545
 21
380.403
 31
0.0
  0
LINE
  5
334
330
1E
100
AcDbEntity
  8
0
100
AcDbLine
 10
110.0
 20
380.403
 30
0.0
 11
113.1091
 21
380.403
 31
0.0
  0
LINE
  5
335
330
1E
100
AcDbEntity
  8
0
100
AcDbLine
 10
110.0
 20
380.653
 30
0.0
 11
113.0
 21
380.653
 31
0.0
  0
LINE
  5
336
330
1E
100
AcDbEntity
  8
0
100
AcDbLine
 10
113.1091
 20
380.403
 30
0.0
 11
115.9454999999999
 21
380.403
 31
0.0
  0
LINE
  5
337
330
1E
100
AcDbEntity
  8
0
100
AcDbLine
 10
115.9454999999999
 20
380.403
 30
0.0
 11
118.4544999999999
 21
380.403
 31
0.0
  0
LINE
  5
338
330
1E
100
AcDbEntity
  8
0
100
AcDbLine
 10
113.0
 20
380.653
 30
0.0
 11
115.8363999999999
 21
380.653
 31
0.0
  0
LINE
  5
339
330
1E
100
AcDbEntity
  8
0
100
AcDbLine
 10
115.8363999999999
 20
380.653
 30
0.0
 11
118.2908999999999
 21
380.653
 31
0.0
  0
LINE
  5
33A
330
1E
100
AcDbEntity
  8
0
100
AcDbLine
 10
106.8909
 20
380.403
 30
0.0
 11
110.0
 21
380.403
 31
0.0
  0
LINE
  5
33B
330
1E
100
AcDbEntity
  8
0
100
AcDbLine
 10
107.0
 20
380.653
 30
0.0
 11
110.0
 21
380.653
 31
0.0
  0
LINE
  5
33C
330
1E
100
AcDbEntity
  8
0
100
AcDbLine
 10
104.1636
 20
380.653
 30
0.0
 11
107.0
 21
380.653
 31
0.0
  0
LINE
  5
33D
330
1E
100
AcDbEntity
  8
0
100
AcDbLine
 10
101.7091
 20
380.653
 30
0.0
 11
104.1636
 21
380.653
 31
0.0
  0
LINE
  5
33E
330
1E
100
AcDbEntity
  8
0
100
AcDbLine
 10
118.4544999999999
 20
380.403
 30
0.0
 11
120.4180999999999
 21
380.403
 31
0.0
  0
LINE
  5
33F
330
1E
100
AcDbEntity
  8
0
100
AcDbLine
 10
118.2908999999999
 20
380.653
 30
0.0
 11
120.1454999999999
 21
380.653
 31
0.0
  0
LINE
  5
343
330
1E
100
AcDbEntity
  8
0
100
AcDbLine
 10
99.0
 20
394.653
 30
0.0
 11
99.40000000000001
 21
394.653
 31
0.0
  0
LINE
  5
344
330
1E
100
AcDbEntity
  8
0
100
AcDbLine
 10
100.0
 20
394.653
 30
0.0
 11
100.0
 21
1127.153
 31
0.0
  0
LINE
  5
345
330
1E
100
AcDbEntity
  8
0
100
AcDbLine
 10
99.40000000000001
 20
394.653
 30
0.0
 11
100.5
 21
394.653
 31
0.0
  0
LINE
  5
346
330
1E
100
AcDbEntity
  8
0
100
AcDbLine
 10
100.5
 20
394.653
 30
0.0
 11
102.2
 21
394.653
 31
0.0
  0
LINE
  5
347
330
1E
100
AcDbEntity
  8
0
100
AcDbLine
 10
102.2
 20
394.653
 30
0.0
 11
104.4999999999999
 21
394.653
 31
0.0
  0
LINE
  5
349
330
1E
100
AcDbEntity
  8
0
100
AcDbLine
 10
104.4999999999999
 20
394.653
 30
0.0
 11
107.2
 21
394.653
 31
0.0
  0
LINE
  5
34B
330
1E
100
AcDbEntity
  8
0
100
AcDbLine
 10
97.24850000000001
 20
1129.153
 30
0.0
 11
98.366
 21
1129.153
 31
0.0
  0
LINE
  5
34C
330
1E
100
AcDbEntity
  8
0
100
AcDbLine
 10
97.24850000000001
 20
1129.153
 30
0.0
 11
97.24850000000001
 21
1127.153
 31
0.0
  0
LINE
  5
34D
330
1E
100
AcDbEntity
  8
0
100
AcDbLine
 10
97.634
 20
1127.153
 30
0.0
 11
99.366
 21
1127.153
 31
0.0
  0
LINE
  5
34E
330
1E
100
AcDbEntity
  8
0
100
AcDbLine
 10
98.1
 20
1179.153
 30
0.0
 11
103.8
 21
1179.153
 31
0.0
  0
LINE
  5
34F
330
1E
100
AcDbEntity
  8
0
100
AcDbLine
 10
98.6813
 20
1129.153
 30
0.0
 11
98.6813
 21
1127.153
 31
0.0
  0
LINE
  5
350
330
1E
100
AcDbEntity
  8
0
100
AcDbLine
 10
98.6813
 20
1129.153
 30
0.0
 11
100.6132
 21
1129.153
 31
0.0
  0
LINE
  5
351
330
1E
100
AcDbEntity
  8
0
100
AcDbLine
 10
98.366
 20
1129.153
 30
0.0
 11
98.366
 21
1127.153
 31
0.0
  0
LINE
  5
352
330
1E
100
AcDbEntity
  8
0
100
AcDbLine
 10
98.366
 20
1129.153
 30
0.0
 11
98.6813
 21
1129.153
 31
0.0
  0
LINE
  5
353
330
1E
100
AcDbEntity
  8
0
100
AcDbLine
 10
98.366
 20
1127.153
 30
0.0
 11
99.366
 21
1127.153
 31
0.0
  0
LINE
  5
354
330
1E
100
AcDbEntity
  8
0
100
AcDbLine
 10
98.366
 20
1127.153
 30
0.0
 11
98.366
 21
1129.153
 31
0.0
  0
LINE
  5
355
330
1E
100
AcDbEntity
  8
0
100
AcDbLine
 10
97.24850000000001
 20
1127.153
 30
0.0
 11
97.24850000000001
 21
1129.153
 31
0.0
  0
LINE
  5
356
330
1E
100
AcDbEntity
  8
0
100
AcDbLine
 10
99.199
 20
1127.153
 30
0.0
 11
101.1307999999999
 21
1127.153
 31
0.0
  0
LINE
  5
357
330
1E
100
AcDbEntity
  8
0
100
AcDbLine
 10
98.6813
 20
1127.153
 30
0.0
 11
99.199
 21
1127.153
 31
0.0
  0
LINE
  5
358
330
1E
100
AcDbEntity
  8
0
100
AcDbLine
 10
98.6813
 20
1127.153
 30
0.0
 11
100.6132
 21
1127.153
 31
0.0
  0
LINE
  5
359
330
1E
100
AcDbEntity
  8
0
100
AcDbLine
 10
98.6813
 20
1127.153
 30
0.0
 11
98.6813
 21
1129.153
 31
0.0
  0
LINE
  5
35A
330
1E
100
AcDbEntity
  8
0
100
AcDbLine
 10
100.0
 20
1184.153
 30
0.0
 11
100.4
 21
1184.153
 31
0.0
  0
LINE
  5
35B
330
1E
100
AcDbEntity
  8
0
100
AcDbLine
 10
100.0
 20
1184.153
 30
0.0
 11
100.0
 21
1179.153
 31
0.0
  0
LINE
  5
35C
330
1E
100
AcDbEntity
  8
0
100
AcDbLine
 10
100.0
 20
1187.153
 30
0.0
 11
100.4
 21
1187.153
 31
0.0
  0
LINE
  5
35D
330
1E
100
AcDbEntity
  8
0
100
AcDbLine
 10
100.0
 20
1187.153
 30
0.0
 11
100.0
 21
1189.153
 31
0.0
  0
LINE
  5
35E
330
1E
100
AcDbEntity
  8
0
100
AcDbLine
 10
100.0
 20
1225.053
 30
0.0
 11
100.0
 21
1199.153
 31
0.0
  0
LINE
  5
35F
330
1E
100
AcDbEntity
  8
0
100
AcDbLine
 10
100.0
 20
1225.053
 30
0.0
 11
100.0
 21
1249.153
 31
0.0
  0
LINE
  5
360
330
1E
100
AcDbEntity
  8
0
100
AcDbLine
 10
100.0
 20
1189.153
 30
0.0
 11
100.0
 21
1199.153
 31
0.0
  0
LINE
  5
361
330
1E
100
AcDbEntity
  8
0
100
AcDbLine
 10
100.0
 20
1189.153
 30
0.0
 11
100.0
 21
1187.153
 31
0.0
  0
LINE
  5
362
330
1E
100
AcDbEntity
  8
0
100
AcDbLine
 10
100.0
 20
1199.153
 30
0.0
 11
100.0
 21
1189.153
 31
0.0
  0
LINE
  5
363
330
1E
100
AcDbEntity
  8
0
100
AcDbLine
 10
100.0
 20
1199.153
 30
0.0
 11
100.0
 21
1225.053
 31
0.0
  0
LINE
  5
364
330
1E
100
AcDbEntity
  8
0
100
AcDbLine
 10
100.0
 20
1179.153
 30
0.0
 11
100.0
 21
1238.653
 31
0.0
  0
LINE
  5
365
330
1E
100
AcDbEntity
  8
0
100
AcDbLine
 10
100.0
 20
1179.153
 30
0.0
 11
100.0
 21
1184.153
 31
0.0
  0
LINE
  5
366
330
1E
100
AcDbEntity
  8
0
100
AcDbLine
 10
101.1307999999999
 20
1127.153
 30
0.0
 11
101.1307999999999
 21
1129.153
 31
0.0
  0
LINE
  5
367
330
1E
100
AcDbEntity
  8
0
100
AcDbLine
 10
100.6132
 20
1127.153
 30
0.0
 11
101.1307999999999
 21
1127.153
 31
0.0
  0
LINE
  5
368
330
1E
100
AcDbEntity
  8
0
100
AcDbLine
 10
100.6132
 20
1127.153
 30
0.0
 11
100.6132
 21
1129.153
 31
0.0
  0
LINE
  5
369
330
1E
100
AcDbEntity
  8
0
100
AcDbLine
 10
103.0812
 20
1127.153
 30
0.0
 11
105.0130999999999
 21
1127.153
 31
0.0
  0
LINE
  5
36A
330
1E
100
AcDbEntity
  8
0
100
AcDbLine
 10
105.0130999999999
 20
1127.153
 30
0.0
 11
105.0130999999999
 21
1129.153
 31
0.0
  0
LINE
  5
36B
330
1E
100
AcDbEntity
  8
0
100
AcDbLine
 10
109.0
 20
1127.153
 30
0.0
 11
109.0
 21
1129.153
 31
0.0
  0
LINE
  5
36C
330
1E
100
AcDbEntity
  8
0
100
AcDbLine
 10
109.0
 20
1127.153
 30
0.0
 11
111.0
 21
1127.153
 31
0.0
  0
LINE
  5
36D
330
1E
100
AcDbEntity
  8
0
100
AcDbLine
 10
109.0
 20
1127.153
 30
0.0
 11
109.0
 21
1129.153
 31
0.0
  0
LINE
  5
36E
330
1E
100
AcDbEntity
  8
0
100
AcDbLine
 10
109.0
 20
1127.153
 30
0.0
 11
111.0
 21
1127.153
 31
0.0
  0
LINE
  5
36F
330
1E
100
AcDbEntity
  8
0
100
AcDbLine
 10
104.4955
 20
1127.153
 30
0.0
 11
105.0130999999999
 21
1127.153
 31
0.0
  0
LINE
  5
370
330
1E
100
AcDbEntity
  8
0
100
AcDbLine
 10
104.4955
 20
1127.153
 30
0.0
 11
104.4955
 21
1129.153
 31
0.0
  0
LINE
  5
371
330
1E
100
AcDbEntity
  8
0
100
AcDbLine
 10
101.1307999999999
 20
1129.153
 30
0.0
 11
101.1307999999999
 21
1127.153
 31
0.0
  0
LINE
  5
372
330
1E
100
AcDbEntity
  8
0
100
AcDbLine
 10
101.1307999999999
 20
1129.153
 30
0.0
 11
102.5635999999999
 21
1129.153
 31
0.0
  0
LINE
  5
373
330
1E
100
AcDbEntity
  8
0
100
AcDbLine
 10
100.4
 20
1184.153
 30
0.0
 11
101.2999999999999
 21
1184.153
 31
0.0
  0
LINE
  5
374
330
1E
100
AcDbEntity
  8
0
100
AcDbLine
 10
101.2999999999999
 20
1184.153
 30
0.0
 11
102.9
 21
1184.153
 31
0.0
  0
LINE
  5
375
330
1E
100
AcDbEntity
  8
0
100
AcDbLine
 10
101.2999999999999
 20
1187.153
 30
0.0
 11
102.9
 21
1187.153
 31
0.0
  0
LINE
  5
376
330
1E
100
AcDbEntity
  8
0
100
AcDbLine
 10
100.4
 20
1187.153
 30
0.0
 11
101.2999999999999
 21
1187.153
 31
0.0
  0
LINE
  5
377
330
1E
100
AcDbEntity
  8
0
100
AcDbLine
 10
100.6132
 20
1129.153
 30
0.0
 11
100.6132
 21
1127.153
 31
0.0
  0
LINE
  5
378
330
1E
100
AcDbEntity
  8
0
100
AcDbLine
 10
100.6132
 20
1129.153
 30
0.0
 11
101.1307999999999
 21
1129.153
 31
0.0
  0
LINE
  5
379
330
1E
100
AcDbEntity
  8
0
100
AcDbLine
 10
110.0
 20
1129.153
 30
0.0
 11
133.4
 21
1129.153
 31
0.0
  0
LINE
  5
37A
330
1E
100
AcDbEntity
  8
0
100
AcDbLine
 10
105.0130999999999
 20
1129.153
 30
0.0
 11
105.0130999999999
 21
1127.153
 31
0.0
  0
LINE
  5
37B
330
1E
100
AcDbEntity
  8
0
100
AcDbLine
 10
105.0130999999999
 20
1129.153
 30
0.0
 11
109.0
 21
1129.153
 31
0.0
  0
LINE
  5
37C
330
1E
100
AcDbEntity
  8
0
100
AcDbLine
 10
104.4955
 20
1129.153
 30
0.0
 11
104.4955
 21
1127.153
 31
0.0
  0
LINE
  5
37D
330
1E
100
AcDbEntity
  8
0
100
AcDbLine
 10
104.4955
 20
1129.153
 30
0.0
 11
105.0130999999999
 21
1129.153
 31
0.0
  0
LINE
  5
37E
330
1E
100
AcDbEntity
  8
0
100
AcDbLine
 10
102.9
 20
1184.153
 30
0.0
 11
105.0
 21
1184.153
 31
0.0
  0
LINE
  5
37F
330
1E
100
AcDbEntity
  8
0
100
AcDbLine
 10
103.0
 20
1184.153
 30
0.0
 11
103.0
 21
1187.153
 31
0.0
  0
LINE
  5
380
330
1E
100
AcDbEntity
  8
0
100
AcDbLine
 10
103.8
 20
1179.153
 30
0.0
 11
110.0
 21
1179.153
 31
0.0
  0
LINE
  5
381
330
1E
100
AcDbEntity
  8
0
100
AcDbLine
 10
105.0
 20
1184.153
 30
0.0
 11
107.4
 21
1184.153
 31
0.0
  0
LINE
  5
382
330
1E
100
AcDbEntity
  8
0
100
AcDbLine
 10
107.4
 20
1184.153
 30
0.0
 11
110.0
 21
1184.153
 31
0.0
  0
LINE
  5
383
330
1E
100
AcDbEntity
  8
0
100
AcDbLine
 10
106.4999999999999
 20
1187.153
 30
0.0
 11
108.2
 21
1187.153
 31
0.0
  0
LINE
  5
384
330
1E
100
AcDbEntity
  8
0
100
AcDbLine
 10
105.0999999999999
 20
1187.153
 30
0.0
 11
106.4999999999999
 21
1187.153
 31
0.0
  0
LINE
  5
385
330
1E
100
AcDbEntity
  8
0
100
AcDbLine
 10
103.9
 20
1187.153
 30
0.0
 11
105.0999999999999
 21
1187.153
 31
0.0
  0
LINE
  5
386
330
1E
100
AcDbEntity
  8
0
100
AcDbLine
 10
103.2999999999999
 20
1187.153
 30
0.0
 11
103.9
 21
1187.153
 31
0.0
  0
LINE
  5
387
330
1E
100
AcDbEntity
  8
0
100
AcDbLine
 10
103.0
 20
1187.153
 30
0.0
 11
103.2999999999999
 21
1187.153
 31
0.0
  0
LINE
  5
388
330
1E
100
AcDbEntity
  8
0
100
AcDbLine
 10
103.0
 20
1187.153
 30
0.0
 11
103.0
 21
1184.153
 31
0.0
  0
LINE
  5
389
330
1E
100
AcDbEntity
  8
0
100
AcDbLine
 10
110.0
 20
1184.153
 30
0.0
 11
112.5999999999999
 21
1184.153
 31
0.0
  0
LINE
  5
38A
330
1E
100
AcDbEntity
  8
0
100
AcDbLine
 10
110.0
 20
1187.153
 30
0.0
 11
112.5999999999999
 21
1187.153
 31
0.0
  0
LINE
  5
38B
330
1E
100
AcDbEntity
  8
0
100
AcDbLine
 10
110.0
 20
1187.153
 30
0.0
 11
111.8
 21
1187.153
 31
0.0
  0
LINE
  5
38C
330
1E
100
AcDbEntity
  8
0
100
AcDbLine
 10
110.0
 20
1131.153
 30
0.0
 11
134.0
 21
1131.153
 31
0.0
  0
LINE
  5
38D
330
1E
100
AcDbEntity
  8
0
100
AcDbLine
 10
110.0
 20
1179.153
 30
0.0
 11
116.2
 21
1179.153
 31
0.0
  0
LINE
  5
38E
330
1E
100
AcDbEntity
  8
0
100
AcDbLine
 10
108.2
 20
1187.153
 30
0.0
 11
110.0
 21
1187.153
 31
0.0
  0
LINE
  5
38F
330
1E
100
AcDbEntity
  8
0
100
AcDbLine
 10
107.4
 20
1187.153
 30
0.0
 11
110.0
 21
1187.153
 31
0.0
  0
LINE
  5
390
330
1E
100
AcDbEntity
  8
0
100
AcDbLine
 10
105.0
 20
1187.153
 30
0.0
 11
107.4
 21
1187.153
 31
0.0
  0
LINE
  5
391
330
1E
100
AcDbEntity
  8
0
100
AcDbLine
 10
102.9
 20
1187.153
 30
0.0
 11
105.0
 21
1187.153
 31
0.0
  0
LINE
  5
392
330
1E
100
AcDbEntity
  8
0
100
AcDbLine
 10
102.9
 20
1187.153
 30
0.0
 11
103.0
 21
1187.153
 31
0.0
  0
LINE
  5
393
330
1E
100
AcDbEntity
  8
0
100
AcDbLine
 10
109.0
 20
1129.153
 30
0.0
 11
109.0
 21
1127.153
 31
0.0
  0
LINE
  5
394
330
1E
100
AcDbEntity
  8
0
100
AcDbLine
 10
109.0
 20
1129.153
 30
0.0
 11
109.0
 21
1127.153
 31
0.0
  0
LINE
  5
395
330
1E
100
AcDbEntity
  8
0
100
AcDbLine
 10
109.0
 20
1129.153
 30
0.0
 11
111.0
 21
1129.153
 31
0.0
  0
LINE
  5
396
330
1E
100
AcDbEntity
  8
0
100
AcDbLine
 10
102.5635999999999
 20
1129.153
 30
0.0
 11
102.5635999999999
 21
1127.153
 31
0.0
  0
LINE
  5
397
330
1E
100
AcDbEntity
  8
0
100
AcDbLine
 10
102.5635999999999
 20
1129.153
 30
0.0
 11
104.4955
 21
1129.153
 31
0.0
  0
LINE
  5
398
330
1E
100
AcDbEntity
  8
0
100
AcDbLine
 10
102.5635999999999
 20
1127.153
 30
0.0
 11
102.5635999999999
 21
1129.153
 31
0.0
  0
LINE
  5
399
330
1E
100
AcDbEntity
  8
0
100
AcDbLine
 10
102.5635999999999
 20
1127.153
 30
0.0
 11
103.0812
 21
1127.153
 31
0.0
  0
LINE
  5
39A
330
1E
100
AcDbEntity
  8
0
100
AcDbLine
 10
102.5635999999999
 20
1127.153
 30
0.0
 11
104.4955
 21
1127.153
 31
0.0
  0
LINE
  5
39B
330
1E
100
AcDbEntity
  8
0
100
AcDbLine
 10
100.0
 20
1127.153
 30
0.0
 11
100.0
 21
394.653
 31
0.0
  0
LINE
  5
39C
330
1E
100
AcDbEntity
  8
0
100
AcDbLine
 10
107.2
 20
394.653
 30
0.0
 11
110.0
 21
394.653
 31
0.0
  0
LINE
  5
39E
330
1E
100
AcDbEntity
  8
0
100
AcDbLine
 10
111.0
 20
1129.153
 30
0.0
 11
111.0
 21
1127.153
 31
0.0
  0
LINE
  5
39F
330
1E
100
AcDbEntity
  8
0
100
AcDbLine
 10
111.0
 20
1129.153
 30
0.0
 11
114.9869
 21
1129.153
 31
0.0
  0
LINE
  5
3A0
330
1E
100
AcDbEntity
  8
0
100
AcDbLine
 10
112.5999999999999
 20
1184.153
 30
0.0
 11
115.0
 21
1184.153
 31
0.0
  0
LINE
  5
3A1
330
1E
100
AcDbEntity
  8
0
100
AcDbLine
 10
111.8
 20
1187.153
 30
0.0
 11
113.5
 21
1187.153
 31
0.0
  0
LINE
  5
3A2
330
1E
100
AcDbEntity
  8
0
100
AcDbLine
 10
112.5999999999999
 20
1187.153
 30
0.0
 11
115.0
 21
1187.153
 31
0.0
  0
LINE
  5
3A3
330
1E
100
AcDbEntity
  8
0
100
AcDbLine
 10
111.0
 20
1127.153
 30
0.0
 11
111.0
 21
1129.153
 31
0.0
  0
LINE
  5
3A4
330
1E
100
AcDbEntity
  8
0
100
AcDbLine
 10
119.5
 20
394.653
 30
0.0
 11
120.5999999999999
 21
394.653
 31
0.0
  0
LINE
  5
3A5
330
1E
100
AcDbEntity
  8
0
100
AcDbLine
 10
117.7999999999999
 20
394.653
 30
0.0
 11
119.5
 21
394.653
 31
0.0
  0
LINE
  5
3A6
330
1E
100
AcDbEntity
  8
0
100
AcDbLine
 10
114.9869
 20
1127.153
 30
0.0
 11
114.9869
 21
1129.153
 31
0.0
  0
LINE
  5
3A7
330
1E
100
AcDbEntity
  8
0
100
AcDbLine
 10
114.9869
 20
1127.153
 30
0.0
 11
115.5044999999999
 21
1127.153
 31
0.0
  0
LINE
  5
3A8
330
1E
100
AcDbEntity
  8
0
100
AcDbLine
 10
114.9869
 20
1127.153
 30
0.0
 11
116.9188
 21
1127.153
 31
0.0
  0
LINE
  5
3A9
330
1E
100
AcDbEntity
  8
0
100
AcDbLine
 10
115.5044999999999
 20
1127.153
 30
0.0
 11
117.4364
 21
1127.153
 31
0.0
  0
LINE
  5
3AA
330
1E
100
AcDbEntity
  8
0
100
AcDbLine
 10
115.5044999999999
 20
1127.153
 30
0.0
 11
115.5044999999999
 21
1129.153
 31
0.0
  0
LINE
  5
3AB
330
1E
100
AcDbEntity
  8
0
100
AcDbLine
 10
117.4364
 20
1127.153
 30
0.0
 11
117.4364
 21
1129.153
 31
0.0
  0
LINE
  5
3AC
330
1E
100
AcDbEntity
  8
0
100
AcDbLine
 10
116.9188
 20
1127.153
 30
0.0
 11
117.4364
 21
1127.153
 31
0.0
  0
LINE
  5
3AD
330
1E
100
AcDbEntity
  8
0
100
AcDbLine
 10
117.4364
 20
1129.153
 30
0.0
 11
117.4364
 21
1127.153
 31
0.0
  0
LINE
  5
3AE
330
1E
100
AcDbEntity
  8
0
100
AcDbLine
 10
117.4364
 20
1129.153
 30
0.0
 11
118.8692
 21
1129.153
 31
0.0
  0
LINE
  5
3AF
330
1E
100
AcDbEntity
  8
0
100
AcDbLine
 10
115.5044999999999
 20
1129.153
 30
0.0
 11
117.4364
 21
1129.153
 31
0.0
  0
LINE
  5
3B0
330
1E
100
AcDbEntity
  8
0
100
AcDbLine
 10
115.5044999999999
 20
1129.153
 30
0.0
 11
115.5044999999999
 21
1127.153
 31
0.0
  0
LINE
  5
3B1
330
1E
100
AcDbEntity
  8
0
100
AcDbLine
 10
115.0
 20
1184.153
 30
0.0
 11
117.1
 21
1184.153
 31
0.0
  0
LINE
  5
3B2
330
1E
100
AcDbEntity
  8
0
100
AcDbLine
 10
113.5
 20
1187.153
 30
0.0
 11
114.9
 21
1187.153
 31
0.0
  0
LINE
  5
3B3
330
1E
100
AcDbEntity
  8
0
100
AcDbLine
 10
114.9
 20
1187.153
 30
0.0
 11
116.1
 21
1187.153
 31
0.0
  0
LINE
  5
3B4
330
1E
100
AcDbEntity
  8
0
100
AcDbLine
 10
116.1
 20
1187.153
 30
0.0
 11
116.7
 21
1187.153
 31
0.0
  0
LINE
  5
3B5
330
1E
100
AcDbEntity
  8
0
100
AcDbLine
 10
115.0
 20
1187.153
 30
0.0
 11
117.1
 21
1187.153
 31
0.0
  0
LINE
  5
3B6
330
1E
100
AcDbEntity
  8
0
100
AcDbLine
 10
117.0
 20
1187.153
 30
0.0
 11
117.1
 21
1187.153
 31
0.0
  0
LINE
  5
3B7
330
1E
100
AcDbEntity
  8
0
100
AcDbLine
 10
117.0
 20
1187.153
 30
0.0
 11
117.0
 21
1184.153
 31
0.0
  0
LINE
  5
3B8
330
1E
100
AcDbEntity
  8
0
100
AcDbLine
 10
117.1
 20
1184.153
 30
0.0
 11
118.7
 21
1184.153
 31
0.0
  0
LINE
  5
3B9
330
1E
100
AcDbEntity
  8
0
100
AcDbLine
 10
117.0
 20
1184.153
 30
0.0
 11
117.0
 21
1187.153
 31
0.0
  0
LINE
  5
3BA
330
1E
100
AcDbEntity
  8
0
100
AcDbLine
 10
116.7
 20
1187.153
 30
0.0
 11
117.0
 21
1187.153
 31
0.0
  0
LINE
  5
3BB
330
1E
100
AcDbEntity
  8
0
100
AcDbLine
 10
118.7
 20
1184.153
 30
0.0
 11
119.5999999999999
 21
1184.153
 31
0.0
  0
LINE
  5
3BC
330
1E
100
AcDbEntity
  8
0
100
AcDbLine
 10
117.1
 20
1187.153
 30
0.0
 11
118.7
 21
1187.153
 31
0.0
  0
LINE
  5
3BD
330
1E
100
AcDbEntity
  8
0
100
AcDbLine
 10
118.7
 20
1187.153
 30
0.0
 11
119.5999999999999
 21
1187.153
 31
0.0
  0
LINE
  5
3BE
330
1E
100
AcDbEntity
  8
0
100
AcDbLine
 10
116.2
 20
1179.153
 30
0.0
 11
121.9
 21
1179.153
 31
0.0
  0
LINE
  5
3BF
330
1E
100
AcDbEntity
  8
0
100
AcDbLine
 10
114.9869
 20
1129.153
 30
0.0
 11
114.9869
 21
1127.153
 31
0.0
  0
LINE
  5
3C0
330
1E
100
AcDbEntity
  8
0
100
AcDbLine
 10
114.9869
 20
1129.153
 30
0.0
 11
115.5044999999999
 21
1129.153
 31
0.0
  0
LINE
  5
3C1
330
1E
100
AcDbEntity
  8
0
100
AcDbLine
 10
119.3867999999999
 20
1129.153
 30
0.0
 11
121.3187
 21
1129.153
 31
0.0
  0
LINE
  5
3C2
330
1E
100
AcDbEntity
  8
0
100
AcDbLine
 10
119.3867999999999
 20
1129.153
 30
0.0
 11
119.3867999999999
 21
1127.153
 31
0.0
  0
LINE
  5
3C3
330
1E
100
AcDbEntity
  8
0
100
AcDbLine
 10
118.8692
 20
1129.153
 30
0.0
 11
118.8692
 21
1127.153
 31
0.0
  0
LINE
  5
3C4
330
1E
100
AcDbEntity
  8
0
100
AcDbLine
 10
118.8692
 20
1129.153
 30
0.0
 11
119.3867999999999
 21
1129.153
 31
0.0
  0
LINE
  5
3C5
330
1E
100
AcDbEntity
  8
0
100
AcDbLine
 10
118.8692
 20
1127.153
 30
0.0
 11
118.8692
 21
1129.153
 31
0.0
  0
LINE
  5
3C6
330
1E
100
AcDbEntity
  8
0
100
AcDbLine
 10
118.8692
 20
1127.153
 30
0.0
 11
119.3867999999999
 21
1127.153
 31
0.0
  0
LINE
  5
3C7
330
1E
100
AcDbEntity
  8
0
100
AcDbLine
 10
118.8692
 20
1127.153
 30
0.0
 11
120.801
 21
1127.153
 31
0.0
  0
LINE
  5
3C8
330
1E
100
AcDbEntity
  8
0
100
AcDbLine
 10
119.3867999999999
 20
1127.153
 30
0.0
 11
121.3187
 21
1127.153
 31
0.0
  0
LINE
  5
3C9
330
1E
100
AcDbEntity
  8
0
100
AcDbLine
 10
119.3867999999999
 20
1127.153
 30
0.0
 11
119.3867999999999
 21
1129.153
 31
0.0
  0
LINE
  5
3CA
330
1E
100
AcDbEntity
  8
0
100
AcDbLine
 10
115.5
 20
394.653
 30
0.0
 11
117.7999999999999
 21
394.653
 31
0.0
  0
LINE
  5
3CB
330
1E
100
AcDbEntity
  8
0
100
AcDbLine
 10
112.7999999999999
 20
394.653
 30
0.0
 11
115.5
 21
394.653
 31
0.0
  0
LINE
  5
3CD
330
1E
100
AcDbEntity
  8
0
100
AcDbLine
 10
110.0
 20
394.653
 30
0.0
 11
112.7999999999999
 21
394.653
 31
0.0
  0
LINE
  5
3CF
330
1E
100
AcDbEntity
  8
0
100
AcDbLine
 10
97.0
 20
382.653
 30
0.0
 11
99.0
 21
380.653
 31
0.0
  0
LINE
  5
3D1
330
1E
100
AcDbEntity
  8
0
100
AcDbLine
 10
97.0
 20
382.653
 30
0.0
 11
97.0
 21
384.653
 31
0.0
  0
LINE
  5
3D2
330
1E
100
AcDbEntity
  8
0
100
AcDbLine
 10
97.0
 20
1242.653
 30
0.0
 11
97.0
 21
1240.653
 31
0.0
  0
LINE
  5
3D3
330
1E
100
AcDbEntity
  8
0
100
AcDbLine
 10
97.0
 20
1242.653
 30
0.0
 11
97.0
 21
1245.653
 31
0.0
  0
LINE
  5
3D5
330
1E
100
AcDbEntity
  8
0
100
AcDbLine
 10
97.0
 20
1240.653
 30
0.0
 11
99.0
 21
1238.653
 31
0.0
  0
LINE
  5
3D6
330
1E
100
AcDbEntity
  8
0
100
AcDbLine
 10
97.0
 20
1240.653
 30
0.0
 11
97.0
 21
1242.653
 31
0.0
  0
LINE
  5
3D7
330
1E
100
AcDbEntity
  8
0
100
AcDbLine
 10
97.0
 20
1245.653
 30
0.0
 11
97.0
 21
1248.653
 31
0.0
  0
LINE
  5
3D8
330
1E
100
AcDbEntity
  8
0
100
AcDbLine
 10
97.0
 20
1245.653
 30
0.0
 11
97.0
 21
1242.653
 31
0.0
  0
LINE
  5
3D9
330
1E
100
AcDbEntity
  8
0
100
AcDbLine
 10
97.0
 20
1248.653
 30
0.0
 11
97.0
 21
1250.653
 31
0.0
  0
LINE
  5
3DA
330
1E
100
AcDbEntity
  8
0
100
AcDbLine
 10
97.0
 20
1248.653
 30
0.0
 11
97.0
 21
1245.653
 31
0.0
  0
LINE
  5
3DB
330
1E
100
AcDbEntity
  8
0
100
AcDbLine
 10
97.0
 20
1250.653
 30
0.0
 11
99.0
 21
1252.653
 31
0.0
  0
LINE
  5
3DD
330
1E
100
AcDbEntity
  8
0
100
AcDbLine
 10
97.0
 20
1250.653
 30
0.0
 11
97.0
 21
1248.653
 31
0.0
  0
LINE
  5
3DE
330
1E
100
AcDbEntity
  8
0
100
AcDbLine
 10
98.0
 20
1252.903
 30
0.0
 11
98.4364
 21
1252.903
 31
0.0
  0
LINE
  5
3DF
330
1E
100
AcDbEntity
  8
0
100
AcDbLine
 10
98.0
 20
1252.903
 30
0.0
 11
98.2727
 21
1252.653
 31
0.0
  0
LINE
  5
3E0
330
1E
100
AcDbEntity
  8
0
100
AcDbLine
 10
98.0
 20
1252.903
 30
0.0
 11
98.0
 21
1262.653
 31
0.0
  0
LINE
  5
3E1
330
1E
100
AcDbEntity
  8
0
100
AcDbLine
 10
95.09999999999999
 20
1288.653
 30
0.0
 11
100.0
 21
1290.626611111109
 31
0.0
  0
LINE
  5
3E2
330
1E
100
AcDbEntity
  8
0
100
AcDbLine
 10
99.0
 20
1238.653
 30
0.0
 11
99.40000000000001
 21
1238.653
 31
0.0
  0
LINE
  5
3E3
330
1E
100
AcDbEntity
  8
0
100
AcDbLine
 10
98.70910000000002
 20
1252.653
 30
0.0
 11
99.8545
 21
1252.653
 31
0.0
  0
LINE
  5
3E4
330
1E
100
AcDbEntity
  8
0
100
AcDbLine
 10
98.70910000000002
 20
1252.653
 30
0.0
 11
99.0
 21
1252.653
 31
0.0
  0
LINE
  5
3E5
330
1E
100
AcDbEntity
  8
0
100
AcDbLine
 10
98.2727
 20
1252.653
 30
0.0
 11
98.70910000000002
 21
1252.653
 31
0.0
  0
LINE
  5
3E6
330
1E
100
AcDbEntity
  8
0
100
AcDbLine
 10
98.4364
 20
1252.903
 30
0.0
 11
99.58190000000001
 21
1252.903
 31
0.0
  0
LINE
  5
3E7
330
1E
100
AcDbEntity
  8
0
100
AcDbLine
 10
99.0
 20
1252.653
 30
0.0
 11
99.40000000000001
 21
1252.653
 31
0.0
  0
LINE
  5
3E8
330
1E
100
AcDbEntity
  8
0
100
AcDbLine
 10
99.58190000000001
 20
1252.903
 30
0.0
 11
100.0
 21
1252.903
 31
0.0
  0
LINE
  5
3E9
330
1E
100
AcDbEntity
  8
0
100
AcDbLine
 10
99.40000000000001
 20
1252.653
 30
0.0
 11
100.0
 21
1252.653
 31
0.0
  0
LINE
  5
3EA
330
1E
100
AcDbEntity
  8
0
100
AcDbLine
 10
99.40000000000001
 20
1238.653
 30
0.0
 11
100.0
 21
1238.653
 31
0.0
  0
LINE
  5
3EB
330
1E
100
AcDbEntity
  8
0
100
AcDbLine
 10
100.0
 20
1249.153
 30
0.0
 11
100.0
 21
1225.053
 31
0.0
  0
LINE
  5
3EC
330
1E
100
AcDbEntity
  8
0
100
AcDbLine
 10
100.0
 20
1249.153
 30
0.0
 11
100.0
 21
1269.853
 31
0.0
  0
LINE
  5
3ED
330
1E
100
AcDbEntity
  8
0
100
AcDbLine
 10
100.0
 20
1238.653
 30
0.0
 11
100.0
 21
1179.153
 31
0.0
  0
LINE
  5
3EE
330
1E
100
AcDbEntity
  8
0
100
AcDbLine
 10
99.8545
 20
1252.653
 30
0.0
 11
100.0
 21
1252.653
 31
0.0
  0
LINE
  5
3EF
330
1E
100
AcDbEntity
  8
0
100
AcDbLine
 10
99.6
 20
1256.653
 30
0.0
 11
100.0
 21
1256.12668421053
 31
0.0
  0
LINE
  5
3F0
330
1E
100
AcDbEntity
  8
0
100
AcDbLine
 10
100.0
 20
1262.653
 30
0.0
 11
100.0
 21
1263.753
 31
0.0
  0
LINE
  5
3F1
330
1E
100
AcDbEntity
  8
0
100
AcDbLine
 10
100.0
 20
1263.753
 30
0.0
 11
100.0
 21
1267.153
 31
0.0
  0
LINE
  5
3F2
330
1E
100
AcDbEntity
  8
0
100
AcDbLine
 10
100.0
 20
1263.753
 30
0.0
 11
100.0
 21
1262.653
 31
0.0
  0
LINE
  5
3F3
330
1E
100
AcDbEntity
  8
0
100
AcDbLine
 10
100.0
 20
1267.153
 30
0.0
 11
100.0
 21
1271.252999999999
 31
0.0
  0
LINE
  5
3F4
330
1E
100
AcDbEntity
  8
0
100
AcDbLine
 10
100.0
 20
1267.153
 30
0.0
 11
100.0
 21
1263.753
 31
0.0
  0
LINE
  5
3F5
330
1E
100
AcDbEntity
  8
0
100
AcDbLine
 10
100.0
 20
1271.252999999999
 30
0.0
 11
100.0
 21
1277.453
 31
0.0
  0
LINE
  5
3F6
330
1E
100
AcDbEntity
  8
0
100
AcDbLine
 10
100.0
 20
1271.252999999999
 30
0.0
 11
100.0
 21
1267.153
 31
0.0
  0
LINE
  5
3F7
330
1E
100
AcDbEntity
  8
0
100
AcDbLine
 10
100.0
 20
1277.453
 30
0.0
 11
100.0
 21
1285.752999999999
 31
0.0
  0
LINE
  5
3F8
330
1E
100
AcDbEntity
  8
0
100
AcDbLine
 10
100.0
 20
1277.453
 30
0.0
 11
100.0
 21
1271.252999999999
 31
0.0
  0
LINE
  5
3F9
330
1E
100
AcDbEntity
  8
0
100
AcDbLine
 10
100.0
 20
1269.853
 30
0.0
 11
100.0
 21
1285.752999999999
 31
0.0
  0
LINE
  5
3FA
330
1E
100
AcDbEntity
  8
0
100
AcDbLine
 10
100.0
 20
1269.853
 30
0.0
 11
100.0
 21
1249.153
 31
0.0
  0
LINE
  5
3FB
330
1E
100
AcDbEntity
  8
0
100
AcDbLine
 10
100.0
 20
1285.752999999999
 30
0.0
 11
100.0
 21
1295.753
 31
0.0
  0
LINE
  5
3FC
330
1E
100
AcDbEntity
  8
0
100
AcDbLine
 10
100.0
 20
1285.752999999999
 30
0.0
 11
100.0
 21
1269.853
 31
0.0
  0
LINE
  5
3FD
330
1E
100
AcDbEntity
  8
0
100
AcDbLine
 10
100.0
 20
1285.752999999999
 30
0.0
 11
100.0
 21
1277.453
 31
0.0
  0
LINE
  5
3FE
330
1E
100
AcDbEntity
  8
0
100
AcDbLine
 10
100.0
 20
1295.753
 30
0.0
 11
100.0
 21
1299.153
 31
0.0
  0
LINE
  5
3FF
330
1E
100
AcDbEntity
  8
0
100
AcDbLine
 10
100.0
 20
1295.753
 30
0.0
 11
100.0
 21
1285.752999999999
 31
0.0
  0
LINE
  5
400
330
1E
100
AcDbEntity
  8
0
100
AcDbLine
 10
100.0
 20
1299.153
 30
0.0
 11
100.0
 21
1295.753
 31
0.0
  0
LINE
  5
401
330
1E
100
AcDbEntity
  8
0
100
AcDbLine
 10
100.0
 20
1299.153
 30
0.0
 11
100.4
 21
1301.752999999999
 31
0.0
  0
LINE
  5
402
330
1E
100
AcDbEntity
  8
0
100
AcDbLine
 10
100.4
 20
1301.752999999999
 30
0.0
 11
101.2999999999999
 21
1304.153
 31
0.0
  0
LINE
  5
403
330
1E
100
AcDbEntity
  8
0
100
AcDbLine
 10
101.2999999999999
 20
1304.153
 30
0.0
 11
102.9
 21
1306.252999999999
 31
0.0
  0
LINE
  5
404
330
1E
100
AcDbEntity
  8
0
100
AcDbLine
 10
102.9
 20
1306.252999999999
 30
0.0
 11
105.0
 21
1307.853
 31
0.0
  0
LINE
  5
405
330
1E
100
AcDbEntity
  8
0
100
AcDbLine
 10
105.0
 20
1307.853
 30
0.0
 11
107.4
 21
1308.753
 31
0.0
  0
LINE
  5
406
330
1E
100
AcDbEntity
  8
0
100
AcDbLine
 10
118.7
 20
1304.153
 30
0.0
 11
119.5999999999999
 21
1301.752999999999
 31
0.0
  0
LINE
  5
407
330
1E
100
AcDbEntity
  8
0
100
AcDbLine
 10
117.1
 20
1306.252999999999
 30
0.0
 11
118.7
 21
1304.153
 31
0.0
  0
LINE
  5
408
330
1E
100
AcDbEntity
  8
0
100
AcDbLine
 10
115.0
 20
1307.853
 30
0.0
 11
117.1
 21
1306.252999999999
 31
0.0
  0
LINE
  5
409
330
1E
100
AcDbEntity
  8
0
100
AcDbLine
 10
112.5999999999999
 20
1308.753
 30
0.0
 11
115.0
 21
1307.853
 31
0.0
  0
LINE
  5
40A
330
1E
100
AcDbEntity
  8
0
100
AcDbLine
 10
110.0
 20
1309.153
 30
0.0
 11
112.5999999999999
 21
1308.753
 31
0.0
  0
LINE
  5
40B
330
1E
100
AcDbEntity
  8
0
100
AcDbLine
 10
107.4
 20
1308.753
 30
0.0
 11
110.0
 21
1309.153
 31
0.0
  0
LINE
  5
40C
330
1E
100
AcDbEntity
  8
0
100
AcDbLine
 10
99.6
 20
1268.653
 30
0.0
 11
100.0
 21
1269.179315789469
 31
0.0
  0
LINE
  5
40D
330
1E
100
AcDbEntity
  8
0
100
AcDbLine
 10
98.40000000000001
 20
1265.753
 30
0.0
 11
99.6
 21
1268.653
 31
0.0
  0
LINE
  5
40E
330
1E
100
AcDbEntity
  8
0
100
AcDbLine
 10
98.40000000000001
 20
1259.553
 30
0.0
 11
99.6
 21
1256.653
 31
0.0
  0
LINE
  5
40F
330
1E
100
AcDbEntity
  8
0
100
AcDbLine
 10
98.0
 20
1262.653
 30
0.0
 11
98.40000000000001
 21
1259.553
 31
0.0
  0
LINE
  5
410
330
1E
100
AcDbEntity
  8
0
100
AcDbLine
 10
98.0
 20
1262.653
 30
0.0
 11
98.40000000000001
 21
1265.753
 31
0.0
  0
LINE
  5
411
330
1E
100
AcDbEntity
  8
0
100
AcDbLine
 10
98.0
 20
1262.653
 30
0.0
 11
98.0
 21
1252.903
 31
0.0
  0
LINE
  5
412
330
1E
100
AcDbEntity
  8
0
100
AcDbLine
 10
95.09999999999999
 20
1236.653
 30
0.0
 11
100.0
 21
1234.67938888889
 31
0.0
  0
LINE
  5
413
330
1E
100
AcDbEntity
  8
0
100
AcDbLine
 10
88.8
 20
1241.452999999999
 30
0.0
 11
95.09999999999999
 21
1236.653
 31
0.0
  0
LINE
  5
414
330
1E
100
AcDbEntity
  8
0
100
AcDbLine
 10
110.0
 20
379.653
 30
0.0
 11
119.5
 21
378.353
 31
0.0
  0
LINE
  5
415
330
1E
100
AcDbEntity
  8
0
100
AcDbLine
 10
120.0
 20
1179.153
 30
0.0
 11
120.0
 21
1184.153
 31
0.0
  0
LINE
  5
416
330
1E
100
AcDbEntity
  8
0
100
AcDbLine
 10
119.5999999999999
 20
1184.153
 30
0.0
 11
120.0
 21
1184.153
 31
0.0
  0
LINE
  5
417
330
1E
100
AcDbEntity
  8
0
100
AcDbLine
 10
120.0
 20
1127.153
 30
0.0
 11
120.0
 21
394.653
 31
0.0
  0
LINE
  5
418
330
1E
100
AcDbEntity
  8
0
100
AcDbLine
 10
119.5999999999999
 20
1187.153
 30
0.0
 11
120.0
 21
1187.153
 31
0.0
  0
LINE
  5
419
330
1E
100
AcDbEntity
  8
0
100
AcDbLine
 10
120.0
 20
1249.153
 30
0.0
 11
120.0
 21
1225.053
 31
0.0
  0
LINE
  5
41A
330
1E
100
AcDbEntity
  8
0
100
AcDbLine
 10
120.0
 20
1249.153
 30
0.0
 11
120.0
 21
1269.853
 31
0.0
  0
LINE
  5
41B
330
1E
100
AcDbEntity
  8
0
100
AcDbLine
 10
120.0
 20
1225.053
 30
0.0
 11
120.0
 21
1199.153
 31
0.0
  0
LINE
  5
41C
330
1E
100
AcDbEntity
  8
0
100
AcDbLine
 10
120.0
 20
1225.053
 30
0.0
 11
120.0
 21
1249.153
 31
0.0
  0
LINE
  5
41D
330
1E
100
AcDbEntity
  8
0
100
AcDbLine
 10
120.0
 20
1199.153
 30
0.0
 11
120.0
 21
1189.153
 31
0.0
  0
LINE
  5
41E
330
1E
100
AcDbEntity
  8
0
100
AcDbLine
 10
120.0
 20
1199.153
 30
0.0
 11
120.0
 21
1225.053
 31
0.0
  0
LINE
  5
41F
330
1E
100
AcDbEntity
  8
0
100
AcDbLine
 10
120.0
 20
1189.153
 30
0.0
 11
120.0
 21
1199.153
 31
0.0
  0
LINE
  5
420
330
1E
100
AcDbEntity
  8
0
100
AcDbLine
 10
120.0
 20
1189.153
 30
0.0
 11
120.0
 21
1187.153
 31
0.0
  0
LINE
  5
421
330
1E
100
AcDbEntity
  8
0
100
AcDbLine
 10
120.0
 20
1187.153
 30
0.0
 11
120.0
 21
1184.153
 31
0.0
  0
LINE
  5
422
330
1E
100
AcDbEntity
  8
0
100
AcDbLine
 10
120.0
 20
1187.153
 30
0.0
 11
120.0
 21
1189.153
 31
0.0
  0
LINE
  5
423
330
1E
100
AcDbEntity
  8
0
100
AcDbLine
 10
120.0
 20
1184.153
 30
0.0
 11
120.0
 21
1187.153
 31
0.0
  0
LINE
  5
424
330
1E
100
AcDbEntity
  8
0
100
AcDbLine
 10
120.0
 20
1184.153
 30
0.0
 11
120.0
 21
1179.153
 31
0.0
  0
LINE
  5
425
330
1E
100
AcDbEntity
  8
0
100
AcDbLine
 10
120.0
 20
394.653
 30
0.0
 11
120.0
 21
1127.153
 31
0.0
  0
LINE
  5
426
330
1E
100
AcDbEntity
  8
0
100
AcDbLine
 10
120.0
 20
1252.903
 30
0.0
 11
120.4180999999999
 21
1252.903
 31
0.0
  0
LINE
  5
427
330
1E
100
AcDbEntity
  8
0
100
AcDbLine
 10
120.0
 20
1252.653
 30
0.0
 11
120.5999999999999
 21
1252.653
 31
0.0
  0
LINE
  5
428
330
1E
100
AcDbEntity
  8
0
100
AcDbLine
 10
120.0
 20
1252.653
 30
0.0
 11
120.1454999999999
 21
1252.653
 31
0.0
  0
LINE
  5
429
330
1E
100
AcDbEntity
  8
0
100
AcDbLine
 10
120.0
 20
1238.653
 30
0.0
 11
120.5999999999999
 21
1238.653
 31
0.0
  0
LINE
  5
42A
330
1E
100
AcDbEntity
  8
0
100
AcDbLine
 10
120.0
 20
1256.12668421053
 30
0.0
 11
120.4
 21
1256.653
 31
0.0
  0
LINE
  5
42B
330
1E
100
AcDbEntity
  8
0
100
AcDbLine
 10
120.1454999999999
 20
1252.653
 30
0.0
 11
121.2909
 21
1252.653
 31
0.0
  0
LINE
  5
42C
330
1E
100
AcDbEntity
  8
0
100
AcDbLine
 10
120.1454999999999
 20
380.653
 30
0.0
 11
121.2909
 21
380.653
 31
0.0
  0
LINE
  5
42D
330
1E
100
AcDbEntity
  8
0
100
AcDbLine
 10
120.4
 20
1256.653
 30
0.0
 11
121.5999999999999
 21
1259.553
 31
0.0
  0
LINE
  5
42E
330
1E
100
AcDbEntity
  8
0
100
AcDbLine
 10
120.0
 20
1234.67938888889
 30
0.0
 11
124.9
 21
1236.653
 31
0.0
  0
LINE
  5
42F
330
1E
100
AcDbEntity
  8
0
100
AcDbLine
 10
120.0
 20
1269.853
 30
0.0
 11
120.0
 21
1285.752999999999
 31
0.0
  0
LINE
  5
430
330
1E
100
AcDbEntity
  8
0
100
AcDbLine
 10
120.0
 20
1269.853
 30
0.0
 11
120.0
 21
1249.153
 31
0.0
  0
LINE
  5
431
330
1E
100
AcDbEntity
  8
0
100
AcDbLine
 10
120.0
 20
1269.179315789469
 30
0.0
 11
120.4
 21
1268.653
 31
0.0
  0
LINE
  5
432
330
1E
100
AcDbEntity
  8
0
100
AcDbLine
 10
120.4180999999999
 20
380.403
 30
0.0
 11
121.5635999999999
 21
380.403
 31
0.0
  0
LINE
  5
433
330
1E
100
AcDbEntity
  8
0
100
AcDbLine
 10
122.0
 20
380.403
 30
0.0
 11
122.0
 21
377.313674157303
 31
0.0
  0
LINE
  5
434
330
1E
100
AcDbEntity
  8
0
100
AcDbLine
 10
121.7273
 20
380.653
 30
0.0
 11
122.0
 21
380.403
 31
0.0
  0
LINE
  5
435
330
1E
100
AcDbEntity
  8
0
100
AcDbLine
 10
121.5635999999999
 20
380.403
 30
0.0
 11
122.0
 21
380.403
 31
0.0
  0
LINE
  5
436
330
1E
100
AcDbEntity
  8
0
100
AcDbLine
 10
121.2909
 20
380.653
 30
0.0
 11
121.7273
 21
380.653
 31
0.0
  0
LINE
  5
437
330
1E
100
AcDbEntity
  8
0
100
AcDbLine
 10
121.0
 20
380.653
 30
0.0
 11
123.0
 21
382.653
 31
0.0
  0
LINE
  5
438
330
1E
100
AcDbEntity
  8
0
100
AcDbLine
 10
120.5999999999999
 20
394.653
 30
0.0
 11
121.0
 21
394.653
 31
0.0
  0
LINE
  5
439
330
1E
100
AcDbEntity
  8
0
100
AcDbLine
 10
120.801
 20
1127.153
 30
0.0
 11
121.3187
 21
1127.153
 31
0.0
  0
LINE
  5
43A
330
1E
100
AcDbEntity
  8
0
100
AcDbLine
 10
120.6339999999999
 20
1127.153
 30
0.0
 11
121.6339999999999
 21
1127.153
 31
0.0
  0
LINE
  5
43B
330
1E
100
AcDbEntity
  8
0
100
AcDbLine
 10
120.6339999999999
 20
1127.153
 30
0.0
 11
122.3659999999999
 21
1127.153
 31
0.0
  0
LINE
  5
43C
330
1E
100
AcDbEntity
  8
0
100
AcDbLine
 10
121.3187
 20
1127.153
 30
0.0
 11
121.3187
 21
1129.153
 31
0.0
  0
LINE
  5
43D
330
1E
100
AcDbEntity
  8
0
100
AcDbLine
 10
121.6339999999999
 20
1127.153
 30
0.0
 11
123.3659999999999
 21
1127.153
 31
0.0
  0
LINE
  5
43E
330
1E
100
AcDbEntity
  8
0
100
AcDbLine
 10
121.6339999999999
 20
1127.153
 30
0.0
 11
121.6339999999999
 21
1129.153
 31
0.0
  0
LINE
  5
43F
330
1E
100
AcDbEntity
  8
0
100
AcDbLine
 10
121.9
 20
1179.153
 30
0.0
 11
126.9
 21
1179.153
 31
0.0
  0
LINE
  5
440
330
1E
100
AcDbEntity
  8
0
100
AcDbLine
 10
121.6339999999999
 20
1129.153
 30
0.0
 11
122.7514999999999
 21
1129.153
 31
0.0
  0
LINE
  5
441
330
1E
100
AcDbEntity
  8
0
100
AcDbLine
 10
121.6339999999999
 20
1129.153
 30
0.0
 11
121.6339999999999
 21
1127.153
 31
0.0
  0
LINE
  5
442
330
1E
100
AcDbEntity
  8
0
100
AcDbLine
 10
121.3187
 20
1129.153
 30
0.0
 11
121.3187
 21
1127.153
 31
0.0
  0
LINE
  5
443
330
1E
100
AcDbEntity
  8
0
100
AcDbLine
 10
121.3187
 20
1129.153
 30
0.0
 11
121.6339999999999
 21
1129.153
 31
0.0
  0
LINE
  5
444
330
1E
100
AcDbEntity
  8
0
100
AcDbLine
 10
122.3659999999999
 20
1127.153
 30
0.0
 11
123.3659999999999
 21
1127.153
 31
0.0
  0
LINE
  5
445
330
1E
100
AcDbEntity
  8
0
100
AcDbLine
 10
121.0
 20
1238.653
 30
0.0
 11
123.0
 21
1240.653
 31
0.0
  0
LINE
  5
447
330
1E
100
AcDbEntity
  8
0
100
AcDbLine
 10
120.5999999999999
 20
1238.653
 30
0.0
 11
121.0
 21
1238.653
 31
0.0
  0
LINE
  5
448
330
1E
100
AcDbEntity
  8
0
100
AcDbLine
 10
121.0
 20
394.653
 30
0.0
 11
123.0
 21
392.6529999999999
 31
0.0
  0
LINE
  5
449
330
1E
100
AcDbEntity
  8
0
100
AcDbLine
 10
122.7514999999999
 20
1129.153
 30
0.0
 11
123.2690999999999
 21
1129.153
 31
0.0
  0
LINE
  5
44A
330
1E
100
AcDbEntity
  8
0
100
AcDbLine
 10
122.7514999999999
 20
1129.153
 30
0.0
 11
122.7514999999999
 21
1127.153
 31
0.0
  0
LINE
  5
44B
330
1E
100
AcDbEntity
  8
0
100
AcDbLine
 10
122.7514999999999
 20
1127.153
 30
0.0
 11
122.7514999999999
 21
1129.153
 31
0.0
  0
LINE
  5
44C
330
1E
100
AcDbEntity
  8
0
100
AcDbLine
 10
122.7514999999999
 20
1127.153
 30
0.0
 11
123.2690999999999
 21
1127.153
 31
0.0
  0
LINE
  5
44D
330
1E
100
AcDbEntity
  8
0
100
AcDbLine
 10
122.7514999999999
 20
1127.153
 30
0.0
 11
124.6833
 21
1127.153
 31
0.0
  0
LINE
  5
44E
330
1E
100
AcDbEntity
  8
0
100
AcDbLine
 10
122.7514999999999
 20
1127.153
 30
0.0
 11
123.2690999999999
 21
1127.153
 31
0.0
  0
LINE
  5
44F
330
1E
100
AcDbEntity
  8
0
100
AcDbLine
 10
122.7514999999999
 20
1127.153
 30
0.0
 11
124.6833
 21
1127.153
 31
0.0
  0
LINE
  5
450
330
1E
100
AcDbEntity
  8
0
100
AcDbLine
 10
123.2690999999999
 20
1127.153
 30
0.0
 11
125.201
 21
1127.153
 31
0.0
  0
LINE
  5
451
330
1E
100
AcDbEntity
  8
0
100
AcDbLine
 10
123.2690999999999
 20
1127.153
 30
0.0
 11
123.2690999999999
 21
1129.153
 31
0.0
  0
LINE
  5
452
330
1E
100
AcDbEntity
  8
0
100
AcDbLine
 10
123.2690999999999
 20
1127.153
 30
0.0
 11
125.201
 21
1127.153
 31
0.0
  0
LINE
  5
453
330
1E
100
AcDbEntity
  8
0
100
AcDbLine
 10
123.2690999999999
 20
1129.153
 30
0.0
 11
125.201
 21
1129.153
 31
0.0
  0
LINE
  5
454
330
1E
100
AcDbEntity
  8
0
100
AcDbLine
 10
123.2690999999999
 20
1129.153
 30
0.0
 11
123.2690999999999
 21
1127.153
 31
0.0
  0
LINE
  5
455
330
1E
100
AcDbEntity
  8
0
100
AcDbLine
 10
124.6833
 20
1127.153
 30
0.0
 11
125.201
 21
1127.153
 31
0.0
  0
LINE
  5
456
330
1E
100
AcDbEntity
  8
0
100
AcDbLine
 10
124.6833
 20
1127.153
 30
0.0
 11
125.201
 21
1127.153
 31
0.0
  0
LINE
  5
457
330
1E
100
AcDbEntity
  8
0
100
AcDbLine
 10
123.0
 20
1240.653
 30
0.0
 11
123.0
 21
1242.653
 31
0.0
  0
LINE
  5
458
330
1E
100
AcDbEntity
  8
0
100
AcDbLine
 10
123.0
 20
392.6529999999999
 30
0.0
 11
123.0
 21
382.653
 31
0.0
  0
LINE
  5
45B
330
1E
100
AcDbEntity
  8
0
100
AcDbLine
 10
125.201
 20
1127.153
 30
0.0
 11
125.201
 21
1129.153
 31
0.0
  0
LINE
  5
45C
330
1E
100
AcDbEntity
  8
0
100
AcDbLine
 10
126.6337999999999
 20
1127.153
 30
0.0
 11
126.6337999999999
 21
1129.153
 31
0.0
  0
LINE
  5
45D
330
1E
100
AcDbEntity
  8
0
100
AcDbLine
 10
126.6337999999999
 20
1127.153
 30
0.0
 11
127.1514
 21
1127.153
 31
0.0
  0
LINE
  5
45E
330
1E
100
AcDbEntity
  8
0
100
AcDbLine
 10
126.6337999999999
 20
1127.153
 30
0.0
 11
128.5655999999999
 21
1127.153
 31
0.0
  0
LINE
  5
45F
330
1E
100
AcDbEntity
  8
0
100
AcDbLine
 10
126.6337999999999
 20
1127.153
 30
0.0
 11
127.1514
 21
1127.153
 31
0.0
  0
LINE
  5
460
330
1E
100
AcDbEntity
  8
0
100
AcDbLine
 10
126.6337999999999
 20
1127.153
 30
0.0
 11
128.5655999999999
 21
1127.153
 31
0.0
  0
LINE
  5
461
330
1E
100
AcDbEntity
  8
0
100
AcDbLine
 10
125.5563999999999
 20
1127.153
 30
0.0
 11
125.5563999999999
 21
1129.153
 31
0.0
  0
LINE
  5
462
330
1E
100
AcDbEntity
  8
0
100
AcDbLine
 10
125.5563999999999
 20
1127.153
 30
0.0
 11
126.9706
 21
1127.153
 31
0.0
  0
LINE
  5
463
330
1E
100
AcDbEntity
  8
0
100
AcDbLine
 10
127.1514
 20
1127.153
 30
0.0
 11
129.0833
 21
1127.153
 31
0.0
  0
LINE
  5
464
330
1E
100
AcDbEntity
  8
0
100
AcDbLine
 10
128.5655999999999
 20
1127.153
 30
0.0
 11
129.0833
 21
1127.153
 31
0.0
  0
LINE
  5
465
330
1E
100
AcDbEntity
  8
0
100
AcDbLine
 10
127.1514
 20
1127.153
 30
0.0
 11
127.1514
 21
1129.153
 31
0.0
  0
LINE
  5
466
330
1E
100
AcDbEntity
  8
0
100
AcDbLine
 10
127.1514
 20
1127.153
 30
0.0
 11
129.0833
 21
1127.153
 31
0.0
  0
LINE
  5
467
330
1E
100
AcDbEntity
  8
0
100
AcDbLine
 10
129.0833
 20
1127.153
 30
0.0
 11
129.0833
 21
1129.153
 31
0.0
  0
LINE
  5
468
330
1E
100
AcDbEntity
  8
0
100
AcDbLine
 10
128.5655999999999
 20
1127.153
 30
0.0
 11
129.0833
 21
1127.153
 31
0.0
  0
LINE
  5
469
330
1E
100
AcDbEntity
  8
0
100
AcDbLine
 10
126.9706
 20
1127.153
 30
0.0
 11
128.3848
 21
1127.153
 31
0.0
  0
LINE
  5
46A
330
1E
100
AcDbEntity
  8
0
100
AcDbLine
 10
128.1339999999999
 20
1127.153
 30
0.0
 11
129.1339999999999
 21
1127.153
 31
0.0
  0
LINE
  5
46B
330
1E
100
AcDbEntity
  8
0
100
AcDbLine
 10
128.1339999999999
 20
1127.153
 30
0.0
 11
129.866
 21
1127.153
 31
0.0
  0
LINE
  5
46C
330
1E
100
AcDbEntity
  8
0
100
AcDbLine
 10
130.5161
 20
1127.153
 30
0.0
 11
131.0337
 21
1127.153
 31
0.0
  0
LINE
  5
46D
330
1E
100
AcDbEntity
  8
0
100
AcDbLine
 10
130.5161
 20
1127.153
 30
0.0
 11
132.4478999999999
 21
1127.153
 31
0.0
  0
LINE
  5
46E
330
1E
100
AcDbEntity
  8
0
100
AcDbLine
 10
131.0337
 20
1127.153
 30
0.0
 11
131.0337
 21
1129.153
 31
0.0
  0
LINE
  5
46F
330
1E
100
AcDbEntity
  8
0
100
AcDbLine
 10
131.0337
 20
1127.153
 30
0.0
 11
132.9655
 21
1127.153
 31
0.0
  0
LINE
  5
470
330
1E
100
AcDbEntity
  8
0
100
AcDbLine
 10
130.5161
 20
1127.153
 30
0.0
 11
130.5161
 21
1129.153
 31
0.0
  0
LINE
  5
471
330
1E
100
AcDbEntity
  8
0
100
AcDbLine
 10
130.5161
 20
1127.153
 30
0.0
 11
131.0337
 21
1127.153
 31
0.0
  0
LINE
  5
472
330
1E
100
AcDbEntity
  8
0
100
AcDbLine
 10
130.5161
 20
1127.153
 30
0.0
 11
132.4478999999999
 21
1127.153
 31
0.0
  0
LINE
  5
473
330
1E
100
AcDbEntity
  8
0
100
AcDbLine
 10
131.0337
 20
1127.153
 30
0.0
 11
132.9655
 21
1127.153
 31
0.0
  0
LINE
  5
474
330
1E
100
AcDbEntity
  8
0
100
AcDbLine
 10
129.1339999999999
 20
1127.153
 30
0.0
 11
130.866
 21
1127.153
 31
0.0
  0
LINE
  5
475
330
1E
100
AcDbEntity
  8
0
100
AcDbLine
 10
129.1339999999999
 20
1127.153
 30
0.0
 11
129.1339999999999
 21
1129.153
 31
0.0
  0
LINE
  5
476
330
1E
100
AcDbEntity
  8
0
100
AcDbLine
 10
129.866
 20
1127.153
 30
0.0
 11
130.866
 21
1127.153
 31
0.0
  0
LINE
  5
477
330
1E
100
AcDbEntity
  8
0
100
AcDbLine
 10
129.4186
 20
1127.153
 30
0.0
 11
131.1506
 21
1127.153
 31
0.0
  0
LINE
  5
478
330
1E
100
AcDbEntity
  8
0
100
AcDbLine
 10
129.4186
 20
1127.153
 30
0.0
 11
130.4186
 21
1127.153
 31
0.0
  0
LINE
  5
479
330
1E
100
AcDbEntity
  8
0
100
AcDbLine
 10
132.9655
 20
1127.153
 30
0.0
 11
132.9655
 21
1129.153
 31
0.0
  0
LINE
  5
47A
330
1E
100
AcDbEntity
  8
0
100
AcDbLine
 10
132.4478999999999
 20
1127.153
 30
0.0
 11
132.9655
 21
1127.153
 31
0.0
  0
LINE
  5
47B
330
1E
100
AcDbEntity
  8
0
100
AcDbLine
 10
132.4478999999999
 20
1127.153
 30
0.0
 11
132.9655
 21
1127.153
 31
0.0
  0
LINE
  5
47C
330
1E
100
AcDbEntity
  8
0
100
AcDbLine
 10
133.0
 20
1127.153
 30
0.0
 11
135.0
 21
1127.153
 31
0.0
  0
LINE
  5
47D
330
1E
100
AcDbEntity
  8
0
100
AcDbLine
 10
131.9575
 20
1127.153
 30
0.0
 11
133.8892999999999
 21
1127.153
 31
0.0
  0
LINE
  5
47E
330
1E
100
AcDbEntity
  8
0
100
AcDbLine
 10
131.9575
 20
1127.153
 30
0.0
 11
132.4751
 21
1127.153
 31
0.0
  0
LINE
  5
47F
330
1E
100
AcDbEntity
  8
0
100
AcDbLine
 10
134.407
 20
1127.153
 30
0.0
 11
134.407
 21
1129.153
 31
0.0
  0
LINE
  5
480
330
1E
100
AcDbEntity
  8
0
100
AcDbLine
 10
135.0
 20
1127.153
 30
0.0
 11
135.0
 21
1129.153
 31
0.0
  0
LINE
  5
481
330
1E
100
AcDbEntity
  8
0
100
AcDbLine
 10
135.6339999999999
 20
1127.153
 30
0.0
 11
136.6339999999999
 21
1127.153
 31
0.0
  0
LINE
  5
482
330
1E
100
AcDbEntity
  8
0
100
AcDbLine
 10
135.6339999999999
 20
1127.153
 30
0.0
 11
135.6339999999999
 21
1129.153
 31
0.0
  0
LINE
  5
483
330
1E
100
AcDbEntity
  8
0
100
AcDbLine
 10
135.6339999999999
 20
1127.153
 30
0.0
 11
137.366
 21
1127.153
 31
0.0
  0
LINE
  5
484
330
1E
100
AcDbEntity
  8
0
100
AcDbLine
 10
135.6339999999999
 20
1127.153
 30
0.0
 11
136.6339999999999
 21
1127.153
 31
0.0
  0
LINE
  5
485
330
1E
100
AcDbEntity
  8
0
100
AcDbLine
 10
133.8892999999999
 20
1127.153
 30
0.0
 11
134.407
 21
1127.153
 31
0.0
  0
LINE
  5
486
330
1E
100
AcDbEntity
  8
0
100
AcDbLine
 10
133.8892999999999
 20
1127.153
 30
0.0
 11
133.8892999999999
 21
1129.153
 31
0.0
  0
LINE
  5
487
330
1E
100
AcDbEntity
  8
0
100
AcDbLine
 10
132.4751
 20
1127.153
 30
0.0
 11
134.407
 21
1127.153
 31
0.0
  0
LINE
  5
488
330
1E
100
AcDbEntity
  8
0
100
AcDbLine
 10
131.1506
 20
1127.153
 30
0.0
 11
132.1506
 21
1127.153
 31
0.0
  0
LINE
  5
489
330
1E
100
AcDbEntity
  8
0
100
AcDbLine
 10
126.6337999999999
 20
1129.153
 30
0.0
 11
127.1514
 21
1129.153
 31
0.0
  0
LINE
  5
48A
330
1E
100
AcDbEntity
  8
0
100
AcDbLine
 10
126.6337999999999
 20
1129.153
 30
0.0
 11
126.6337999999999
 21
1127.153
 31
0.0
  0
LINE
  5
48B
330
1E
100
AcDbEntity
  8
0
100
AcDbLine
 10
127.1514
 20
1129.153
 30
0.0
 11
129.0833
 21
1129.153
 31
0.0
  0
LINE
  5
48C
330
1E
100
AcDbEntity
  8
0
100
AcDbLine
 10
127.1514
 20
1129.153
 30
0.0
 11
127.1514
 21
1127.153
 31
0.0
  0
LINE
  5
48D
330
1E
100
AcDbEntity
  8
0
100
AcDbLine
 10
125.201
 20
1129.153
 30
0.0
 11
125.201
 21
1127.153
 31
0.0
  0
LINE
  5
48E
330
1E
100
AcDbEntity
  8
0
100
AcDbLine
 10
125.201
 20
1129.153
 30
0.0
 11
125.5563999999999
 21
1129.153
 31
0.0
  0
LINE
  5
48F
330
1E
100
AcDbEntity
  8
0
100
AcDbLine
 10
130.5161
 20
1129.153
 30
0.0
 11
131.0337
 21
1129.153
 31
0.0
  0
LINE
  5
490
330
1E
100
AcDbEntity
  8
0
100
AcDbLine
 10
130.5161
 20
1129.153
 30
0.0
 11
130.5161
 21
1127.153
 31
0.0
  0
LINE
  5
491
330
1E
100
AcDbEntity
  8
0
100
AcDbLine
 10
131.0337
 20
1129.153
 30
0.0
 11
132.9655
 21
1129.153
 31
0.0
  0
LINE
  5
492
330
1E
100
AcDbEntity
  8
0
100
AcDbLine
 10
131.0337
 20
1129.153
 30
0.0
 11
131.0337
 21
1127.153
 31
0.0
  0
LINE
  5
493
330
1E
100
AcDbEntity
  8
0
100
AcDbLine
 10
129.0833
 20
1129.153
 30
0.0
 11
129.1339999999999
 21
1129.153
 31
0.0
  0
LINE
  5
494
330
1E
100
AcDbEntity
  8
0
100
AcDbLine
 10
129.0833
 20
1129.153
 30
0.0
 11
129.0833
 21
1127.153
 31
0.0
  0
LINE
  5
495
330
1E
100
AcDbEntity
  8
0
100
AcDbLine
 10
129.1339999999999
 20
1129.153
 30
0.0
 11
130.5161
 21
1129.153
 31
0.0
  0
LINE
  5
496
330
1E
100
AcDbEntity
  8
0
100
AcDbLine
 10
129.1339999999999
 20
1129.153
 30
0.0
 11
129.1339999999999
 21
1127.153
 31
0.0
  0
LINE
  5
497
330
1E
100
AcDbEntity
  8
0
100
AcDbLine
 10
133.4
 20
1129.153
 30
0.0
 11
155.3
 21
1129.153
 31
0.0
  0
LINE
  5
498
330
1E
100
AcDbEntity
  8
0
100
AcDbLine
 10
132.9655
 20
1129.153
 30
0.0
 11
133.8892999999999
 21
1129.153
 31
0.0
  0
LINE
  5
499
330
1E
100
AcDbEntity
  8
0
100
AcDbLine
 10
132.9655
 20
1129.153
 30
0.0
 11
132.9655
 21
1127.153
 31
0.0
  0
LINE
  5
49A
330
1E
100
AcDbEntity
  8
0
100
AcDbLine
 10
133.8892999999999
 20
1129.153
 30
0.0
 11
134.407
 21
1129.153
 31
0.0
  0
LINE
  5
49B
330
1E
100
AcDbEntity
  8
0
100
AcDbLine
 10
133.8892999999999
 20
1129.153
 30
0.0
 11
133.8892999999999
 21
1127.153
 31
0.0
  0
LINE
  5
49C
330
1E
100
AcDbEntity
  8
0
100
AcDbLine
 10
135.0
 20
1129.153
 30
0.0
 11
135.0
 21
1127.153
 31
0.0
  0
LINE
  5
49D
330
1E
100
AcDbEntity
  8
0
100
AcDbLine
 10
135.0
 20
1129.153
 30
0.0
 11
135.6339999999999
 21
1129.153
 31
0.0
  0
LINE
  5
49E
330
1E
100
AcDbEntity
  8
0
100
AcDbLine
 10
134.407
 20
1129.153
 30
0.0
 11
135.0
 21
1129.153
 31
0.0
  0
LINE
  5
49F
330
1E
100
AcDbEntity
  8
0
100
AcDbLine
 10
134.407
 20
1129.153
 30
0.0
 11
134.407
 21
1127.153
 31
0.0
  0
LINE
  5
4A0
330
1E
100
AcDbEntity
  8
0
100
AcDbLine
 10
126.9
 20
1179.153
 30
0.0
 11
130.8
 21
1179.153
 31
0.0
  0
LINE
  5
4A1
330
1E
100
AcDbEntity
  8
0
100
AcDbLine
 10
130.8
 20
1179.153
 30
0.0
 11
133.0999999999999
 21
1179.153
 31
0.0
  0
LINE
  5
4A2
330
1E
100
AcDbEntity
  8
0
100
AcDbLine
 10
134.0
 20
1131.153
 30
0.0
 11
156.3
 21
1131.153
 31
0.0
  0
LINE
  5
4A3
330
1E
100
AcDbEntity
  8
0
100
AcDbLine
 10
134.0
 20
1179.153
 30
0.0
 11
137.0
 21
1176.153
 31
0.0
  0
LINE
  5
4A4
330
1E
100
AcDbEntity
  8
0
100
AcDbLine
 10
133.0999999999999
 20
1179.153
 30
0.0
 11
134.0
 21
1179.153
 31
0.0
  0
LINE
  5
4A5
330
1E
100
AcDbEntity
  8
0
100
AcDbLine
 10
125.5563999999999
 20
1129.153
 30
0.0
 11
125.5563999999999
 21
1127.153
 31
0.0
  0
LINE
  5
4A6
330
1E
100
AcDbEntity
  8
0
100
AcDbLine
 10
125.5563999999999
 20
1129.153
 30
0.0
 11
126.6337999999999
 21
1129.153
 31
0.0
  0
LINE
  5
4A7
330
1E
100
AcDbEntity
  8
0
100
AcDbLine
 10
135.6339999999999
 20
1129.153
 30
0.0
 11
135.6339999999999
 21
1127.153
 31
0.0
  0
LINE
  5
4A8
330
1E
100
AcDbEntity
  8
0
100
AcDbLine
 10
135.6339999999999
 20
1129.153
 30
0.0
 11
136.6339999999999
 21
1129.153
 31
0.0
  0
LINE
  5
4A9
330
1E
100
AcDbEntity
  8
0
100
AcDbLine
 10
130.4186
 20
1127.153
 30
0.0
 11
132.1506
 21
1127.153
 31
0.0
  0
LINE
  5
4AA
330
1E
100
AcDbEntity
  8
0
100
AcDbLine
 10
124.9
 20
1236.653
 30
0.0
 11
131.1999999999999
 21
1241.452999999999
 31
0.0
  0
LINE
  5
4AB
330
1E
100
AcDbEntity
  8
0
100
AcDbLine
 10
121.0
 20
1252.653
 30
0.0
 11
121.2909
 21
1252.653
 31
0.0
  0
LINE
  5
4AC
330
1E
100
AcDbEntity
  8
0
100
AcDbLine
 10
121.0
 20
1252.653
 30
0.0
 11
123.0
 21
1250.653
 31
0.0
  0
LINE
  5
4AD
330
1E
100
AcDbEntity
  8
0
100
AcDbLine
 10
121.2909
 20
1252.653
 30
0.0
 11
121.7273
 21
1252.653
 31
0.0
  0
LINE
  5
4AE
330
1E
100
AcDbEntity
  8
0
100
AcDbLine
 10
120.4180999999999
 20
1252.903
 30
0.0
 11
121.5635999999999
 21
1252.903
 31
0.0
  0
LINE
  5
4AF
330
1E
100
AcDbEntity
  8
0
100
AcDbLine
 10
121.5635999999999
 20
1252.903
 30
0.0
 11
122.0
 21
1252.903
 31
0.0
  0
LINE
  5
4B0
330
1E
100
AcDbEntity
  8
0
100
AcDbLine
 10
120.5999999999999
 20
1252.653
 30
0.0
 11
121.0
 21
1252.653
 31
0.0
  0
LINE
  5
4B1
330
1E
100
AcDbEntity
  8
0
100
AcDbLine
 10
123.0
 20
1242.653
 30
0.0
 11
123.0
 21
1245.653
 31
0.0
  0
LINE
  5
4B2
330
1E
100
AcDbEntity
  8
0
100
AcDbLine
 10
123.0
 20
1250.653
 30
0.0
 11
123.0
 21
1245.653
 31
0.0
  0
LINE
  5
4B3
330
1E
100
AcDbEntity
  8
0
100
AcDbLine
 10
123.0
 20
1245.653
 30
0.0
 11
123.0
 21
1250.653
 31
0.0
  0
LINE
  5
4B4
330
1E
100
AcDbEntity
  8
0
100
AcDbLine
 10
123.0
 20
1245.653
 30
0.0
 11
123.0
 21
1242.653
 31
0.0
  0
LINE
  5
4B6
330
1E
100
AcDbEntity
  8
0
100
AcDbLine
 10
122.0
 20
1262.653
 30
0.0
 11
122.0
 21
1252.903
 31
0.0
  0
LINE
  5
4B7
330
1E
100
AcDbEntity
  8
0
100
AcDbLine
 10
122.0
 20
1252.903
 30
0.0
 11
122.0
 21
1262.653
 31
0.0
  0
LINE
  5
4B8
330
1E
100
AcDbEntity
  8
0
100
AcDbLine
 10
121.7273
 20
1252.653
 30
0.0
 11
122.0
 21
1252.903
 31
0.0
  0
LINE
  5
4B9
330
1E
100
AcDbEntity
  8
0
100
AcDbLine
 10
121.5999999999999
 20
1259.553
 30
0.0
 11
122.0
 21
1262.653
 31
0.0
  0
LINE
  5
4BA
330
1E
100
AcDbEntity
  8
0
100
AcDbLine
 10
131.1999999999999
 20
1241.452999999999
 30
0.0
 11
136.0
 21
1247.753
 31
0.0
  0
LINE
  5
4BB
330
1E
100
AcDbEntity
  8
0
100
AcDbLine
 10
136.6339999999999
 20
1129.153
 30
0.0
 11
138.366
 21
1129.153
 31
0.0
  0
LINE
  5
4BC
330
1E
100
AcDbEntity
  8
0
100
AcDbLine
 10
136.6339999999999
 20
1129.153
 30
0.0
 11
136.6339999999999
 21
1127.153
 31
0.0
  0
LINE
  5
4BD
330
1E
100
AcDbEntity
  8
0
100
AcDbLine
 10
136.1629999999999
 20
1127.153
 30
0.0
 11
137.5769999999999
 21
1127.153
 31
0.0
  0
LINE
  5
4BE
330
1E
100
AcDbEntity
  8
0
100
AcDbLine
 10
137.0
 20
1176.153
 30
0.0
 11
142.0
 21
1173.153
 31
0.0
  0
LINE
  5
4BF
330
1E
100
AcDbEntity
  8
0
100
AcDbLine
 10
136.6339999999999
 20
1127.153
 30
0.0
 11
136.6339999999999
 21
1129.153
 31
0.0
  0
LINE
  5
4C0
330
1E
100
AcDbEntity
  8
0
100
AcDbLine
 10
136.6339999999999
 20
1127.153
 30
0.0
 11
138.366
 21
1127.153
 31
0.0
  0
LINE
  5
4C1
330
1E
100
AcDbEntity
  8
0
100
AcDbLine
 10
136.6339999999999
 20
1127.153
 30
0.0
 11
138.366
 21
1127.153
 31
0.0
  0
LINE
  5
4C2
330
1E
100
AcDbEntity
  8
0
100
AcDbLine
 10
138.366
 20
1127.153
 30
0.0
 11
138.366
 21
1129.153
 31
0.0
  0
LINE
  5
4C3
330
1E
100
AcDbEntity
  8
0
100
AcDbLine
 10
138.991
 20
1127.153
 30
0.0
 11
138.991
 21
1129.153
 31
0.0
  0
LINE
  5
4C4
330
1E
100
AcDbEntity
  8
0
100
AcDbLine
 10
142.0
 20
1173.153
 30
0.0
 11
195.0
 21
1162.152999999999
 31
0.0
  0
LINE
  5
4C5
330
1E
100
AcDbEntity
  8
0
100
AcDbLine
 10
138.991
 20
1129.153
 30
0.0
 11
138.991
 21
1127.153
 31
0.0
  0
LINE
  5
4C6
330
1E
100
AcDbEntity
  8
0
100
AcDbLine
 10
138.991
 20
1129.153
 30
0.0
 11
142.4089999999999
 21
1129.153
 31
0.0
  0
LINE
  5
4C7
330
1E
100
AcDbEntity
  8
0
100
AcDbLine
 10
138.366
 20
1129.153
 30
0.0
 11
138.991
 21
1129.153
 31
0.0
  0
LINE
  5
4C8
330
1E
100
AcDbEntity
  8
0
100
AcDbLine
 10
138.366
 20
1129.153
 30
0.0
 11
138.366
 21
1127.153
 31
0.0
  0
LINE
  5
4C9
330
1E
100
AcDbEntity
  8
0
100
AcDbLine
 10
137.5769999999999
 20
1127.153
 30
0.0
 11
138.991
 21
1127.153
 31
0.0
  0
LINE
  5
4CA
330
1E
100
AcDbEntity
  8
0
100
AcDbLine
 10
137.366
 20
1127.153
 30
0.0
 11
138.366
 21
1127.153
 31
0.0
  0
LINE
  5
4CB
330
1E
100
AcDbEntity
  8
0
100
AcDbLine
 10
138.9
 20
1254.953
 30
0.0
 11
140.0
 21
1262.653
 31
0.0
  0
LINE
  5
4CC
330
1E
100
AcDbEntity
  8
0
100
AcDbLine
 10
136.0
 20
1247.753
 30
0.0
 11
138.9
 21
1254.953
 31
0.0
  0
LINE
  5
4CD
330
1E
100
AcDbEntity
  8
0
100
AcDbLine
 10
121.5999999999999
 20
1265.753
 30
0.0
 11
122.0
 21
1262.653
 31
0.0
  0
LINE
  5
4CE
330
1E
100
AcDbEntity
  8
0
100
AcDbLine
 10
120.4
 20
1268.653
 30
0.0
 11
121.5999999999999
 21
1265.753
 31
0.0
  0
LINE
  5
4CF
330
1E
100
AcDbEntity
  8
0
100
AcDbLine
 10
120.0
 20
1285.752999999999
 30
0.0
 11
120.0
 21
1295.753
 31
0.0
  0
LINE
  5
4D0
330
1E
100
AcDbEntity
  8
0
100
AcDbLine
 10
120.0
 20
1285.752999999999
 30
0.0
 11
120.0
 21
1269.853
 31
0.0
  0
LINE
  5
4D1
330
1E
100
AcDbEntity
  8
0
100
AcDbLine
 10
120.0
 20
1299.153
 30
0.0
 11
120.0
 21
1295.753
 31
0.0
  0
LINE
  5
4D2
330
1E
100
AcDbEntity
  8
0
100
AcDbLine
 10
119.5999999999999
 20
1301.752999999999
 30
0.0
 11
120.0
 21
1299.153
 31
0.0
  0
LINE
  5
4D3
330
1E
100
AcDbEntity
  8
0
100
AcDbLine
 10
120.0
 20
1295.753
 30
0.0
 11
120.0
 21
1299.153
 31
0.0
  0
LINE
  5
4D4
330
1E
100
AcDbEntity
  8
0
100
AcDbLine
 10
120.0
 20
1295.753
 30
0.0
 11
120.0
 21
1285.752999999999
 31
0.0
  0
LINE
  5
4D5
330
1E
100
AcDbEntity
  8
0
100
AcDbLine
 10
120.0
 20
1290.626611111109
 30
0.0
 11
124.9
 21
1288.653
 31
0.0
  0
LINE
  5
4D6
330
1E
100
AcDbEntity
  8
0
100
AcDbLine
 10
124.9
 20
1288.653
 30
0.0
 11
131.1999999999999
 21
1283.853
 31
0.0
  0
LINE
  5
4D7
330
1E
100
AcDbEntity
  8
0
100
AcDbLine
 10
131.1999999999999
 20
1283.853
 30
0.0
 11
136.0
 21
1277.553
 31
0.0
  0
LINE
  5
4D8
330
1E
100
AcDbEntity
  8
0
100
AcDbLine
 10
136.0
 20
1277.553
 30
0.0
 11
138.9
 21
1270.353
 31
0.0
  0
LINE
  5
4D9
330
1E
100
AcDbEntity
  8
0
100
AcDbLine
 10
138.9
 20
1270.353
 30
0.0
 11
140.0
 21
1262.653
 31
0.0
  0
LINE
  5
4DA
330
1E
100
AcDbEntity
  8
0
100
AcDbLine
 10
119.5
 20
378.353
 30
0.0
 11
128.4
 21
374.653
 31
0.0
  0
LINE
  5
4DB
330
1E
100
AcDbEntity
  8
0
100
AcDbLine
 10
122.0
 20
377.313674157303
 30
0.0
 11
128.4
 21
374.653
 31
0.0
  0
LINE
  5
4DC
330
1E
100
AcDbEntity
  8
0
100
AcDbLine
 10
122.0
 20
377.313674157303
 30
0.0
 11
122.0
 21
380.403
 31
0.0
  0
LINE
  5
4DD
330
1E
100
AcDbEntity
  8
0
100
AcDbLine
 10
144.0
 20
347.153
 30
0.0
 11
145.5
 21
345.153
 31
0.0
  0
LINE
  5
4DE
330
1E
100
AcDbEntity
  8
0
100
AcDbLine
 10
145.5
 20
345.153
 30
0.0
 11
146.0
 21
342.653
 31
0.0
  0
LINE
  5
4DF
330
1E
100
AcDbEntity
  8
0
100
AcDbLine
 10
144.0
 20
338.153
 30
0.0
 11
145.5
 21
340.153
 31
0.0
  0
LINE
  5
4E0
330
1E
100
AcDbEntity
  8
0
100
AcDbLine
 10
145.5
 20
340.153
 30
0.0
 11
146.0
 21
342.653
 31
0.0
  0
LINE
  5
4E1
330
1E
100
AcDbEntity
  8
0
100
AcDbLine
 10
142.4089999999999
 20
1127.153
 30
0.0
 11
142.4089999999999
 21
1129.153
 31
0.0
  0
LINE
  5
4E2
330
1E
100
AcDbEntity
  8
0
100
AcDbLine
 10
142.4089999999999
 20
1127.153
 30
0.0
 11
144.1409999999999
 21
1127.153
 31
0.0
  0
LINE
  5
4E3
330
1E
100
AcDbEntity
  8
0
100
AcDbLine
 10
142.4089999999999
 20
1127.153
 30
0.0
 11
143.4089999999999
 21
1127.153
 31
0.0
  0
LINE
  5
4E4
330
1E
100
AcDbEntity
  8
0
100
AcDbLine
 10
144.1339999999999
 20
1127.153
 30
0.0
 11
144.1339999999999
 21
1129.153
 31
0.0
  0
LINE
  5
4E5
330
1E
100
AcDbEntity
  8
0
100
AcDbLine
 10
144.1339999999999
 20
1127.153
 30
0.0
 11
145.866
 21
1127.153
 31
0.0
  0
LINE
  5
4E6
330
1E
100
AcDbEntity
  8
0
100
AcDbLine
 10
143.4089999999999
 20
1127.153
 30
0.0
 11
145.1409999999999
 21
1127.153
 31
0.0
  0
LINE
  5
4E7
330
1E
100
AcDbEntity
  8
0
100
AcDbLine
 10
143.1339999999999
 20
1127.153
 30
0.0
 11
143.1339999999999
 21
1129.153
 31
0.0
  0
LINE
  5
4E8
330
1E
100
AcDbEntity
  8
0
100
AcDbLine
 10
143.1339999999999
 20
1127.153
 30
0.0
 11
144.1339999999999
 21
1127.153
 31
0.0
  0
LINE
  5
4E9
330
1E
100
AcDbEntity
  8
0
100
AcDbLine
 10
143.1339999999999
 20
1127.153
 30
0.0
 11
144.866
 21
1127.153
 31
0.0
  0
LINE
  5
4EA
330
1E
100
AcDbEntity
  8
0
100
AcDbLine
 10
143.1339999999999
 20
1127.153
 30
0.0
 11
144.1339999999999
 21
1127.153
 31
0.0
  0
LINE
  5
4EB
330
1E
100
AcDbEntity
  8
0
100
AcDbLine
 10
143.1339999999999
 20
1127.153
 30
0.0
 11
144.866
 21
1127.153
 31
0.0
  0
LINE
  5
4EC
330
1E
100
AcDbEntity
  8
0
100
AcDbLine
 10
144.452808988764
 20
355.153
 30
0.0
 11
165.9479166666669
 21
355.153
 31
0.0
  0
LINE
  5
4ED
330
1E
100
AcDbEntity
  8
0
100
AcDbLine
 10
144.1409999999999
 20
1127.153
 30
0.0
 11
145.1409999999999
 21
1127.153
 31
0.0
  0
LINE
  5
4EE
330
1E
100
AcDbEntity
  8
0
100
AcDbLine
 10
144.1339999999999
 20
1127.153
 30
0.0
 11
145.866
 21
1127.153
 31
0.0
  0
LINE
  5
4EF
330
1E
100
AcDbEntity
  8
0
100
AcDbLine
 10
143.1339999999999
 20
1129.153
 30
0.0
 11
144.1339999999999
 21
1129.153
 31
0.0
  0
LINE
  5
4F0
330
1E
100
AcDbEntity
  8
0
100
AcDbLine
 10
143.1339999999999
 20
1129.153
 30
0.0
 11
143.1339999999999
 21
1127.153
 31
0.0
  0
LINE
  5
4F1
330
1E
100
AcDbEntity
  8
0
100
AcDbLine
 10
144.1339999999999
 20
1129.153
 30
0.0
 11
145.866
 21
1129.153
 31
0.0
  0
LINE
  5
4F2
330
1E
100
AcDbEntity
  8
0
100
AcDbLine
 10
144.1339999999999
 20
1129.153
 30
0.0
 11
144.1339999999999
 21
1127.153
 31
0.0
  0
LINE
  5
4F3
330
1E
100
AcDbEntity
  8
0
100
AcDbLine
 10
142.4089999999999
 20
1129.153
 30
0.0
 11
142.4089999999999
 21
1127.153
 31
0.0
  0
LINE
  5
4F4
330
1E
100
AcDbEntity
  8
0
100
AcDbLine
 10
142.4089999999999
 20
1129.153
 30
0.0
 11
143.1339999999999
 21
1129.153
 31
0.0
  0
LINE
  5
4F5
330
1E
100
AcDbEntity
  8
0
100
AcDbLine
 10
144.866
 20
1127.153
 30
0.0
 11
145.866
 21
1127.153
 31
0.0
  0
LINE
  5
4F6
330
1E
100
AcDbEntity
  8
0
100
AcDbLine
 10
144.866
 20
1127.153
 30
0.0
 11
145.866
 21
1127.153
 31
0.0
  0
LINE
  5
4F7
330
1E
100
AcDbEntity
  8
0
100
AcDbLine
 10
145.6999999999999
 20
352.153
 30
0.0
 11
147.0
 21
342.653
 31
0.0
  0
LINE
  5
4F8
330
1E
100
AcDbEntity
  8
0
100
AcDbLine
 10
142.0
 20
361.053
 30
0.0
 11
144.452808988764
 21
355.153
 31
0.0
  0
LINE
  5
4F9
330
1E
100
AcDbEntity
  8
0
100
AcDbLine
 10
142.0
 20
361.053
 30
0.0
 11
145.6999999999999
 21
352.153
 31
0.0
  0
LINE
  5
4FA
330
1E
100
AcDbEntity
  8
0
100
AcDbLine
 10
138.9
 20
334.953
 30
0.0
 11
138.9895833333329
 21
335.5800833333329
 31
0.0
  0
LINE
  5
4FB
330
1E
100
AcDbEntity
  8
0
100
AcDbLine
 10
154.8202531645569
 20
330.153
 30
0.0
 11
156.4
 21
326.2529999999999
 31
0.0
  0
LINE
  5
4FC
330
1E
100
AcDbEntity
  8
0
100
AcDbLine
 10
162.8
 20
336.753
 30
0.0
 11
165.0999999999999
 21
331.253
 31
0.0
  0
LINE
  5
4FD
330
1E
100
AcDbEntity
  8
0
100
AcDbLine
 10
152.716666666667
 20
330.153
 30
0.0
 11
154.6999999999999
 21
325.253
 31
0.0
  0
LINE
  5
4FE
330
1E
100
AcDbEntity
  8
0
100
AcDbLine
 10
166.8
 20
332.253
 30
0.0
 11
170.1999999999999
 21
327.8529999999999
 31
0.0
  0
LINE
  5
4FF
330
1E
100
AcDbEntity
  8
0
100
AcDbLine
 10
165.9479166666669
 20
330.153
 30
0.0
 11
168.8
 21
326.4529999999999
 31
0.0
  0
LINE
  5
500
330
1E
100
AcDbEntity
  8
0
100
AcDbLine
 10
165.0999999999999
 20
331.253
 30
0.0
 11
168.8
 21
326.4529999999999
 31
0.0
  0
LINE
  5
501
330
1E
100
AcDbEntity
  8
0
100
AcDbLine
 10
203.2
 20
332.253
 30
0.0
 11
205.2
 21
337.253
 31
0.0
  0
LINE
  5
502
330
1E
100
AcDbEntity
  8
0
100
AcDbLine
 10
204.8999999999999
 20
331.253
 30
0.0
 11
207.2
 21
336.753
 31
0.0
  0
LINE
  5
503
330
1E
100
AcDbEntity
  8
0
100
AcDbLine
 10
164.8
 20
337.253
 30
0.0
 11
166.8
 21
332.253
 31
0.0
  0
LINE
  5
504
330
1E
100
AcDbEntity
  8
0
100
AcDbLine
 10
205.2
 20
337.253
 30
0.0
 11
206.0
 21
342.653
 31
0.0
  0
LINE
  5
505
330
1E
100
AcDbEntity
  8
0
100
AcDbLine
 10
207.2
 20
336.753
 30
0.0
 11
208.0
 21
342.653
 31
0.0
  0
LINE
  5
506
330
1E
100
AcDbEntity
  8
0
100
AcDbLine
 10
216.8
 20
334.153
 30
0.0
 11
218.0
 21
342.653
 31
0.0
  0
LINE
  5
507
330
1E
100
AcDbEntity
  8
0
100
AcDbLine
 10
218.6999999999999
 20
333.653
 30
0.0
 11
220.0
 21
342.653
 31
0.0
  0
LINE
  5
508
330
1E
100
AcDbEntity
  8
0
100
AcDbLine
 10
164.0
 20
342.653
 30
0.0
 11
164.8
 21
348.053
 31
0.0
  0
LINE
  5
509
330
1E
100
AcDbEntity
  8
0
100
AcDbLine
 10
164.0
 20
342.653
 30
0.0
 11
164.8
 21
337.253
 31
0.0
  0
LINE
  5
50A
330
1E
100
AcDbEntity
  8
0
100
AcDbLine
 10
154.8202531645569
 20
355.153
 30
0.0
 11
156.4
 21
359.053
 31
0.0
  0
LINE
  5
50B
330
1E
100
AcDbEntity
  8
0
100
AcDbLine
 10
156.4
 20
359.053
 30
0.0
 11
161.6999999999999
 21
365.953
 31
0.0
  0
LINE
  5
50C
330
1E
100
AcDbEntity
  8
0
100
AcDbLine
 10
145.866
 20
1129.153
 30
0.0
 11
145.866
 21
1127.153
 31
0.0
  0
LINE
  5
50D
330
1E
100
AcDbEntity
  8
0
100
AcDbLine
 10
145.866
 20
1129.153
 30
0.0
 11
146.446
 21
1129.153
 31
0.0
  0
LINE
  5
50E
330
1E
100
AcDbEntity
  8
0
100
AcDbLine
 10
145.866
 20
1127.153
 30
0.0
 11
145.866
 21
1129.153
 31
0.0
  0
LINE
  5
50F
330
1E
100
AcDbEntity
  8
0
100
AcDbLine
 10
148.0
 20
1127.153
 30
0.0
 11
150.0
 21
1127.153
 31
0.0
  0
LINE
  5
510
330
1E
100
AcDbEntity
  8
0
100
AcDbLine
 10
146.77
 20
1127.153
 30
0.0
 11
148.184
 21
1127.153
 31
0.0
  0
LINE
  5
511
330
1E
100
AcDbEntity
  8
0
100
AcDbLine
 10
146.77
 20
1127.153
 30
0.0
 11
146.77
 21
1129.153
 31
0.0
  0
LINE
  5
512
330
1E
100
AcDbEntity
  8
0
100
AcDbLine
 10
148.184
 20
1127.153
 30
0.0
 11
149.5979999999999
 21
1127.153
 31
0.0
  0
LINE
  5
513
330
1E
100
AcDbEntity
  8
0
100
AcDbLine
 10
148.184
 20
1127.153
 30
0.0
 11
148.184
 21
1129.153
 31
0.0
  0
LINE
  5
514
330
1E
100
AcDbEntity
  8
0
100
AcDbLine
 10
146.446
 20
1127.153
 30
0.0
 11
146.446
 21
1129.153
 31
0.0
  0
LINE
  5
515
330
1E
100
AcDbEntity
  8
0
100
AcDbLine
 10
146.446
 20
1127.153
 30
0.0
 11
148.3779999999999
 21
1127.153
 31
0.0
  0
LINE
  5
516
330
1E
100
AcDbEntity
  8
0
100
AcDbLine
 10
146.446
 20
1127.153
 30
0.0
 11
146.964
 21
1127.153
 31
0.0
  0
LINE
  5
517
330
1E
100
AcDbEntity
  8
0
100
AcDbLine
 10
150.6339999999999
 20
1127.153
 30
0.0
 11
150.6339999999999
 21
1129.153
 31
0.0
  0
LINE
  5
518
330
1E
100
AcDbEntity
  8
0
100
AcDbLine
 10
150.6339999999999
 20
1127.153
 30
0.0
 11
151.6339999999999
 21
1127.153
 31
0.0
  0
LINE
  5
519
330
1E
100
AcDbEntity
  8
0
100
AcDbLine
 10
150.6339999999999
 20
1127.153
 30
0.0
 11
152.366
 21
1127.153
 31
0.0
  0
LINE
  5
51A
330
1E
100
AcDbEntity
  8
0
100
AcDbLine
 10
151.6339999999999
 20
1127.153
 30
0.0
 11
153.366
 21
1127.153
 31
0.0
  0
LINE
  5
51B
330
1E
100
AcDbEntity
  8
0
100
AcDbLine
 10
150.6339999999999
 20
1127.153
 30
0.0
 11
150.6339999999999
 21
1129.153
 31
0.0
  0
LINE
  5
51C
330
1E
100
AcDbEntity
  8
0
100
AcDbLine
 10
150.6339999999999
 20
1127.153
 30
0.0
 11
151.6339999999999
 21
1127.153
 31
0.0
  0
LINE
  5
51D
330
1E
100
AcDbEntity
  8
0
100
AcDbLine
 10
150.6339999999999
 20
1127.153
 30
0.0
 11
152.366
 21
1127.153
 31
0.0
  0
LINE
  5
51E
330
1E
100
AcDbEntity
  8
0
100
AcDbLine
 10
151.6339999999999
 20
1127.153
 30
0.0
 11
151.6339999999999
 21
1129.153
 31
0.0
  0
LINE
  5
51F
330
1E
100
AcDbEntity
  8
0
100
AcDbLine
 10
151.6339999999999
 20
1127.153
 30
0.0
 11
153.366
 21
1127.153
 31
0.0
  0
LINE
  5
520
330
1E
100
AcDbEntity
  8
0
100
AcDbLine
 10
149.5979999999999
 20
1127.153
 30
0.0
 11
149.5979999999999
 21
1129.153
 31
0.0
  0
LINE
  5
521
330
1E
100
AcDbEntity
  8
0
100
AcDbLine
 10
150.0
 20
1127.153
 30
0.0
 11
150.0
 21
1129.153
 31
0.0
  0
LINE
  5
522
330
1E
100
AcDbEntity
  8
0
100
AcDbLine
 10
153.366
 20
1127.153
 30
0.0
 11
153.366
 21
1129.153
 31
0.0
  0
LINE
  5
523
330
1E
100
AcDbEntity
  8
0
100
AcDbLine
 10
152.366
 20
1127.153
 30
0.0
 11
153.366
 21
1127.153
 31
0.0
  0
LINE
  5
524
330
1E
100
AcDbEntity
  8
0
100
AcDbLine
 10
152.366
 20
1127.153
 30
0.0
 11
153.366
 21
1127.153
 31
0.0
  0
LINE
  5
525
330
1E
100
AcDbEntity
  8
0
100
AcDbLine
 10
155.3989999999999
 20
1127.153
 30
0.0
 11
155.3989999999999
 21
1129.153
 31
0.0
  0
LINE
  5
526
330
1E
100
AcDbEntity
  8
0
100
AcDbLine
 10
155.3989999999999
 20
1127.153
 30
0.0
 11
157.1309999999999
 21
1127.153
 31
0.0
  0
LINE
  5
527
330
1E
100
AcDbEntity
  8
0
100
AcDbLine
 10
155.3989999999999
 20
1127.153
 30
0.0
 11
156.3989999999999
 21
1127.153
 31
0.0
  0
LINE
  5
528
330
1E
100
AcDbEntity
  8
0
100
AcDbLine
 10
157.376
 20
1127.153
 30
0.0
 11
158.7899999999999
 21
1127.153
 31
0.0
  0
LINE
  5
529
330
1E
100
AcDbEntity
  8
0
100
AcDbLine
 10
157.376
 20
1127.153
 30
0.0
 11
158.7899999999999
 21
1127.153
 31
0.0
  0
LINE
  5
52A
330
1E
100
AcDbEntity
  8
0
100
AcDbLine
 10
157.376
 20
1127.153
 30
0.0
 11
157.376
 21
1129.153
 31
0.0
  0
LINE
  5
52B
330
1E
100
AcDbEntity
  8
0
100
AcDbLine
 10
157.376
 20
1127.153
 30
0.0
 11
158.7899999999999
 21
1127.153
 31
0.0
  0
LINE
  5
52C
330
1E
100
AcDbEntity
  8
0
100
AcDbLine
 10
160.205
 20
1127.153
 30
0.0
 11
160.205
 21
1129.153
 31
0.0
  0
LINE
  5
52D
330
1E
100
AcDbEntity
  8
0
100
AcDbLine
 10
158.7899999999999
 20
1127.153
 30
0.0
 11
160.205
 21
1127.153
 31
0.0
  0
LINE
  5
52E
330
1E
100
AcDbEntity
  8
0
100
AcDbLine
 10
158.7899999999999
 20
1127.153
 30
0.0
 11
160.205
 21
1127.153
 31
0.0
  0
LINE
  5
52F
330
1E
100
AcDbEntity
  8
0
100
AcDbLine
 10
158.7899999999999
 20
1127.153
 30
0.0
 11
160.205
 21
1127.153
 31
0.0
  0
LINE
  5
530
330
1E
100
AcDbEntity
  8
0
100
AcDbLine
 10
158.7899999999999
 20
1127.153
 30
0.0
 11
158.7899999999999
 21
1129.153
 31
0.0
  0
LINE
  5
531
330
1E
100
AcDbEntity
  8
0
100
AcDbLine
 10
157.1309999999999
 20
1127.153
 30
0.0
 11
158.131
 21
1127.153
 31
0.0
  0
LINE
  5
532
330
1E
100
AcDbEntity
  8
0
100
AcDbLine
 10
157.1309999999999
 20
1127.153
 30
0.0
 11
157.1309999999999
 21
1129.153
 31
0.0
  0
LINE
  5
533
330
1E
100
AcDbEntity
  8
0
100
AcDbLine
 10
156.3989999999999
 20
1127.153
 30
0.0
 11
158.131
 21
1127.153
 31
0.0
  0
LINE
  5
534
330
1E
100
AcDbEntity
  8
0
100
AcDbLine
 10
148.3779999999999
 20
1127.153
 30
0.0
 11
148.896
 21
1127.153
 31
0.0
  0
LINE
  5
535
330
1E
100
AcDbEntity
  8
0
100
AcDbLine
 10
146.77
 20
1129.153
 30
0.0
 11
148.184
 21
1129.153
 31
0.0
  0
LINE
  5
536
330
1E
100
AcDbEntity
  8
0
100
AcDbLine
 10
146.77
 20
1129.153
 30
0.0
 11
146.77
 21
1127.153
 31
0.0
  0
LINE
  5
537
330
1E
100
AcDbEntity
  8
0
100
AcDbLine
 10
148.184
 20
1129.153
 30
0.0
 11
149.5979999999999
 21
1129.153
 31
0.0
  0
LINE
  5
538
330
1E
100
AcDbEntity
  8
0
100
AcDbLine
 10
148.184
 20
1129.153
 30
0.0
 11
148.184
 21
1127.153
 31
0.0
  0
LINE
  5
539
330
1E
100
AcDbEntity
  8
0
100
AcDbLine
 10
150.0
 20
1129.153
 30
0.0
 11
150.0
 21
1127.153
 31
0.0
  0
LINE
  5
53A
330
1E
100
AcDbEntity
  8
0
100
AcDbLine
 10
150.0
 20
1129.153
 30
0.0
 11
150.6339999999999
 21
1129.153
 31
0.0
  0
LINE
  5
53B
330
1E
100
AcDbEntity
  8
0
100
AcDbLine
 10
149.5979999999999
 20
1129.153
 30
0.0
 11
150.0
 21
1129.153
 31
0.0
  0
LINE
  5
53C
330
1E
100
AcDbEntity
  8
0
100
AcDbLine
 10
149.5979999999999
 20
1129.153
 30
0.0
 11
149.5979999999999
 21
1127.153
 31
0.0
  0
LINE
  5
53D
330
1E
100
AcDbEntity
  8
0
100
AcDbLine
 10
155.3
 20
1129.153
 30
0.0
 11
174.3
 21
1129.153
 31
0.0
  0
LINE
  5
53E
330
1E
100
AcDbEntity
  8
0
100
AcDbLine
 10
155.3
 20
1129.153
 30
0.0
 11
155.3989999999999
 21
1129.153
 31
0.0
  0
LINE
  5
53F
330
1E
100
AcDbEntity
  8
0
100
AcDbLine
 10
153.366
 20
1129.153
 30
0.0
 11
153.366
 21
1127.153
 31
0.0
  0
LINE
  5
540
330
1E
100
AcDbEntity
  8
0
100
AcDbLine
 10
153.366
 20
1129.153
 30
0.0
 11
155.3
 21
1129.153
 31
0.0
  0
LINE
  5
541
330
1E
100
AcDbEntity
  8
0
100
AcDbLine
 10
151.6339999999999
 20
1129.153
 30
0.0
 11
153.366
 21
1129.153
 31
0.0
  0
LINE
  5
542
330
1E
100
AcDbEntity
  8
0
100
AcDbLine
 10
151.6339999999999
 20
1129.153
 30
0.0
 11
151.6339999999999
 21
1127.153
 31
0.0
  0
LINE
  5
543
330
1E
100
AcDbEntity
  8
0
100
AcDbLine
 10
157.1309999999999
 20
1129.153
 30
0.0
 11
157.376
 21
1129.153
 31
0.0
  0
LINE
  5
544
330
1E
100
AcDbEntity
  8
0
100
AcDbLine
 10
157.1309999999999
 20
1129.153
 30
0.0
 11
157.1309999999999
 21
1127.153
 31
0.0
  0
LINE
  5
545
330
1E
100
AcDbEntity
  8
0
100
AcDbLine
 10
157.376
 20
1129.153
 30
0.0
 11
158.7899999999999
 21
1129.153
 31
0.0
  0
LINE
  5
546
330
1E
100
AcDbEntity
  8
0
100
AcDbLine
 10
157.376
 20
1129.153
 30
0.0
 11
157.376
 21
1127.153
 31
0.0
  0
LINE
  5
547
330
1E
100
AcDbEntity
  8
0
100
AcDbLine
 10
160.205
 20
1129.153
 30
0.0
 11
160.205
 21
1127.153
 31
0.0
  0
LINE
  5
548
330
1E
100
AcDbEntity
  8
0
100
AcDbLine
 10
160.205
 20
1129.153
 30
0.0
 11
160.935
 21
1129.153
 31
0.0
  0
LINE
  5
549
330
1E
100
AcDbEntity
  8
0
100
AcDbLine
 10
158.7899999999999
 20
1129.153
 30
0.0
 11
160.205
 21
1129.153
 31
0.0
  0
LINE
  5
54A
330
1E
100
AcDbEntity
  8
0
100
AcDbLine
 10
158.7899999999999
 20
1129.153
 30
0.0
 11
158.7899999999999
 21
1127.153
 31
0.0
  0
LINE
  5
54B
330
1E
100
AcDbEntity
  8
0
100
AcDbLine
 10
150.6339999999999
 20
1129.153
 30
0.0
 11
150.6339999999999
 21
1127.153
 31
0.0
  0
LINE
  5
54C
330
1E
100
AcDbEntity
  8
0
100
AcDbLine
 10
150.6339999999999
 20
1129.153
 30
0.0
 11
151.6339999999999
 21
1129.153
 31
0.0
  0
LINE
  5
54D
330
1E
100
AcDbEntity
  8
0
100
AcDbLine
 10
150.6339999999999
 20
1129.153
 30
0.0
 11
150.6339999999999
 21
1127.153
 31
0.0
  0
LINE
  5
54E
330
1E
100
AcDbEntity
  8
0
100
AcDbLine
 10
156.3
 20
1131.153
 30
0.0
 11
175.6999999999999
 21
1131.153
 31
0.0
  0
LINE
  5
54F
330
1E
100
AcDbEntity
  8
0
100
AcDbLine
 10
155.3989999999999
 20
1129.153
 30
0.0
 11
155.3989999999999
 21
1127.153
 31
0.0
  0
LINE
  5
550
330
1E
100
AcDbEntity
  8
0
100
AcDbLine
 10
155.3989999999999
 20
1129.153
 30
0.0
 11
157.1309999999999
 21
1129.153
 31
0.0
  0
LINE
  5
551
330
1E
100
AcDbEntity
  8
0
100
AcDbLine
 10
146.446
 20
1129.153
 30
0.0
 11
146.446
 21
1127.153
 31
0.0
  0
LINE
  5
552
330
1E
100
AcDbEntity
  8
0
100
AcDbLine
 10
146.446
 20
1129.153
 30
0.0
 11
146.77
 21
1129.153
 31
0.0
  0
LINE
  5
553
330
1E
100
AcDbEntity
  8
0
100
AcDbLine
 10
146.964
 20
1127.153
 30
0.0
 11
148.896
 21
1127.153
 31
0.0
  0
LINE
  5
554
330
1E
100
AcDbEntity
  8
0
100
AcDbLine
 10
154.6999999999999
 20
360.053
 30
0.0
 11
160.3
 21
367.3529999999999
 31
0.0
  0
LINE
  5
555
330
1E
100
AcDbEntity
  8
0
100
AcDbLine
 10
160.935
 20
1129.153
 30
0.0
 11
160.935
 21
1127.153
 31
0.0
  0
LINE
  5
556
330
1E
100
AcDbEntity
  8
0
100
AcDbLine
 10
160.935
 20
1129.153
 30
0.0
 11
162.867
 21
1129.153
 31
0.0
  0
LINE
  5
557
330
1E
100
AcDbEntity
  8
0
100
AcDbLine
 10
160.935
 20
1127.153
 30
0.0
 11
160.935
 21
1129.153
 31
0.0
  0
LINE
  5
558
330
1E
100
AcDbEntity
  8
0
100
AcDbLine
 10
160.935
 20
1127.153
 30
0.0
 11
162.867
 21
1127.153
 31
0.0
  0
LINE
  5
559
330
1E
100
AcDbEntity
  8
0
100
AcDbLine
 10
160.935
 20
1127.153
 30
0.0
 11
161.453
 21
1127.153
 31
0.0
  0
LINE
  5
55A
330
1E
100
AcDbEntity
  8
0
100
AcDbLine
 10
161.453
 20
1127.153
 30
0.0
 11
163.3849999999999
 21
1127.153
 31
0.0
  0
LINE
  5
55B
330
1E
100
AcDbEntity
  8
0
100
AcDbLine
 10
161.6999999999999
 20
365.953
 30
0.0
 11
168.5999999999999
 21
371.253
 31
0.0
  0
LINE
  5
55C
330
1E
100
AcDbEntity
  8
0
100
AcDbLine
 10
160.3
 20
367.3529999999999
 30
0.0
 11
167.5999999999999
 21
372.953
 31
0.0
  0
LINE
  5
55D
330
1E
100
AcDbEntity
  8
0
100
AcDbLine
 10
152.716666666667
 20
355.153
 30
0.0
 11
154.6999999999999
 21
360.053
 31
0.0
  0
LINE
  5
55E
330
1E
100
AcDbEntity
  8
0
100
AcDbLine
 10
203.2
 20
353.053
 30
0.0
 11
205.2
 21
348.053
 31
0.0
  0
LINE
  5
55F
330
1E
100
AcDbEntity
  8
0
100
AcDbLine
 10
205.2
 20
348.053
 30
0.0
 11
206.0
 21
342.653
 31
0.0
  0
LINE
  5
560
330
1E
100
AcDbEntity
  8
0
100
AcDbLine
 10
216.8
 20
351.153
 30
0.0
 11
218.0
 21
342.653
 31
0.0
  0
LINE
  5
561
330
1E
100
AcDbEntity
  8
0
100
AcDbLine
 10
218.6999999999999
 20
351.653
 30
0.0
 11
220.0
 21
342.653
 31
0.0
  0
LINE
  5
562
330
1E
100
AcDbEntity
  8
0
100
AcDbLine
 10
207.2
 20
348.553
 30
0.0
 11
208.0
 21
342.653
 31
0.0
  0
LINE
  5
563
330
1E
100
AcDbEntity
  8
0
100
AcDbLine
 10
204.8999999999999
 20
354.053
 30
0.0
 11
207.2
 21
348.553
 31
0.0
  0
LINE
  5
564
330
1E
100
AcDbEntity
  8
0
100
AcDbLine
 10
166.8
 20
353.053
 30
0.0
 11
170.1999999999999
 21
357.453
 31
0.0
  0
LINE
  5
565
330
1E
100
AcDbEntity
  8
0
100
AcDbLine
 10
164.8
 20
348.053
 30
0.0
 11
166.8
 21
353.053
 31
0.0
  0
LINE
  5
566
330
1E
100
AcDbEntity
  8
0
100
AcDbLine
 10
168.5999999999999
 20
371.253
 30
0.0
 11
176.5
 21
374.453
 31
0.0
  0
LINE
  5
567
330
1E
100
AcDbEntity
  8
0
100
AcDbLine
 10
162.867
 20
1129.153
 30
0.0
 11
163.3849999999999
 21
1129.153
 31
0.0
  0
LINE
  5
568
330
1E
100
AcDbEntity
  8
0
100
AcDbLine
 10
162.867
 20
1129.153
 30
0.0
 11
162.867
 21
1127.153
 31
0.0
  0
LINE
  5
569
330
1E
100
AcDbEntity
  8
0
100
AcDbLine
 10
163.3849999999999
 20
1127.153
 30
0.0
 11
163.3849999999999
 21
1129.153
 31
0.0
  0
LINE
  5
56A
330
1E
100
AcDbEntity
  8
0
100
AcDbLine
 10
167.983
 20
1127.153
 30
0.0
 11
167.983
 21
1129.153
 31
0.0
  0
LINE
  5
56B
330
1E
100
AcDbEntity
  8
0
100
AcDbLine
 10
167.983
 20
1127.153
 30
0.0
 11
169.397
 21
1127.153
 31
0.0
  0
LINE
  5
56C
330
1E
100
AcDbEntity
  8
0
100
AcDbLine
 10
165.0
 20
1127.153
 30
0.0
 11
165.0
 21
1129.153
 31
0.0
  0
LINE
  5
56D
330
1E
100
AcDbEntity
  8
0
100
AcDbLine
 10
165.0
 20
1129.153
 30
0.0
 11
165.0
 21
1127.153
 31
0.0
  0
LINE
  5
56E
330
1E
100
AcDbEntity
  8
0
100
AcDbLine
 10
165.0
 20
1129.153
 30
0.0
 11
167.983
 21
1129.153
 31
0.0
  0
LINE
  5
56F
330
1E
100
AcDbEntity
  8
0
100
AcDbLine
 10
163.3849999999999
 20
1129.153
 30
0.0
 11
165.0
 21
1129.153
 31
0.0
  0
LINE
  5
570
330
1E
100
AcDbEntity
  8
0
100
AcDbLine
 10
163.3849999999999
 20
1129.153
 30
0.0
 11
163.3849999999999
 21
1127.153
 31
0.0
  0
LINE
  5
571
330
1E
100
AcDbEntity
  8
0
100
AcDbLine
 10
163.0
 20
1127.153
 30
0.0
 11
165.0
 21
1127.153
 31
0.0
  0
LINE
  5
572
330
1E
100
AcDbEntity
  8
0
100
AcDbLine
 10
162.867
 20
1127.153
 30
0.0
 11
163.3849999999999
 21
1127.153
 31
0.0
  0
LINE
  5
573
330
1E
100
AcDbEntity
  8
0
100
AcDbLine
 10
162.867
 20
1127.153
 30
0.0
 11
162.867
 21
1129.153
 31
0.0
  0
LINE
  5
574
330
1E
100
AcDbEntity
  8
0
100
AcDbLine
 10
167.983
 20
1129.153
 30
0.0
 11
167.983
 21
1127.153
 31
0.0
  0
LINE
  5
575
330
1E
100
AcDbEntity
  8
0
100
AcDbLine
 10
167.983
 20
1129.153
 30
0.0
 11
169.397
 21
1129.153
 31
0.0
  0
LINE
  5
576
330
1E
100
AcDbEntity
  8
0
100
AcDbLine
 10
167.983
 20
1129.153
 30
0.0
 11
167.983
 21
1127.153
 31
0.0
  0
LINE
  5
577
330
1E
100
AcDbEntity
  8
0
100
AcDbLine
 10
168.3899999999999
 20
1127.153
 30
0.0
 11
170.122
 21
1127.153
 31
0.0
  0
LINE
  5
578
330
1E
100
AcDbEntity
  8
0
100
AcDbLine
 10
168.3899999999999
 20
1127.153
 30
0.0
 11
169.39
 21
1127.153
 31
0.0
  0
LINE
  5
579
330
1E
100
AcDbEntity
  8
0
100
AcDbLine
 10
167.983
 20
1127.153
 30
0.0
 11
167.983
 21
1129.153
 31
0.0
  0
LINE
  5
57A
330
1E
100
AcDbEntity
  8
0
100
AcDbLine
 10
167.983
 20
1127.153
 30
0.0
 11
169.397
 21
1127.153
 31
0.0
  0
LINE
  5
57B
330
1E
100
AcDbEntity
  8
0
100
AcDbLine
 10
167.5999999999999
 20
372.953
 30
0.0
 11
176.0
 21
376.353
 31
0.0
  0
LINE
  5
57C
330
1E
100
AcDbEntity
  8
0
100
AcDbLine
 10
195.4
 20
360.853
 30
0.0
 11
199.8
 21
357.453
 31
0.0
  0
LINE
  5
57D
330
1E
100
AcDbEntity
  8
0
100
AcDbLine
 10
199.8
 20
357.453
 30
0.0
 11
203.2
 21
353.053
 31
0.0
  0
LINE
  5
57E
330
1E
100
AcDbEntity
  8
0
100
AcDbLine
 10
213.6
 20
359.053
 30
0.0
 11
216.8
 21
351.153
 31
0.0
  0
LINE
  5
57F
330
1E
100
AcDbEntity
  8
0
100
AcDbLine
 10
215.3
 20
360.053
 30
0.0
 11
218.6999999999999
 21
351.653
 31
0.0
  0
LINE
  5
580
330
1E
100
AcDbEntity
  8
0
100
AcDbLine
 10
201.2
 20
358.8529999999999
 30
0.0
 11
204.8999999999999
 21
354.053
 31
0.0
  0
LINE
  5
581
330
1E
100
AcDbEntity
  8
0
100
AcDbLine
 10
196.4
 20
362.553
 30
0.0
 11
201.2
 21
358.8529999999999
 31
0.0
  0
LINE
  5
582
330
1E
100
AcDbEntity
  8
0
100
AcDbLine
 10
174.5999999999999
 20
360.853
 30
0.0
 11
179.6
 21
362.853
 31
0.0
  0
LINE
  5
583
330
1E
100
AcDbEntity
  8
0
100
AcDbLine
 10
170.1999999999999
 20
357.453
 30
0.0
 11
174.5999999999999
 21
360.853
 31
0.0
  0
LINE
  5
584
330
1E
100
AcDbEntity
  8
0
100
AcDbLine
 10
176.5
 20
374.453
 30
0.0
 11
185.0
 21
375.653
 31
0.0
  0
LINE
  5
585
330
1E
100
AcDbEntity
  8
0
100
AcDbLine
 10
169.39
 20
1127.153
 30
0.0
 11
171.122
 21
1127.153
 31
0.0
  0
LINE
  5
586
330
1E
100
AcDbEntity
  8
0
100
AcDbLine
 10
169.397
 20
1129.153
 30
0.0
 11
170.8109999999999
 21
1129.153
 31
0.0
  0
LINE
  5
587
330
1E
100
AcDbEntity
  8
0
100
AcDbLine
 10
169.397
 20
1129.153
 30
0.0
 11
169.397
 21
1127.153
 31
0.0
  0
LINE
  5
588
330
1E
100
AcDbEntity
  8
0
100
AcDbLine
 10
169.397
 20
1127.153
 30
0.0
 11
170.8109999999999
 21
1127.153
 31
0.0
  0
LINE
  5
589
330
1E
100
AcDbEntity
  8
0
100
AcDbLine
 10
169.397
 20
1127.153
 30
0.0
 11
169.397
 21
1129.153
 31
0.0
  0
LINE
  5
58A
330
1E
100
AcDbEntity
  8
0
100
AcDbLine
 10
170.8109999999999
 20
1129.153
 30
0.0
 11
170.8109999999999
 21
1127.153
 31
0.0
  0
LINE
  5
58B
330
1E
100
AcDbEntity
  8
0
100
AcDbLine
 10
170.8109999999999
 20
1129.153
 30
0.0
 11
171.122
 21
1129.153
 31
0.0
  0
LINE
  5
58C
330
1E
100
AcDbEntity
  8
0
100
AcDbLine
 10
170.122
 20
1127.153
 30
0.0
 11
171.122
 21
1127.153
 31
0.0
  0
LINE
  5
58D
330
1E
100
AcDbEntity
  8
0
100
AcDbLine
 10
171.122
 20
1127.153
 30
0.0
 11
171.122
 21
1129.153
 31
0.0
  0
LINE
  5
58E
330
1E
100
AcDbEntity
  8
0
100
AcDbLine
 10
175.424
 20
1127.153
 30
0.0
 11
175.424
 21
1129.153
 31
0.0
  0
LINE
  5
58F
330
1E
100
AcDbEntity
  8
0
100
AcDbLine
 10
175.424
 20
1127.153
 30
0.0
 11
177.3559999999999
 21
1127.153
 31
0.0
  0
LINE
  5
590
330
1E
100
AcDbEntity
  8
0
100
AcDbLine
 10
175.424
 20
1127.153
 30
0.0
 11
175.942
 21
1127.153
 31
0.0
  0
LINE
  5
591
330
1E
100
AcDbEntity
  8
0
100
AcDbLine
 10
177.874
 20
1127.153
 30
0.0
 11
177.874
 21
1129.153
 31
0.0
  0
LINE
  5
592
330
1E
100
AcDbEntity
  8
0
100
AcDbLine
 10
178.0
 20
1127.153
 30
0.0
 11
180.0
 21
1127.153
 31
0.0
  0
LINE
  5
593
330
1E
100
AcDbEntity
  8
0
100
AcDbLine
 10
178.0
 20
1127.153
 30
0.0
 11
178.0
 21
1129.153
 31
0.0
  0
LINE
  5
594
330
1E
100
AcDbEntity
  8
0
100
AcDbLine
 10
177.3559999999999
 20
1127.153
 30
0.0
 11
177.874
 21
1127.153
 31
0.0
  0
LINE
  5
595
330
1E
100
AcDbEntity
  8
0
100
AcDbLine
 10
177.3559999999999
 20
1127.153
 30
0.0
 11
177.3559999999999
 21
1129.153
 31
0.0
  0
LINE
  5
596
330
1E
100
AcDbEntity
  8
0
100
AcDbLine
 10
174.3
 20
1129.153
 30
0.0
 11
188.8
 21
1129.153
 31
0.0
  0
LINE
  5
597
330
1E
100
AcDbEntity
  8
0
100
AcDbLine
 10
174.3
 20
1129.153
 30
0.0
 11
175.424
 21
1129.153
 31
0.0
  0
LINE
  5
598
330
1E
100
AcDbEntity
  8
0
100
AcDbLine
 10
171.122
 20
1129.153
 30
0.0
 11
171.122
 21
1127.153
 31
0.0
  0
LINE
  5
599
330
1E
100
AcDbEntity
  8
0
100
AcDbLine
 10
171.122
 20
1129.153
 30
0.0
 11
174.3
 21
1129.153
 31
0.0
  0
LINE
  5
59A
330
1E
100
AcDbEntity
  8
0
100
AcDbLine
 10
177.3559999999999
 20
1129.153
 30
0.0
 11
177.874
 21
1129.153
 31
0.0
  0
LINE
  5
59B
330
1E
100
AcDbEntity
  8
0
100
AcDbLine
 10
177.3559999999999
 20
1129.153
 30
0.0
 11
177.3559999999999
 21
1127.153
 31
0.0
  0
LINE
  5
59C
330
1E
100
AcDbEntity
  8
0
100
AcDbLine
 10
177.874
 20
1129.153
 30
0.0
 11
177.874
 21
1127.153
 31
0.0
  0
LINE
  5
59D
330
1E
100
AcDbEntity
  8
0
100
AcDbLine
 10
177.874
 20
1129.153
 30
0.0
 11
178.0
 21
1129.153
 31
0.0
  0
LINE
  5
59E
330
1E
100
AcDbEntity
  8
0
100
AcDbLine
 10
175.6999999999999
 20
1131.153
 30
0.0
 11
190.5
 21
1131.153
 31
0.0
  0
LINE
  5
59F
330
1E
100
AcDbEntity
  8
0
100
AcDbLine
 10
178.0
 20
1129.153
 30
0.0
 11
178.0
 21
1127.153
 31
0.0
  0
LINE
  5
5A0
330
1E
100
AcDbEntity
  8
0
100
AcDbLine
 10
178.0
 20
1129.153
 30
0.0
 11
180.0
 21
1129.153
 31
0.0
  0
LINE
  5
5A1
330
1E
100
AcDbEntity
  8
0
100
AcDbLine
 10
175.424
 20
1129.153
 30
0.0
 11
175.424
 21
1127.153
 31
0.0
  0
LINE
  5
5A2
330
1E
100
AcDbEntity
  8
0
100
AcDbLine
 10
175.424
 20
1129.153
 30
0.0
 11
177.3559999999999
 21
1129.153
 31
0.0
  0
LINE
  5
5A3
330
1E
100
AcDbEntity
  8
0
100
AcDbLine
 10
175.942
 20
1127.153
 30
0.0
 11
177.874
 21
1127.153
 31
0.0
  0
LINE
  5
5A4
330
1E
100
AcDbEntity
  8
0
100
AcDbLine
 10
170.8109999999999
 20
1127.153
 30
0.0
 11
170.8109999999999
 21
1129.153
 31
0.0
  0
LINE
  5
5A5
330
1E
100
AcDbEntity
  8
0
100
AcDbLine
 10
169.397
 20
1127.153
 30
0.0
 11
170.8109999999999
 21
1127.153
 31
0.0
  0
LINE
  5
5A6
330
1E
100
AcDbEntity
  8
0
100
AcDbLine
 10
176.0
 20
376.353
 30
0.0
 11
185.0
 21
377.653
 31
0.0
  0
LINE
  5
5A7
330
1E
100
AcDbEntity
  8
0
100
AcDbLine
 10
190.4
 20
362.853
 30
0.0
 11
195.4
 21
360.853
 31
0.0
  0
LINE
  5
5A8
330
1E
100
AcDbEntity
  8
0
100
AcDbLine
 10
185.0
 20
363.653
 30
0.0
 11
190.4
 21
362.853
 31
0.0
  0
LINE
  5
5A9
330
1E
100
AcDbEntity
  8
0
100
AcDbLine
 10
180.0
 20
1127.153
 30
0.0
 11
180.0
 21
1129.153
 31
0.0
  0
LINE
  5
5AA
330
1E
100
AcDbEntity
  8
0
100
AcDbLine
 10
180.0
 20
1129.153
 30
0.0
 11
180.0
 21
1127.153
 31
0.0
  0
LINE
  5
5AB
330
1E
100
AcDbEntity
  8
0
100
AcDbLine
 10
180.0
 20
1129.153
 30
0.0
 11
181.38
 21
1129.153
 31
0.0
  0
LINE
  5
5AC
330
1E
100
AcDbEntity
  8
0
100
AcDbLine
 10
181.38
 20
1129.153
 30
0.0
 11
181.38
 21
1127.153
 31
0.0
  0
LINE
  5
5AD
330
1E
100
AcDbEntity
  8
0
100
AcDbLine
 10
181.38
 20
1129.153
 30
0.0
 11
183.112
 21
1129.153
 31
0.0
  0
LINE
  5
5AE
330
1E
100
AcDbEntity
  8
0
100
AcDbLine
 10
181.38
 20
1127.153
 30
0.0
 11
181.38
 21
1129.153
 31
0.0
  0
LINE
  5
5AF
330
1E
100
AcDbEntity
  8
0
100
AcDbLine
 10
181.38
 20
1127.153
 30
0.0
 11
183.112
 21
1127.153
 31
0.0
  0
LINE
  5
5B0
330
1E
100
AcDbEntity
  8
0
100
AcDbLine
 10
181.38
 20
1127.153
 30
0.0
 11
182.38
 21
1127.153
 31
0.0
  0
LINE
  5
5B1
330
1E
100
AcDbEntity
  8
0
100
AcDbLine
 10
184.112
 20
1127.153
 30
0.0
 11
184.112
 21
1129.153
 31
0.0
  0
LINE
  5
5B2
330
1E
100
AcDbEntity
  8
0
100
AcDbLine
 10
183.112
 20
1129.153
 30
0.0
 11
184.112
 21
1129.153
 31
0.0
  0
LINE
  5
5B3
330
1E
100
AcDbEntity
  8
0
100
AcDbLine
 10
183.112
 20
1129.153
 30
0.0
 11
183.112
 21
1127.153
 31
0.0
  0
LINE
  5
5B4
330
1E
100
AcDbEntity
  8
0
100
AcDbLine
 10
184.112
 20
1129.153
 30
0.0
 11
184.112
 21
1127.153
 31
0.0
  0
LINE
  5
5B5
330
1E
100
AcDbEntity
  8
0
100
AcDbLine
 10
184.112
 20
1129.153
 30
0.0
 11
188.8
 21
1129.153
 31
0.0
  0
LINE
  5
5B6
330
1E
100
AcDbEntity
  8
0
100
AcDbLine
 10
183.112
 20
1127.153
 30
0.0
 11
184.112
 21
1127.153
 31
0.0
  0
LINE
  5
5B7
330
1E
100
AcDbEntity
  8
0
100
AcDbLine
 10
183.112
 20
1127.153
 30
0.0
 11
183.112
 21
1129.153
 31
0.0
  0
LINE
  5
5B8
330
1E
100
AcDbEntity
  8
0
100
AcDbLine
 10
182.38
 20
1127.153
 30
0.0
 11
184.112
 21
1127.153
 31
0.0
  0
LINE
  5
5B9
330
1E
100
AcDbEntity
  8
0
100
AcDbLine
 10
185.0
 20
375.653
 30
0.0
 11
193.5
 21
374.453
 31
0.0
  0
LINE
  5
5BA
330
1E
100
AcDbEntity
  8
0
100
AcDbLine
 10
189.9129999999999
 20
1127.153
 30
0.0
 11
189.9129999999999
 21
1129.153
 31
0.0
  0
LINE
  5
5BB
330
1E
100
AcDbEntity
  8
0
100
AcDbLine
 10
189.9129999999999
 20
1127.153
 30
0.0
 11
191.8449999999999
 21
1127.153
 31
0.0
  0
LINE
  5
5BC
330
1E
100
AcDbEntity
  8
0
100
AcDbLine
 10
189.9129999999999
 20
1127.153
 30
0.0
 11
190.4309999999999
 21
1127.153
 31
0.0
  0
LINE
  5
5BD
330
1E
100
AcDbEntity
  8
0
100
AcDbLine
 10
188.8
 20
1129.153
 30
0.0
 11
197.6999999999999
 21
1129.153
 31
0.0
  0
LINE
  5
5BE
330
1E
100
AcDbEntity
  8
0
100
AcDbLine
 10
188.8
 20
1129.153
 30
0.0
 11
189.9129999999999
 21
1129.153
 31
0.0
  0
LINE
  5
5BF
330
1E
100
AcDbEntity
  8
0
100
AcDbLine
 10
190.5
 20
1131.153
 30
0.0
 11
199.6
 21
1131.153
 31
0.0
  0
LINE
  5
5C0
330
1E
100
AcDbEntity
  8
0
100
AcDbLine
 10
189.9129999999999
 20
1129.153
 30
0.0
 11
189.9129999999999
 21
1127.153
 31
0.0
  0
LINE
  5
5C1
330
1E
100
AcDbEntity
  8
0
100
AcDbLine
 10
189.9129999999999
 20
1129.153
 30
0.0
 11
191.8449999999999
 21
1129.153
 31
0.0
  0
LINE
  5
5C2
330
1E
100
AcDbEntity
  8
0
100
AcDbLine
 10
190.4309999999999
 20
1127.153
 30
0.0
 11
192.3629999999999
 21
1127.153
 31
0.0
  0
LINE
  5
5C3
330
1E
100
AcDbEntity
  8
0
100
AcDbLine
 10
185.0
 20
377.653
 30
0.0
 11
194.0
 21
376.353
 31
0.0
  0
LINE
  5
5C4
330
1E
100
AcDbEntity
  8
0
100
AcDbLine
 10
185.0
 20
365.653
 30
0.0
 11
190.8999999999999
 21
364.853
 31
0.0
  0
LINE
  5
5C5
330
1E
100
AcDbEntity
  8
0
100
AcDbLine
 10
201.4
 20
371.253
 30
0.0
 11
208.3
 21
365.953
 31
0.0
  0
LINE
  5
5C6
330
1E
100
AcDbEntity
  8
0
100
AcDbLine
 10
208.3
 20
365.953
 30
0.0
 11
213.6
 21
359.053
 31
0.0
  0
LINE
  5
5C7
330
1E
100
AcDbEntity
  8
0
100
AcDbLine
 10
209.6999999999999
 20
367.3529999999999
 30
0.0
 11
215.3
 21
360.053
 31
0.0
  0
LINE
  5
5C8
330
1E
100
AcDbEntity
  8
0
100
AcDbLine
 10
191.8449999999999
 20
1129.153
 30
0.0
 11
192.3629999999999
 21
1129.153
 31
0.0
  0
LINE
  5
5C9
330
1E
100
AcDbEntity
  8
0
100
AcDbLine
 10
191.8449999999999
 20
1129.153
 30
0.0
 11
191.8449999999999
 21
1127.153
 31
0.0
  0
LINE
  5
5CA
330
1E
100
AcDbEntity
  8
0
100
AcDbLine
 10
192.3629999999999
 20
1127.153
 30
0.0
 11
192.3629999999999
 21
1129.153
 31
0.0
  0
LINE
  5
5CB
330
1E
100
AcDbEntity
  8
0
100
AcDbLine
 10
192.3629999999999
 20
1129.153
 30
0.0
 11
192.3629999999999
 21
1127.153
 31
0.0
  0
LINE
  5
5CC
330
1E
100
AcDbEntity
  8
0
100
AcDbLine
 10
192.3629999999999
 20
1129.153
 30
0.0
 11
193.0
 21
1129.153
 31
0.0
  0
LINE
  5
5CD
330
1E
100
AcDbEntity
  8
0
100
AcDbLine
 10
193.0
 20
1129.153
 30
0.0
 11
193.0
 21
1127.153
 31
0.0
  0
LINE
  5
5CE
330
1E
100
AcDbEntity
  8
0
100
AcDbLine
 10
193.0
 20
1129.153
 30
0.0
 11
195.0
 21
1129.153
 31
0.0
  0
LINE
  5
5CF
330
1E
100
AcDbEntity
  8
0
100
AcDbLine
 10
193.0
 20
1127.153
 30
0.0
 11
195.0
 21
1127.153
 31
0.0
  0
LINE
  5
5D0
330
1E
100
AcDbEntity
  8
0
100
AcDbLine
 10
193.0
 20
1127.153
 30
0.0
 11
193.0
 21
1129.153
 31
0.0
  0
LINE
  5
5D1
330
1E
100
AcDbEntity
  8
0
100
AcDbLine
 10
191.8449999999999
 20
1127.153
 30
0.0
 11
192.3629999999999
 21
1127.153
 31
0.0
  0
LINE
  5
5D2
330
1E
100
AcDbEntity
  8
0
100
AcDbLine
 10
191.8449999999999
 20
1127.153
 30
0.0
 11
191.8449999999999
 21
1129.153
 31
0.0
  0
LINE
  5
5D3
330
1E
100
AcDbEntity
  8
0
100
AcDbLine
 10
193.5
 20
374.453
 30
0.0
 11
201.4
 21
371.253
 31
0.0
  0
LINE
  5
5D4
330
1E
100
AcDbEntity
  8
0
100
AcDbLine
 10
344.813
 20
494.2309999999999
 30
0.0
 11
345.429
 21
527.713
 31
0.0
  0
LINE
  5
5D5
330
1E
100
AcDbEntity
  8
0
100
AcDbLine
 10
344.813
 20
494.2309999999999
 30
0.0
 11
345.719
 21
294.732
 31
0.0
  0
LINE
  5
5D6
330
1E
100
AcDbEntity
  8
0
100
AcDbLine
 10
342.5
 20
533.067
 30
0.0
 11
344.2
 21
533.067
 31
0.0
  0
LINE
  5
5D7
330
1E
100
AcDbEntity
  8
0
100
AcDbLine
 10
341.3999999999999
 20
533.067
 30
0.0
 11
342.5
 21
533.067
 31
0.0
  0
LINE
  5
5D8
330
1E
100
AcDbEntity
  8
0
100
AcDbLine
 10
341.0
 20
533.067
 30
0.0
 11
341.3999999999999
 21
533.067
 31
0.0
  0
LINE
  5
5D9
330
1E
100
AcDbEntity
  8
0
100
AcDbLine
 10
341.0
 20
533.067
 30
0.0
 11
341.0
 21
564.067
 31
0.0
  0
LINE
  5
5DA
330
1E
100
AcDbEntity
  8
0
100
AcDbLine
 10
341.0
 20
533.067
 30
0.0
 11
345.6709707465979
 21
533.067
 31
0.0
  0
LINE
  5
5DC
330
1E
100
AcDbEntity
  8
0
100
AcDbLine
 10
344.2
 20
533.067
 30
0.0
 11
347.1999999999999
 21
533.067
 31
0.0
  0
LINE
  5
5DD
330
1E
100
AcDbEntity
  8
0
100
AcDbLine
 10
344.0
 20
533.067
 30
0.0
 11
344.3999999999999
 21
533.067
 31
0.0
  0
LINE
  5
5DE
330
1E
100
AcDbEntity
  8
0
100
AcDbLine
 10
344.3999999999999
 20
533.067
 30
0.0
 11
345.5
 21
533.067
 31
0.0
  0
LINE
  5
5DF
330
1E
100
AcDbEntity
  8
0
100
AcDbLine
 10
347.1999999999999
 20
533.067
 30
0.0
 11
347.1999999999999
 21
564.067
 31
0.0
  0
LINE
  5
5E0
330
1E
100
AcDbEntity
  8
0
100
AcDbLine
 10
345.5
 20
533.067
 30
0.0
 11
345.6709707465979
 21
533.067
 31
0.0
  0
LINE
  5
5E1
330
1E
100
AcDbEntity
  8
0
100
AcDbLine
 10
345.5
 20
533.067
 30
0.0
 11
346.427869474259
 21
533.067
 31
0.0
  0
LINE
  5
5E2
330
1E
100
AcDbEntity
  8
0
100
AcDbLine
 10
345.429
 20
527.713
 30
0.0
 11
345.6709707465979
 21
533.067
 31
0.0
  0
LINE
  5
5E3
330
1E
100
AcDbEntity
  8
0
100
AcDbLine
 10
360.8119999999999
 20
494.2309999999999
 30
0.0
 11
361.363
 21
526.713
 31
0.0
  0
LINE
  5
5E4
330
1E
100
AcDbEntity
  8
0
100
AcDbLine
 10
360.8119999999999
 20
494.2309999999999
 30
0.0
 11
361.721
 21
294.732
 31
0.0
  0
LINE
  5
5E5
330
1E
100
AcDbEntity
  8
0
100
AcDbLine
 10
361.638204375667
 20
533.067
 30
0.0
 11
362.8
 21
533.067
 31
0.0
  0
LINE
  5
5E6
330
1E
100
AcDbEntity
  8
0
100
AcDbLine
 10
361.638204375667
 20
533.067
 30
0.0
 11
369.0
 21
533.067
 31
0.0
  0
LINE
  5
5E7
330
1E
100
AcDbEntity
  8
0
100
AcDbLine
 10
365.6
 20
533.067
 30
0.0
 11
366.0
 21
533.067
 31
0.0
  0
LINE
  5
5E8
330
1E
100
AcDbEntity
  8
0
100
AcDbLine
 10
364.5
 20
533.067
 30
0.0
 11
365.6
 21
533.067
 31
0.0
  0
LINE
  5
5E9
330
1E
100
AcDbEntity
  8
0
100
AcDbLine
 10
368.6
 20
533.067
 30
0.0
 11
369.0
 21
533.067
 31
0.0
  0
LINE
  5
5EA
330
1E
100
AcDbEntity
  8
0
100
AcDbLine
 10
367.5
 20
533.067
 30
0.0
 11
368.6
 21
533.067
 31
0.0
  0
LINE
  5
5EB
330
1E
100
AcDbEntity
  8
0
100
AcDbLine
 10
365.8
 20
533.067
 30
0.0
 11
367.5
 21
533.067
 31
0.0
  0
LINE
  5
5ED
330
1E
100
AcDbEntity
  8
0
100
AcDbLine
 10
362.8
 20
533.067
 30
0.0
 11
364.5
 21
533.067
 31
0.0
  0
LINE
  5
5EE
330
1E
100
AcDbEntity
  8
0
100
AcDbLine
 10
362.8
 20
533.067
 30
0.0
 11
365.8
 21
533.067
 31
0.0
  0
LINE
  5
5EF
330
1E
100
AcDbEntity
  8
0
100
AcDbLine
 10
362.8
 20
533.067
 30
0.0
 11
362.8
 21
564.067
 31
0.0
  0
LINE
  5
5F0
330
1E
100
AcDbEntity
  8
0
100
AcDbLine
 10
361.363
 20
526.713
 30
0.0
 11
362.3369999999999
 21
549.201
 31
0.0
  0
LINE
  5
5F1
330
1E
100
AcDbEntity
  8
0
100
AcDbLine
 10
341.0
 20
564.067
 30
0.0
 11
341.3999999999999
 21
564.067
 31
0.0
  0
LINE
  5
5F2
330
1E
100
AcDbEntity
  8
0
100
AcDbLine
 10
341.0
 20
564.067
 30
0.0
 11
341.6
 21
565.0669999999999
 31
0.0
  0
LINE
  5
5F3
330
1E
100
AcDbEntity
  8
0
100
AcDbLine
 10
342.5
 20
564.067
 30
0.0
 11
344.2
 21
564.067
 31
0.0
  0
LINE
  5
5F4
330
1E
100
AcDbEntity
  8
0
100
AcDbLine
 10
341.6
 20
565.0669999999999
 30
0.0
 11
342.7
 21
565.8669999999999
 31
0.0
  0
LINE
  5
5F5
330
1E
100
AcDbEntity
  8
0
100
AcDbLine
 10
341.3999999999999
 20
564.067
 30
0.0
 11
342.5
 21
564.067
 31
0.0
  0
LINE
  5
5F6
330
1E
100
AcDbEntity
  8
0
100
AcDbLine
 10
195.0
 20
1162.152999999999
 30
0.0
 11
199.0
 21
1159.153
 31
0.0
  0
LINE
  5
5F7
330
1E
100
AcDbEntity
  8
0
100
AcDbLine
 10
195.0
 20
1129.153
 30
0.0
 11
195.0
 21
1127.153
 31
0.0
  0
LINE
  5
5F8
330
1E
100
AcDbEntity
  8
0
100
AcDbLine
 10
195.0
 20
1129.153
 30
0.0
 11
197.6999999999999
 21
1129.153
 31
0.0
  0
LINE
  5
5F9
330
1E
100
AcDbEntity
  8
0
100
AcDbLine
 10
201.0
 20
1129.153
 30
0.0
 11
203.0
 21
1131.153
 31
0.0
  0
LINE
  5
5FA
330
1E
100
AcDbEntity
  8
0
100
AcDbLine
 10
197.6999999999999
 20
1129.153
 30
0.0
 11
201.0
 21
1129.153
 31
0.0
  0
LINE
  5
5FB
330
1E
100
AcDbEntity
  8
0
100
AcDbLine
 10
199.6
 20
1131.153
 30
0.0
 11
203.0
 21
1131.153
 31
0.0
  0
LINE
  5
5FC
330
1E
100
AcDbEntity
  8
0
100
AcDbLine
 10
343.0
 20
567.6359999999999
 30
0.0
 11
343.3999999999999
 21
566.9279999999999
 31
0.0
  0
LINE
  5
5FD
330
1E
100
AcDbEntity
  8
0
100
AcDbLine
 10
343.0
 20
567.6359999999999
 30
0.0
 11
343.0
 21
568.6259999999999
 31
0.0
  0
LINE
  5
5FE
330
1E
100
AcDbEntity
  8
0
100
AcDbLine
 10
343.3999999999999
 20
566.9279999999999
 30
0.0
 11
344.6
 21
566.363
 31
0.0
  0
LINE
  5
5FF
330
1E
100
AcDbEntity
  8
0
100
AcDbLine
 10
343.3999999999999
 20
566.9279999999999
 30
0.0
 11
344.3999999999999
 21
566.009
 31
0.0
  0
LINE
  5
600
330
1E
100
AcDbEntity
  8
0
100
AcDbLine
 10
341.1
 20
653.004
 30
0.0
 11
347.8
 21
651.604
 31
0.0
  0
LINE
  5
601
330
1E
100
AcDbEntity
  8
0
100
AcDbLine
 10
335.1999999999999
 20
655.204
 30
0.0
 11
341.1
 21
653.004
 31
0.0
  0
LINE
  5
602
330
1E
100
AcDbEntity
  8
0
100
AcDbLine
 10
328.8999999999999
 20
658.117
 30
0.0
 11
335.1999999999999
 21
655.204
 31
0.0
  0
LINE
  5
603
330
1E
100
AcDbEntity
  8
0
100
AcDbLine
 10
343.3999999999999
 20
569.2619999999999
 30
0.0
 11
344.0
 21
569.7708
 31
0.0
  0
LINE
  5
604
330
1E
100
AcDbEntity
  8
0
100
AcDbLine
 10
343.3999999999999
 20
569.2619999999999
 30
0.0
 11
343.8
 21
569.474
 31
0.0
  0
LINE
  5
605
330
1E
100
AcDbEntity
  8
0
100
AcDbLine
 10
343.0
 20
568.6259999999999
 30
0.0
 11
343.3999999999999
 21
567.848
 31
0.0
  0
LINE
  5
606
330
1E
100
AcDbEntity
  8
0
100
AcDbLine
 10
343.0
 20
568.6259999999999
 30
0.0
 11
343.3999999999999
 21
569.2619999999999
 31
0.0
  0
LINE
  5
607
330
1E
100
AcDbEntity
  8
0
100
AcDbLine
 10
343.0
 20
568.6259999999999
 30
0.0
 11
343.0
 21
567.6359999999999
 31
0.0
  0
LINE
  5
608
330
1E
100
AcDbEntity
  8
0
100
AcDbLine
 10
344.0
 20
572.9389999999999
 30
0.0
 11
344.0
 21
569.545
 31
0.0
  0
LINE
  5
609
330
1E
100
AcDbEntity
  8
0
100
AcDbLine
 10
343.8
 20
578.6659999999999
 30
0.0
 11
343.8
 21
585.455
 31
0.0
  0
LINE
  5
60A
330
1E
100
AcDbEntity
  8
0
100
AcDbLine
 10
343.8
 20
578.6659999999999
 30
0.0
 11
344.0
 21
572.9389999999999
 31
0.0
  0
LINE
  5
60B
330
1E
100
AcDbEntity
  8
0
100
AcDbLine
 10
343.8
 20
585.455
 30
0.0
 11
344.0
 21
591.96
 31
0.0
  0
LINE
  5
60C
330
1E
100
AcDbEntity
  8
0
100
AcDbLine
 10
343.8
 20
585.455
 30
0.0
 11
343.8
 21
578.6659999999999
 31
0.0
  0
LINE
  5
60D
330
1E
100
AcDbEntity
  8
0
100
AcDbLine
 10
344.0
 20
591.96
 30
0.0
 11
344.2
 21
599.1019999999999
 31
0.0
  0
LINE
  5
60E
330
1E
100
AcDbEntity
  8
0
100
AcDbLine
 10
344.0
 20
569.545
 30
0.0
 11
344.3999999999999
 21
568.908
 31
0.0
  0
LINE
  5
60F
330
1E
100
AcDbEntity
  8
0
100
AcDbLine
 10
344.0
 20
569.545
 30
0.0
 11
344.0
 21
572.9389999999999
 31
0.0
  0
LINE
  5
610
330
1E
100
AcDbEntity
  8
0
100
AcDbLine
 10
343.3999999999999
 20
567.848
 30
0.0
 11
344.6
 21
567.2819999999999
 31
0.0
  0
LINE
  5
611
330
1E
100
AcDbEntity
  8
0
100
AcDbLine
 10
323.0
 20
661.967
 30
0.0
 11
328.8999999999999
 21
658.117
 31
0.0
  0
LINE
  5
612
330
1E
100
AcDbEntity
  8
0
100
AcDbLine
 10
319.3
 20
666.3669999999999
 30
0.0
 11
323.0
 21
661.967
 31
0.0
  0
LINE
  5
613
330
1E
100
AcDbEntity
  8
0
100
AcDbLine
 10
317.0
 20
681.9469999999999
 30
0.0
 11
318.3999999999999
 21
684.7269999999999
 31
0.0
  0
LINE
  5
614
330
1E
100
AcDbEntity
  8
0
100
AcDbLine
 10
317.0
 20
681.9469999999999
 30
0.0
 11
320.3999999999999
 21
685.447
 31
0.0
  0
LINE
  5
615
330
1E
100
AcDbEntity
  8
0
100
AcDbLine
 10
317.0
 20
681.9469999999999
 30
0.0
 11
317.0
 21
675.497
 31
0.0
  0
LINE
  5
616
330
1E
100
AcDbEntity
  8
0
100
AcDbLine
 10
317.0
 20
675.497
 30
0.0
 11
317.0
 21
669.047
 31
0.0
  0
LINE
  5
617
330
1E
100
AcDbEntity
  8
0
100
AcDbLine
 10
317.0
 20
675.497
 30
0.0
 11
317.0
 21
681.9469999999999
 31
0.0
  0
LINE
  5
618
330
1E
100
AcDbEntity
  8
0
100
AcDbLine
 10
318.3999999999999
 20
684.7269999999999
 30
0.0
 11
321.8999999999999
 21
690.3389999999999
 31
0.0
  0
LINE
  5
619
330
1E
100
AcDbEntity
  8
0
100
AcDbLine
 10
328.8999999999999
 20
684.217
 30
0.0
 11
336.6
 21
687.1669999999999
 31
0.0
  0
LINE
  5
61A
330
1E
100
AcDbEntity
  8
0
100
AcDbLine
 10
323.0
 20
680.3669999999999
 30
0.0
 11
328.8999999999999
 21
684.217
 31
0.0
  0
LINE
  5
61B
330
1E
100
AcDbEntity
  8
0
100
AcDbLine
 10
319.3
 20
675.9669999999999
 30
0.0
 11
323.0
 21
680.3669999999999
 31
0.0
  0
LINE
  5
61C
330
1E
100
AcDbEntity
  8
0
100
AcDbLine
 10
321.8999999999999
 20
690.3389999999999
 30
0.0
 11
325.3
 21
694.4389999999999
 31
0.0
  0
LINE
  5
61D
330
1E
100
AcDbEntity
  8
0
100
AcDbLine
 10
325.3
 20
694.4389999999999
 30
0.0
 11
330.1
 21
699.1010000000001
 31
0.0
  0
LINE
  5
61E
330
1E
100
AcDbEntity
  8
0
100
AcDbLine
 10
336.6
 20
687.1669999999999
 30
0.0
 11
345.3999999999999
 21
689.0169999999999
 31
0.0
  0
LINE
  5
61F
330
1E
100
AcDbEntity
  8
0
100
AcDbLine
 10
330.1
 20
699.1010000000001
 30
0.0
 11
334.6999999999999
 21
702.1010000000001
 31
0.0
  0
LINE
  5
620
330
1E
100
AcDbEntity
  8
0
100
AcDbLine
 10
334.6999999999999
 20
702.1010000000001
 30
0.0
 11
340.2
 21
704.547
 31
0.0
  0
LINE
  5
621
330
1E
100
AcDbEntity
  8
0
100
AcDbLine
 10
340.2
 20
704.547
 30
0.0
 11
344.5
 21
706.2469999999999
 31
0.0
  0
LINE
  5
622
330
1E
100
AcDbEntity
  8
0
100
AcDbLine
 10
335.1
 20
692.797
 30
0.0
 11
342.1
 21
694.4969999999999
 31
0.0
  0
LINE
  5
623
330
1E
100
AcDbEntity
  8
0
100
AcDbLine
 10
326.8
 20
689.597
 30
0.0
 11
335.1
 21
692.797
 31
0.0
  0
LINE
  5
624
330
1E
100
AcDbEntity
  8
0
100
AcDbLine
 10
320.3999999999999
 20
685.447
 30
0.0
 11
326.8
 21
689.597
 31
0.0
  0
LINE
  5
625
330
1E
100
AcDbEntity
  8
0
100
AcDbLine
 10
318.0
 20
671.1669999999998
 30
0.0
 11
319.3
 21
666.3669999999999
 31
0.0
  0
LINE
  5
626
330
1E
100
AcDbEntity
  8
0
100
AcDbLine
 10
318.0
 20
671.1669999999998
 30
0.0
 11
319.3
 21
675.9669999999999
 31
0.0
  0
LINE
  5
627
330
1E
100
AcDbEntity
  8
0
100
AcDbLine
 10
317.0
 20
669.047
 30
0.0
 11
317.0
 21
675.497
 31
0.0
  0
LINE
  5
628
330
1E
100
AcDbEntity
  8
0
100
AcDbLine
 10
317.0
 20
669.047
 30
0.0
 11
319.3
 21
666.3669999999999
 31
0.0
  0
LINE
  5
629
330
1E
100
AcDbEntity
  8
0
100
AcDbLine
 10
203.0
 20
1131.153
 30
0.0
 11
203.0
 21
1133.153
 31
0.0
  0
LINE
  5
62A
330
1E
100
AcDbEntity
  8
0
100
AcDbLine
 10
203.0
 20
1133.153
 30
0.0
 11
203.0
 21
1131.153
 31
0.0
  0
LINE
  5
62B
330
1E
100
AcDbEntity
  8
0
100
AcDbLine
 10
201.0
 20
1154.152999999999
 30
0.0
 11
203.0
 21
1133.153
 31
0.0
  0
LINE
  5
62C
330
1E
100
AcDbEntity
  8
0
100
AcDbLine
 10
199.0
 20
1159.153
 30
0.0
 11
201.0
 21
1154.152999999999
 31
0.0
  0
LINE
  5
62D
330
1E
100
AcDbEntity
  8
0
100
AcDbLine
 10
195.0
 20
1127.153
 30
0.0
 11
195.0
 21
1129.153
 31
0.0
  0
LINE
  5
62E
330
1E
100
AcDbEntity
  8
0
100
AcDbLine
 10
342.7
 20
565.8669999999999
 30
0.0
 11
343.869361904259
 21
566.4966564099858
 31
0.0
  0
LINE
  5
630
330
1E
100
AcDbEntity
  8
0
100
AcDbLine
 10
344.2
 20
564.067
 30
0.0
 11
347.1999999999999
 21
564.067
 31
0.0
  0
LINE
  5
631
330
1E
100
AcDbEntity
  8
0
100
AcDbLine
 10
362.8
 20
564.067
 30
0.0
 11
362.8
 21
533.067
 31
0.0
  0
LINE
  5
632
330
1E
100
AcDbEntity
  8
0
100
AcDbLine
 10
362.8
 20
564.067
 30
0.0
 11
364.5
 21
564.5669999999999
 31
0.0
  0
LINE
  5
633
330
1E
100
AcDbEntity
  8
0
100
AcDbLine
 10
362.8
 20
564.067
 30
0.0
 11
365.8
 21
564.067
 31
0.0
  0
LINE
  5
634
330
1E
100
AcDbEntity
  8
0
100
AcDbLine
 10
347.1999999999999
 20
564.9490000000001
 30
0.0
 11
349.5
 21
564.595
 31
0.0
  0
LINE
  5
635
330
1E
100
AcDbEntity
  8
0
100
AcDbLine
 10
349.5
 20
564.595
 30
0.0
 11
352.1999999999999
 21
564.383
 31
0.0
  0
LINE
  5
636
330
1E
100
AcDbEntity
  8
0
100
AcDbLine
 10
362.8
 20
564.9490000000001
 30
0.0
 11
364.5
 21
565.514
 31
0.0
  0
LINE
  5
637
330
1E
100
AcDbEntity
  8
0
100
AcDbLine
 10
360.4999999999999
 20
564.595
 30
0.0
 11
362.8
 21
564.9490000000001
 31
0.0
  0
LINE
  5
638
330
1E
100
AcDbEntity
  8
0
100
AcDbLine
 10
357.8
 20
564.383
 30
0.0
 11
360.4999999999999
 21
564.595
 31
0.0
  0
LINE
  5
639
330
1E
100
AcDbEntity
  8
0
100
AcDbLine
 10
355.0
 20
564.312
 30
0.0
 11
357.8
 21
564.383
 31
0.0
  0
LINE
  5
63A
330
1E
100
AcDbEntity
  8
0
100
AcDbLine
 10
355.0
 20
565.019
 30
0.0
 11
358.1
 21
565.09
 31
0.0
  0
LINE
  5
63B
330
1E
100
AcDbEntity
  8
0
100
AcDbLine
 10
352.1999999999999
 20
564.383
 30
0.0
 11
355.0
 21
564.312
 31
0.0
  0
LINE
  5
63C
330
1E
100
AcDbEntity
  8
0
100
AcDbLine
 10
347.1999999999999
 20
564.067
 30
0.0
 11
347.1999999999999
 21
533.067
 31
0.0
  0
LINE
  5
63D
330
1E
100
AcDbEntity
  8
0
100
AcDbLine
 10
345.5
 20
564.5669999999999
 30
0.0
 11
347.1999999999999
 21
564.067
 31
0.0
  0
LINE
  5
63E
330
1E
100
AcDbEntity
  8
0
100
AcDbLine
 10
344.3999999999999
 20
566.009
 30
0.0
 11
345.5
 21
565.514
 31
0.0
  0
LINE
  5
63F
330
1E
100
AcDbEntity
  8
0
100
AcDbLine
 10
344.6
 20
566.363
 30
0.0
 11
346.4999999999999
 21
565.797
 31
0.0
  0
LINE
  5
640
330
1E
100
AcDbEntity
  8
0
100
AcDbLine
 10
344.2
 20
599.1019999999999
 30
0.0
 11
344.7
 21
606.88
 31
0.0
  0
LINE
  5
641
330
1E
100
AcDbEntity
  8
0
100
AcDbLine
 10
344.3999999999999
 20
568.908
 30
0.0
 11
345.5
 21
568.413
 31
0.0
  0
LINE
  5
642
330
1E
100
AcDbEntity
  8
0
100
AcDbLine
 10
344.7
 20
606.88
 30
0.0
 11
345.3
 21
614.941
 31
0.0
  0
LINE
  5
643
330
1E
100
AcDbEntity
  8
0
100
AcDbLine
 10
345.3
 20
614.941
 30
0.0
 11
346.0
 21
622.5069999999999
 31
0.0
  0
LINE
  5
644
330
1E
100
AcDbEntity
  8
0
100
AcDbLine
 10
344.6
 20
567.2819999999999
 30
0.0
 11
346.4999999999999
 21
566.7869999999999
 31
0.0
  0
LINE
  5
645
330
1E
100
AcDbEntity
  8
0
100
AcDbLine
 10
344.5
 20
706.2469999999999
 30
0.0
 11
349.6
 21
707.247
 31
0.0
  0
LINE
  5
646
330
1E
100
AcDbEntity
  8
0
100
AcDbLine
 10
345.5
 20
565.514
 30
0.0
 11
347.1999999999999
 21
564.9490000000001
 31
0.0
  0
LINE
  5
647
330
1E
100
AcDbEntity
  8
0
100
AcDbLine
 10
346.4999999999999
 20
565.797
 30
0.0
 11
349.0
 21
565.373
 31
0.0
  0
LINE
  5
648
330
1E
100
AcDbEntity
  8
0
100
AcDbLine
 10
349.0
 20
565.373
 30
0.0
 11
351.8999999999999
 21
565.09
 31
0.0
  0
LINE
  5
649
330
1E
100
AcDbEntity
  8
0
100
AcDbLine
 10
351.8999999999999
 20
565.09
 30
0.0
 11
355.0
 21
565.019
 31
0.0
  0
LINE
  5
64A
330
1E
100
AcDbEntity
  8
0
100
AcDbLine
 10
346.0
 20
622.5069999999999
 30
0.0
 11
346.4999999999999
 21
631.134
 31
0.0
  0
LINE
  5
64B
330
1E
100
AcDbEntity
  8
0
100
AcDbLine
 10
346.4999999999999
 20
631.134
 30
0.0
 11
347.0
 21
639.195
 31
0.0
  0
LINE
  5
64C
330
1E
100
AcDbEntity
  8
0
100
AcDbLine
 10
347.0
 20
639.195
 30
0.0
 11
347.0
 21
648.2459999999999
 31
0.0
  0
LINE
  5
64D
330
1E
100
AcDbEntity
  8
0
100
AcDbLine
 10
347.0
 20
648.2459999999999
 30
0.0
 11
347.0
 21
651.7711641791049
 31
0.0
  0
LINE
  5
64E
330
1E
100
AcDbEntity
  8
0
100
AcDbLine
 10
347.0
 20
648.2459999999999
 30
0.0
 11
347.0
 21
639.195
 31
0.0
  0
LINE
  5
64F
330
1E
100
AcDbEntity
  8
0
100
AcDbLine
 10
347.0
 20
651.7711641791049
 30
0.0
 11
347.0
 21
648.2459999999999
 31
0.0
  0
LINE
  5
650
330
1E
100
AcDbEntity
  8
0
100
AcDbLine
 10
345.5
 20
568.413
 30
0.0
 11
347.1999999999999
 21
567.848
 31
0.0
  0
LINE
  5
651
330
1E
100
AcDbEntity
  8
0
100
AcDbLine
 10
347.8
 20
651.604
 30
0.0
 11
355.0
 21
651.104
 31
0.0
  0
LINE
  5
652
330
1E
100
AcDbEntity
  8
0
100
AcDbLine
 10
347.1999999999999
 20
567.848
 30
0.0
 11
349.5
 21
567.494
 31
0.0
  0
LINE
  5
653
330
1E
100
AcDbEntity
  8
0
100
AcDbLine
 10
346.4999999999999
 20
566.7869999999999
 30
0.0
 11
349.0
 21
566.363
 31
0.0
  0
LINE
  5
654
330
1E
100
AcDbEntity
  8
0
100
AcDbLine
 10
349.5
 20
567.494
 30
0.0
 11
352.1999999999999
 21
567.2819999999999
 31
0.0
  0
LINE
  5
655
330
1E
100
AcDbEntity
  8
0
100
AcDbLine
 10
349.0
 20
566.363
 30
0.0
 11
351.8999999999999
 21
566.08
 31
0.0
  0
LINE
  5
656
330
1E
100
AcDbEntity
  8
0
100
AcDbLine
 10
355.0
 20
567.2109999999999
 30
0.0
 11
357.8
 21
567.2819999999999
 31
0.0
  0
LINE
  5
657
330
1E
100
AcDbEntity
  8
0
100
AcDbLine
 10
358.1
 20
565.09
 30
0.0
 11
361.0
 21
565.373
 31
0.0
  0
LINE
  5
658
330
1E
100
AcDbEntity
  8
0
100
AcDbLine
 10
357.8
 20
567.2819999999999
 30
0.0
 11
360.4999999999999
 21
567.494
 31
0.0
  0
LINE
  5
659
330
1E
100
AcDbEntity
  8
0
100
AcDbLine
 10
358.1
 20
566.08
 30
0.0
 11
361.0
 21
566.363
 31
0.0
  0
LINE
  5
65A
330
1E
100
AcDbEntity
  8
0
100
AcDbLine
 10
355.0
 20
565.939
 30
0.0
 11
358.1
 21
566.08
 31
0.0
  0
LINE
  5
65B
330
1E
100
AcDbEntity
  8
0
100
AcDbLine
 10
355.0
 20
651.104
 30
0.0
 11
362.1999999999999
 21
651.604
 31
0.0
  0
LINE
  5
65C
330
1E
100
AcDbEntity
  8
0
100
AcDbLine
 10
352.1999999999999
 20
567.2819999999999
 30
0.0
 11
355.0
 21
567.2109999999999
 31
0.0
  0
LINE
  5
65D
330
1E
100
AcDbEntity
  8
0
100
AcDbLine
 10
351.8999999999999
 20
566.08
 30
0.0
 11
355.0
 21
565.939
 31
0.0
  0
LINE
  5
65E
330
1E
100
AcDbEntity
  8
0
100
AcDbLine
 10
355.0
 20
689.6669999999999
 30
0.0
 11
364.6
 21
689.0169999999999
 31
0.0
  0
LINE
  5
65F
330
1E
100
AcDbEntity
  8
0
100
AcDbLine
 10
361.0
 20
565.373
 30
0.0
 11
363.5
 21
565.797
 31
0.0
  0
LINE
  5
660
330
1E
100
AcDbEntity
  8
0
100
AcDbLine
 10
363.0
 20
639.195
 30
0.0
 11
363.0
 21
648.2459999999999
 31
0.0
  0
LINE
  5
661
330
1E
100
AcDbEntity
  8
0
100
AcDbLine
 10
363.0
 20
639.195
 30
0.0
 11
363.5
 21
631.134
 31
0.0
  0
LINE
  5
662
330
1E
100
AcDbEntity
  8
0
100
AcDbLine
 10
363.0
 20
651.7711641791049
 30
0.0
 11
363.0
 21
648.2459999999999
 31
0.0
  0
LINE
  5
663
330
1E
100
AcDbEntity
  8
0
100
AcDbLine
 10
363.0
 20
648.2459999999999
 30
0.0
 11
363.0
 21
651.7711641791049
 31
0.0
  0
LINE
  5
664
330
1E
100
AcDbEntity
  8
0
100
AcDbLine
 10
363.0
 20
648.2459999999999
 30
0.0
 11
363.0
 21
639.195
 31
0.0
  0
LINE
  5
665
330
1E
100
AcDbEntity
  8
0
100
AcDbLine
 10
362.1999999999999
 20
651.604
 30
0.0
 11
368.9
 21
653.004
 31
0.0
  0
LINE
  5
666
330
1E
100
AcDbEntity
  8
0
100
AcDbLine
 10
362.8
 20
567.848
 30
0.0
 11
364.5
 21
568.413
 31
0.0
  0
LINE
  5
667
330
1E
100
AcDbEntity
  8
0
100
AcDbLine
 10
360.4999999999999
 20
567.494
 30
0.0
 11
362.8
 21
567.848
 31
0.0
  0
LINE
  5
668
330
1E
100
AcDbEntity
  8
0
100
AcDbLine
 10
361.0
 20
566.363
 30
0.0
 11
363.5
 21
566.7869999999999
 31
0.0
  0
LINE
  5
669
330
1E
100
AcDbEntity
  8
0
100
AcDbLine
 10
360.3999999999999
 20
707.247
 30
0.0
 11
365.5
 21
706.2469999999999
 31
0.0
  0
LINE
  5
66A
330
1E
100
AcDbEntity
  8
0
100
AcDbLine
 10
355.0
 20
707.6469999999999
 30
0.0
 11
360.3999999999999
 21
707.247
 31
0.0
  0
LINE
  5
66B
330
1E
100
AcDbEntity
  8
0
100
AcDbLine
 10
349.6
 20
707.247
 30
0.0
 11
355.0
 21
707.6469999999999
 31
0.0
  0
LINE
  5
66C
330
1E
100
AcDbEntity
  8
0
100
AcDbLine
 10
345.3999999999999
 20
689.0169999999999
 30
0.0
 11
355.0
 21
689.6669999999999
 31
0.0
  0
LINE
  5
66D
330
1E
100
AcDbEntity
  8
0
100
AcDbLine
 10
344.3999999999999
 20
565.0669999999999
 30
0.0
 11
345.5
 21
564.5669999999999
 31
0.0
  0
LINE
  5
66E
330
1E
100
AcDbEntity
  8
0
100
AcDbLine
 10
344.0
 20
565.6669999999999
 30
0.0
 11
344.2658673660549
 21
566.132267890596
 31
0.0
  0
LINE
  5
66F
330
1E
100
AcDbEntity
  8
0
100
AcDbLine
 10
344.0
 20
565.6669999999999
 30
0.0
 11
344.3999999999999
 21
565.0669999999999
 31
0.0
  0
LINE
  5
670
330
1E
100
AcDbEntity
  8
0
100
AcDbLine
 10
347.1999999999999
 20
563.0703472882969
 30
0.0
 11
347.311496440696
 21
564.9318392434749
 31
0.0
  0
LINE
  5
671
330
1E
100
AcDbEntity
  8
0
100
AcDbLine
 10
364.5
 20
565.514
 30
0.0
 11
365.6
 21
566.009
 31
0.0
  0
LINE
  5
672
330
1E
100
AcDbEntity
  8
0
100
AcDbLine
 10
363.5
 20
565.797
 30
0.0
 11
365.3999999999999
 21
566.363
 31
0.0
  0
LINE
  5
673
330
1E
100
AcDbEntity
  8
0
100
AcDbLine
 10
364.5
 20
564.5669999999999
 30
0.0
 11
365.6
 21
565.0669999999999
 31
0.0
  0
LINE
  5
675
330
1E
100
AcDbEntity
  8
0
100
AcDbLine
 10
365.8
 20
564.067
 30
0.0
 11
367.5
 21
564.067
 31
0.0
  0
LINE
  5
676
330
1E
100
AcDbEntity
  8
0
100
AcDbLine
 10
365.6
 20
565.0669999999999
 30
0.0
 11
366.0
 21
565.6669999999999
 31
0.0
  0
LINE
  5
677
330
1E
100
AcDbEntity
  8
0
100
AcDbLine
 10
365.6
 20
566.009
 30
0.0
 11
366.6
 21
566.9279999999999
 31
0.0
  0
LINE
  5
678
330
1E
100
AcDbEntity
  8
0
100
AcDbLine
 10
367.3
 20
565.8669999999999
 30
0.0
 11
368.3999999999999
 21
565.0669999999999
 31
0.0
  0
LINE
  5
679
330
1E
100
AcDbEntity
  8
0
100
AcDbLine
 10
368.6
 20
564.067
 30
0.0
 11
369.0
 21
564.067
 31
0.0
  0
LINE
  5
67A
330
1E
100
AcDbEntity
  8
0
100
AcDbLine
 10
367.5
 20
564.067
 30
0.0
 11
368.6
 21
564.067
 31
0.0
  0
LINE
  5
67B
330
1E
100
AcDbEntity
  8
0
100
AcDbLine
 10
364.0
 20
622.5069999999999
 30
0.0
 11
364.6999999999999
 21
614.941
 31
0.0
  0
LINE
  5
67C
330
1E
100
AcDbEntity
  8
0
100
AcDbLine
 10
363.5
 20
631.134
 30
0.0
 11
364.0
 21
622.5069999999999
 31
0.0
  0
LINE
  5
67D
330
1E
100
AcDbEntity
  8
0
100
AcDbLine
 10
364.5
 20
568.413
 30
0.0
 11
365.6
 21
568.908
 31
0.0
  0
LINE
  5
67E
330
1E
100
AcDbEntity
  8
0
100
AcDbLine
 10
363.5
 20
566.7869999999999
 30
0.0
 11
365.3999999999999
 21
567.2819999999999
 31
0.0
  0
LINE
  5
67F
330
1E
100
AcDbEntity
  8
0
100
AcDbLine
 10
365.3999999999999
 20
566.363
 30
0.0
 11
366.6
 21
566.9279999999999
 31
0.0
  0
LINE
  5
680
330
1E
100
AcDbEntity
  8
0
100
AcDbLine
 10
365.3
 20
606.88
 30
0.0
 11
365.8
 21
599.1019999999999
 31
0.0
  0
LINE
  5
681
330
1E
100
AcDbEntity
  8
0
100
AcDbLine
 10
364.6999999999999
 20
614.941
 30
0.0
 11
365.3
 21
606.88
 31
0.0
  0
LINE
  5
682
330
1E
100
AcDbEntity
  8
0
100
AcDbLine
 10
366.0
 20
569.545
 30
0.0
 11
366.0
 21
572.9389999999999
 31
0.0
  0
LINE
  5
683
330
1E
100
AcDbEntity
  8
0
100
AcDbLine
 10
366.0
 20
572.9389999999999
 30
0.0
 11
366.1999999999999
 21
578.6659999999999
 31
0.0
  0
LINE
  5
684
330
1E
100
AcDbEntity
  8
0
100
AcDbLine
 10
366.0
 20
572.9389999999999
 30
0.0
 11
366.0
 21
569.545
 31
0.0
  0
LINE
  5
685
330
1E
100
AcDbEntity
  8
0
100
AcDbLine
 10
366.0
 20
591.96
 30
0.0
 11
366.1999999999999
 21
585.455
 31
0.0
  0
LINE
  5
686
330
1E
100
AcDbEntity
  8
0
100
AcDbLine
 10
365.8
 20
599.1019999999999
 30
0.0
 11
366.0
 21
591.96
 31
0.0
  0
LINE
  5
687
330
1E
100
AcDbEntity
  8
0
100
AcDbLine
 10
366.0
 20
569.7708
 30
0.0
 11
366.6
 21
569.2619999999999
 31
0.0
  0
LINE
  5
688
330
1E
100
AcDbEntity
  8
0
100
AcDbLine
 10
365.6
 20
568.908
 30
0.0
 11
366.0
 21
569.545
 31
0.0
  0
LINE
  5
689
330
1E
100
AcDbEntity
  8
0
100
AcDbLine
 10
365.3999999999999
 20
567.2819999999999
 30
0.0
 11
366.6
 21
567.848
 31
0.0
  0
LINE
  5
68A
330
1E
100
AcDbEntity
  8
0
100
AcDbLine
 10
364.6
 20
689.0169999999999
 30
0.0
 11
373.3999999999999
 21
687.1669999999999
 31
0.0
  0
LINE
  5
68B
330
1E
100
AcDbEntity
  8
0
100
AcDbLine
 10
365.5
 20
706.2469999999999
 30
0.0
 11
369.8
 21
704.547
 31
0.0
  0
LINE
  5
68C
330
1E
100
AcDbEntity
  8
0
100
AcDbLine
 10
366.6
 20
566.9279999999999
 30
0.0
 11
367.0
 21
567.6359999999999
 31
0.0
  0
LINE
  5
68D
330
1E
100
AcDbEntity
  8
0
100
AcDbLine
 10
366.1999999999999
 20
585.455
 30
0.0
 11
366.1999999999999
 21
578.6659999999999
 31
0.0
  0
LINE
  5
68E
330
1E
100
AcDbEntity
  8
0
100
AcDbLine
 10
366.1999999999999
 20
578.6659999999999
 30
0.0
 11
366.1999999999999
 21
585.455
 31
0.0
  0
LINE
  5
68F
330
1E
100
AcDbEntity
  8
0
100
AcDbLine
 10
366.1999999999999
 20
569.474
 30
0.0
 11
366.6
 21
569.2619999999999
 31
0.0
  0
LINE
  5
690
330
1E
100
AcDbEntity
  8
0
100
AcDbLine
 10
366.6
 20
569.2619999999999
 30
0.0
 11
367.0
 21
568.6259999999999
 31
0.0
  0
LINE
  5
691
330
1E
100
AcDbEntity
  8
0
100
AcDbLine
 10
367.0
 20
567.6359999999999
 30
0.0
 11
367.0
 21
568.6259999999999
 31
0.0
  0
LINE
  5
692
330
1E
100
AcDbEntity
  8
0
100
AcDbLine
 10
368.9
 20
653.004
 30
0.0
 11
374.8
 21
655.204
 31
0.0
  0
LINE
  5
693
330
1E
100
AcDbEntity
  8
0
100
AcDbLine
 10
374.8
 20
655.204
 30
0.0
 11
381.1
 21
658.117
 31
0.0
  0
LINE
  5
694
330
1E
100
AcDbEntity
  8
0
100
AcDbLine
 10
367.0
 20
568.6259999999999
 30
0.0
 11
367.0
 21
567.6359999999999
 31
0.0
  0
LINE
  5
695
330
1E
100
AcDbEntity
  8
0
100
AcDbLine
 10
366.6
 20
567.848
 30
0.0
 11
367.0
 21
568.6259999999999
 31
0.0
  0
LINE
  5
696
330
1E
100
AcDbEntity
  8
0
100
AcDbLine
 10
373.3999999999999
 20
687.1669999999999
 30
0.0
 11
381.1
 21
684.217
 31
0.0
  0
LINE
  5
697
330
1E
100
AcDbEntity
  8
0
100
AcDbLine
 10
381.1
 20
684.217
 30
0.0
 11
387.0
 21
680.3669999999999
 31
0.0
  0
LINE
  5
698
330
1E
100
AcDbEntity
  8
0
100
AcDbLine
 10
367.8999999999999
 20
694.4969999999999
 30
0.0
 11
374.8999999999999
 21
692.797
 31
0.0
  0
LINE
  5
699
330
1E
100
AcDbEntity
  8
0
100
AcDbLine
 10
374.8999999999999
 20
692.797
 30
0.0
 11
383.1999999999999
 21
689.597
 31
0.0
  0
LINE
  5
69A
330
1E
100
AcDbEntity
  8
0
100
AcDbLine
 10
383.1999999999999
 20
689.597
 30
0.0
 11
389.6
 21
685.447
 31
0.0
  0
LINE
  5
69B
330
1E
100
AcDbEntity
  8
0
100
AcDbLine
 10
381.1
 20
658.117
 30
0.0
 11
387.0
 21
661.967
 31
0.0
  0
LINE
  5
69C
330
1E
100
AcDbEntity
  8
0
100
AcDbLine
 10
379.8999999999999
 20
699.1010000000001
 30
0.0
 11
384.6999999999999
 21
694.4389999999999
 31
0.0
  0
LINE
  5
69D
330
1E
100
AcDbEntity
  8
0
100
AcDbLine
 10
387.0
 20
661.967
 30
0.0
 11
390.7
 21
666.3669999999999
 31
0.0
  0
LINE
  5
69E
330
1E
100
AcDbEntity
  8
0
100
AcDbLine
 10
387.0
 20
680.3669999999999
 30
0.0
 11
390.7
 21
675.9669999999999
 31
0.0
  0
LINE
  5
69F
330
1E
100
AcDbEntity
  8
0
100
AcDbLine
 10
390.7
 20
675.9669999999999
 30
0.0
 11
392.0
 21
671.1669999999998
 31
0.0
  0
LINE
  5
6A0
330
1E
100
AcDbEntity
  8
0
100
AcDbLine
 10
389.6
 20
685.447
 30
0.0
 11
393.0
 21
681.9469999999999
 31
0.0
  0
LINE
  5
6A1
330
1E
100
AcDbEntity
  8
0
100
AcDbLine
 10
391.6
 20
684.7269999999999
 30
0.0
 11
393.0
 21
681.9469999999999
 31
0.0
  0
LINE
  5
6A2
330
1E
100
AcDbEntity
  8
0
100
AcDbLine
 10
393.0
 20
681.9469999999999
 30
0.0
 11
393.0
 21
675.497
 31
0.0
  0
LINE
  5
6A3
330
1E
100
AcDbEntity
  8
0
100
AcDbLine
 10
393.0
 20
669.047
 30
0.0
 11
393.0
 21
675.497
 31
0.0
  0
LINE
  5
6A4
330
1E
100
AcDbEntity
  8
0
100
AcDbLine
 10
390.7
 20
666.3669999999999
 30
0.0
 11
392.0
 21
671.1669999999998
 31
0.0
  0
LINE
  5
6A5
330
1E
100
AcDbEntity
  8
0
100
AcDbLine
 10
390.7
 20
666.3669999999999
 30
0.0
 11
393.0
 21
669.047
 31
0.0
  0
LINE
  5
6A6
330
1E
100
AcDbEntity
  8
0
100
AcDbLine
 10
393.0
 20
675.497
 30
0.0
 11
393.0
 21
669.047
 31
0.0
  0
LINE
  5
6A7
330
1E
100
AcDbEntity
  8
0
100
AcDbLine
 10
393.0
 20
675.497
 30
0.0
 11
393.0
 21
681.9469999999999
 31
0.0
  0
LINE
  5
6A8
330
1E
100
AcDbEntity
  8
0
100
AcDbLine
 10
388.1
 20
690.3389999999999
 30
0.0
 11
391.6
 21
684.7269999999999
 31
0.0
  0
LINE
  5
6A9
330
1E
100
AcDbEntity
  8
0
100
AcDbLine
 10
384.6999999999999
 20
694.4389999999999
 30
0.0
 11
388.1
 21
690.3389999999999
 31
0.0
  0
LINE
  5
6AA
330
1E
100
AcDbEntity
  8
0
100
AcDbLine
 10
369.8
 20
704.547
 30
0.0
 11
375.3
 21
702.1010000000001
 31
0.0
  0
LINE
  5
6AB
330
1E
100
AcDbEntity
  8
0
100
AcDbLine
 10
375.3
 20
702.1010000000001
 30
0.0
 11
379.8999999999999
 21
699.1010000000001
 31
0.0
  0
LINE
  5
6AC
330
1E
100
AcDbEntity
  8
0
100
AcDbLine
 10
366.1306380957409
 20
566.4966564099858
 30
0.0
 11
367.3
 21
565.8669999999999
 31
0.0
  0
LINE
  5
6AD
330
1E
100
AcDbEntity
  8
0
100
AcDbLine
 10
365.734132633945
 20
566.132267890596
 30
0.0
 11
366.0
 21
565.6669999999999
 31
0.0
  0
LINE
  5
6AE
330
1E
100
AcDbEntity
  8
0
100
AcDbLine
 10
363.229860769446
 20
564.1934296380729
 30
0.0
 11
363.2844467340619
 21
565.1100072969089
 31
0.0
  0
LINE
  5
6AF
330
1E
100
AcDbEntity
  8
0
100
AcDbLine
 10
362.3369999999999
 20
549.201
 30
0.0
 11
362.8
 21
556.975442735043
 31
0.0
  0
LINE
  5
6B0
330
1E
100
AcDbEntity
  8
0
100
AcDbLine
 10
194.0
 20
376.353
 30
0.0
 11
202.4
 21
372.953
 31
0.0
  0
LINE
  5
6B1
330
1E
100
AcDbEntity
  8
0
100
AcDbLine
 10
202.4
 20
372.953
 30
0.0
 11
209.6999999999999
 21
367.3529999999999
 31
0.0
  0
LINE
  5
6B2
330
1E
100
AcDbEntity
  8
0
100
AcDbLine
 10
190.8999999999999
 20
364.853
 30
0.0
 11
196.4
 21
362.553
 31
0.0
  0
LINE
  5
6B3
330
1E
100
AcDbEntity
  8
0
100
AcDbLine
 10
179.6
 20
362.853
 30
0.0
 11
185.0
 21
363.653
 31
0.0
  0
LINE
  5
6B4
330
1E
100
AcDbEntity
  8
0
100
AcDbLine
 10
179.0999999999999
 20
364.853
 30
0.0
 11
185.0
 21
365.653
 31
0.0
  0
LINE
  5
6B5
330
1E
100
AcDbEntity
  8
0
100
AcDbLine
 10
173.5999999999999
 20
362.553
 30
0.0
 11
179.0999999999999
 21
364.853
 31
0.0
  0
LINE
  5
6B6
330
1E
100
AcDbEntity
  8
0
100
AcDbLine
 10
168.8
 20
358.8529999999999
 30
0.0
 11
173.5999999999999
 21
362.553
 31
0.0
  0
LINE
  5
6B7
330
1E
100
AcDbEntity
  8
0
100
AcDbLine
 10
165.0999999999999
 20
354.053
 30
0.0
 11
168.8
 21
358.8529999999999
 31
0.0
  0
LINE
  5
6B8
330
1E
100
AcDbEntity
  8
0
100
AcDbLine
 10
162.8
 20
348.553
 30
0.0
 11
165.0999999999999
 21
354.053
 31
0.0
  0
LINE
  5
6B9
330
1E
100
AcDbEntity
  8
0
100
AcDbLine
 10
162.0
 20
342.653
 30
0.0
 11
162.8
 21
348.553
 31
0.0
  0
LINE
  5
6BA
330
1E
100
AcDbEntity
  8
0
100
AcDbLine
 10
162.0
 20
342.653
 30
0.0
 11
162.8
 21
336.753
 31
0.0
  0
LINE
  5
6BB
330
1E
100
AcDbEntity
  8
0
100
AcDbLine
 10
145.6999999999999
 20
333.153
 30
0.0
 11
147.0
 21
342.653
 31
0.0
  0
LINE
  5
6BC
330
1E
100
AcDbEntity
  8
0
100
AcDbLine
 10
87.5
 20
329.753
 30
0.0
 11
91.6
 21
324.2529999999999
 31
0.0
  0
LINE
  5
6BD
330
1E
100
AcDbEntity
  8
0
100
AcDbLine
 10
85.19781078967941
 20
335.242835809226
 30
0.0
 11
87.5
 21
329.753
 31
0.0
  0
LINE
  5
6C4
330
1E
100
AcDbEntity
  8
0
100
AcDbLine
 10
342.1
 20
694.4969999999999
 30
0.0
 11
351.8125738483586
 21
695.3340364912319
 31
0.0
  0
LINE
  5
6C5
330
1E
100
AcDbEntity
  8
0
100
AcDbLine
 10
351.8125738483586
 20
695.3340364912319
 30
0.0
 11
359.4874813105198
 21
695.2581002269408
 31
0.0
  0
LINE
  5
6C6
330
1E
100
AcDbEntity
  8
0
100
AcDbLine
 10
359.4874813105198
 20
695.2581002269408
 30
0.0
 11
367.8999999999999
 21
694.4969999999999
 31
0.0
  0
LINE
  5
6C7
330
1E
100
AcDbEntity
  8
0
100
AcDbLine
 10
368.3999999999999
 20
565.0669999999999
 30
0.0
 11
369.0
 21
564.067
 31
0.0
  0
LINE
  5
6C8
330
1E
100
AcDbEntity
  8
0
100
AcDbLine
 10
369.0
 20
564.067
 30
0.0
 11
369.0
 21
533.067
 31
0.0
  0
ENDSEC
  0
SECTION
  2
OBJECTS
  0
DICTIONARY
  5
C
330
0
100
AcDbDictionary
281
     1
  3
ACAD_GROUP
350
D
  3
ACAD_LAYOUT
350
19
  3
ACAD_MLINESTYLE
350
16
  3
ACAD_PLOTSETTINGS
350
18
  3
ACAD_PLOTSTYLENAME
350
E
  3
AcDbVariableDictionary
350
6C9
  0
DICTIONARY
  5
D
102
{ACAD_REACTORS
330
C
102
}
330
C
100
AcDbDictionary
281
     1
  0
DICTIONARY
  5
19
102
{ACAD_REACTORS
330
C
102
}
330
C
100
AcDbDictionary
281
     1
  3
Layout1
350
1D
  3
Model
350
21
  0
DICTIONARY
  5
16
102
{ACAD_REACTORS
330
C
102
}
330
C
100
AcDbDictionary
281
     1
  3
Standard
350
17
  0
DICTIONARY
  5
18
102
{ACAD_REACTORS
330
C
102
}
330
C
100
AcDbDictionary
281
     1
  0
ACDBDICTIONARYWDFLT
  5
E
102
{ACAD_REACTORS
330
C
102
}
330
C
100
AcDbDictionary
281
     1
  3
Normal
350
F
100
AcDbDictionaryWithDefault
340
F
  0
DICTIONARY
  5
6C9
102
{ACAD_REACTORS
330
C
102
}
330
C
100
AcDbDictionary
281
     1
  3
DIMASSOC
350
6CA
  0
LAYOUT
  5
1D
102
{ACAD_REACTORS
330
19
102
}
330
19
100
AcDbPlotSettings
  1

  2
hp deskjet 980c series
  4

  6

 40
0.0
 41
0.0
 42
0.0
 43
0.0
 44
0.0
 45
0.0
 46
0.0
 47
0.0
 48
0.0
 49
0.0
140
0.0
141
0.0
142
1.0
143
1.0
 70
   688
 72
     0
 73
     0
 74
     5
  7

 75
    16
147
1.0
148
0.0
149
0.0
100
AcDbLayout
  1
Layout1
 70
     1
 71
     1
 10
0.0
 20
0.0
 11
12.0
 21
9.0
 12
0.0
 22
0.0
 32
0.0
 14
1.000000000000000E+20
 24
1.000000000000000E+20
 34
1.000000000000000E+20
 15
-1.000000000000000E+20
 25
-1.000000000000000E+20
 35
-1.000000000000000E+20
146
0.0
 13
0.0
 23
0.0
 33
0.0
 16
1.0
 26
0.0
 36
0.0
 17
0.0
 27
1.0
 37
0.0
 76
     0
330
1A
  0
LAYOUT
  5
21
102
{ACAD_REACTORS
330
19
102
}
330
19
100
AcDbPlotSettings
  1

  2
hp deskjet 980c series
  4

  6

 40
0.0
 41
0.0
 42
0.0
 43
0.0
 44
0.0
 45
0.0
 46
0.0
 47
0.0
 48
0.0
 49
0.0
140
0.0
141
0.0
142
1.0
143
1.0
 70
  1712
 72
     0
 73
     0
 74
     0
  7

 75
     0
147
1.0
148
0.0
149
0.0
100
AcDbLayout
  1
Model
 70
     1
 71
     0
 10
0.0
 20
0.0
 11
12.0
 21
9.0
 12
0.0
 22
0.0
 32
0.0
 14
0.0
 24
0.0
 34
0.0
 15
0.0
 25
0.0
 35
0.0
146
0.0
 13
0.0
 23
0.0
 33
0.0
 16
1.0
 26
0.0
 36
0.0
 17
0.0
 27
1.0
 37
0.0
 76
     0
330
1E
  0
MLINESTYLE
  5
17
102
{ACAD_REACTORS
330
16
102
}
330
16
100
AcDbMlineStyle
  2
STANDARD
 70
     0
  3

 62
   256
 51
90.0
 52
90.0
 71
     2
 49
0.5
 62
   256
  6
BYLAYER
 49
-0.5
 62
   256
  6
BYLAYER
  0
ACDBPLACEHOLDER
  5
F
102
{ACAD_REACTORS
330
E
102
}
330
E
  0
DICTIONARYVAR
  5
6CA
102
{ACAD_REACTORS
330
6C9
102
}
330
6C9
100
DictionaryVariables
280
     0
  1
1
  0
ENDSEC
  0
EOF
