  0
SECTION
  2
HEADER
  9
$ACADVER
  1
AC1014
  9
$ACADMAINTVER
 70
     9
  9
$DWGCODEPAGE
  3
ANSI_1252
  9
$INSBASE
 10
0.0
 20
0.0
 30
0.0
  9
$EXTMIN
 10
0.250000000000003
 20
0.165000000000022
 30
0.0
  9
$EXTMAX
 10
475.75
 20
1638.835
 30
0.0
  9
$LIMMIN
 10
0.0
 20
0.0
  9
$LIMMAX
 10
12.0
 20
9.0
  9
$ORTHOMODE
 70
     0
  9
$REGENMODE
 70
     1
  9
$FILLMODE
 70
     1
  9
$QTEXTMODE
 70
     0
  9
$MIRRTEXT
 70
     1
  9
$DRAGMODE
 70
     2
  9
$LTSCALE
 40
1.0
  9
$OSMODE
 70
    37
  9
$ATTMODE
 70
     1
  9
$TEXTSIZE
 40
0.2
  9
$TRACEWID
 40
0.05
  9
$TEXTSTYLE
  7
STANDARD
  9
$CLAYER
  8
0
  9
$CELTYPE
  6
CONTINUOUS
  9
$CECOLOR
 62
   256
  9
$CELTSCALE
 40
1.0
  9
$DELOBJ
 70
     1
  9
$DISPSILH
 70
     0
  9
$DIMSCALE
 40
1.0
  9
$DIMASZ
 40
0.18
  9
$DIMEXO
 40
0.0625
  9
$DIMDLI
 40
0.38
  9
$DIMRND
 40
0.0
  9
$DIMDLE
 40
0.0
  9
$DIMEXE
 40
0.18
  9
$DIMTP
 40
0.0
  9
$DIMTM
 40
0.0
  9
$DIMTXT
 40
0.18
  9
$DIMCEN
 40
0.09
  9
$DIMTSZ
 40
0.0
  9
$DIMTOL
 70
     0
  9
$DIMLIM
 70
     0
  9
$DIMTIH
 70
     1
  9
$DIMTOH
 70
     1
  9
$DIMSE1
 70
     0
  9
$DIMSE2
 70
     0
  9
$DIMTAD
 70
     0
  9
$DIMZIN
 70
     0
  9
$DIMBLK
  1

  9
$DIMASO
 70
     1
  9
$DIMSHO
 70
     1
  9
$DIMPOST
  1

  9
$DIMAPOST
  1

  9
$DIMALT
 70
     0
  9
$DIMALTD
 70
     2
  9
$DIMALTF
 40
25.4
  9
$DIMLFAC
 40
1.0
  9
$DIMTOFL
 70
     0
  9
$DIMTVP
 40
0.0
  9
$DIMTIX
 70
     0
  9
$DIMSOXD
 70
     0
  9
$DIMSAH
 70
     0
  9
$DIMBLK1
  1

  9
$DIMBLK2
  1

  9
$DIMSTYLE
  2
STANDARD
  9
$DIMCLRD
 70
     0
  9
$DIMCLRE
 70
     0
  9
$DIMCLRT
 70
     0
  9
$DIMTFAC
 40
1.0
  9
$DIMGAP
 40
0.09
  9
$DIMJUST
 70
     0
  9
$DIMSD1
 70
     0
  9
$DIMSD2
 70
     0
  9
$DIMTOLJ
 70
     1
  9
$DIMTZIN
 70
     0
  9
$DIMALTZ
 70
     0
  9
$DIMALTTZ
 70
     0
  9
$DIMFIT
 70
     3
  9
$DIMUPT
 70
     0
  9
$DIMUNIT
 70
     2
  9
$DIMDEC
 70
     4
  9
$DIMTDEC
 70
     4
  9
$DIMALTU
 70
     2
  9
$DIMALTTD
 70
     2
  9
$DIMTXSTY
  7
STANDARD
  9
$DIMAUNIT
 70
     0
  9
$LUNITS
 70
     2
  9
$LUPREC
 70
     4
  9
$SKETCHINC
 40
0.1
  9
$FILLETRAD
 40
0.0
  9
$AUNITS
 70
     0
  9
$AUPREC
 70
     0
  9
$MENU
  1
.
  9
$ELEVATION
 40
0.0
  9
$PELEVATION
 40
0.0
  9
$THICKNESS
 40
0.0
  9
$LIMCHECK
 70
     0
  9
$BLIPMODE
 70
     0
  9
$CHAMFERA
 40
0.0
  9
$CHAMFERB
 40
0.0
  9
$CHAMFERC
 40
0.0
  9
$CHAMFERD
 40
0.0
  9
$SKPOLY
 70
     0
  9
$TDCREATE
 40
2454688.700358970
  9
$TDUPDATE
 40
2454688.702061087
  9
$TDINDWG
 40
0.0017022917
  9
$TDUSRTIMER
 40
0.0017022917
  9
$USRTIMER
 70
     1
  9
$ANGBASE
 50
0.0
  9
$ANGDIR
 70
     0
  9
$PDMODE
 70
     0
  9
$PDSIZE
 40
0.0
  9
$PLINEWID
 40
0.0
  9
$COORDS
 70
     1
  9
$SPLFRAME
 70
     0
  9
$SPLINETYPE
 70
     6
  9
$SPLINESEGS
 70
     8
  9
$ATTDIA
 70
     0
  9
$ATTREQ
 70
     1
  9
$HANDLING
 70
 22529
  9
$HANDSEED
  5
96F
  9
$SURFTAB1
 70
     6
  9
$SURFTAB2
 70
     6
  9
$SURFTYPE
 70
     6
  9
$SURFU
 70
     6
  9
$SURFV
 70
     6
  9
$UCSNAME
  2

  9
$UCSORG
 10
0.0
 20
0.0
 30
0.0
  9
$UCSXDIR
 10
1.0
 20
0.0
 30
0.0
  9
$UCSYDIR
 10
0.0
 20
1.0
 30
0.0
  9
$PUCSNAME
  2

  9
$PUCSORG
 10
0.0
 20
0.0
 30
0.0
  9
$PUCSXDIR
 10
1.0
 20
0.0
 30
0.0
  9
$PUCSYDIR
 10
0.0
 20
1.0
 30
0.0
  9
$USERI1
 70
     0
  9
$USERI2
 70
     0
  9
$USERI3
 70
     0
  9
$USERI4
 70
     0
  9
$USERI5
 70
     0
  9
$USERR1
 40
0.0
  9
$USERR2
 40
0.0
  9
$USERR3
 40
0.0
  9
$USERR4
 40
0.0
  9
$USERR5
 40
0.0
  9
$WORLDVIEW
 70
     1
  9
$SHADEDGE
 70
     3
  9
$SHADEDIF
 70
    70
  9
$TILEMODE
 70
     1
  9
$MAXACTVP
 70
    64
  9
$PINSBASE
 10
0.0
 20
0.0
 30
0.0
  9
$PLIMCHECK
 70
     0
  9
$PEXTMIN
 10
1.000000000000000E+20
 20
1.000000000000000E+20
 30
1.000000000000000E+20
  9
$PEXTMAX
 10
-1.000000000000000E+20
 20
-1.000000000000000E+20
 30
-1.000000000000000E+20
  9
$PLIMMIN
 10
0.0
 20
0.0
  9
$PLIMMAX
 10
12.0
 20
9.0
  9
$UNITMODE
 70
     0
  9
$VISRETAIN
 70
     1
  9
$PLINEGEN
 70
     0
  9
$PSLTSCALE
 70
     1
  9
$TREEDEPTH
 70
  3020
  9
$PICKSTYLE
 70
     1
  9
$CMLSTYLE
  2
STANDARD
  9
$CMLJUST
 70
     0
  9
$CMLSCALE
 40
1.0
  9
$PROXYGRAPHICS
 70
     1
  9
$MEASUREMENT
 70
     0
  0
ENDSEC
  0
SECTION
  2
CLASSES
  0
CLASS
  1
ACDBDICTIONARYWDFLT
  2
AcDbDictionaryWithDefault
  3
AutoCAD 2000
 90
        0
280
     0
281
     0
  0
CLASS
  1
ACDBPLACEHOLDER
  2
AcDbPlaceHolder
  3
AutoCAD 2000
 90
        0
280
     0
281
     0
  0
CLASS
  1
LAYOUT
  2
AcDbLayout
  3
AutoCAD 2000
 90
        0
280
     0
281
     0
  0
CLASS
  1
DICTIONARYVAR
  2
AcDbDictionaryVar
  3
AutoCAD 2000
 90
        0
280
     0
281
     0
  0
CLASS
  1
LONG_TRANSACTION
  2
AcDbLongTransaction
  3
AutoCAD 2000
 90
        0
280
     0
281
     0
  0
CLASS
  1
LWPOLYLINE
  2
AcDbPolyline
  3
AutoCAD 2000
 90
        0
280
     0
281
     1
  0
CLASS
  1
HATCH
  2
AcDbHatch
  3
AutoCAD 2000
 90
        0
280
     0
281
     1
  0
CLASS
  1
XRECORD
  2
AcDbXrecord
  3
AutoCAD 2000
 90
        0
280
     0
281
     0
  0
ENDSEC
  0
SECTION
  2
TABLES
  0
TABLE
  2
VPORT
  5
8
330
0
100
AcDbSymbolTable
 70
     2
  0
VPORT
  5
94A
330
8
100
AcDbSymbolTableRecord
100
AcDbViewportTableRecord
  2
*ACTIVE
 70
     0
 10
0.0
 20
0.0
 11
1.0
 21
1.0
 12
238.0
 22
819.5000000000002
 13
0.0
 23
0.0
 14
1.0
 24
1.0
 15
0.0
 25
0.0
 16
0.0
 26
0.0
 36
1.0
 17
0.0
 27
0.0
 37
0.0
 40
1651.242915601023
 41
2.043533930857874
 42
50.0
 43
0.0
 44
0.0
 50
0.0
 51
0.0
 71
     0
 72
   100
 73
     1
 74
     3
 75
     0
 76
     0
 77
     0
 78
     0
  0
ENDTAB
  0
TABLE
  2
LTYPE
  5
5
330
0
100
AcDbSymbolTable
 70
     1
  0
LTYPE
  5
13
330
5
100
AcDbSymbolTableRecord
100
AcDbLinetypeTableRecord
  2
BYBLOCK
 70
     0
  3

 72
    65
 73
     0
 40
0.0
  0
LTYPE
  5
14
330
5
100
AcDbSymbolTableRecord
100
AcDbLinetypeTableRecord
  2
BYLAYER
 70
     0
  3

 72
    65
 73
     0
 40
0.0
  0
LTYPE
  5
15
330
5
100
AcDbSymbolTableRecord
100
AcDbLinetypeTableRecord
  2
CONTINUOUS
 70
     0
  3
Solid line
 72
    65
 73
     0
 40
0.0
  0
ENDTAB
  0
TABLE
  2
LAYER
  5
2
330
0
100
AcDbSymbolTable
 70
     1
  0
LAYER
  5
10
330
2
100
AcDbSymbolTableRecord
100
AcDbLayerTableRecord
  2
0
 70
     0
 62
     7
  6
CONTINUOUS
  0
ENDTAB
  0
TABLE
  2
STYLE
  5
3
330
0
100
AcDbSymbolTable
 70
     1
  0
STYLE
  5
11
330
3
100
AcDbSymbolTableRecord
100
AcDbTextStyleTableRecord
  2
STANDARD
 70
     0
 40
0.0
 41
1.0
 50
0.0
 71
     0
 42
0.2
  3
txt
  4

  0
ENDTAB
  0
TABLE
  2
VIEW
  5
6
330
0
100
AcDbSymbolTable
 70
     0
  0
ENDTAB
  0
TABLE
  2
UCS
  5
7
330
0
100
AcDbSymbolTable
 70
     0
  0
ENDTAB
  0
TABLE
  2
APPID
  5
9
330
0
100
AcDbSymbolTable
 70
     1
  0
APPID
  5
12
330
9
100
AcDbSymbolTableRecord
100
AcDbRegAppTableRecord
  2
ACAD
 70
     0
  0
ENDTAB
  0
TABLE
  2
DIMSTYLE
  5
A
330
0
100
AcDbSymbolTable
 70
     1
  0
DIMSTYLE
105
944
330
A
100
AcDbSymbolTableRecord
100
AcDbDimStyleTableRecord
  2
STANDARD
 70
     0
  3

  4

  5

  6

  7

 40
1.0
 41
0.18
 42
0.0625
 43
0.38
 44
0.18
 45
0.0
 46
0.0
 47
0.0
 48
0.0
140
0.18
141
0.09
142
0.0
143
25.4
144
1.0
145
0.0
146
1.0
147
0.09
 71
     0
 72
     0
 73
     1
 74
     1
 75
     0
 76
     0
 77
     0
 78
     0
170
     0
171
     2
172
     0
173
     0
174
     0
175
     0
176
     0
177
     0
178
     0
270
     2
271
     4
272
     4
273
     2
274
     2
340
11
275
     0
280
     0
281
     0
282
     0
283
     1
284
     0
285
     0
286
     0
287
     3
288
     0
  0
ENDTAB
  0
TABLE
  2
BLOCK_RECORD
  5
1
330
0
100
AcDbSymbolTable
 70
     0
  0
BLOCK_RECORD
  5
1E
102
{ACAD_XDICTIONARY
360
96D
102
}
330
1
100
AcDbSymbolTableRecord
100
AcDbBlockTableRecord
  2
*MODEL_SPACE
  0
BLOCK_RECORD
  5
1A
102
{ACAD_XDICTIONARY
360
96B
102
}
330
1
100
AcDbSymbolTableRecord
100
AcDbBlockTableRecord
  2
*PAPER_SPACE
  0
ENDTAB
  0
ENDSEC
  0
SECTION
  2
BLOCKS
  0
BLOCK
  5
1F
330
1E
100
AcDbEntity
  8
0
100
AcDbBlockBegin
  2
*MODEL_SPACE
 70
     0
 10
0.0
 20
0.0
 30
0.0
  3
*MODEL_SPACE
  1

  0
ENDBLK
  5
20
330
1E
100
AcDbEntity
  8
0
100
AcDbBlockEnd
  0
BLOCK
  5
1B
330
1A
100
AcDbEntity
 67
     1
  8
0
100
AcDbBlockBegin
  2
*PAPER_SPACE
 70
     0
 10
0.0
 20
0.0
 30
0.0
  3
*PAPER_SPACE
  1

  0
ENDBLK
  5
1C
330
1A
100
AcDbEntity
 67
     1
  8
0
100
AcDbBlockEnd
  0
ENDSEC
  0
SECTION
  2
ENTITIES
  0
LINE
  5
22
330
1E
100
AcDbEntity
  8
0
100
AcDbLine
 10
162.241
 20
293.1791999999999
 30
0.0
 11
164.9409999999999
 21
293.1791999999999
 31
0.0
  0
LINE
  5
23
330
1E
100
AcDbEntity
  8
0
100
AcDbLine
 10
164.9409999999999
 20
293.1791999999999
 30
0.0
 11
167.4409999999999
 21
293.1791999999999
 31
0.0
  0
LINE
  5
24
330
1E
100
AcDbEntity
  8
0
100
AcDbLine
 10
167.4409999999999
 20
293.1791999999999
 30
0.0
 11
169.641
 21
293.1791999999999
 31
0.0
  0
LINE
  5
25
330
1E
100
AcDbEntity
  8
0
100
AcDbLine
 10
159.541
 20
293.1791999999999
 30
0.0
 11
162.241
 21
293.1791999999999
 31
0.0
  0
LINE
  5
26
330
1E
100
AcDbEntity
  8
0
100
AcDbLine
 10
157.041
 20
293.1791999999999
 30
0.0
 11
159.541
 21
293.1791999999999
 31
0.0
  0
LINE
  5
27
330
1E
100
AcDbEntity
  8
0
100
AcDbLine
 10
154.841
 20
293.1791999999999
 30
0.0
 11
157.041
 21
293.1791999999999
 31
0.0
  0
LINE
  5
28
330
1E
100
AcDbEntity
  8
0
100
AcDbLine
 10
153.1409999999999
 20
293.1791999999999
 30
0.0
 11
154.841
 21
293.1791999999999
 31
0.0
  0
LINE
  5
29
330
1E
100
AcDbEntity
  8
0
100
AcDbLine
 10
153.1409999999999
 20
293.1791999999999
 30
0.0
 11
153.7082587059499
 21
293.1791999999999
 31
0.0
  0
LINE
  5
2A
330
1E
100
AcDbEntity
  8
0
100
AcDbLine
 10
152.1409999999999
 20
293.1791999999999
 30
0.0
 11
153.1409999999999
 21
293.1791999999999
 31
0.0
  0
LINE
  5
2B
330
1E
100
AcDbEntity
  8
0
100
AcDbLine
 10
151.741
 20
293.1791999999999
 30
0.0
 11
152.1409999999999
 21
293.1791999999999
 31
0.0
  0
LINE
  5
2C
330
1E
100
AcDbEntity
  8
0
100
AcDbLine
 10
169.641
 20
293.1791999999999
 30
0.0
 11
171.3409999999999
 21
293.1791999999999
 31
0.0
  0
LINE
  5
2D
330
1E
100
AcDbEntity
  8
0
100
AcDbLine
 10
169.611440669355
 20
293.1791999999999
 30
0.0
 11
170.8269999999999
 21
145.8619999999999
 31
0.0
  0
LINE
  5
2E
330
1E
100
AcDbEntity
  8
0
100
AcDbLine
 10
0.750000000000004
 20
306.8349999999999
 30
0.0
 11
15.75
 21
306.8349999999999
 31
0.0
  0
LINE
  5
2F
330
1E
100
AcDbEntity
  8
0
100
AcDbLine
 10
0.7500000000000031
 20
306.8349999999999
 30
0.0
 11
15.75
 21
306.8349999999999
 31
0.0
  0
LINE
  5
30
330
1E
100
AcDbEntity
  8
0
100
AcDbLine
 10
0.7500000000000031
 20
306.8349999999999
 30
0.0
 11
0.7500000000000031
 21
337.435
 31
0.0
  0
LINE
  5
31
330
1E
100
AcDbEntity
  8
0
100
AcDbLine
 10
16.25
 20
307.335
 30
0.0
 11
16.25
 21
338.035
 31
0.0
  0
LINE
  5
32
330
1E
100
AcDbEntity
  8
0
100
AcDbLine
 10
0.250000000000003
 20
307.335
 30
0.0
 11
0.7500000000000031
 21
306.8349999999999
 31
0.0
  0
LINE
  5
33
330
1E
100
AcDbEntity
  8
0
100
AcDbLine
 10
0.250000000000003
 20
307.335
 30
0.0
 11
0.250000000000003
 21
338.035
 31
0.0
  0
LINE
  5
34
330
1E
100
AcDbEntity
  8
0
100
AcDbLine
 10
15.75
 20
306.8349999999999
 30
0.0
 11
16.25
 21
307.335
 31
0.0
  0
LINE
  5
35
330
1E
100
AcDbEntity
  8
0
100
AcDbLine
 10
15.75
 20
306.8349999999999
 30
0.0
 11
15.75
 21
337.435
 31
0.0
  0
LINE
  5
36
330
1E
100
AcDbEntity
  8
0
100
AcDbLine
 10
26.9167
 20
320.8349999999999
 30
0.0
 11
68.25
 21
320.8349999999999
 31
0.0
  0
LINE
  5
37
330
1E
100
AcDbEntity
  8
0
100
AcDbLine
 10
26.9167
 20
320.8349999999999
 30
0.0
 11
26.9167
 21
321.591
 31
0.0
  0
LINE
  5
38
330
1E
100
AcDbEntity
  8
0
100
AcDbLine
 10
60.968309859155
 20
320.8349999999999
 30
0.0
 11
63.25
 21
317.835
 31
0.0
  0
LINE
  5
39
330
1E
100
AcDbEntity
  8
0
100
AcDbLine
 10
68.25
 20
320.8349999999999
 30
0.0
 11
68.25
 21
321.591
 31
0.0
  0
LINE
  5
3A
330
1E
100
AcDbEntity
  8
0
100
AcDbLine
 10
64.65
 20
319.235
 30
0.0
 11
71.34999999999999
 21
314.135
 31
0.0
  0
LINE
  5
3B
330
1E
100
AcDbEntity
  8
0
100
AcDbLine
 10
63.4320895522388
 20
320.8349999999999
 30
0.0
 11
64.65
 21
319.235
 31
0.0
  0
LINE
  5
3C
330
1E
100
AcDbEntity
  8
0
100
AcDbLine
 10
63.25
 20
317.835
 30
0.0
 11
70.35
 21
312.435
 31
0.0
  0
LINE
  5
3D
330
1E
100
AcDbEntity
  8
0
100
AcDbLine
 10
68.25
 20
321.591
 30
0.0
 11
68.25
 21
323.607
 31
0.0
  0
LINE
  5
3E
330
1E
100
AcDbEntity
  8
0
100
AcDbLine
 10
26.9167
 20
321.591
 30
0.0
 11
26.9167
 21
320.8349999999999
 31
0.0
  0
LINE
  5
3F
330
1E
100
AcDbEntity
  8
0
100
AcDbLine
 10
26.9167
 20
321.591
 30
0.0
 11
26.9167
 21
323.607
 31
0.0
  0
LINE
  5
40
330
1E
100
AcDbEntity
  8
0
100
AcDbLine
 10
26.25
 20
322.095
 30
0.0
 11
26.25
 21
324.1109999999999
 31
0.0
  0
LINE
  5
41
330
1E
100
AcDbEntity
  8
0
100
AcDbLine
 10
26.25
 20
322.095
 30
0.0
 11
26.25
 21
321.3389999999999
 31
0.0
  0
LINE
  5
42
330
1E
100
AcDbEntity
  8
0
100
AcDbLine
 10
26.25
 20
321.3389999999999
 30
0.0
 11
26.25
 21
322.095
 31
0.0
  0
LINE
  5
43
330
1E
100
AcDbEntity
  8
0
100
AcDbLine
 10
26.25
 20
321.3389999999999
 30
0.0
 11
26.9167
 21
320.8349999999999
 31
0.0
  0
LINE
  5
44
330
1E
100
AcDbEntity
  8
0
100
AcDbLine
 10
68.25
 20
322.3349999999999
 30
0.0
 11
70.25
 21
322.3349999999999
 31
0.0
  0
LINE
  5
45
330
1E
100
AcDbEntity
  8
0
100
AcDbLine
 10
68.25
 20
323.607
 30
0.0
 11
68.25
 21
326.967
 31
0.0
  0
LINE
  5
46
330
1E
100
AcDbEntity
  8
0
100
AcDbLine
 10
26.9167
 20
323.607
 30
0.0
 11
26.9167
 21
321.591
 31
0.0
  0
LINE
  5
47
330
1E
100
AcDbEntity
  8
0
100
AcDbLine
 10
26.9167
 20
323.607
 30
0.0
 11
26.9167
 21
326.967
 31
0.0
  0
LINE
  5
48
330
1E
100
AcDbEntity
  8
0
100
AcDbLine
 10
70.25
 20
322.3349999999999
 30
0.0
 11
70.25
 21
323.035
 31
0.0
  0
LINE
  5
49
330
1E
100
AcDbEntity
  8
0
100
AcDbLine
 10
70.25
 20
322.3349999999999
 30
0.0
 11
70.25
 21
321.6349999999999
 31
0.0
  0
LINE
  5
4A
330
1E
100
AcDbEntity
  8
0
100
AcDbLine
 10
70.25
 20
323.035
 30
0.0
 11
70.25
 21
324.935
 31
0.0
  0
LINE
  5
4B
330
1E
100
AcDbEntity
  8
0
100
AcDbLine
 10
70.25
 20
323.035
 30
0.0
 11
70.25
 21
322.3349999999999
 31
0.0
  0
LINE
  5
4C
330
1E
100
AcDbEntity
  8
0
100
AcDbLine
 10
70.25
 20
320.8349999999999
 30
0.0
 11
70.25
 21
321.6349999999999
 31
0.0
  0
LINE
  5
4D
330
1E
100
AcDbEntity
  8
0
100
AcDbLine
 10
70.25
 20
320.8349999999999
 30
0.0
 11
150.8503959999999
 21
320.8349999999999
 31
0.0
  0
LINE
  5
4E
330
1E
100
AcDbEntity
  8
0
100
AcDbLine
 10
70.25
 20
321.6349999999999
 30
0.0
 11
70.25
 21
323.6349999999999
 31
0.0
  0
LINE
  5
4F
330
1E
100
AcDbEntity
  8
0
100
AcDbLine
 10
70.25
 20
321.6349999999999
 30
0.0
 11
70.25
 21
320.8349999999999
 31
0.0
  0
LINE
  5
50
330
1E
100
AcDbEntity
  8
0
100
AcDbLine
 10
70.25
 20
321.6349999999999
 30
0.0
 11
70.25
 21
322.3349999999999
 31
0.0
  0
LINE
  5
51
330
1E
100
AcDbEntity
  8
0
100
AcDbLine
 10
26.25
 20
324.1109999999999
 30
0.0
 11
26.25
 21
327.387
 31
0.0
  0
LINE
  5
52
330
1E
100
AcDbEntity
  8
0
100
AcDbLine
 10
26.25
 20
324.1109999999999
 30
0.0
 11
26.25
 21
322.095
 31
0.0
  0
LINE
  5
53
330
1E
100
AcDbEntity
  8
0
100
AcDbLine
 10
68.25
 20
326.967
 30
0.0
 11
68.25
 21
331.419
 31
0.0
  0
LINE
  5
54
330
1E
100
AcDbEntity
  8
0
100
AcDbLine
 10
26.9167
 20
326.967
 30
0.0
 11
26.9167
 21
323.607
 31
0.0
  0
LINE
  5
55
330
1E
100
AcDbEntity
  8
0
100
AcDbLine
 10
26.9167
 20
326.967
 30
0.0
 11
26.9167
 21
331.419
 31
0.0
  0
LINE
  5
56
330
1E
100
AcDbEntity
  8
0
100
AcDbLine
 10
26.25
 20
327.387
 30
0.0
 11
26.25
 21
331.671
 31
0.0
  0
LINE
  5
57
330
1E
100
AcDbEntity
  8
0
100
AcDbLine
 10
26.25
 20
327.387
 30
0.0
 11
26.25
 21
324.1109999999999
 31
0.0
  0
LINE
  5
58
330
1E
100
AcDbEntity
  8
0
100
AcDbLine
 10
70.25
 20
324.935
 30
0.0
 11
70.25
 21
328.035
 31
0.0
  0
LINE
  5
59
330
1E
100
AcDbEntity
  8
0
100
AcDbLine
 10
70.25
 20
324.935
 30
0.0
 11
70.25
 21
323.035
 31
0.0
  0
LINE
  5
5A
330
1E
100
AcDbEntity
  8
0
100
AcDbLine
 10
70.25
 20
328.035
 30
0.0
 11
70.25
 21
332.1349999999999
 31
0.0
  0
LINE
  5
5B
330
1E
100
AcDbEntity
  8
0
100
AcDbLine
 10
70.25
 20
328.035
 30
0.0
 11
70.25
 21
324.935
 31
0.0
  0
LINE
  5
5C
330
1E
100
AcDbEntity
  8
0
100
AcDbLine
 10
70.25
 20
323.6349999999999
 30
0.0
 11
70.25
 21
327.035
 31
0.0
  0
LINE
  5
5D
330
1E
100
AcDbEntity
  8
0
100
AcDbLine
 10
70.25
 20
323.6349999999999
 30
0.0
 11
70.25
 21
321.6349999999999
 31
0.0
  0
LINE
  5
5E
330
1E
100
AcDbEntity
  8
0
100
AcDbLine
 10
70.25
 20
327.035
 30
0.0
 11
70.25
 21
331.3349999999999
 31
0.0
  0
LINE
  5
5F
330
1E
100
AcDbEntity
  8
0
100
AcDbLine
 10
70.25
 20
327.035
 30
0.0
 11
70.25
 21
323.6349999999999
 31
0.0
  0
LINE
  5
60
330
1E
100
AcDbEntity
  8
0
100
AcDbLine
 10
68.25
 20
331.419
 30
0.0
 11
68.25
 21
336.459
 31
0.0
  0
LINE
  5
61
330
1E
100
AcDbEntity
  8
0
100
AcDbLine
 10
26.9167
 20
331.419
 30
0.0
 11
26.9167
 21
326.967
 31
0.0
  0
LINE
  5
62
330
1E
100
AcDbEntity
  8
0
100
AcDbLine
 10
26.9167
 20
331.419
 30
0.0
 11
26.9167
 21
336.459
 31
0.0
  0
LINE
  5
63
330
1E
100
AcDbEntity
  8
0
100
AcDbLine
 10
16.25
 20
336.8349999999999
 30
0.0
 11
26.25
 21
336.8349999999999
 31
0.0
  0
LINE
  5
64
330
1E
100
AcDbEntity
  8
0
100
AcDbLine
 10
26.25
 20
336.8349999999999
 30
0.0
 11
26.25
 21
336.5429999999999
 31
0.0
  0
LINE
  5
65
330
1E
100
AcDbEntity
  8
0
100
AcDbLine
 10
68.25
 20
336.459
 30
0.0
 11
68.25
 21
341.8349999999999
 31
0.0
  0
LINE
  5
66
330
1E
100
AcDbEntity
  8
0
100
AcDbLine
 10
26.9167
 20
336.459
 30
0.0
 11
26.9167
 21
331.419
 31
0.0
  0
LINE
  5
67
330
1E
100
AcDbEntity
  8
0
100
AcDbLine
 10
26.9167
 20
336.459
 30
0.0
 11
26.9167
 21
341.8349999999999
 31
0.0
  0
LINE
  5
68
330
1E
100
AcDbEntity
  8
0
100
AcDbLine
 10
26.25
 20
336.5429999999999
 30
0.0
 11
26.25
 21
336.8349999999999
 31
0.0
  0
LINE
  5
69
330
1E
100
AcDbEntity
  8
0
100
AcDbLine
 10
26.25
 20
336.5429999999999
 30
0.0
 11
26.25
 21
331.671
 31
0.0
  0
LINE
  5
6A
330
1E
100
AcDbEntity
  8
0
100
AcDbLine
 10
26.25
 20
336.5429999999999
 30
0.0
 11
26.25
 21
341.8349999999999
 31
0.0
  0
LINE
  5
6B
330
1E
100
AcDbEntity
  8
0
100
AcDbLine
 10
26.25
 20
331.671
 30
0.0
 11
26.25
 21
336.5429999999999
 31
0.0
  0
LINE
  5
6C
330
1E
100
AcDbEntity
  8
0
100
AcDbLine
 10
26.25
 20
331.671
 30
0.0
 11
26.25
 21
327.387
 31
0.0
  0
LINE
  5
6D
330
1E
100
AcDbEntity
  8
0
100
AcDbLine
 10
70.25
 20
332.1349999999999
 30
0.0
 11
70.25
 21
336.8349999999999
 31
0.0
  0
LINE
  5
6E
330
1E
100
AcDbEntity
  8
0
100
AcDbLine
 10
70.25
 20
332.1349999999999
 30
0.0
 11
70.25
 21
328.035
 31
0.0
  0
LINE
  5
6F
330
1E
100
AcDbEntity
  8
0
100
AcDbLine
 10
0.250000000000003
 20
338.035
 30
0.0
 11
0.250000000000003
 21
307.335
 31
0.0
  0
LINE
  5
70
330
1E
100
AcDbEntity
  8
0
100
AcDbLine
 10
0.250000000000003
 20
338.035
 30
0.0
 11
0.250000000000003
 21
338.1349999999999
 31
0.0
  0
LINE
  5
71
330
1E
100
AcDbEntity
  8
0
100
AcDbLine
 10
0.250000000000003
 20
338.035
 30
0.0
 11
0.7500000000000031
 21
337.435
 31
0.0
  0
LINE
  5
72
330
1E
100
AcDbEntity
  8
0
100
AcDbLine
 10
0.250000000000003
 20
338.1349999999999
 30
0.0
 11
0.250000000000003
 21
338.335
 31
0.0
  0
LINE
  5
73
330
1E
100
AcDbEntity
  8
0
100
AcDbLine
 10
0.250000000000003
 20
338.1349999999999
 30
0.0
 11
0.250000000000003
 21
338.035
 31
0.0
  0
LINE
  5
74
330
1E
100
AcDbEntity
  8
0
100
AcDbLine
 10
0.250000000000003
 20
341.8349999999999
 30
0.0
 11
0.250000000000003
 21
338.335
 31
0.0
  0
LINE
  5
75
330
1E
100
AcDbEntity
  8
0
100
AcDbLine
 10
0.250000000000003
 20
341.8349999999999
 30
0.0
 11
0.250000000000003
 21
345.3349999999999
 31
0.0
  0
LINE
  5
76
330
1E
100
AcDbEntity
  8
0
100
AcDbLine
 10
0.250000000000003
 20
338.335
 30
0.0
 11
0.250000000000003
 21
338.1349999999999
 31
0.0
  0
LINE
  5
77
330
1E
100
AcDbEntity
  8
0
100
AcDbLine
 10
0.250000000000003
 20
338.335
 30
0.0
 11
0.250000000000003
 21
341.8349999999999
 31
0.0
  0
LINE
  5
78
330
1E
100
AcDbEntity
  8
0
100
AcDbLine
 10
0.250000000000003
 20
338.335
 30
0.0
 11
0.250000000000003
 21
341.8349999999999
 31
0.0
  0
LINE
  5
79
330
1E
100
AcDbEntity
  8
0
100
AcDbLine
 10
0.250000000000003
 20
338.335
 30
0.0
 11
0.7500000000000031
 21
337.8349999999999
 31
0.0
  0
LINE
  5
7A
330
1E
100
AcDbEntity
  8
0
100
AcDbLine
 10
26.25
 20
337.035
 30
0.0
 11
26.25
 21
336.8349999999999
 31
0.0
  0
LINE
  5
7B
330
1E
100
AcDbEntity
  8
0
100
AcDbLine
 10
0.750000000000004
 20
337.435
 30
0.0
 11
15.75
 21
337.435
 31
0.0
  0
LINE
  5
7C
330
1E
100
AcDbEntity
  8
0
100
AcDbLine
 10
0.7500000000000031
 20
337.435
 30
0.0
 11
15.75
 21
337.435
 31
0.0
  0
LINE
  5
7D
330
1E
100
AcDbEntity
  8
0
100
AcDbLine
 10
0.7500000000000031
 20
337.435
 30
0.0
 11
0.7500000000000031
 21
337.6349999999999
 31
0.0
  0
LINE
  5
7E
330
1E
100
AcDbEntity
  8
0
100
AcDbLine
 10
0.7500000000000031
 20
337.435
 30
0.0
 11
0.7500000000000031
 21
306.8349999999999
 31
0.0
  0
LINE
  5
7F
330
1E
100
AcDbEntity
  8
0
100
AcDbLine
 10
0.7500000000000031
 20
337.6349999999999
 30
0.0
 11
0.7500000000000031
 21
337.435
 31
0.0
  0
LINE
  5
80
330
1E
100
AcDbEntity
  8
0
100
AcDbLine
 10
0.7500000000000031
 20
337.6349999999999
 30
0.0
 11
0.7500000000000031
 21
337.8349999999999
 31
0.0
  0
LINE
  5
81
330
1E
100
AcDbEntity
  8
0
100
AcDbLine
 10
0.750000000000004
 20
337.8349999999999
 30
0.0
 11
15.75
 21
337.8349999999999
 31
0.0
  0
LINE
  5
82
330
1E
100
AcDbEntity
  8
0
100
AcDbLine
 10
0.7500000000000031
 20
337.8349999999999
 30
0.0
 11
0.7500000000000031
 21
341.8349999999999
 31
0.0
  0
LINE
  5
83
330
1E
100
AcDbEntity
  8
0
100
AcDbLine
 10
0.7500000000000031
 20
337.8349999999999
 30
0.0
 11
15.75
 21
337.8349999999999
 31
0.0
  0
LINE
  5
84
330
1E
100
AcDbEntity
  8
0
100
AcDbLine
 10
0.7500000000000031
 20
337.8349999999999
 30
0.0
 11
0.7500000000000031
 21
337.6349999999999
 31
0.0
  0
LINE
  5
85
330
1E
100
AcDbEntity
  8
0
100
AcDbLine
 10
0.7500000000000031
 20
341.8349999999999
 30
0.0
 11
0.7500000000000031
 21
337.8349999999999
 31
0.0
  0
LINE
  5
86
330
1E
100
AcDbEntity
  8
0
100
AcDbLine
 10
0.7500000000000031
 20
341.8349999999999
 30
0.0
 11
0.7500000000000031
 21
345.8349999999999
 31
0.0
  0
LINE
  5
87
330
1E
100
AcDbEntity
  8
0
100
AcDbLine
 10
15.75
 20
341.8349999999999
 30
0.0
 11
15.75
 21
337.8349999999999
 31
0.0
  0
LINE
  5
88
330
1E
100
AcDbEntity
  8
0
100
AcDbLine
 10
15.75
 20
341.8349999999999
 30
0.0
 11
15.75
 21
345.8349999999999
 31
0.0
  0
LINE
  5
89
330
1E
100
AcDbEntity
  8
0
100
AcDbLine
 10
16.25
 20
341.8349999999999
 30
0.0
 11
16.25
 21
338.335
 31
0.0
  0
LINE
  5
8A
330
1E
100
AcDbEntity
  8
0
100
AcDbLine
 10
16.25
 20
341.8349999999999
 30
0.0
 11
16.25
 21
345.3349999999999
 31
0.0
  0
LINE
  5
8B
330
1E
100
AcDbEntity
  8
0
100
AcDbLine
 10
15.75
 20
337.8349999999999
 30
0.0
 11
15.75
 21
341.8349999999999
 31
0.0
  0
LINE
  5
8C
330
1E
100
AcDbEntity
  8
0
100
AcDbLine
 10
15.75
 20
337.8349999999999
 30
0.0
 11
16.25
 21
338.335
 31
0.0
  0
LINE
  5
8D
330
1E
100
AcDbEntity
  8
0
100
AcDbLine
 10
15.75
 20
337.8349999999999
 30
0.0
 11
15.75
 21
337.6349999999999
 31
0.0
  0
LINE
  5
8E
330
1E
100
AcDbEntity
  8
0
100
AcDbLine
 10
16.25
 20
338.335
 30
0.0
 11
16.25
 21
341.8349999999999
 31
0.0
  0
LINE
  5
8F
330
1E
100
AcDbEntity
  8
0
100
AcDbLine
 10
15.75
 20
337.6349999999999
 30
0.0
 11
15.75
 21
337.435
 31
0.0
  0
LINE
  5
90
330
1E
100
AcDbEntity
  8
0
100
AcDbLine
 10
15.75
 20
337.6349999999999
 30
0.0
 11
15.75
 21
337.8349999999999
 31
0.0
  0
LINE
  5
91
330
1E
100
AcDbEntity
  8
0
100
AcDbLine
 10
26.25
 20
337.535
 30
0.0
 11
26.25
 21
337.035
 31
0.0
  0
LINE
  5
92
330
1E
100
AcDbEntity
  8
0
100
AcDbLine
 10
26.25
 20
338.335
 30
0.0
 11
26.25
 21
337.535
 31
0.0
  0
LINE
  5
93
330
1E
100
AcDbEntity
  8
0
100
AcDbLine
 10
26.25
 20
339.3349999999999
 30
0.0
 11
26.25
 21
338.335
 31
0.0
  0
LINE
  5
94
330
1E
100
AcDbEntity
  8
0
100
AcDbLine
 10
26.25
 20
340.535
 30
0.0
 11
26.25
 21
339.3349999999999
 31
0.0
  0
LINE
  5
95
330
1E
100
AcDbEntity
  8
0
100
AcDbLine
 10
16.25
 20
338.035
 30
0.0
 11
16.25
 21
307.335
 31
0.0
  0
LINE
  5
96
330
1E
100
AcDbEntity
  8
0
100
AcDbLine
 10
15.75
 20
337.435
 30
0.0
 11
16.25
 21
338.035
 31
0.0
  0
LINE
  5
97
330
1E
100
AcDbEntity
  8
0
100
AcDbLine
 10
15.75
 20
337.435
 30
0.0
 11
15.75
 21
337.6349999999999
 31
0.0
  0
LINE
  5
98
330
1E
100
AcDbEntity
  8
0
100
AcDbLine
 10
15.75
 20
337.435
 30
0.0
 11
15.75
 21
306.8349999999999
 31
0.0
  0
LINE
  5
99
330
1E
100
AcDbEntity
  8
0
100
AcDbLine
 10
0.250000000000003
 20
341.8349999999999
 30
0.0
 11
0.250000000000003
 21
338.335
 31
0.0
  0
LINE
  5
9A
330
1E
100
AcDbEntity
  8
0
100
AcDbLine
 10
0.250000000000003
 20
341.8349999999999
 30
0.0
 11
0.250000000000003
 21
345.3349999999999
 31
0.0
  0
LINE
  5
9B
330
1E
100
AcDbEntity
  8
0
100
AcDbLine
 10
0.250000000000003
 20
345.535
 30
0.0
 11
0.250000000000003
 21
345.635
 31
0.0
  0
LINE
  5
9C
330
1E
100
AcDbEntity
  8
0
100
AcDbLine
 10
0.250000000000003
 20
345.535
 30
0.0
 11
0.250000000000003
 21
345.3349999999999
 31
0.0
  0
LINE
  5
9D
330
1E
100
AcDbEntity
  8
0
100
AcDbLine
 10
0.250000000000003
 20
345.635
 30
0.0
 11
0.250000000000003
 21
376.3349999999999
 31
0.0
  0
LINE
  5
9E
330
1E
100
AcDbEntity
  8
0
100
AcDbLine
 10
0.250000000000003
 20
345.635
 30
0.0
 11
0.7500000000000031
 21
346.235
 31
0.0
  0
LINE
  5
9F
330
1E
100
AcDbEntity
  8
0
100
AcDbLine
 10
0.250000000000003
 20
345.635
 30
0.0
 11
0.250000000000003
 21
345.535
 31
0.0
  0
LINE
  5
A0
330
1E
100
AcDbEntity
  8
0
100
AcDbLine
 10
0.250000000000003
 20
345.3349999999999
 30
0.0
 11
0.7500000000000031
 21
345.8349999999999
 31
0.0
  0
LINE
  5
A1
330
1E
100
AcDbEntity
  8
0
100
AcDbLine
 10
0.250000000000003
 20
345.3349999999999
 30
0.0
 11
0.250000000000003
 21
341.8349999999999
 31
0.0
  0
LINE
  5
A2
330
1E
100
AcDbEntity
  8
0
100
AcDbLine
 10
0.250000000000003
 20
345.3349999999999
 30
0.0
 11
0.250000000000003
 21
341.8349999999999
 31
0.0
  0
LINE
  5
A3
330
1E
100
AcDbEntity
  8
0
100
AcDbLine
 10
0.250000000000003
 20
345.3349999999999
 30
0.0
 11
0.250000000000003
 21
345.535
 31
0.0
  0
LINE
  5
A4
330
1E
100
AcDbEntity
  8
0
100
AcDbLine
 10
0.750000000000004
 20
345.8349999999999
 30
0.0
 11
15.75
 21
345.8349999999999
 31
0.0
  0
LINE
  5
A5
330
1E
100
AcDbEntity
  8
0
100
AcDbLine
 10
0.750000000000004
 20
346.235
 30
0.0
 11
15.75
 21
346.235
 31
0.0
  0
LINE
  5
A6
330
1E
100
AcDbEntity
  8
0
100
AcDbLine
 10
0.7500000000000031
 20
346.235
 30
0.0
 11
0.7500000000000031
 21
376.8349999999999
 31
0.0
  0
LINE
  5
A7
330
1E
100
AcDbEntity
  8
0
100
AcDbLine
 10
0.7500000000000031
 20
346.235
 30
0.0
 11
15.75
 21
346.235
 31
0.0
  0
LINE
  5
A8
330
1E
100
AcDbEntity
  8
0
100
AcDbLine
 10
0.7500000000000031
 20
346.235
 30
0.0
 11
0.7500000000000031
 21
346.035
 31
0.0
  0
LINE
  5
A9
330
1E
100
AcDbEntity
  8
0
100
AcDbLine
 10
15.75
 20
346.235
 30
0.0
 11
15.75
 21
376.8349999999999
 31
0.0
  0
LINE
  5
AA
330
1E
100
AcDbEntity
  8
0
100
AcDbLine
 10
15.75
 20
346.235
 30
0.0
 11
16.25
 21
345.635
 31
0.0
  0
LINE
  5
AB
330
1E
100
AcDbEntity
  8
0
100
AcDbLine
 10
15.75
 20
346.235
 30
0.0
 11
15.75
 21
346.035
 31
0.0
  0
LINE
  5
AC
330
1E
100
AcDbEntity
  8
0
100
AcDbLine
 10
0.7500000000000031
 20
346.035
 30
0.0
 11
0.7500000000000031
 21
345.8349999999999
 31
0.0
  0
LINE
  5
AD
330
1E
100
AcDbEntity
  8
0
100
AcDbLine
 10
0.7500000000000031
 20
346.035
 30
0.0
 11
0.7500000000000031
 21
346.235
 31
0.0
  0
LINE
  5
AE
330
1E
100
AcDbEntity
  8
0
100
AcDbLine
 10
15.75
 20
346.035
 30
0.0
 11
15.75
 21
345.8349999999999
 31
0.0
  0
LINE
  5
AF
330
1E
100
AcDbEntity
  8
0
100
AcDbLine
 10
15.75
 20
346.035
 30
0.0
 11
15.75
 21
346.235
 31
0.0
  0
LINE
  5
B0
330
1E
100
AcDbEntity
  8
0
100
AcDbLine
 10
0.7500000000000031
 20
345.8349999999999
 30
0.0
 11
15.75
 21
345.8349999999999
 31
0.0
  0
LINE
  5
B1
330
1E
100
AcDbEntity
  8
0
100
AcDbLine
 10
0.7500000000000031
 20
345.8349999999999
 30
0.0
 11
0.7500000000000031
 21
346.035
 31
0.0
  0
LINE
  5
B2
330
1E
100
AcDbEntity
  8
0
100
AcDbLine
 10
0.7500000000000031
 20
345.8349999999999
 30
0.0
 11
0.7500000000000031
 21
341.8349999999999
 31
0.0
  0
LINE
  5
B3
330
1E
100
AcDbEntity
  8
0
100
AcDbLine
 10
26.25
 20
345.3349999999999
 30
0.0
 11
26.25
 21
344.3349999999999
 31
0.0
  0
LINE
  5
B4
330
1E
100
AcDbEntity
  8
0
100
AcDbLine
 10
26.25
 20
344.3349999999999
 30
0.0
 11
26.25
 21
343.135
 31
0.0
  0
LINE
  5
B5
330
1E
100
AcDbEntity
  8
0
100
AcDbLine
 10
26.25
 20
343.135
 30
0.0
 11
26.25
 21
341.8349999999999
 31
0.0
  0
LINE
  5
B6
330
1E
100
AcDbEntity
  8
0
100
AcDbLine
 10
16.25
 20
346.835
 30
0.0
 11
26.25
 21
346.835
 31
0.0
  0
LINE
  5
B7
330
1E
100
AcDbEntity
  8
0
100
AcDbLine
 10
26.25
 20
346.6349999999999
 30
0.0
 11
26.25
 21
346.1349999999999
 31
0.0
  0
LINE
  5
B8
330
1E
100
AcDbEntity
  8
0
100
AcDbLine
 10
26.25
 20
346.1349999999999
 30
0.0
 11
26.25
 21
345.3349999999999
 31
0.0
  0
LINE
  5
B9
330
1E
100
AcDbEntity
  8
0
100
AcDbLine
 10
16.25
 20
345.635
 30
0.0
 11
16.25
 21
376.3349999999999
 31
0.0
  0
LINE
  5
BA
330
1E
100
AcDbEntity
  8
0
100
AcDbLine
 10
16.25
 20
345.3349999999999
 30
0.0
 11
16.25
 21
341.8349999999999
 31
0.0
  0
LINE
  5
BB
330
1E
100
AcDbEntity
  8
0
100
AcDbLine
 10
15.75
 20
345.8349999999999
 30
0.0
 11
16.25
 21
345.3349999999999
 31
0.0
  0
LINE
  5
BC
330
1E
100
AcDbEntity
  8
0
100
AcDbLine
 10
15.75
 20
345.8349999999999
 30
0.0
 11
15.75
 21
346.035
 31
0.0
  0
LINE
  5
BD
330
1E
100
AcDbEntity
  8
0
100
AcDbLine
 10
15.75
 20
345.8349999999999
 30
0.0
 11
15.75
 21
341.8349999999999
 31
0.0
  0
LINE
  5
BE
330
1E
100
AcDbEntity
  8
0
100
AcDbLine
 10
26.25
 20
341.8349999999999
 30
0.0
 11
26.25
 21
347.1269999999999
 31
0.0
  0
LINE
  5
BF
330
1E
100
AcDbEntity
  8
0
100
AcDbLine
 10
26.25
 20
341.8349999999999
 30
0.0
 11
26.25
 21
336.5429999999999
 31
0.0
  0
LINE
  5
C0
330
1E
100
AcDbEntity
  8
0
100
AcDbLine
 10
26.25
 20
341.8349999999999
 30
0.0
 11
26.25
 21
340.535
 31
0.0
  0
LINE
  5
C1
330
1E
100
AcDbEntity
  8
0
100
AcDbLine
 10
26.9167
 20
341.8349999999999
 30
0.0
 11
26.9167
 21
347.211
 31
0.0
  0
LINE
  5
C2
330
1E
100
AcDbEntity
  8
0
100
AcDbLine
 10
26.9167
 20
341.8349999999999
 30
0.0
 11
26.9167
 21
336.459
 31
0.0
  0
LINE
  5
C3
330
1E
100
AcDbEntity
  8
0
100
AcDbLine
 10
68.25
 20
341.8349999999999
 30
0.0
 11
68.25
 21
347.211
 31
0.0
  0
LINE
  5
C4
330
1E
100
AcDbEntity
  8
0
100
AcDbLine
 10
26.25
 20
346.835
 30
0.0
 11
26.25
 21
347.1269999999999
 31
0.0
  0
LINE
  5
C5
330
1E
100
AcDbEntity
  8
0
100
AcDbLine
 10
26.25
 20
346.835
 30
0.0
 11
26.25
 21
346.6349999999999
 31
0.0
  0
LINE
  5
C6
330
1E
100
AcDbEntity
  8
0
100
AcDbLine
 10
26.9167
 20
347.211
 30
0.0
 11
26.9167
 21
341.8349999999999
 31
0.0
  0
LINE
  5
C7
330
1E
100
AcDbEntity
  8
0
100
AcDbLine
 10
26.9167
 20
347.211
 30
0.0
 11
26.9167
 21
352.251
 31
0.0
  0
LINE
  5
C8
330
1E
100
AcDbEntity
  8
0
100
AcDbLine
 10
68.25
 20
347.211
 30
0.0
 11
68.25
 21
352.251
 31
0.0
  0
LINE
  5
C9
330
1E
100
AcDbEntity
  8
0
100
AcDbLine
 10
26.25
 20
347.1269999999999
 30
0.0
 11
26.25
 21
351.999
 31
0.0
  0
LINE
  5
CA
330
1E
100
AcDbEntity
  8
0
100
AcDbLine
 10
26.25
 20
347.1269999999999
 30
0.0
 11
26.25
 21
346.835
 31
0.0
  0
LINE
  5
CB
330
1E
100
AcDbEntity
  8
0
100
AcDbLine
 10
26.25
 20
347.1269999999999
 30
0.0
 11
26.25
 21
341.8349999999999
 31
0.0
  0
LINE
  5
CC
330
1E
100
AcDbEntity
  8
0
100
AcDbLine
 10
70.25
 20
346.835
 30
0.0
 11
70.25
 21
351.535
 31
0.0
  0
LINE
  5
CD
330
1E
100
AcDbEntity
  8
0
100
AcDbLine
 10
70.25
 20
346.835
 30
0.0
 11
70.25
 21
341.8349999999999
 31
0.0
  0
LINE
  5
CE
330
1E
100
AcDbEntity
  8
0
100
AcDbLine
 10
26.9167
 20
352.251
 30
0.0
 11
26.9167
 21
347.211
 31
0.0
  0
LINE
  5
CF
330
1E
100
AcDbEntity
  8
0
100
AcDbLine
 10
26.9167
 20
352.251
 30
0.0
 11
26.9167
 21
356.703
 31
0.0
  0
LINE
  5
D0
330
1E
100
AcDbEntity
  8
0
100
AcDbLine
 10
68.25
 20
352.251
 30
0.0
 11
68.25
 21
356.703
 31
0.0
  0
LINE
  5
D1
330
1E
100
AcDbEntity
  8
0
100
AcDbLine
 10
26.25
 20
351.999
 30
0.0
 11
26.25
 21
356.283
 31
0.0
  0
LINE
  5
D2
330
1E
100
AcDbEntity
  8
0
100
AcDbLine
 10
26.25
 20
351.999
 30
0.0
 11
26.25
 21
347.1269999999999
 31
0.0
  0
LINE
  5
D3
330
1E
100
AcDbEntity
  8
0
100
AcDbLine
 10
26.25
 20
356.283
 30
0.0
 11
26.25
 21
359.559
 31
0.0
  0
LINE
  5
D4
330
1E
100
AcDbEntity
  8
0
100
AcDbLine
 10
26.25
 20
356.283
 30
0.0
 11
26.25
 21
351.999
 31
0.0
  0
LINE
  5
D5
330
1E
100
AcDbEntity
  8
0
100
AcDbLine
 10
70.25
 20
355.635
 30
0.0
 11
70.25
 21
358.735
 31
0.0
  0
LINE
  5
D6
330
1E
100
AcDbEntity
  8
0
100
AcDbLine
 10
70.25
 20
355.635
 30
0.0
 11
70.25
 21
351.535
 31
0.0
  0
LINE
  5
D7
330
1E
100
AcDbEntity
  8
0
100
AcDbLine
 10
70.25
 20
351.535
 30
0.0
 11
70.25
 21
355.635
 31
0.0
  0
LINE
  5
D8
330
1E
100
AcDbEntity
  8
0
100
AcDbLine
 10
70.25
 20
351.535
 30
0.0
 11
70.25
 21
346.835
 31
0.0
  0
LINE
  5
D9
330
1E
100
AcDbEntity
  8
0
100
AcDbLine
 10
26.9167
 20
356.703
 30
0.0
 11
26.9167
 21
352.251
 31
0.0
  0
LINE
  5
DA
330
1E
100
AcDbEntity
  8
0
100
AcDbLine
 10
26.9167
 20
356.703
 30
0.0
 11
26.9167
 21
360.063
 31
0.0
  0
LINE
  5
DB
330
1E
100
AcDbEntity
  8
0
100
AcDbLine
 10
68.25
 20
356.703
 30
0.0
 11
68.25
 21
360.063
 31
0.0
  0
LINE
  5
DC
330
1E
100
AcDbEntity
  8
0
100
AcDbLine
 10
26.9167
 20
360.063
 30
0.0
 11
26.9167
 21
356.703
 31
0.0
  0
LINE
  5
DD
330
1E
100
AcDbEntity
  8
0
100
AcDbLine
 10
26.9167
 20
360.063
 30
0.0
 11
26.9167
 21
362.0789999999999
 31
0.0
  0
LINE
  5
DE
330
1E
100
AcDbEntity
  8
0
100
AcDbLine
 10
68.25
 20
360.063
 30
0.0
 11
68.25
 21
362.0789999999999
 31
0.0
  0
LINE
  5
DF
330
1E
100
AcDbEntity
  8
0
100
AcDbLine
 10
26.25
 20
359.559
 30
0.0
 11
26.25
 21
361.5749999999999
 31
0.0
  0
LINE
  5
E0
330
1E
100
AcDbEntity
  8
0
100
AcDbLine
 10
26.25
 20
359.559
 30
0.0
 11
26.25
 21
356.283
 31
0.0
  0
LINE
  5
E1
330
1E
100
AcDbEntity
  8
0
100
AcDbLine
 10
26.25
 20
361.5749999999999
 30
0.0
 11
26.25
 21
362.3309999999999
 31
0.0
  0
LINE
  5
E2
330
1E
100
AcDbEntity
  8
0
100
AcDbLine
 10
26.25
 20
361.5749999999999
 30
0.0
 11
26.25
 21
359.559
 31
0.0
  0
LINE
  5
E3
330
1E
100
AcDbEntity
  8
0
100
AcDbLine
 10
26.9167
 20
362.0789999999999
 30
0.0
 11
26.9167
 21
360.063
 31
0.0
  0
LINE
  5
E4
330
1E
100
AcDbEntity
  8
0
100
AcDbLine
 10
26.9167
 20
362.0789999999999
 30
0.0
 11
26.9167
 21
362.8349999999999
 31
0.0
  0
LINE
  5
E5
330
1E
100
AcDbEntity
  8
0
100
AcDbLine
 10
26.25
 20
362.3309999999999
 30
0.0
 11
26.9167
 21
362.8349999999999
 31
0.0
  0
LINE
  5
E6
330
1E
100
AcDbEntity
  8
0
100
AcDbLine
 10
26.25
 20
362.3309999999999
 30
0.0
 11
26.25
 21
361.5749999999999
 31
0.0
  0
LINE
  5
E7
330
1E
100
AcDbEntity
  8
0
100
AcDbLine
 10
26.9167
 20
362.8349999999999
 30
0.0
 11
68.25
 21
362.8349999999999
 31
0.0
  0
LINE
  5
E8
330
1E
100
AcDbEntity
  8
0
100
AcDbLine
 10
26.9167
 20
362.8349999999999
 30
0.0
 11
26.9167
 21
362.0789999999999
 31
0.0
  0
LINE
  5
E9
330
1E
100
AcDbEntity
  8
0
100
AcDbLine
 10
68.25
 20
362.0789999999999
 30
0.0
 11
68.25
 21
362.8349999999999
 31
0.0
  0
LINE
  5
EA
330
1E
100
AcDbEntity
  8
0
100
AcDbLine
 10
63.4320895522388
 20
362.8349999999999
 30
0.0
 11
64.65
 21
364.435
 31
0.0
  0
LINE
  5
EB
330
1E
100
AcDbEntity
  8
0
100
AcDbLine
 10
60.968309859155
 20
362.8349999999999
 30
0.0
 11
63.25
 21
365.8349999999999
 31
0.0
  0
LINE
  5
EC
330
1E
100
AcDbEntity
  8
0
100
AcDbLine
 10
68.25
 20
361.335
 30
0.0
 11
70.25
 21
361.335
 31
0.0
  0
LINE
  5
ED
330
1E
100
AcDbEntity
  8
0
100
AcDbLine
 10
70.25
 20
360.6349999999999
 30
0.0
 11
70.25
 21
361.335
 31
0.0
  0
LINE
  5
EE
330
1E
100
AcDbEntity
  8
0
100
AcDbLine
 10
70.25
 20
360.6349999999999
 30
0.0
 11
70.25
 21
358.735
 31
0.0
  0
LINE
  5
EF
330
1E
100
AcDbEntity
  8
0
100
AcDbLine
 10
70.25
 20
358.735
 30
0.0
 11
70.25
 21
360.6349999999999
 31
0.0
  0
LINE
  5
F0
330
1E
100
AcDbEntity
  8
0
100
AcDbLine
 10
70.25
 20
358.735
 30
0.0
 11
70.25
 21
355.635
 31
0.0
  0
LINE
  5
F1
330
1E
100
AcDbEntity
  8
0
100
AcDbLine
 10
70.25
 20
360.035
 30
0.0
 11
70.25
 21
362.035
 31
0.0
  0
LINE
  5
F2
330
1E
100
AcDbEntity
  8
0
100
AcDbLine
 10
70.25
 20
360.035
 30
0.0
 11
70.25
 21
356.6349999999999
 31
0.0
  0
LINE
  5
F3
330
1E
100
AcDbEntity
  8
0
100
AcDbLine
 10
70.25
 20
356.6349999999999
 30
0.0
 11
70.25
 21
360.035
 31
0.0
  0
LINE
  5
F4
330
1E
100
AcDbEntity
  8
0
100
AcDbLine
 10
70.25
 20
356.6349999999999
 30
0.0
 11
70.25
 21
352.3349999999999
 31
0.0
  0
LINE
  5
F5
330
1E
100
AcDbEntity
  8
0
100
AcDbLine
 10
70.25
 20
352.3349999999999
 30
0.0
 11
70.25
 21
356.6349999999999
 31
0.0
  0
LINE
  5
F6
330
1E
100
AcDbEntity
  8
0
100
AcDbLine
 10
70.25
 20
352.3349999999999
 30
0.0
 11
70.25
 21
347.235
 31
0.0
  0
LINE
  5
F7
330
1E
100
AcDbEntity
  8
0
100
AcDbLine
 10
70.25
 20
347.235
 30
0.0
 11
70.25
 21
352.3349999999999
 31
0.0
  0
LINE
  5
F8
330
1E
100
AcDbEntity
  8
0
100
AcDbLine
 10
70.25
 20
347.235
 30
0.0
 11
70.25
 21
341.8349999999999
 31
0.0
  0
LINE
  5
F9
330
1E
100
AcDbEntity
  8
0
100
AcDbLine
 10
70.25
 20
361.335
 30
0.0
 11
70.25
 21
362.035
 31
0.0
  0
LINE
  5
FA
330
1E
100
AcDbEntity
  8
0
100
AcDbLine
 10
70.25
 20
361.335
 30
0.0
 11
70.25
 21
360.6349999999999
 31
0.0
  0
LINE
  5
FB
330
1E
100
AcDbEntity
  8
0
100
AcDbLine
 10
0.250000000000003
 20
376.3349999999999
 30
0.0
 11
0.7500000000000031
 21
376.8349999999999
 31
0.0
  0
LINE
  5
FC
330
1E
100
AcDbEntity
  8
0
100
AcDbLine
 10
0.250000000000003
 20
376.3349999999999
 30
0.0
 11
0.250000000000003
 21
345.635
 31
0.0
  0
LINE
  5
FD
330
1E
100
AcDbEntity
  8
0
100
AcDbLine
 10
0.750000000000004
 20
376.8349999999999
 30
0.0
 11
15.75
 21
376.8349999999999
 31
0.0
  0
LINE
  5
FE
330
1E
100
AcDbEntity
  8
0
100
AcDbLine
 10
0.7500000000000031
 20
376.8349999999999
 30
0.0
 11
15.75
 21
376.8349999999999
 31
0.0
  0
LINE
  5
FF
330
1E
100
AcDbEntity
  8
0
100
AcDbLine
 10
0.7500000000000031
 20
376.8349999999999
 30
0.0
 11
0.7500000000000031
 21
346.235
 31
0.0
  0
LINE
  5
100
330
1E
100
AcDbEntity
  8
0
100
AcDbLine
 10
16.25
 20
376.3349999999999
 30
0.0
 11
16.25
 21
345.635
 31
0.0
  0
LINE
  5
101
330
1E
100
AcDbEntity
  8
0
100
AcDbLine
 10
15.75
 20
376.8349999999999
 30
0.0
 11
16.25
 21
376.3349999999999
 31
0.0
  0
LINE
  5
102
330
1E
100
AcDbEntity
  8
0
100
AcDbLine
 10
15.75
 20
376.8349999999999
 30
0.0
 11
15.75
 21
346.235
 31
0.0
  0
LINE
  5
103
330
1E
100
AcDbEntity
  8
0
100
AcDbLine
 10
64.65
 20
364.435
 30
0.0
 11
71.34999999999999
 21
369.535
 31
0.0
  0
LINE
  5
104
330
1E
100
AcDbEntity
  8
0
100
AcDbLine
 10
63.25
 20
365.8349999999999
 30
0.0
 11
70.35
 21
371.235
 31
0.0
  0
LINE
  5
105
330
1E
100
AcDbEntity
  8
0
100
AcDbLine
 10
70.25
 20
362.8349999999999
 30
0.0
 11
70.25
 21
362.035
 31
0.0
  0
LINE
  5
106
330
1E
100
AcDbEntity
  8
0
100
AcDbLine
 10
70.25
 20
362.8349999999999
 30
0.0
 11
162.25
 21
362.8349999999999
 31
0.0
  0
LINE
  5
107
330
1E
100
AcDbEntity
  8
0
100
AcDbLine
 10
70.25
 20
362.035
 30
0.0
 11
70.25
 21
361.335
 31
0.0
  0
LINE
  5
108
330
1E
100
AcDbEntity
  8
0
100
AcDbLine
 10
70.25
 20
362.035
 30
0.0
 11
70.25
 21
362.8349999999999
 31
0.0
  0
LINE
  5
109
330
1E
100
AcDbEntity
  8
0
100
AcDbLine
 10
70.25
 20
362.035
 30
0.0
 11
70.25
 21
360.035
 31
0.0
  0
LINE
  5
10A
330
1E
100
AcDbEntity
  8
0
100
AcDbLine
 10
70.25
 20
336.8349999999999
 30
0.0
 11
70.25
 21
341.8349999999999
 31
0.0
  0
LINE
  5
10B
330
1E
100
AcDbEntity
  8
0
100
AcDbLine
 10
70.25
 20
336.8349999999999
 30
0.0
 11
70.25
 21
332.1349999999999
 31
0.0
  0
LINE
  5
10C
330
1E
100
AcDbEntity
  8
0
100
AcDbLine
 10
70.25
 20
341.8349999999999
 30
0.0
 11
70.25
 21
336.4349999999999
 31
0.0
  0
LINE
  5
10D
330
1E
100
AcDbEntity
  8
0
100
AcDbLine
 10
70.25
 20
341.8349999999999
 30
0.0
 11
70.25
 21
347.235
 31
0.0
  0
LINE
  5
10E
330
1E
100
AcDbEntity
  8
0
100
AcDbLine
 10
70.25
 20
341.8349999999999
 30
0.0
 11
70.25
 21
346.835
 31
0.0
  0
LINE
  5
10F
330
1E
100
AcDbEntity
  8
0
100
AcDbLine
 10
70.25
 20
341.8349999999999
 30
0.0
 11
70.25
 21
336.8349999999999
 31
0.0
  0
LINE
  5
110
330
1E
100
AcDbEntity
  8
0
100
AcDbLine
 10
70.25
 20
331.3349999999999
 30
0.0
 11
70.25
 21
336.4349999999999
 31
0.0
  0
LINE
  5
111
330
1E
100
AcDbEntity
  8
0
100
AcDbLine
 10
70.25
 20
331.3349999999999
 30
0.0
 11
70.25
 21
327.035
 31
0.0
  0
LINE
  5
112
330
1E
100
AcDbEntity
  8
0
100
AcDbLine
 10
87.24999999999999
 20
309.8349999999999
 30
0.0
 11
95.54999999999999
 21
311.035
 31
0.0
  0
LINE
  5
113
330
1E
100
AcDbEntity
  8
0
100
AcDbLine
 10
95.54999999999999
 20
311.035
 30
0.0
 11
103.15
 21
314.135
 31
0.0
  0
LINE
  5
114
330
1E
100
AcDbEntity
  8
0
100
AcDbLine
 10
87.24999999999999
 20
307.8349999999999
 30
0.0
 11
96.05
 21
309.035
 31
0.0
  0
LINE
  5
115
330
1E
100
AcDbEntity
  8
0
100
AcDbLine
 10
96.05
 20
309.035
 30
0.0
 11
104.15
 21
312.435
 31
0.0
  0
LINE
  5
116
330
1E
100
AcDbEntity
  8
0
100
AcDbLine
 10
104.15
 20
312.435
 30
0.0
 11
111.25
 21
317.835
 31
0.0
  0
LINE
  5
117
330
1E
100
AcDbEntity
  8
0
100
AcDbLine
 10
78.95
 20
311.035
 30
0.0
 11
87.24999999999999
 21
309.8349999999999
 31
0.0
  0
LINE
  5
118
330
1E
100
AcDbEntity
  8
0
100
AcDbLine
 10
78.45
 20
309.035
 30
0.0
 11
87.24999999999999
 21
307.8349999999999
 31
0.0
  0
LINE
  5
119
330
1E
100
AcDbEntity
  8
0
100
AcDbLine
 10
103.15
 20
314.135
 30
0.0
 11
109.85
 21
319.235
 31
0.0
  0
LINE
  5
11A
330
1E
100
AcDbEntity
  8
0
100
AcDbLine
 10
109.85
 20
319.235
 30
0.0
 11
111.067910447761
 21
320.8349999999999
 31
0.0
  0
LINE
  5
11B
330
1E
100
AcDbEntity
  8
0
100
AcDbLine
 10
111.25
 20
317.835
 30
0.0
 11
113.5316901408449
 21
320.8349999999999
 31
0.0
  0
LINE
  5
11C
330
1E
100
AcDbEntity
  8
0
100
AcDbLine
 10
71.34999999999999
 20
314.135
 30
0.0
 11
78.95
 21
311.035
 31
0.0
  0
LINE
  5
11D
330
1E
100
AcDbEntity
  8
0
100
AcDbLine
 10
70.35
 20
312.435
 30
0.0
 11
78.45
 21
309.035
 31
0.0
  0
LINE
  5
11E
330
1E
100
AcDbEntity
  8
0
100
AcDbLine
 10
162.241
 20
323.1791999999999
 30
0.0
 11
165.2409999999999
 21
323.1791999999999
 31
0.0
  0
LINE
  5
11F
330
1E
100
AcDbEntity
  8
0
100
AcDbLine
 10
165.2409999999999
 20
323.1791999999999
 30
0.0
 11
167.9409999999999
 21
323.1791999999999
 31
0.0
  0
LINE
  5
120
330
1E
100
AcDbEntity
  8
0
100
AcDbLine
 10
159.241
 20
323.1791999999999
 30
0.0
 11
162.241
 21
323.1791999999999
 31
0.0
  0
LINE
  5
121
330
1E
100
AcDbEntity
  8
0
100
AcDbLine
 10
151.25
 20
362.8349999999999
 30
0.0
 11
151.25
 21
1343.835
 31
0.0
  0
LINE
  5
122
330
1E
100
AcDbEntity
  8
0
100
AcDbLine
 10
156.5409999999999
 20
323.1791999999999
 30
0.0
 11
159.241
 21
323.1791999999999
 31
0.0
  0
LINE
  5
123
330
1E
100
AcDbEntity
  8
0
100
AcDbLine
 10
150.815825746593
 20
320.934427602204
 30
0.0
 11
151.741
 21
293.1791999999999
 31
0.0
  0
LINE
  5
124
330
1E
100
AcDbEntity
  8
0
100
AcDbLine
 10
103.15
 20
369.535
 30
0.0
 11
109.85
 21
364.435
 31
0.0
  0
LINE
  5
125
330
1E
100
AcDbEntity
  8
0
100
AcDbLine
 10
109.85
 20
364.435
 30
0.0
 11
111.067910447761
 21
362.8349999999999
 31
0.0
  0
LINE
  5
126
330
1E
100
AcDbEntity
  8
0
100
AcDbLine
 10
95.54999999999999
 20
372.635
 30
0.0
 11
103.15
 21
369.535
 31
0.0
  0
LINE
  5
127
330
1E
100
AcDbEntity
  8
0
100
AcDbLine
 10
104.15
 20
371.235
 30
0.0
 11
111.25
 21
365.8349999999999
 31
0.0
  0
LINE
  5
128
330
1E
100
AcDbEntity
  8
0
100
AcDbLine
 10
111.25
 20
365.8349999999999
 30
0.0
 11
113.5316901408449
 21
362.8349999999999
 31
0.0
  0
LINE
  5
129
330
1E
100
AcDbEntity
  8
0
100
AcDbLine
 10
87.24999999999999
 20
373.835
 30
0.0
 11
95.54999999999999
 21
372.635
 31
0.0
  0
LINE
  5
12A
330
1E
100
AcDbEntity
  8
0
100
AcDbLine
 10
96.05
 20
374.635
 30
0.0
 11
104.15
 21
371.235
 31
0.0
  0
LINE
  5
12B
330
1E
100
AcDbEntity
  8
0
100
AcDbLine
 10
78.95
 20
372.635
 30
0.0
 11
87.24999999999999
 21
373.835
 31
0.0
  0
LINE
  5
12C
330
1E
100
AcDbEntity
  8
0
100
AcDbLine
 10
71.34999999999999
 20
369.535
 30
0.0
 11
78.95
 21
372.635
 31
0.0
  0
LINE
  5
12D
330
1E
100
AcDbEntity
  8
0
100
AcDbLine
 10
87.24999999999999
 20
375.835
 30
0.0
 11
96.05
 21
374.635
 31
0.0
  0
LINE
  5
12E
330
1E
100
AcDbEntity
  8
0
100
AcDbLine
 10
78.45
 20
374.635
 30
0.0
 11
87.24999999999999
 21
375.835
 31
0.0
  0
LINE
  5
12F
330
1E
100
AcDbEntity
  8
0
100
AcDbLine
 10
70.35
 20
371.235
 30
0.0
 11
78.45
 21
374.635
 31
0.0
  0
LINE
  5
130
330
1E
100
AcDbEntity
  8
0
100
AcDbLine
 10
162.25
 20
362.8349999999999
 30
0.0
 11
254.2499999999999
 21
362.8349999999999
 31
0.0
  0
LINE
  5
131
330
1E
100
AcDbEntity
  8
0
100
AcDbLine
 10
70.25
 20
336.4349999999999
 30
0.0
 11
70.25
 21
341.8349999999999
 31
0.0
  0
LINE
  5
132
330
1E
100
AcDbEntity
  8
0
100
AcDbLine
 10
70.25
 20
336.4349999999999
 30
0.0
 11
70.25
 21
331.3349999999999
 31
0.0
  0
LINE
  5
133
330
1E
100
AcDbEntity
  8
0
100
AcDbLine
 10
153.7082587059499
 20
293.1791999999999
 30
0.0
 11
154.916
 21
145.0639999999999
 31
0.0
  0
LINE
  5
134
330
1E
100
AcDbEntity
  8
0
100
AcDbLine
 10
171.3409999999999
 20
293.1791999999999
 30
0.0
 11
172.3409999999999
 21
293.1791999999999
 31
0.0
  0
LINE
  5
135
330
1E
100
AcDbEntity
  8
0
100
AcDbLine
 10
172.7409999999999
 20
293.1791999999999
 30
0.0
 11
173.66286
 21
320.8349999999999
 31
0.0
  0
LINE
  5
136
330
1E
100
AcDbEntity
  8
0
100
AcDbLine
 10
172.3409999999999
 20
293.1791999999999
 30
0.0
 11
172.7409999999999
 21
293.1791999999999
 31
0.0
  0
LINE
  5
137
330
1E
100
AcDbEntity
  8
0
100
AcDbLine
 10
173.2499999999999
 20
362.8349999999999
 30
0.0
 11
173.2499999999999
 21
1343.835
 31
0.0
  0
LINE
  5
138
330
1E
100
AcDbEntity
  8
0
100
AcDbLine
 10
173.66286
 20
320.8349999999999
 30
0.0
 11
254.2499999999999
 21
320.8349999999999
 31
0.0
  0
LINE
  5
139
330
1E
100
AcDbEntity
  8
0
100
AcDbLine
 10
170.8269999999999
 20
145.8619999999999
 30
0.0
 11
174.549
 21
124.4779999999999
 31
0.0
  0
LINE
  5
13A
330
1E
100
AcDbEntity
  8
0
100
AcDbLine
 10
154.916
 20
145.0639999999999
 30
0.0
 11
158.842
 21
121.68
 31
0.0
  0
LINE
  5
13B
330
1E
100
AcDbEntity
  8
0
100
AcDbLine
 10
174.549
 20
124.4779999999999
 30
0.0
 11
180.2579999999999
 21
103.3929999999999
 31
0.0
  0
LINE
  5
13C
330
1E
100
AcDbEntity
  8
0
100
AcDbLine
 10
158.842
 20
121.68
 30
0.0
 11
165.3529999999999
 21
97.89700000000001
 31
0.0
  0
LINE
  5
13D
330
1E
100
AcDbEntity
  8
0
100
AcDbLine
 10
180.2579999999999
 20
103.3929999999999
 30
0.0
 11
189.8429999999999
 21
82.208
 31
0.0
  0
LINE
  5
13E
330
1E
100
AcDbEntity
  8
0
100
AcDbLine
 10
165.3529999999999
 20
97.89700000000001
 30
0.0
 11
176.0379999999999
 21
74.21300000000001
 31
0.0
  0
LINE
  5
13F
330
1E
100
AcDbEntity
  8
0
100
AcDbLine
 10
189.8429999999999
 20
82.208
 30
0.0
 11
200.119
 21
63.321
 31
0.0
  0
LINE
  5
140
330
1E
100
AcDbEntity
  8
0
100
AcDbLine
 10
176.0379999999999
 20
74.21300000000001
 30
0.0
 11
188.009
 21
53.0290000000001
 31
0.0
  0
LINE
  5
141
330
1E
100
AcDbEntity
  8
0
100
AcDbLine
 10
213.432089552239
 20
320.8349999999999
 30
0.0
 11
214.65
 21
319.235
 31
0.0
  0
LINE
  5
142
330
1E
100
AcDbEntity
  8
0
100
AcDbLine
 10
213.2499999999999
 20
317.835
 30
0.0
 11
220.35
 21
312.435
 31
0.0
  0
LINE
  5
143
330
1E
100
AcDbEntity
  8
0
100
AcDbLine
 10
213.432089552239
 20
362.8349999999999
 30
0.0
 11
214.65
 21
364.435
 31
0.0
  0
LINE
  5
144
330
1E
100
AcDbEntity
  8
0
100
AcDbLine
 10
213.2499999999999
 20
365.8349999999999
 30
0.0
 11
220.35
 21
371.235
 31
0.0
  0
LINE
  5
145
330
1E
100
AcDbEntity
  8
0
100
AcDbLine
 10
210.968309859155
 20
362.8349999999999
 30
0.0
 11
213.2499999999999
 21
365.8349999999999
 31
0.0
  0
LINE
  5
146
330
1E
100
AcDbEntity
  8
0
100
AcDbLine
 10
210.968309859155
 20
320.8349999999999
 30
0.0
 11
213.2499999999999
 21
317.835
 31
0.0
  0
LINE
  5
147
330
1E
100
AcDbEntity
  8
0
100
AcDbLine
 10
200.119
 20
63.321
 30
0.0
 11
214.062
 21
48.331
 31
0.0
  0
LINE
  5
148
330
1E
100
AcDbEntity
  8
0
100
AcDbLine
 10
188.009
 20
53.0290000000001
 30
0.0
 11
203.845
 21
36.3400000000001
 31
0.0
  0
LINE
  5
149
330
1E
100
AcDbEntity
  8
0
100
AcDbLine
 10
228.9499999999999
 20
311.035
 30
0.0
 11
237.25
 21
309.8349999999999
 31
0.0
  0
LINE
  5
14A
330
1E
100
AcDbEntity
  8
0
100
AcDbLine
 10
228.4499999999999
 20
309.035
 30
0.0
 11
237.25
 21
307.8349999999999
 31
0.0
  0
LINE
  5
14B
330
1E
100
AcDbEntity
  8
0
100
AcDbLine
 10
214.65
 20
364.435
 30
0.0
 11
221.3499999999999
 21
369.535
 31
0.0
  0
LINE
  5
14C
330
1E
100
AcDbEntity
  8
0
100
AcDbLine
 10
228.9499999999999
 20
372.635
 30
0.0
 11
237.25
 21
373.835
 31
0.0
  0
LINE
  5
14D
330
1E
100
AcDbEntity
  8
0
100
AcDbLine
 10
221.3499999999999
 20
369.535
 30
0.0
 11
228.9499999999999
 21
372.635
 31
0.0
  0
LINE
  5
14E
330
1E
100
AcDbEntity
  8
0
100
AcDbLine
 10
228.4499999999999
 20
374.635
 30
0.0
 11
237.25
 21
375.835
 31
0.0
  0
LINE
  5
14F
330
1E
100
AcDbEntity
  8
0
100
AcDbLine
 10
220.35
 20
371.235
 30
0.0
 11
228.4499999999999
 21
374.635
 31
0.0
  0
LINE
  5
150
330
1E
100
AcDbEntity
  8
0
100
AcDbLine
 10
221.3499999999999
 20
314.135
 30
0.0
 11
228.9499999999999
 21
311.035
 31
0.0
  0
LINE
  5
151
330
1E
100
AcDbEntity
  8
0
100
AcDbLine
 10
214.65
 20
319.235
 30
0.0
 11
221.3499999999999
 21
314.135
 31
0.0
  0
LINE
  5
152
330
1E
100
AcDbEntity
  8
0
100
AcDbLine
 10
220.35
 20
312.435
 30
0.0
 11
228.4499999999999
 21
309.035
 31
0.0
  0
LINE
  5
153
330
1E
100
AcDbEntity
  8
0
100
AcDbLine
 10
214.062
 20
48.331
 30
0.0
 11
231.793
 21
32.7430000000001
 31
0.0
  0
LINE
  5
154
330
1E
100
AcDbEntity
  8
0
100
AcDbLine
 10
203.845
 20
36.3400000000001
 30
0.0
 11
223.867
 21
18.8520000000001
 31
0.0
  0
LINE
  5
155
330
1E
100
AcDbEntity
  8
0
100
AcDbLine
 10
237.25
 20
307.8349999999999
 30
0.0
 11
246.05
 21
309.035
 31
0.0
  0
LINE
  5
156
330
1E
100
AcDbEntity
  8
0
100
AcDbLine
 10
237.25
 20
373.835
 30
0.0
 11
245.55
 21
372.635
 31
0.0
  0
LINE
  5
157
330
1E
100
AcDbEntity
  8
0
100
AcDbLine
 10
245.55
 20
372.635
 30
0.0
 11
253.15
 21
369.535
 31
0.0
  0
LINE
  5
158
330
1E
100
AcDbEntity
  8
0
100
AcDbLine
 10
237.25
 20
375.835
 30
0.0
 11
246.05
 21
374.635
 31
0.0
  0
LINE
  5
159
330
1E
100
AcDbEntity
  8
0
100
AcDbLine
 10
237.25
 20
309.8349999999999
 30
0.0
 11
245.55
 21
311.035
 31
0.0
  0
LINE
  5
15A
330
1E
100
AcDbEntity
  8
0
100
AcDbLine
 10
246.05
 20
374.635
 30
0.0
 11
254.15
 21
371.235
 31
0.0
  0
LINE
  5
15B
330
1E
100
AcDbEntity
  8
0
100
AcDbLine
 10
245.55
 20
311.035
 30
0.0
 11
253.15
 21
314.135
 31
0.0
  0
LINE
  5
15C
330
1E
100
AcDbEntity
  8
0
100
AcDbLine
 10
246.05
 20
309.035
 30
0.0
 11
254.15
 21
312.435
 31
0.0
  0
LINE
  5
15D
330
1E
100
AcDbEntity
  8
0
100
AcDbLine
 10
231.793
 20
32.7430000000001
 30
0.0
 11
249.21
 21
23.8490000000001
 31
0.0
  0
LINE
  5
15E
330
1E
100
AcDbEntity
  8
0
100
AcDbLine
 10
223.867
 20
18.8520000000001
 30
0.0
 11
243.771
 21
8.859000000000099
 31
0.0
  0
LINE
  5
15F
330
1E
100
AcDbEntity
  8
0
100
AcDbLine
 10
253.15
 20
314.135
 30
0.0
 11
259.85
 21
319.235
 31
0.0
  0
LINE
  5
160
330
1E
100
AcDbEntity
  8
0
100
AcDbLine
 10
254.15
 20
312.435
 30
0.0
 11
261.25
 21
317.835
 31
0.0
  0
LINE
  5
161
330
1E
100
AcDbEntity
  8
0
100
AcDbLine
 10
259.85
 20
319.235
 30
0.0
 11
261.0679104477609
 21
320.8349999999999
 31
0.0
  0
LINE
  5
162
330
1E
100
AcDbEntity
  8
0
100
AcDbLine
 10
261.25
 20
317.835
 30
0.0
 11
263.531690140845
 21
320.8349999999999
 31
0.0
  0
LINE
  5
163
330
1E
100
AcDbEntity
  8
0
100
AcDbLine
 10
254.2499999999999
 20
320.8349999999999
 30
0.0
 11
254.2499999999999
 21
321.6349999999999
 31
0.0
  0
LINE
  5
164
330
1E
100
AcDbEntity
  8
0
100
AcDbLine
 10
254.2499999999999
 20
322.3349999999999
 30
0.0
 11
256.25
 21
322.3349999999999
 31
0.0
  0
LINE
  5
165
330
1E
100
AcDbEntity
  8
0
100
AcDbLine
 10
254.2499999999999
 20
321.6349999999999
 30
0.0
 11
254.2499999999999
 21
320.8349999999999
 31
0.0
  0
LINE
  5
166
330
1E
100
AcDbEntity
  8
0
100
AcDbLine
 10
254.2499999999999
 20
321.6349999999999
 30
0.0
 11
254.2499999999999
 21
323.6349999999999
 31
0.0
  0
LINE
  5
167
330
1E
100
AcDbEntity
  8
0
100
AcDbLine
 10
256.25
 20
323.035
 30
0.0
 11
256.25
 21
322.3349999999999
 31
0.0
  0
LINE
  5
168
330
1E
100
AcDbEntity
  8
0
100
AcDbLine
 10
254.2499999999999
 20
323.6349999999999
 30
0.0
 11
254.2499999999999
 21
321.6349999999999
 31
0.0
  0
LINE
  5
169
330
1E
100
AcDbEntity
  8
0
100
AcDbLine
 10
254.2499999999999
 20
323.6349999999999
 30
0.0
 11
254.2499999999999
 21
327.035
 31
0.0
  0
LINE
  5
16A
330
1E
100
AcDbEntity
  8
0
100
AcDbLine
 10
254.2499999999999
 20
327.035
 30
0.0
 11
254.2499999999999
 21
323.6349999999999
 31
0.0
  0
LINE
  5
16B
330
1E
100
AcDbEntity
  8
0
100
AcDbLine
 10
254.2499999999999
 20
327.035
 30
0.0
 11
254.2499999999999
 21
331.3349999999999
 31
0.0
  0
LINE
  5
16C
330
1E
100
AcDbEntity
  8
0
100
AcDbLine
 10
256.25
 20
324.935
 30
0.0
 11
256.25
 21
323.035
 31
0.0
  0
LINE
  5
16D
330
1E
100
AcDbEntity
  8
0
100
AcDbLine
 10
256.25
 20
328.035
 30
0.0
 11
256.25
 21
324.935
 31
0.0
  0
LINE
  5
16E
330
1E
100
AcDbEntity
  8
0
100
AcDbLine
 10
254.2499999999999
 20
331.3349999999999
 30
0.0
 11
254.2499999999999
 21
327.035
 31
0.0
  0
LINE
  5
16F
330
1E
100
AcDbEntity
  8
0
100
AcDbLine
 10
254.2499999999999
 20
331.3349999999999
 30
0.0
 11
254.2499999999999
 21
336.4349999999999
 31
0.0
  0
LINE
  5
170
330
1E
100
AcDbEntity
  8
0
100
AcDbLine
 10
254.2499999999999
 20
336.4349999999999
 30
0.0
 11
254.2499999999999
 21
331.3349999999999
 31
0.0
  0
LINE
  5
171
330
1E
100
AcDbEntity
  8
0
100
AcDbLine
 10
254.2499999999999
 20
336.4349999999999
 30
0.0
 11
254.2499999999999
 21
341.8349999999999
 31
0.0
  0
LINE
  5
172
330
1E
100
AcDbEntity
  8
0
100
AcDbLine
 10
256.25
 20
332.1349999999999
 30
0.0
 11
256.25
 21
328.035
 31
0.0
  0
LINE
  5
173
330
1E
100
AcDbEntity
  8
0
100
AcDbLine
 10
256.25
 20
336.8349999999999
 30
0.0
 11
256.25
 21
332.1349999999999
 31
0.0
  0
LINE
  5
174
330
1E
100
AcDbEntity
  8
0
100
AcDbLine
 10
254.2499999999999
 20
341.8349999999999
 30
0.0
 11
254.2499999999999
 21
347.235
 31
0.0
  0
LINE
  5
175
330
1E
100
AcDbEntity
  8
0
100
AcDbLine
 10
254.2499999999999
 20
341.8349999999999
 30
0.0
 11
254.2499999999999
 21
336.4349999999999
 31
0.0
  0
LINE
  5
176
330
1E
100
AcDbEntity
  8
0
100
AcDbLine
 10
256.25
 20
346.835
 30
0.0
 11
256.25
 21
341.8349999999999
 31
0.0
  0
LINE
  5
177
330
1E
100
AcDbEntity
  8
0
100
AcDbLine
 10
256.25
 20
336.459
 30
0.0
 11
256.25
 21
341.8349999999999
 31
0.0
  0
LINE
  5
178
330
1E
100
AcDbEntity
  8
0
100
AcDbLine
 10
256.25
 20
331.419
 30
0.0
 11
256.25
 21
336.459
 31
0.0
  0
LINE
  5
179
330
1E
100
AcDbEntity
  8
0
100
AcDbLine
 10
256.25
 20
326.967
 30
0.0
 11
256.25
 21
331.419
 31
0.0
  0
LINE
  5
17A
330
1E
100
AcDbEntity
  8
0
100
AcDbLine
 10
256.25
 20
323.607
 30
0.0
 11
256.25
 21
326.967
 31
0.0
  0
LINE
  5
17B
330
1E
100
AcDbEntity
  8
0
100
AcDbLine
 10
256.25
 20
341.8349999999999
 30
0.0
 11
256.25
 21
347.211
 31
0.0
  0
LINE
  5
17C
330
1E
100
AcDbEntity
  8
0
100
AcDbLine
 10
256.25
 20
341.8349999999999
 30
0.0
 11
256.25
 21
336.8349999999999
 31
0.0
  0
LINE
  5
17D
330
1E
100
AcDbEntity
  8
0
100
AcDbLine
 10
254.2499999999999
 20
352.3349999999999
 30
0.0
 11
254.2499999999999
 21
347.235
 31
0.0
  0
LINE
  5
17E
330
1E
100
AcDbEntity
  8
0
100
AcDbLine
 10
254.2499999999999
 20
352.3349999999999
 30
0.0
 11
254.2499999999999
 21
356.6349999999999
 31
0.0
  0
LINE
  5
17F
330
1E
100
AcDbEntity
  8
0
100
AcDbLine
 10
254.2499999999999
 20
347.235
 30
0.0
 11
254.2499999999999
 21
341.8349999999999
 31
0.0
  0
LINE
  5
180
330
1E
100
AcDbEntity
  8
0
100
AcDbLine
 10
254.2499999999999
 20
347.235
 30
0.0
 11
254.2499999999999
 21
352.3349999999999
 31
0.0
  0
LINE
  5
181
330
1E
100
AcDbEntity
  8
0
100
AcDbLine
 10
254.2499999999999
 20
356.6349999999999
 30
0.0
 11
254.2499999999999
 21
352.3349999999999
 31
0.0
  0
LINE
  5
182
330
1E
100
AcDbEntity
  8
0
100
AcDbLine
 10
254.2499999999999
 20
356.6349999999999
 30
0.0
 11
254.2499999999999
 21
360.035
 31
0.0
  0
LINE
  5
183
330
1E
100
AcDbEntity
  8
0
100
AcDbLine
 10
256.25
 20
355.635
 30
0.0
 11
256.25
 21
351.535
 31
0.0
  0
LINE
  5
184
330
1E
100
AcDbEntity
  8
0
100
AcDbLine
 10
256.25
 20
351.535
 30
0.0
 11
256.25
 21
346.835
 31
0.0
  0
LINE
  5
185
330
1E
100
AcDbEntity
  8
0
100
AcDbLine
 10
256.25
 20
347.211
 30
0.0
 11
256.25
 21
352.251
 31
0.0
  0
LINE
  5
186
330
1E
100
AcDbEntity
  8
0
100
AcDbLine
 10
256.25
 20
352.251
 30
0.0
 11
256.25
 21
356.703
 31
0.0
  0
LINE
  5
187
330
1E
100
AcDbEntity
  8
0
100
AcDbLine
 10
254.2499999999999
 20
362.035
 30
0.0
 11
254.2499999999999
 21
360.035
 31
0.0
  0
LINE
  5
188
330
1E
100
AcDbEntity
  8
0
100
AcDbLine
 10
254.2499999999999
 20
362.035
 30
0.0
 11
254.2499999999999
 21
362.8349999999999
 31
0.0
  0
LINE
  5
189
330
1E
100
AcDbEntity
  8
0
100
AcDbLine
 10
254.2499999999999
 20
360.035
 30
0.0
 11
254.2499999999999
 21
356.6349999999999
 31
0.0
  0
LINE
  5
18A
330
1E
100
AcDbEntity
  8
0
100
AcDbLine
 10
254.2499999999999
 20
360.035
 30
0.0
 11
254.2499999999999
 21
362.035
 31
0.0
  0
LINE
  5
18B
330
1E
100
AcDbEntity
  8
0
100
AcDbLine
 10
256.25
 20
361.335
 30
0.0
 11
256.25
 21
360.6349999999999
 31
0.0
  0
LINE
  5
18C
330
1E
100
AcDbEntity
  8
0
100
AcDbLine
 10
256.25
 20
360.6349999999999
 30
0.0
 11
256.25
 21
358.735
 31
0.0
  0
LINE
  5
18D
330
1E
100
AcDbEntity
  8
0
100
AcDbLine
 10
256.25
 20
358.735
 30
0.0
 11
256.25
 21
355.635
 31
0.0
  0
LINE
  5
18E
330
1E
100
AcDbEntity
  8
0
100
AcDbLine
 10
254.2499999999999
 20
361.335
 30
0.0
 11
256.25
 21
361.335
 31
0.0
  0
LINE
  5
18F
330
1E
100
AcDbEntity
  8
0
100
AcDbLine
 10
256.25
 20
356.703
 30
0.0
 11
256.25
 21
360.063
 31
0.0
  0
LINE
  5
190
330
1E
100
AcDbEntity
  8
0
100
AcDbLine
 10
256.25
 20
360.063
 30
0.0
 11
256.25
 21
362.0789999999999
 31
0.0
  0
LINE
  5
191
330
1E
100
AcDbEntity
  8
0
100
AcDbLine
 10
253.15
 20
369.535
 30
0.0
 11
259.85
 21
364.435
 31
0.0
  0
LINE
  5
192
330
1E
100
AcDbEntity
  8
0
100
AcDbLine
 10
254.15
 20
371.235
 30
0.0
 11
261.25
 21
365.8349999999999
 31
0.0
  0
LINE
  5
193
330
1E
100
AcDbEntity
  8
0
100
AcDbLine
 10
254.2499999999999
 20
362.8349999999999
 30
0.0
 11
254.2499999999999
 21
362.035
 31
0.0
  0
LINE
  5
194
330
1E
100
AcDbEntity
  8
0
100
AcDbLine
 10
256.25
 20
362.0789999999999
 30
0.0
 11
256.25
 21
361.335
 31
0.0
  0
LINE
  5
195
330
1E
100
AcDbEntity
  8
0
100
AcDbLine
 10
256.25
 20
362.0789999999999
 30
0.0
 11
256.25
 21
362.8349999999999
 31
0.0
  0
LINE
  5
196
330
1E
100
AcDbEntity
  8
0
100
AcDbLine
 10
256.25
 20
362.8349999999999
 30
0.0
 11
256.25
 21
362.0789999999999
 31
0.0
  0
LINE
  5
197
330
1E
100
AcDbEntity
  8
0
100
AcDbLine
 10
256.25
 20
362.8349999999999
 30
0.0
 11
278.1363782685269
 21
362.8349999999999
 31
0.0
  0
LINE
  5
198
330
1E
100
AcDbEntity
  8
0
100
AcDbLine
 10
256.25
 20
322.3349999999999
 30
0.0
 11
256.25
 21
321.591
 31
0.0
  0
LINE
  5
199
330
1E
100
AcDbEntity
  8
0
100
AcDbLine
 10
259.85
 20
364.435
 30
0.0
 11
261.0679104477609
 21
362.8349999999999
 31
0.0
  0
LINE
  5
19A
330
1E
100
AcDbEntity
  8
0
100
AcDbLine
 10
261.25
 20
365.8349999999999
 30
0.0
 11
263.531690140845
 21
362.8349999999999
 31
0.0
  0
LINE
  5
19B
330
1E
100
AcDbEntity
  8
0
100
AcDbLine
 10
256.25
 20
321.591
 30
0.0
 11
256.25
 21
320.8349999999999
 31
0.0
  0
LINE
  5
19C
330
1E
100
AcDbEntity
  8
0
100
AcDbLine
 10
256.25
 20
321.591
 30
0.0
 11
256.25
 21
323.607
 31
0.0
  0
LINE
  5
19D
330
1E
100
AcDbEntity
  8
0
100
AcDbLine
 10
256.25
 20
320.8349999999999
 30
0.0
 11
297.5829999999999
 21
320.8349999999999
 31
0.0
  0
LINE
  5
19E
330
1E
100
AcDbEntity
  8
0
100
AcDbLine
 10
256.25
 20
320.8349999999999
 30
0.0
 11
256.25
 21
321.591
 31
0.0
  0
LINE
  5
19F
330
1E
100
AcDbEntity
  8
0
100
AcDbLine
 10
249.21
 20
23.8490000000001
 30
0.0
 11
269.104
 21
17.753
 31
0.0
  0
LINE
  5
1A0
330
1E
100
AcDbEntity
  8
0
100
AcDbLine
 10
243.771
 20
8.859000000000099
 30
0.0
 11
266.351
 21
1.96400000000006
 31
0.0
  0
LINE
  5
1A1
330
1E
100
AcDbEntity
  8
0
100
AcDbLine
 10
283.2219999999999
 20
16.15400000000009
 30
0.0
 11
297.341
 21
17.753
 31
0.0
  0
LINE
  5
1A2
330
1E
100
AcDbEntity
  8
0
100
AcDbLine
 10
300.1539999999999
 20
1.96400000000006
 30
0.0
 11
322.709
 21
8.859000000000088
 31
0.0
  0
LINE
  5
1A3
330
1E
100
AcDbEntity
  8
0
100
AcDbLine
 10
322.709
 20
8.859000000000088
 30
0.0
 11
342.573
 21
18.8520000000001
 31
0.0
  0
LINE
  5
1A4
330
1E
100
AcDbEntity
  8
0
100
AcDbLine
 10
297.341
 20
17.753
 30
0.0
 11
317.2149999999999
 21
23.8490000000001
 31
0.0
  0
LINE
  5
1A5
330
1E
100
AcDbEntity
  8
0
100
AcDbLine
 10
300.1539999999999
 20
1.96400000000006
 30
0.0
 11
322.709
 21
8.859000000000088
 31
0.0
  0
LINE
  5
1A6
330
1E
100
AcDbEntity
  8
0
100
AcDbLine
 10
283.252
 20
0.165000000000022
 30
0.0
 11
300.1539999999999
 21
1.96400000000006
 31
0.0
  0
LINE
  5
1A7
330
1E
100
AcDbEntity
  8
0
100
AcDbLine
 10
282.0479999999999
 20
366.459
 30
0.0
 11
283.0719999999999
 21
366.459
 31
0.0
  0
LINE
  5
1A8
330
1E
100
AcDbEntity
  8
0
100
AcDbLine
 10
283.0719999999999
 20
366.459
 30
0.0
 11
284.0319999999999
 21
366.459
 31
0.0
  0
LINE
  5
1A9
330
1E
100
AcDbEntity
  8
0
100
AcDbLine
 10
284.0319999999999
 20
366.459
 30
0.0
 11
284.88
 21
366.459
 31
0.0
  0
LINE
  5
1AA
330
1E
100
AcDbEntity
  8
0
100
AcDbLine
 10
284.88
 20
366.459
 30
0.0
 11
285.5199999999999
 21
366.459
 31
0.0
  0
LINE
  5
1AB
330
1E
100
AcDbEntity
  8
0
100
AcDbLine
 10
285.5199999999999
 20
366.459
 30
0.0
 11
285.9039999999999
 21
366.459
 31
0.0
  0
LINE
  5
1AC
330
1E
100
AcDbEntity
  8
0
100
AcDbLine
 10
285.9039999999999
 20
366.459
 30
0.0
 11
286.0479999999999
 21
366.459
 31
0.0
  0
LINE
  5
1AD
330
1E
100
AcDbEntity
  8
0
100
AcDbLine
 10
281.0239999999999
 20
366.459
 30
0.0
 11
282.0479999999999
 21
366.459
 31
0.0
  0
LINE
  5
1AE
330
1E
100
AcDbEntity
  8
0
100
AcDbLine
 10
280.064
 20
366.459
 30
0.0
 11
281.0239999999999
 21
366.459
 31
0.0
  0
LINE
  5
1AF
330
1E
100
AcDbEntity
  8
0
100
AcDbLine
 10
279.2159999999999
 20
366.459
 30
0.0
 11
280.064
 21
366.459
 31
0.0
  0
LINE
  5
1B0
330
1E
100
AcDbEntity
  8
0
100
AcDbLine
 10
278.5759999999999
 20
366.459
 30
0.0
 11
279.2159999999999
 21
366.459
 31
0.0
  0
LINE
  5
1B1
330
1E
100
AcDbEntity
  8
0
100
AcDbLine
 10
278.1919999999999
 20
366.459
 30
0.0
 11
278.5759999999999
 21
366.459
 31
0.0
  0
LINE
  5
1B2
330
1E
100
AcDbEntity
  8
0
100
AcDbLine
 10
278.048
 20
362.8349999999999
 30
0.0
 11
278.048
 21
366.459
 31
0.0
  0
LINE
  5
1B3
330
1E
100
AcDbEntity
  8
0
100
AcDbLine
 10
282.0479999999999
 20
366.5541999999999
 30
0.0
 11
283.0559999999999
 21
366.5541999999999
 31
0.0
  0
LINE
  5
1B4
330
1E
100
AcDbEntity
  8
0
100
AcDbLine
 10
283.0559999999999
 20
366.5541999999999
 30
0.0
 11
283.984
 21
366.5541999999999
 31
0.0
  0
LINE
  5
1B5
330
1E
100
AcDbEntity
  8
0
100
AcDbLine
 10
283.984
 20
366.5541999999999
 30
0.0
 11
284.8
 21
366.5541999999999
 31
0.0
  0
LINE
  5
1B6
330
1E
100
AcDbEntity
  8
0
100
AcDbLine
 10
284.8
 20
366.5541999999999
 30
0.0
 11
285.424
 21
366.5541999999999
 31
0.0
  0
LINE
  5
1B7
330
1E
100
AcDbEntity
  8
0
100
AcDbLine
 10
285.424
 20
366.5541999999999
 30
0.0
 11
285.808
 21
366.5541999999999
 31
0.0
  0
LINE
  5
1B8
330
1E
100
AcDbEntity
  8
0
100
AcDbLine
 10
281.04
 20
366.5541999999999
 30
0.0
 11
282.0479999999999
 21
366.5541999999999
 31
0.0
  0
LINE
  5
1B9
330
1E
100
AcDbEntity
  8
0
100
AcDbLine
 10
280.112
 20
366.5541999999999
 30
0.0
 11
281.04
 21
366.5541999999999
 31
0.0
  0
LINE
  5
1BA
330
1E
100
AcDbEntity
  8
0
100
AcDbLine
 10
279.2959999999999
 20
366.5541999999999
 30
0.0
 11
280.112
 21
366.5541999999999
 31
0.0
  0
LINE
  5
1BB
330
1E
100
AcDbEntity
  8
0
100
AcDbLine
 10
278.672
 20
366.5541999999999
 30
0.0
 11
279.2959999999999
 21
366.5541999999999
 31
0.0
  0
LINE
  5
1BC
330
1E
100
AcDbEntity
  8
0
100
AcDbLine
 10
278.288
 20
366.5541999999999
 30
0.0
 11
278.672
 21
366.5541999999999
 31
0.0
  0
LINE
  5
1BD
330
1E
100
AcDbEntity
  8
0
100
AcDbLine
 10
278.1439999999999
 20
366.5541999999999
 30
0.0
 11
278.288
 21
366.5541999999999
 31
0.0
  0
LINE
  5
1BE
330
1E
100
AcDbEntity
  8
0
100
AcDbLine
 10
278.048
 20
366.459
 30
0.0
 11
278.048
 21
362.8349999999999
 31
0.0
  0
LINE
  5
1BF
330
1E
100
AcDbEntity
  8
0
100
AcDbLine
 10
278.048
 20
366.459
 30
0.0
 11
278.1439999999999
 21
366.5541999999999
 31
0.0
  0
LINE
  5
1C0
330
1E
100
AcDbEntity
  8
0
100
AcDbLine
 10
278.048
 20
366.459
 30
0.0
 11
278.1919999999999
 21
366.459
 31
0.0
  0
LINE
  5
1C1
330
1E
100
AcDbEntity
  8
0
100
AcDbLine
 10
285.9519999999999
 20
366.5541999999999
 30
0.0
 11
286.0479999999999
 21
366.459
 31
0.0
  0
LINE
  5
1C2
330
1E
100
AcDbEntity
  8
0
100
AcDbLine
 10
285.808
 20
366.5541999999999
 30
0.0
 11
285.9519999999999
 21
366.5541999999999
 31
0.0
  0
LINE
  5
1C3
330
1E
100
AcDbEntity
  8
0
100
AcDbLine
 10
297.5829999999999
 20
336.459
 30
0.0
 11
297.5829999999999
 21
331.419
 31
0.0
  0
LINE
  5
1C4
330
1E
100
AcDbEntity
  8
0
100
AcDbLine
 10
297.5829999999999
 20
336.459
 30
0.0
 11
297.5829999999999
 21
341.8349999999999
 31
0.0
  0
LINE
  5
1C5
330
1E
100
AcDbEntity
  8
0
100
AcDbLine
 10
297.5829999999999
 20
331.419
 30
0.0
 11
297.5829999999999
 21
326.967
 31
0.0
  0
LINE
  5
1C6
330
1E
100
AcDbEntity
  8
0
100
AcDbLine
 10
297.5829999999999
 20
331.419
 30
0.0
 11
297.5829999999999
 21
336.459
 31
0.0
  0
LINE
  5
1C7
330
1E
100
AcDbEntity
  8
0
100
AcDbLine
 10
297.5829999999999
 20
326.967
 30
0.0
 11
297.5829999999999
 21
323.607
 31
0.0
  0
LINE
  5
1C8
330
1E
100
AcDbEntity
  8
0
100
AcDbLine
 10
297.5829999999999
 20
326.967
 30
0.0
 11
297.5829999999999
 21
331.419
 31
0.0
  0
LINE
  5
1C9
330
1E
100
AcDbEntity
  8
0
100
AcDbLine
 10
297.5829999999999
 20
323.607
 30
0.0
 11
297.5829999999999
 21
321.591
 31
0.0
  0
LINE
  5
1CA
330
1E
100
AcDbEntity
  8
0
100
AcDbLine
 10
297.5829999999999
 20
323.607
 30
0.0
 11
297.5829999999999
 21
326.967
 31
0.0
  0
LINE
  5
1CB
330
1E
100
AcDbEntity
  8
0
100
AcDbLine
 10
297.5829999999999
 20
321.591
 30
0.0
 11
297.5829999999999
 21
320.8349999999999
 31
0.0
  0
LINE
  5
1CC
330
1E
100
AcDbEntity
  8
0
100
AcDbLine
 10
297.5829999999999
 20
321.591
 30
0.0
 11
297.5829999999999
 21
323.607
 31
0.0
  0
LINE
  5
1CD
330
1E
100
AcDbEntity
  8
0
100
AcDbLine
 10
297.5829999999999
 20
341.8349999999999
 30
0.0
 11
297.5829999999999
 21
347.211
 31
0.0
  0
LINE
  5
1CE
330
1E
100
AcDbEntity
  8
0
100
AcDbLine
 10
297.5829999999999
 20
341.8349999999999
 30
0.0
 11
297.5829999999999
 21
336.459
 31
0.0
  0
LINE
  5
1CF
330
1E
100
AcDbEntity
  8
0
100
AcDbLine
 10
297.5829999999999
 20
347.211
 30
0.0
 11
297.5829999999999
 21
341.8349999999999
 31
0.0
  0
LINE
  5
1D0
330
1E
100
AcDbEntity
  8
0
100
AcDbLine
 10
297.5829999999999
 20
347.211
 30
0.0
 11
297.5829999999999
 21
352.251
 31
0.0
  0
LINE
  5
1D1
330
1E
100
AcDbEntity
  8
0
100
AcDbLine
 10
297.5829999999999
 20
352.251
 30
0.0
 11
297.5829999999999
 21
347.211
 31
0.0
  0
LINE
  5
1D2
330
1E
100
AcDbEntity
  8
0
100
AcDbLine
 10
297.5829999999999
 20
352.251
 30
0.0
 11
297.5829999999999
 21
356.703
 31
0.0
  0
LINE
  5
1D3
330
1E
100
AcDbEntity
  8
0
100
AcDbLine
 10
297.5829999999999
 20
356.703
 30
0.0
 11
297.5829999999999
 21
352.251
 31
0.0
  0
LINE
  5
1D4
330
1E
100
AcDbEntity
  8
0
100
AcDbLine
 10
297.5829999999999
 20
356.703
 30
0.0
 11
297.5829999999999
 21
360.063
 31
0.0
  0
LINE
  5
1D5
330
1E
100
AcDbEntity
  8
0
100
AcDbLine
 10
286.0479999999999
 20
362.8349999999999
 30
0.0
 11
286.0479999999999
 21
366.459
 31
0.0
  0
LINE
  5
1D6
330
1E
100
AcDbEntity
  8
0
100
AcDbLine
 10
297.5829999999999
 20
360.063
 30
0.0
 11
297.5829999999999
 21
356.703
 31
0.0
  0
LINE
  5
1D7
330
1E
100
AcDbEntity
  8
0
100
AcDbLine
 10
297.5829999999999
 20
360.063
 30
0.0
 11
297.5829999999999
 21
362.0789999999999
 31
0.0
  0
LINE
  5
1D8
330
1E
100
AcDbEntity
  8
0
100
AcDbLine
 10
298.2499999999999
 20
321.3389999999999
 30
0.0
 11
298.2499999999999
 21
322.095
 31
0.0
  0
LINE
  5
1D9
330
1E
100
AcDbEntity
  8
0
100
AcDbLine
 10
298.2499999999999
 20
336.5429999999999
 30
0.0
 11
298.2499999999999
 21
331.671
 31
0.0
  0
LINE
  5
1DA
330
1E
100
AcDbEntity
  8
0
100
AcDbLine
 10
298.2499999999999
 20
336.5429999999999
 30
0.0
 11
298.2499999999999
 21
341.8349999999999
 31
0.0
  0
LINE
  5
1DB
330
1E
100
AcDbEntity
  8
0
100
AcDbLine
 10
298.2499999999999
 20
331.671
 30
0.0
 11
298.2499999999999
 21
327.387
 31
0.0
  0
LINE
  5
1DC
330
1E
100
AcDbEntity
  8
0
100
AcDbLine
 10
298.2499999999999
 20
331.671
 30
0.0
 11
298.2499999999999
 21
336.5429999999999
 31
0.0
  0
LINE
  5
1DD
330
1E
100
AcDbEntity
  8
0
100
AcDbLine
 10
298.2499999999999
 20
327.387
 30
0.0
 11
298.2499999999999
 21
324.1109999999999
 31
0.0
  0
LINE
  5
1DE
330
1E
100
AcDbEntity
  8
0
100
AcDbLine
 10
298.2499999999999
 20
327.387
 30
0.0
 11
298.2499999999999
 21
331.671
 31
0.0
  0
LINE
  5
1DF
330
1E
100
AcDbEntity
  8
0
100
AcDbLine
 10
298.2499999999999
 20
324.1109999999999
 30
0.0
 11
298.2499999999999
 21
322.095
 31
0.0
  0
LINE
  5
1E0
330
1E
100
AcDbEntity
  8
0
100
AcDbLine
 10
298.2499999999999
 20
324.1109999999999
 30
0.0
 11
298.2499999999999
 21
327.387
 31
0.0
  0
LINE
  5
1E1
330
1E
100
AcDbEntity
  8
0
100
AcDbLine
 10
298.2499999999999
 20
322.095
 30
0.0
 11
298.2499999999999
 21
321.3389999999999
 31
0.0
  0
LINE
  5
1E2
330
1E
100
AcDbEntity
  8
0
100
AcDbLine
 10
298.2499999999999
 20
322.095
 30
0.0
 11
298.2499999999999
 21
324.1109999999999
 31
0.0
  0
LINE
  5
1E3
330
1E
100
AcDbEntity
  8
0
100
AcDbLine
 10
298.2499999999999
 20
341.8349999999999
 30
0.0
 11
298.2499999999999
 21
347.1269999999999
 31
0.0
  0
LINE
  5
1E4
330
1E
100
AcDbEntity
  8
0
100
AcDbLine
 10
298.2499999999999
 20
341.8349999999999
 30
0.0
 11
298.2499999999999
 21
336.5429999999999
 31
0.0
  0
LINE
  5
1E5
330
1E
100
AcDbEntity
  8
0
100
AcDbLine
 10
298.2499999999999
 20
347.1269999999999
 30
0.0
 11
298.2499999999999
 21
341.8349999999999
 31
0.0
  0
LINE
  5
1E6
330
1E
100
AcDbEntity
  8
0
100
AcDbLine
 10
298.2499999999999
 20
347.1269999999999
 30
0.0
 11
298.2499999999999
 21
351.999
 31
0.0
  0
LINE
  5
1E7
330
1E
100
AcDbEntity
  8
0
100
AcDbLine
 10
298.2499999999999
 20
351.999
 30
0.0
 11
298.2499999999999
 21
347.1269999999999
 31
0.0
  0
LINE
  5
1E8
330
1E
100
AcDbEntity
  8
0
100
AcDbLine
 10
298.2499999999999
 20
351.999
 30
0.0
 11
298.2499999999999
 21
356.283
 31
0.0
  0
LINE
  5
1E9
330
1E
100
AcDbEntity
  8
0
100
AcDbLine
 10
298.2499999999999
 20
356.283
 30
0.0
 11
298.2499999999999
 21
351.999
 31
0.0
  0
LINE
  5
1EA
330
1E
100
AcDbEntity
  8
0
100
AcDbLine
 10
298.2499999999999
 20
356.283
 30
0.0
 11
298.2499999999999
 21
359.559
 31
0.0
  0
LINE
  5
1EB
330
1E
100
AcDbEntity
  8
0
100
AcDbLine
 10
298.2499999999999
 20
359.559
 30
0.0
 11
298.2499999999999
 21
356.283
 31
0.0
  0
LINE
  5
1EC
330
1E
100
AcDbEntity
  8
0
100
AcDbLine
 10
298.2499999999999
 20
359.559
 30
0.0
 11
298.2499999999999
 21
361.5749999999999
 31
0.0
  0
LINE
  5
1ED
330
1E
100
AcDbEntity
  8
0
100
AcDbLine
 10
298.2499999999999
 20
361.5749999999999
 30
0.0
 11
298.2499999999999
 21
359.559
 31
0.0
  0
LINE
  5
1EE
330
1E
100
AcDbEntity
  8
0
100
AcDbLine
 10
298.2499999999999
 20
361.5749999999999
 30
0.0
 11
298.2499999999999
 21
362.3309999999999
 31
0.0
  0
LINE
  5
1EF
330
1E
100
AcDbEntity
  8
0
100
AcDbLine
 10
298.2499999999999
 20
362.3309999999999
 30
0.0
 11
298.2499999999999
 21
361.5749999999999
 31
0.0
  0
LINE
  5
1F0
330
1E
100
AcDbEntity
  8
0
100
AcDbLine
 10
297.5829999999999
 20
362.0789999999999
 30
0.0
 11
297.5829999999999
 21
360.063
 31
0.0
  0
LINE
  5
1F1
330
1E
100
AcDbEntity
  8
0
100
AcDbLine
 10
297.5829999999999
 20
362.0789999999999
 30
0.0
 11
297.5829999999999
 21
362.8349999999999
 31
0.0
  0
LINE
  5
1F2
330
1E
100
AcDbEntity
  8
0
100
AcDbLine
 10
286.0479999999999
 20
366.459
 30
0.0
 11
286.0479999999999
 21
362.8349999999999
 31
0.0
  0
LINE
  5
1F3
330
1E
100
AcDbEntity
  8
0
100
AcDbLine
 10
297.5829999999999
 20
362.8349999999999
 30
0.0
 11
298.2499999999999
 21
362.3309999999999
 31
0.0
  0
LINE
  5
1F4
330
1E
100
AcDbEntity
  8
0
100
AcDbLine
 10
297.5829999999999
 20
362.8349999999999
 30
0.0
 11
297.5829999999999
 21
362.0789999999999
 31
0.0
  0
LINE
  5
1F5
330
1E
100
AcDbEntity
  8
0
100
AcDbLine
 10
285.9923782685269
 20
362.8349999999999
 30
0.0
 11
297.5829999999999
 21
362.8349999999999
 31
0.0
  0
LINE
  5
1F6
330
1E
100
AcDbEntity
  8
0
100
AcDbLine
 10
297.5829999999999
 20
320.8349999999999
 30
0.0
 11
298.2499999999999
 21
321.3389999999999
 31
0.0
  0
LINE
  5
1F7
330
1E
100
AcDbEntity
  8
0
100
AcDbLine
 10
297.5829999999999
 20
320.8349999999999
 30
0.0
 11
297.5829999999999
 21
321.591
 31
0.0
  0
LINE
  5
1F8
330
1E
100
AcDbEntity
  8
0
100
AcDbLine
 10
395.108
 20
145.8619999999999
 30
0.0
 11
396.263
 21
295.0505
 31
0.0
  0
LINE
  5
1F9
330
1E
100
AcDbEntity
  8
0
100
AcDbLine
 10
411.023
 20
145.0639999999999
 30
0.0
 11
412.175
 21
295.0505
 31
0.0
  0
LINE
  5
1FA
330
1E
100
AcDbEntity
  8
0
100
AcDbLine
 10
391.475
 20
124.4779999999999
 30
0.0
 11
395.108
 21
145.8619999999999
 31
0.0
  0
LINE
  5
1FB
330
1E
100
AcDbEntity
  8
0
100
AcDbLine
 10
407.186
 20
121.68
 30
0.0
 11
411.023
 21
145.0639999999999
 31
0.0
  0
LINE
  5
1FC
330
1E
100
AcDbEntity
  8
0
100
AcDbLine
 10
385.853
 20
103.3929999999999
 30
0.0
 11
391.475
 21
124.4779999999999
 31
0.0
  0
LINE
  5
1FD
330
1E
100
AcDbEntity
  8
0
100
AcDbLine
 10
400.776
 20
97.89700000000001
 30
0.0
 11
407.186
 21
121.68
 31
0.0
  0
LINE
  5
1FE
330
1E
100
AcDbEntity
  8
0
100
AcDbLine
 10
376.345
 20
82.208
 30
0.0
 11
385.853
 21
103.3929999999999
 31
0.0
  0
LINE
  5
1FF
330
1E
100
AcDbEntity
  8
0
100
AcDbLine
 10
390.1809999999999
 20
74.21300000000001
 30
0.0
 11
400.776
 21
97.89700000000001
 31
0.0
  0
LINE
  5
200
330
1E
100
AcDbEntity
  8
0
100
AcDbLine
 10
366.1449999999999
 20
63.321
 30
0.0
 11
376.345
 21
82.208
 31
0.0
  0
LINE
  5
201
330
1E
100
AcDbEntity
  8
0
100
AcDbLine
 10
378.298
 20
53.029
 30
0.0
 11
390.1809999999999
 21
74.21300000000001
 31
0.0
  0
LINE
  5
202
330
1E
100
AcDbEntity
  8
0
100
AcDbLine
 10
352.258
 20
48.331
 30
0.0
 11
366.1449999999999
 21
63.321
 31
0.0
  0
LINE
  5
203
330
1E
100
AcDbEntity
  8
0
100
AcDbLine
 10
362.5159999999999
 20
36.3400000000001
 30
0.0
 11
378.298
 21
53.029
 31
0.0
  0
LINE
  5
204
330
1E
100
AcDbEntity
  8
0
100
AcDbLine
 10
334.586
 20
32.7430000000001
 30
0.0
 11
352.258
 21
48.331
 31
0.0
  0
LINE
  5
205
330
1E
100
AcDbEntity
  8
0
100
AcDbLine
 10
342.573
 20
18.8520000000001
 30
0.0
 11
362.5159999999999
 21
36.3400000000001
 31
0.0
  0
LINE
  5
206
330
1E
100
AcDbEntity
  8
0
100
AcDbLine
 10
317.2149999999999
 20
23.8490000000001
 30
0.0
 11
334.586
 21
32.7430000000001
 31
0.0
  0
LINE
  5
207
330
1E
100
AcDbEntity
  8
0
100
AcDbLine
 10
269.104
 20
17.753
 30
0.0
 11
283.2219999999999
 21
16.15400000000009
 31
0.0
  0
LINE
  5
208
330
1E
100
AcDbEntity
  8
0
100
AcDbLine
 10
266.351
 20
1.96400000000006
 30
0.0
 11
283.252
 21
0.165000000000022
 31
0.0
  0
LINE
  5
209
330
1E
100
AcDbEntity
  8
0
100
AcDbLine
 10
379.05
 20
525.2749999999999
 30
0.0
 11
381.93
 21
518.315
 31
0.0
  0
LINE
  5
20A
330
1E
100
AcDbEntity
  8
0
100
AcDbLine
 10
381.93
 20
518.315
 30
0.0
 11
386.61
 21
512.195
 31
0.0
  0
LINE
  5
20B
330
1E
100
AcDbEntity
  8
0
100
AcDbLine
 10
378.33
 20
525.1549999999999
 30
0.0
 11
381.21
 21
517.955
 31
0.0
  0
LINE
  5
20C
330
1E
100
AcDbEntity
  8
0
100
AcDbLine
 10
381.21
 20
517.955
 30
0.0
 11
386.01
 21
511.595
 31
0.0
  0
LINE
  5
20D
330
1E
100
AcDbEntity
  8
0
100
AcDbLine
 10
391.2139999999999
 20
523.639
 30
0.0
 11
393.25
 21
520.9765384615379
 31
0.0
  0
LINE
  5
20E
330
1E
100
AcDbEntity
  8
0
100
AcDbLine
 10
390.758
 20
523.4109999999999
 30
0.0
 11
393.25
 21
520.1090999999999
 31
0.0
  0
LINE
  5
20F
330
1E
100
AcDbEntity
  8
0
100
AcDbLine
 10
386.61
 20
512.195
 30
0.0
 11
392.73
 21
507.5149999999999
 31
0.0
  0
LINE
  5
210
330
1E
100
AcDbEntity
  8
0
100
AcDbLine
 10
392.73
 20
507.5149999999999
 30
0.0
 11
395.5987933836899
 21
506.327913082611
 31
0.0
  0
LINE
  5
211
330
1E
100
AcDbEntity
  8
0
100
AcDbLine
 10
386.01
 20
511.595
 30
0.0
 11
392.37
 21
506.795
 31
0.0
  0
LINE
  5
212
330
1E
100
AcDbEntity
  8
0
100
AcDbLine
 10
392.37
 20
506.795
 30
0.0
 11
395.580562627291
 21
505.510774949084
 31
0.0
  0
LINE
  5
213
330
1E
100
AcDbEntity
  8
0
100
AcDbLine
 10
397.065
 20
507.8349999999999
 30
0.0
 11
397.065
 21
557.835
 31
0.0
  0
LINE
  5
214
330
1E
100
AcDbEntity
  8
0
100
AcDbLine
 10
397.065
 20
507.8349999999999
 30
0.0
 11
399.0469999999999
 21
507.8349999999999
 31
0.0
  0
LINE
  5
215
330
1E
100
AcDbEntity
  8
0
100
AcDbLine
 10
397.7019999999999
 20
507.8349999999999
 30
0.0
 11
399.0469999999999
 21
507.8349999999999
 31
0.0
  0
LINE
  5
216
330
1E
100
AcDbEntity
  8
0
100
AcDbLine
 10
399.0469999999999
 20
507.8349999999999
 30
0.0
 11
399.0469999999999
 21
557.835
 31
0.0
  0
LINE
  5
217
330
1E
100
AcDbEntity
  8
0
100
AcDbLine
 10
396.6459999999999
 20
507.8349999999999
 30
0.0
 11
397.7019999999999
 21
507.8349999999999
 31
0.0
  0
LINE
  5
218
330
1E
100
AcDbEntity
  8
0
100
AcDbLine
 10
396.25
 20
507.8349999999999
 30
0.0
 11
396.6459999999999
 21
507.8349999999999
 31
0.0
  0
LINE
  5
219
330
1E
100
AcDbEntity
  8
0
100
AcDbLine
 10
395.098
 20
507.8349999999999
 30
0.0
 11
397.065
 21
507.8349999999999
 31
0.0
  0
LINE
  5
21A
330
1E
100
AcDbEntity
  8
0
100
AcDbLine
 10
395.098
 20
507.8349999999999
 30
0.0
 11
395.6324172391139
 21
507.8349999999999
 31
0.0
  0
LINE
  5
21B
330
1E
100
AcDbEntity
  8
0
100
AcDbLine
 10
393.754
 20
507.8349999999999
 30
0.0
 11
395.098
 21
507.8349999999999
 31
0.0
  0
LINE
  5
21C
330
1E
100
AcDbEntity
  8
0
100
AcDbLine
 10
393.25
 20
507.8349999999999
 30
0.0
 11
393.25
 21
557.835
 31
0.0
  0
LINE
  5
21D
330
1E
100
AcDbEntity
  8
0
100
AcDbLine
 10
393.25
 20
507.8349999999999
 30
0.0
 11
393.754
 21
507.8349999999999
 31
0.0
  0
LINE
  5
21E
330
1E
100
AcDbEntity
  8
0
100
AcDbLine
 10
395.336
 20
494.549
 30
0.0
 11
395.6324172391139
 21
507.8349999999999
 31
0.0
  0
LINE
  5
21F
330
1E
100
AcDbEntity
  8
0
100
AcDbLine
 10
395.336
 20
494.549
 30
0.0
 11
396.263
 21
295.0505
 31
0.0
  0
LINE
  5
220
330
1E
100
AcDbEntity
  8
0
100
AcDbLine
 10
411.5885493859839
 20
504.1747927694259
 30
0.0
 11
414.81
 21
504.635
 31
0.0
  0
LINE
  5
221
330
1E
100
AcDbEntity
  8
0
100
AcDbLine
 10
411.573454543525
 20
503.4429857951829
 30
0.0
 11
414.93
 21
503.915
 31
0.0
  0
LINE
  5
222
330
1E
100
AcDbEntity
  8
0
100
AcDbLine
 10
412.7059999999999
 20
507.8349999999999
 30
0.0
 11
415.038
 21
507.8349999999999
 31
0.0
  0
LINE
  5
223
330
1E
100
AcDbEntity
  8
0
100
AcDbLine
 10
411.6640477803089
 20
507.8349999999999
 30
0.0
 11
414.1939999999999
 21
507.8349999999999
 31
0.0
  0
LINE
  5
224
330
1E
100
AcDbEntity
  8
0
100
AcDbLine
 10
411.6640477803089
 20
507.8349999999999
 30
0.0
 11
412.7059999999999
 21
507.8349999999999
 31
0.0
  0
LINE
  5
225
330
1E
100
AcDbEntity
  8
0
100
AcDbLine
 10
411.39
 20
494.549
 30
0.0
 11
412.06
 21
527.0309999999999
 31
0.0
  0
LINE
  5
226
330
1E
100
AcDbEntity
  8
0
100
AcDbLine
 10
411.39
 20
494.549
 30
0.0
 11
412.175
 21
295.0505
 31
0.0
  0
LINE
  5
227
330
1E
100
AcDbEntity
  8
0
100
AcDbLine
 10
79.25
 20
1343.835
 30
0.0
 11
79.25
 21
1345.835
 31
0.0
  0
LINE
  5
228
330
1E
100
AcDbEntity
  8
0
100
AcDbLine
 10
77.25
 20
1343.835
 30
0.0
 11
77.25
 21
1345.835
 31
0.0
  0
LINE
  5
229
330
1E
100
AcDbEntity
  8
0
100
AcDbLine
 10
77.25
 20
1343.835
 30
0.0
 11
79.25
 21
1343.835
 31
0.0
  0
LINE
  5
22A
330
1E
100
AcDbEntity
  8
0
100
AcDbLine
 10
77.25
 20
1345.835
 30
0.0
 11
77.25
 21
1343.835
 31
0.0
  0
LINE
  5
22B
330
1E
100
AcDbEntity
  8
0
100
AcDbLine
 10
77.25
 20
1345.835
 30
0.0
 11
79.25
 21
1345.835
 31
0.0
  0
LINE
  5
22C
330
1E
100
AcDbEntity
  8
0
100
AcDbLine
 10
79.8875
 20
1345.835
 30
0.0
 11
80.40510000000001
 21
1345.835
 31
0.0
  0
LINE
  5
22D
330
1E
100
AcDbEntity
  8
0
100
AcDbLine
 10
79.8875
 20
1345.835
 30
0.0
 11
79.8875
 21
1343.835
 31
0.0
  0
LINE
  5
22E
330
1E
100
AcDbEntity
  8
0
100
AcDbLine
 10
79.8875
 20
1343.835
 30
0.0
 11
79.8875
 21
1345.835
 31
0.0
  0
LINE
  5
22F
330
1E
100
AcDbEntity
  8
0
100
AcDbLine
 10
79.8875
 20
1343.835
 30
0.0
 11
80.40510000000001
 21
1343.835
 31
0.0
  0
LINE
  5
230
330
1E
100
AcDbEntity
  8
0
100
AcDbLine
 10
79.8875
 20
1343.835
 30
0.0
 11
81.81929999999999
 21
1343.835
 31
0.0
  0
LINE
  5
231
330
1E
100
AcDbEntity
  8
0
100
AcDbLine
 10
82.337
 20
1343.835
 30
0.0
 11
82.337
 21
1345.835
 31
0.0
  0
LINE
  5
232
330
1E
100
AcDbEntity
  8
0
100
AcDbLine
 10
81.81929999999999
 20
1343.835
 30
0.0
 11
82.337
 21
1343.835
 31
0.0
  0
LINE
  5
233
330
1E
100
AcDbEntity
  8
0
100
AcDbLine
 10
80.40510000000001
 20
1343.835
 30
0.0
 11
80.40510000000001
 21
1345.835
 31
0.0
  0
LINE
  5
234
330
1E
100
AcDbEntity
  8
0
100
AcDbLine
 10
80.40510000000001
 20
1343.835
 30
0.0
 11
82.337
 21
1343.835
 31
0.0
  0
LINE
  5
235
330
1E
100
AcDbEntity
  8
0
100
AcDbLine
 10
80.40510000000001
 20
1345.835
 30
0.0
 11
82.337
 21
1345.835
 31
0.0
  0
LINE
  5
236
330
1E
100
AcDbEntity
  8
0
100
AcDbLine
 10
80.40510000000001
 20
1345.835
 30
0.0
 11
80.40510000000001
 21
1343.835
 31
0.0
  0
LINE
  5
237
330
1E
100
AcDbEntity
  8
0
100
AcDbLine
 10
73.25
 20
1345.835
 30
0.0
 11
76.45
 21
1345.835
 31
0.0
  0
LINE
  5
238
330
1E
100
AcDbEntity
  8
0
100
AcDbLine
 10
79.25
 20
1345.835
 30
0.0
 11
79.8875
 21
1345.835
 31
0.0
  0
LINE
  5
239
330
1E
100
AcDbEntity
  8
0
100
AcDbLine
 10
79.25
 20
1345.835
 30
0.0
 11
79.25
 21
1343.835
 31
0.0
  0
LINE
  5
23A
330
1E
100
AcDbEntity
  8
0
100
AcDbLine
 10
88.13779999999999
 20
1345.835
 30
0.0
 11
89.1378
 21
1345.835
 31
0.0
  0
LINE
  5
23B
330
1E
100
AcDbEntity
  8
0
100
AcDbLine
 10
88.13779999999999
 20
1345.835
 30
0.0
 11
88.13779999999999
 21
1343.835
 31
0.0
  0
LINE
  5
23C
330
1E
100
AcDbEntity
  8
0
100
AcDbLine
 10
88.13779999999999
 20
1343.835
 30
0.0
 11
88.13779999999999
 21
1345.835
 31
0.0
  0
LINE
  5
23D
330
1E
100
AcDbEntity
  8
0
100
AcDbLine
 10
88.13779999999999
 20
1343.835
 30
0.0
 11
89.1378
 21
1343.835
 31
0.0
  0
LINE
  5
23E
330
1E
100
AcDbEntity
  8
0
100
AcDbLine
 10
88.13779999999999
 20
1343.835
 30
0.0
 11
89.8699
 21
1343.835
 31
0.0
  0
LINE
  5
23F
330
1E
100
AcDbEntity
  8
0
100
AcDbLine
 10
90.8699
 20
1343.835
 30
0.0
 11
90.8699
 21
1345.835
 31
0.0
  0
LINE
  5
240
330
1E
100
AcDbEntity
  8
0
100
AcDbLine
 10
89.8699
 20
1343.835
 30
0.0
 11
90.8699
 21
1343.835
 31
0.0
  0
LINE
  5
241
330
1E
100
AcDbEntity
  8
0
100
AcDbLine
 10
89.1378
 20
1343.835
 30
0.0
 11
89.1378
 21
1345.835
 31
0.0
  0
LINE
  5
242
330
1E
100
AcDbEntity
  8
0
100
AcDbLine
 10
89.1378
 20
1343.835
 30
0.0
 11
90.8699
 21
1343.835
 31
0.0
  0
LINE
  5
243
330
1E
100
AcDbEntity
  8
0
100
AcDbLine
 10
89.1378
 20
1345.835
 30
0.0
 11
90.8699
 21
1345.835
 31
0.0
  0
LINE
  5
244
330
1E
100
AcDbEntity
  8
0
100
AcDbLine
 10
89.1378
 20
1345.835
 30
0.0
 11
89.1378
 21
1343.835
 31
0.0
  0
LINE
  5
245
330
1E
100
AcDbEntity
  8
0
100
AcDbLine
 10
82.337
 20
1345.835
 30
0.0
 11
85.15
 21
1345.835
 31
0.0
  0
LINE
  5
246
330
1E
100
AcDbEntity
  8
0
100
AcDbLine
 10
82.337
 20
1345.835
 30
0.0
 11
82.337
 21
1343.835
 31
0.0
  0
LINE
  5
247
330
1E
100
AcDbEntity
  8
0
100
AcDbLine
 10
76.45
 20
1345.835
 30
0.0
 11
77.25
 21
1345.835
 31
0.0
  0
LINE
  5
248
330
1E
100
AcDbEntity
  8
0
100
AcDbLine
 10
76.45
 20
1345.835
 30
0.0
 11
85.15
 21
1345.835
 31
0.0
  0
LINE
  5
249
330
1E
100
AcDbEntity
  8
0
100
AcDbLine
 10
94.25
 20
1343.835
 30
0.0
 11
94.25
 21
1345.835
 31
0.0
  0
LINE
  5
24A
330
1E
100
AcDbEntity
  8
0
100
AcDbLine
 10
92.24999999999999
 20
1345.835
 30
0.0
 11
92.24999999999999
 21
1343.835
 31
0.0
  0
LINE
  5
24B
330
1E
100
AcDbEntity
  8
0
100
AcDbLine
 10
92.24999999999999
 20
1345.835
 30
0.0
 11
94.25
 21
1345.835
 31
0.0
  0
LINE
  5
24C
330
1E
100
AcDbEntity
  8
0
100
AcDbLine
 10
92.24999999999999
 20
1343.835
 30
0.0
 11
92.24999999999999
 21
1345.835
 31
0.0
  0
LINE
  5
24D
330
1E
100
AcDbEntity
  8
0
100
AcDbLine
 10
92.24999999999999
 20
1343.835
 30
0.0
 11
94.25
 21
1343.835
 31
0.0
  0
LINE
  5
24E
330
1E
100
AcDbEntity
  8
0
100
AcDbLine
 10
94.3764
 20
1343.835
 30
0.0
 11
94.3764
 21
1345.835
 31
0.0
  0
LINE
  5
24F
330
1E
100
AcDbEntity
  8
0
100
AcDbLine
 10
94.3764
 20
1343.835
 30
0.0
 11
94.89399999999999
 21
1343.835
 31
0.0
  0
LINE
  5
250
330
1E
100
AcDbEntity
  8
0
100
AcDbLine
 10
94.3764
 20
1343.835
 30
0.0
 11
96.30819999999999
 21
1343.835
 31
0.0
  0
LINE
  5
251
330
1E
100
AcDbEntity
  8
0
100
AcDbLine
 10
96.82590000000001
 20
1343.835
 30
0.0
 11
96.82590000000001
 21
1345.835
 31
0.0
  0
LINE
  5
252
330
1E
100
AcDbEntity
  8
0
100
AcDbLine
 10
96.30819999999999
 20
1343.835
 30
0.0
 11
96.82590000000001
 21
1343.835
 31
0.0
  0
LINE
  5
253
330
1E
100
AcDbEntity
  8
0
100
AcDbLine
 10
94.89399999999999
 20
1343.835
 30
0.0
 11
94.89399999999999
 21
1345.835
 31
0.0
  0
LINE
  5
254
330
1E
100
AcDbEntity
  8
0
100
AcDbLine
 10
94.89399999999999
 20
1343.835
 30
0.0
 11
96.82590000000001
 21
1343.835
 31
0.0
  0
LINE
  5
255
330
1E
100
AcDbEntity
  8
0
100
AcDbLine
 10
94.3764
 20
1345.835
 30
0.0
 11
94.89399999999999
 21
1345.835
 31
0.0
  0
LINE
  5
256
330
1E
100
AcDbEntity
  8
0
100
AcDbLine
 10
94.3764
 20
1345.835
 30
0.0
 11
94.3764
 21
1343.835
 31
0.0
  0
LINE
  5
257
330
1E
100
AcDbEntity
  8
0
100
AcDbLine
 10
94.89399999999999
 20
1345.835
 30
0.0
 11
96.82590000000001
 21
1345.835
 31
0.0
  0
LINE
  5
258
330
1E
100
AcDbEntity
  8
0
100
AcDbLine
 10
94.89399999999999
 20
1345.835
 30
0.0
 11
94.89399999999999
 21
1343.835
 31
0.0
  0
LINE
  5
259
330
1E
100
AcDbEntity
  8
0
100
AcDbLine
 10
101.1282
 20
1345.835
 30
0.0
 11
101.4388
 21
1345.835
 31
0.0
  0
LINE
  5
25A
330
1E
100
AcDbEntity
  8
0
100
AcDbLine
 10
101.1282
 20
1345.835
 30
0.0
 11
101.1282
 21
1343.835
 31
0.0
  0
LINE
  5
25B
330
1E
100
AcDbEntity
  8
0
100
AcDbLine
 10
101.1282
 20
1343.835
 30
0.0
 11
101.1282
 21
1345.835
 31
0.0
  0
LINE
  5
25C
330
1E
100
AcDbEntity
  8
0
100
AcDbLine
 10
101.1282
 20
1343.835
 30
0.0
 11
102.1282
 21
1343.835
 31
0.0
  0
LINE
  5
25D
330
1E
100
AcDbEntity
  8
0
100
AcDbLine
 10
101.1282
 20
1343.835
 30
0.0
 11
102.8602999999999
 21
1343.835
 31
0.0
  0
LINE
  5
25E
330
1E
100
AcDbEntity
  8
0
100
AcDbLine
 10
102.1282
 20
1343.835
 30
0.0
 11
103.8602999999999
 21
1343.835
 31
0.0
  0
LINE
  5
25F
330
1E
100
AcDbEntity
  8
0
100
AcDbLine
 10
101.4388
 20
1343.835
 30
0.0
 11
101.4388
 21
1345.835
 31
0.0
  0
LINE
  5
260
330
1E
100
AcDbEntity
  8
0
100
AcDbLine
 10
101.4388
 20
1343.835
 30
0.0
 11
102.8529999999999
 21
1343.835
 31
0.0
  0
LINE
  5
261
330
1E
100
AcDbEntity
  8
0
100
AcDbLine
 10
101.4388
 20
1345.835
 30
0.0
 11
102.8529999999999
 21
1345.835
 31
0.0
  0
LINE
  5
262
330
1E
100
AcDbEntity
  8
0
100
AcDbLine
 10
101.4388
 20
1345.835
 30
0.0
 11
101.4388
 21
1343.835
 31
0.0
  0
LINE
  5
263
330
1E
100
AcDbEntity
  8
0
100
AcDbLine
 10
102.8602999999999
 20
1343.835
 30
0.0
 11
103.8602999999999
 21
1343.835
 31
0.0
  0
LINE
  5
264
330
1E
100
AcDbEntity
  8
0
100
AcDbLine
 10
104.2672
 20
1343.835
 30
0.0
 11
104.2672
 21
1345.835
 31
0.0
  0
LINE
  5
265
330
1E
100
AcDbEntity
  8
0
100
AcDbLine
 10
102.8529999999999
 20
1343.835
 30
0.0
 11
102.8529999999999
 21
1345.835
 31
0.0
  0
LINE
  5
266
330
1E
100
AcDbEntity
  8
0
100
AcDbLine
 10
102.8529999999999
 20
1343.835
 30
0.0
 11
104.2672
 21
1343.835
 31
0.0
  0
LINE
  5
267
330
1E
100
AcDbEntity
  8
0
100
AcDbLine
 10
102.8529999999999
 20
1345.835
 30
0.0
 11
104.2672
 21
1345.835
 31
0.0
  0
LINE
  5
268
330
1E
100
AcDbEntity
  8
0
100
AcDbLine
 10
102.8529999999999
 20
1345.835
 30
0.0
 11
102.8529999999999
 21
1343.835
 31
0.0
  0
LINE
  5
269
330
1E
100
AcDbEntity
  8
0
100
AcDbLine
 10
94.25
 20
1345.835
 30
0.0
 11
94.3764
 21
1345.835
 31
0.0
  0
LINE
  5
26A
330
1E
100
AcDbEntity
  8
0
100
AcDbLine
 10
94.25
 20
1345.835
 30
0.0
 11
94.25
 21
1343.835
 31
0.0
  0
LINE
  5
26B
330
1E
100
AcDbEntity
  8
0
100
AcDbLine
 10
96.82590000000001
 20
1345.835
 30
0.0
 11
99.45
 21
1345.835
 31
0.0
  0
LINE
  5
26C
330
1E
100
AcDbEntity
  8
0
100
AcDbLine
 10
96.82590000000001
 20
1345.835
 30
0.0
 11
96.82590000000001
 21
1343.835
 31
0.0
  0
LINE
  5
26D
330
1E
100
AcDbEntity
  8
0
100
AcDbLine
 10
90.8699
 20
1345.835
 30
0.0
 11
92.24999999999999
 21
1345.835
 31
0.0
  0
LINE
  5
26E
330
1E
100
AcDbEntity
  8
0
100
AcDbLine
 10
90.8699
 20
1345.835
 30
0.0
 11
90.8699
 21
1343.835
 31
0.0
  0
LINE
  5
26F
330
1E
100
AcDbEntity
  8
0
100
AcDbLine
 10
85.15
 20
1345.835
 30
0.0
 11
88.13779999999999
 21
1345.835
 31
0.0
  0
LINE
  5
270
330
1E
100
AcDbEntity
  8
0
100
AcDbLine
 10
85.15
 20
1345.835
 30
0.0
 11
99.45
 21
1345.835
 31
0.0
  0
LINE
  5
271
330
1E
100
AcDbEntity
  8
0
100
AcDbLine
 10
107.25
 20
1343.835
 30
0.0
 11
107.25
 21
1345.835
 31
0.0
  0
LINE
  5
272
330
1E
100
AcDbEntity
  8
0
100
AcDbLine
 10
107.25
 20
1343.835
 30
0.0
 11
109.25
 21
1343.835
 31
0.0
  0
LINE
  5
273
330
1E
100
AcDbEntity
  8
0
100
AcDbLine
 10
107.25
 20
1345.835
 30
0.0
 11
107.25
 21
1343.835
 31
0.0
  0
LINE
  5
274
330
1E
100
AcDbEntity
  8
0
100
AcDbLine
 10
107.25
 20
1345.835
 30
0.0
 11
108.8653
 21
1345.835
 31
0.0
  0
LINE
  5
275
330
1E
100
AcDbEntity
  8
0
100
AcDbLine
 10
108.8653
 20
1345.835
 30
0.0
 11
109.3829
 21
1345.835
 31
0.0
  0
LINE
  5
276
330
1E
100
AcDbEntity
  8
0
100
AcDbLine
 10
108.8653
 20
1345.835
 30
0.0
 11
108.8653
 21
1343.835
 31
0.0
  0
LINE
  5
277
330
1E
100
AcDbEntity
  8
0
100
AcDbLine
 10
108.8653
 20
1343.835
 30
0.0
 11
108.8653
 21
1345.835
 31
0.0
  0
LINE
  5
278
330
1E
100
AcDbEntity
  8
0
100
AcDbLine
 10
108.8653
 20
1343.835
 30
0.0
 11
109.3829
 21
1343.835
 31
0.0
  0
LINE
  5
279
330
1E
100
AcDbEntity
  8
0
100
AcDbLine
 10
108.8653
 20
1343.835
 30
0.0
 11
110.7971
 21
1343.835
 31
0.0
  0
LINE
  5
27A
330
1E
100
AcDbEntity
  8
0
100
AcDbLine
 10
111.3148
 20
1343.835
 30
0.0
 11
111.3148
 21
1345.835
 31
0.0
  0
LINE
  5
27B
330
1E
100
AcDbEntity
  8
0
100
AcDbLine
 10
110.7971
 20
1343.835
 30
0.0
 11
111.3148
 21
1343.835
 31
0.0
  0
LINE
  5
27C
330
1E
100
AcDbEntity
  8
0
100
AcDbLine
 10
109.3829
 20
1343.835
 30
0.0
 11
109.3829
 21
1345.835
 31
0.0
  0
LINE
  5
27D
330
1E
100
AcDbEntity
  8
0
100
AcDbLine
 10
109.3829
 20
1343.835
 30
0.0
 11
111.3148
 21
1343.835
 31
0.0
  0
LINE
  5
27E
330
1E
100
AcDbEntity
  8
0
100
AcDbLine
 10
109.3829
 20
1345.835
 30
0.0
 11
111.3148
 21
1345.835
 31
0.0
  0
LINE
  5
27F
330
1E
100
AcDbEntity
  8
0
100
AcDbLine
 10
109.3829
 20
1345.835
 30
0.0
 11
109.3829
 21
1343.835
 31
0.0
  0
LINE
  5
280
330
1E
100
AcDbEntity
  8
0
100
AcDbLine
 10
114.1186
 20
1343.835
 30
0.0
 11
115.1186
 21
1343.835
 31
0.0
  0
LINE
  5
281
330
1E
100
AcDbEntity
  8
0
100
AcDbLine
 10
114.1186
 20
1343.835
 30
0.0
 11
115.8506999999999
 21
1343.835
 31
0.0
  0
LINE
  5
282
330
1E
100
AcDbEntity
  8
0
100
AcDbLine
 10
116.8506999999999
 20
1343.835
 30
0.0
 11
116.8506999999999
 21
1345.835
 31
0.0
  0
LINE
  5
283
330
1E
100
AcDbEntity
  8
0
100
AcDbLine
 10
115.8506999999999
 20
1343.835
 30
0.0
 11
116.8506999999999
 21
1343.835
 31
0.0
  0
LINE
  5
284
330
1E
100
AcDbEntity
  8
0
100
AcDbLine
 10
115.1186
 20
1343.835
 30
0.0
 11
115.1186
 21
1345.835
 31
0.0
  0
LINE
  5
285
330
1E
100
AcDbEntity
  8
0
100
AcDbLine
 10
115.1186
 20
1343.835
 30
0.0
 11
116.8506999999999
 21
1343.835
 31
0.0
  0
LINE
  5
286
330
1E
100
AcDbEntity
  8
0
100
AcDbLine
 10
114.8738
 20
1343.835
 30
0.0
 11
114.8738
 21
1345.835
 31
0.0
  0
LINE
  5
287
330
1E
100
AcDbEntity
  8
0
100
AcDbLine
 10
112.0454
 20
1343.835
 30
0.0
 11
112.0454
 21
1345.835
 31
0.0
  0
LINE
  5
288
330
1E
100
AcDbEntity
  8
0
100
AcDbLine
 10
112.0454
 20
1343.835
 30
0.0
 11
113.4595999999999
 21
1343.835
 31
0.0
  0
LINE
  5
289
330
1E
100
AcDbEntity
  8
0
100
AcDbLine
 10
113.4595999999999
 20
1343.835
 30
0.0
 11
113.4595999999999
 21
1345.835
 31
0.0
  0
LINE
  5
28A
330
1E
100
AcDbEntity
  8
0
100
AcDbLine
 10
113.4595999999999
 20
1343.835
 30
0.0
 11
114.8738
 21
1343.835
 31
0.0
  0
LINE
  5
28B
330
1E
100
AcDbEntity
  8
0
100
AcDbLine
 10
121.616
 20
1343.835
 30
0.0
 11
121.616
 21
1345.835
 31
0.0
  0
LINE
  5
28C
330
1E
100
AcDbEntity
  8
0
100
AcDbLine
 10
119.884
 20
1343.835
 30
0.0
 11
121.616
 21
1343.835
 31
0.0
  0
LINE
  5
28D
330
1E
100
AcDbEntity
  8
0
100
AcDbLine
 10
118.884
 20
1343.835
 30
0.0
 11
118.884
 21
1345.835
 31
0.0
  0
LINE
  5
28E
330
1E
100
AcDbEntity
  8
0
100
AcDbLine
 10
118.884
 20
1343.835
 30
0.0
 11
120.616
 21
1343.835
 31
0.0
  0
LINE
  5
28F
330
1E
100
AcDbEntity
  8
0
100
AcDbLine
 10
118.884
 20
1343.835
 30
0.0
 11
119.884
 21
1343.835
 31
0.0
  0
LINE
  5
290
330
1E
100
AcDbEntity
  8
0
100
AcDbLine
 10
112.0454
 20
1345.835
 30
0.0
 11
113.4595999999999
 21
1345.835
 31
0.0
  0
LINE
  5
291
330
1E
100
AcDbEntity
  8
0
100
AcDbLine
 10
112.0454
 20
1345.835
 30
0.0
 11
112.0454
 21
1343.835
 31
0.0
  0
LINE
  5
292
330
1E
100
AcDbEntity
  8
0
100
AcDbLine
 10
115.1186
 20
1345.835
 30
0.0
 11
116.8506999999999
 21
1345.835
 31
0.0
  0
LINE
  5
293
330
1E
100
AcDbEntity
  8
0
100
AcDbLine
 10
115.1186
 20
1345.835
 30
0.0
 11
115.1186
 21
1343.835
 31
0.0
  0
LINE
  5
294
330
1E
100
AcDbEntity
  8
0
100
AcDbLine
 10
114.8738
 20
1345.835
 30
0.0
 11
114.8738
 21
1343.835
 31
0.0
  0
LINE
  5
295
330
1E
100
AcDbEntity
  8
0
100
AcDbLine
 10
114.8738
 20
1345.835
 30
0.0
 11
115.1186
 21
1345.835
 31
0.0
  0
LINE
  5
296
330
1E
100
AcDbEntity
  8
0
100
AcDbLine
 10
113.4595999999999
 20
1345.835
 30
0.0
 11
114.8738
 21
1345.835
 31
0.0
  0
LINE
  5
297
330
1E
100
AcDbEntity
  8
0
100
AcDbLine
 10
113.4595999999999
 20
1345.835
 30
0.0
 11
113.4595999999999
 21
1343.835
 31
0.0
  0
LINE
  5
298
330
1E
100
AcDbEntity
  8
0
100
AcDbLine
 10
120.616
 20
1345.835
 30
0.0
 11
121.616
 21
1345.835
 31
0.0
  0
LINE
  5
299
330
1E
100
AcDbEntity
  8
0
100
AcDbLine
 10
120.616
 20
1345.835
 30
0.0
 11
120.616
 21
1343.835
 31
0.0
  0
LINE
  5
29A
330
1E
100
AcDbEntity
  8
0
100
AcDbLine
 10
118.884
 20
1345.835
 30
0.0
 11
118.884
 21
1343.835
 31
0.0
  0
LINE
  5
29B
330
1E
100
AcDbEntity
  8
0
100
AcDbLine
 10
118.884
 20
1345.835
 30
0.0
 11
120.616
 21
1345.835
 31
0.0
  0
LINE
  5
29C
330
1E
100
AcDbEntity
  8
0
100
AcDbLine
 10
120.616
 20
1343.835
 30
0.0
 11
121.616
 21
1343.835
 31
0.0
  0
LINE
  5
29D
330
1E
100
AcDbEntity
  8
0
100
AcDbLine
 10
120.616
 20
1343.835
 30
0.0
 11
120.616
 21
1345.835
 31
0.0
  0
LINE
  5
29E
330
1E
100
AcDbEntity
  8
0
100
AcDbLine
 10
111.3148
 20
1345.835
 30
0.0
 11
112.0454
 21
1345.835
 31
0.0
  0
LINE
  5
29F
330
1E
100
AcDbEntity
  8
0
100
AcDbLine
 10
111.3148
 20
1345.835
 30
0.0
 11
111.3148
 21
1343.835
 31
0.0
  0
LINE
  5
2A0
330
1E
100
AcDbEntity
  8
0
100
AcDbLine
 10
116.8506999999999
 20
1345.835
 30
0.0
 11
118.05
 21
1345.835
 31
0.0
  0
LINE
  5
2A1
330
1E
100
AcDbEntity
  8
0
100
AcDbLine
 10
116.8506999999999
 20
1345.835
 30
0.0
 11
116.8506999999999
 21
1343.835
 31
0.0
  0
LINE
  5
2A2
330
1E
100
AcDbEntity
  8
0
100
AcDbLine
 10
104.2672
 20
1345.835
 30
0.0
 11
107.25
 21
1345.835
 31
0.0
  0
LINE
  5
2A3
330
1E
100
AcDbEntity
  8
0
100
AcDbLine
 10
104.2672
 20
1345.835
 30
0.0
 11
104.2672
 21
1343.835
 31
0.0
  0
LINE
  5
2A4
330
1E
100
AcDbEntity
  8
0
100
AcDbLine
 10
99.45
 20
1345.835
 30
0.0
 11
101.1282
 21
1345.835
 31
0.0
  0
LINE
  5
2A5
330
1E
100
AcDbEntity
  8
0
100
AcDbLine
 10
99.45
 20
1345.835
 30
0.0
 11
118.05
 21
1345.835
 31
0.0
  0
LINE
  5
2A6
330
1E
100
AcDbEntity
  8
0
100
AcDbLine
 10
122.2499999999999
 20
1343.835
 30
0.0
 11
122.2499999999999
 21
1345.835
 31
0.0
  0
LINE
  5
2A7
330
1E
100
AcDbEntity
  8
0
100
AcDbLine
 10
122.2499999999999
 20
1343.835
 30
0.0
 11
124.2499999999999
 21
1343.835
 31
0.0
  0
LINE
  5
2A8
330
1E
100
AcDbEntity
  8
0
100
AcDbLine
 10
123.3540999999999
 20
1343.835
 30
0.0
 11
123.8717999999999
 21
1343.835
 31
0.0
  0
LINE
  5
2A9
330
1E
100
AcDbEntity
  8
0
100
AcDbLine
 10
123.3540999999999
 20
1343.835
 30
0.0
 11
125.286
 21
1343.835
 31
0.0
  0
LINE
  5
2AA
330
1E
100
AcDbEntity
  8
0
100
AcDbLine
 10
123.8717999999999
 20
1343.835
 30
0.0
 11
125.8036
 21
1343.835
 31
0.0
  0
LINE
  5
2AB
330
1E
100
AcDbEntity
  8
0
100
AcDbLine
 10
122.652
 20
1343.835
 30
0.0
 11
122.652
 21
1345.835
 31
0.0
  0
LINE
  5
2AC
330
1E
100
AcDbEntity
  8
0
100
AcDbLine
 10
122.652
 20
1343.835
 30
0.0
 11
124.0661999999999
 21
1343.835
 31
0.0
  0
LINE
  5
2AD
330
1E
100
AcDbEntity
  8
0
100
AcDbLine
 10
122.2499999999999
 20
1345.835
 30
0.0
 11
122.2499999999999
 21
1343.835
 31
0.0
  0
LINE
  5
2AE
330
1E
100
AcDbEntity
  8
0
100
AcDbLine
 10
122.2499999999999
 20
1345.835
 30
0.0
 11
122.652
 21
1345.835
 31
0.0
  0
LINE
  5
2AF
330
1E
100
AcDbEntity
  8
0
100
AcDbLine
 10
122.652
 20
1345.835
 30
0.0
 11
124.0661999999999
 21
1345.835
 31
0.0
  0
LINE
  5
2B0
330
1E
100
AcDbEntity
  8
0
100
AcDbLine
 10
122.652
 20
1345.835
 30
0.0
 11
122.652
 21
1343.835
 31
0.0
  0
LINE
  5
2B1
330
1E
100
AcDbEntity
  8
0
100
AcDbLine
 10
124.0661999999999
 20
1343.835
 30
0.0
 11
124.0661999999999
 21
1345.835
 31
0.0
  0
LINE
  5
2B2
330
1E
100
AcDbEntity
  8
0
100
AcDbLine
 10
124.0661999999999
 20
1343.835
 30
0.0
 11
125.4804
 21
1343.835
 31
0.0
  0
LINE
  5
2B3
330
1E
100
AcDbEntity
  8
0
100
AcDbLine
 10
125.286
 20
1343.835
 30
0.0
 11
125.8036
 21
1343.835
 31
0.0
  0
LINE
  5
2B4
330
1E
100
AcDbEntity
  8
0
100
AcDbLine
 10
125.8036
 20
1343.835
 30
0.0
 11
125.8036
 21
1345.835
 31
0.0
  0
LINE
  5
2B5
330
1E
100
AcDbEntity
  8
0
100
AcDbLine
 10
128.841
 20
1343.835
 30
0.0
 11
129.841
 21
1343.835
 31
0.0
  0
LINE
  5
2B6
330
1E
100
AcDbEntity
  8
0
100
AcDbLine
 10
127.109
 20
1343.835
 30
0.0
 11
128.109
 21
1343.835
 31
0.0
  0
LINE
  5
2B7
330
1E
100
AcDbEntity
  8
0
100
AcDbLine
 10
127.109
 20
1343.835
 30
0.0
 11
128.841
 21
1343.835
 31
0.0
  0
LINE
  5
2B8
330
1E
100
AcDbEntity
  8
0
100
AcDbLine
 10
128.109
 20
1343.835
 30
0.0
 11
129.841
 21
1343.835
 31
0.0
  0
LINE
  5
2B9
330
1E
100
AcDbEntity
  8
0
100
AcDbLine
 10
129.841
 20
1343.835
 30
0.0
 11
129.841
 21
1345.835
 31
0.0
  0
LINE
  5
2BA
330
1E
100
AcDbEntity
  8
0
100
AcDbLine
 10
129.116
 20
1343.835
 30
0.0
 11
129.116
 21
1345.835
 31
0.0
  0
LINE
  5
2BB
330
1E
100
AcDbEntity
  8
0
100
AcDbLine
 10
127.384
 20
1343.835
 30
0.0
 11
129.116
 21
1343.835
 31
0.0
  0
LINE
  5
2BC
330
1E
100
AcDbEntity
  8
0
100
AcDbLine
 10
126.384
 20
1343.835
 30
0.0
 11
126.384
 21
1345.835
 31
0.0
  0
LINE
  5
2BD
330
1E
100
AcDbEntity
  8
0
100
AcDbLine
 10
126.384
 20
1343.835
 30
0.0
 11
128.116
 21
1343.835
 31
0.0
  0
LINE
  5
2BE
330
1E
100
AcDbEntity
  8
0
100
AcDbLine
 10
126.384
 20
1343.835
 30
0.0
 11
127.384
 21
1343.835
 31
0.0
  0
LINE
  5
2BF
330
1E
100
AcDbEntity
  8
0
100
AcDbLine
 10
128.116
 20
1343.835
 30
0.0
 11
128.116
 21
1345.835
 31
0.0
  0
LINE
  5
2C0
330
1E
100
AcDbEntity
  8
0
100
AcDbLine
 10
128.116
 20
1343.835
 30
0.0
 11
129.116
 21
1343.835
 31
0.0
  0
LINE
  5
2C1
330
1E
100
AcDbEntity
  8
0
100
AcDbLine
 10
136.616
 20
1343.835
 30
0.0
 11
136.616
 21
1345.835
 31
0.0
  0
LINE
  5
2C2
330
1E
100
AcDbEntity
  8
0
100
AcDbLine
 10
134.8839999999999
 20
1343.835
 30
0.0
 11
136.616
 21
1343.835
 31
0.0
  0
LINE
  5
2C3
330
1E
100
AcDbEntity
  8
0
100
AcDbLine
 10
133.8839999999999
 20
1343.835
 30
0.0
 11
133.8839999999999
 21
1345.835
 31
0.0
  0
LINE
  5
2C4
330
1E
100
AcDbEntity
  8
0
100
AcDbLine
 10
133.8839999999999
 20
1343.835
 30
0.0
 11
135.616
 21
1343.835
 31
0.0
  0
LINE
  5
2C5
330
1E
100
AcDbEntity
  8
0
100
AcDbLine
 10
133.8839999999999
 20
1343.835
 30
0.0
 11
134.8839999999999
 21
1343.835
 31
0.0
  0
LINE
  5
2C6
330
1E
100
AcDbEntity
  8
0
100
AcDbLine
 10
135.616
 20
1343.835
 30
0.0
 11
135.616
 21
1345.835
 31
0.0
  0
LINE
  5
2C7
330
1E
100
AcDbEntity
  8
0
100
AcDbLine
 10
135.616
 20
1343.835
 30
0.0
 11
136.616
 21
1343.835
 31
0.0
  0
LINE
  5
2C8
330
1E
100
AcDbEntity
  8
0
100
AcDbLine
 10
133.2586
 20
1343.835
 30
0.0
 11
133.2586
 21
1345.835
 31
0.0
  0
LINE
  5
2C9
330
1E
100
AcDbEntity
  8
0
100
AcDbLine
 10
133.2586
 20
1343.835
 30
0.0
 11
134.6727999999999
 21
1343.835
 31
0.0
  0
LINE
  5
2CA
330
1E
100
AcDbEntity
  8
0
100
AcDbLine
 10
126.384
 20
1345.835
 30
0.0
 11
128.116
 21
1345.835
 31
0.0
  0
LINE
  5
2CB
330
1E
100
AcDbEntity
  8
0
100
AcDbLine
 10
126.384
 20
1345.835
 30
0.0
 11
126.384
 21
1343.835
 31
0.0
  0
LINE
  5
2CC
330
1E
100
AcDbEntity
  8
0
100
AcDbLine
 10
128.116
 20
1345.835
 30
0.0
 11
129.116
 21
1345.835
 31
0.0
  0
LINE
  5
2CD
330
1E
100
AcDbEntity
  8
0
100
AcDbLine
 10
128.116
 20
1345.835
 30
0.0
 11
128.116
 21
1343.835
 31
0.0
  0
LINE
  5
2CE
330
1E
100
AcDbEntity
  8
0
100
AcDbLine
 10
129.116
 20
1345.835
 30
0.0
 11
129.116
 21
1343.835
 31
0.0
  0
LINE
  5
2CF
330
1E
100
AcDbEntity
  8
0
100
AcDbLine
 10
129.116
 20
1345.835
 30
0.0
 11
129.841
 21
1345.835
 31
0.0
  0
LINE
  5
2D0
330
1E
100
AcDbEntity
  8
0
100
AcDbLine
 10
133.8839999999999
 20
1345.835
 30
0.0
 11
135.616
 21
1345.835
 31
0.0
  0
LINE
  5
2D1
330
1E
100
AcDbEntity
  8
0
100
AcDbLine
 10
133.8839999999999
 20
1345.835
 30
0.0
 11
133.8839999999999
 21
1343.835
 31
0.0
  0
LINE
  5
2D2
330
1E
100
AcDbEntity
  8
0
100
AcDbLine
 10
135.616
 20
1345.835
 30
0.0
 11
136.616
 21
1345.835
 31
0.0
  0
LINE
  5
2D3
330
1E
100
AcDbEntity
  8
0
100
AcDbLine
 10
135.616
 20
1345.835
 30
0.0
 11
135.616
 21
1343.835
 31
0.0
  0
LINE
  5
2D4
330
1E
100
AcDbEntity
  8
0
100
AcDbLine
 10
133.2586
 20
1345.835
 30
0.0
 11
133.8839999999999
 21
1345.835
 31
0.0
  0
LINE
  5
2D5
330
1E
100
AcDbEntity
  8
0
100
AcDbLine
 10
133.2586
 20
1345.835
 30
0.0
 11
133.2586
 21
1343.835
 31
0.0
  0
LINE
  5
2D6
330
1E
100
AcDbEntity
  8
0
100
AcDbLine
 10
134.6727999999999
 20
1343.835
 30
0.0
 11
136.0870999999999
 21
1343.835
 31
0.0
  0
LINE
  5
2D7
330
1E
100
AcDbEntity
  8
0
100
AcDbLine
 10
125.4804
 20
1343.835
 30
0.0
 11
125.4804
 21
1345.835
 31
0.0
  0
LINE
  5
2D8
330
1E
100
AcDbEntity
  8
0
100
AcDbLine
 10
125.4804
 20
1345.835
 30
0.0
 11
125.4804
 21
1343.835
 31
0.0
  0
LINE
  5
2D9
330
1E
100
AcDbEntity
  8
0
100
AcDbLine
 10
125.4804
 20
1345.835
 30
0.0
 11
125.8036
 21
1345.835
 31
0.0
  0
LINE
  5
2DA
330
1E
100
AcDbEntity
  8
0
100
AcDbLine
 10
124.0661999999999
 20
1345.835
 30
0.0
 11
125.4804
 21
1345.835
 31
0.0
  0
LINE
  5
2DB
330
1E
100
AcDbEntity
  8
0
100
AcDbLine
 10
124.0661999999999
 20
1345.835
 30
0.0
 11
124.0661999999999
 21
1343.835
 31
0.0
  0
LINE
  5
2DC
330
1E
100
AcDbEntity
  8
0
100
AcDbLine
 10
129.841
 20
1345.835
 30
0.0
 11
133.2586
 21
1345.835
 31
0.0
  0
LINE
  5
2DD
330
1E
100
AcDbEntity
  8
0
100
AcDbLine
 10
129.841
 20
1345.835
 30
0.0
 11
129.841
 21
1343.835
 31
0.0
  0
LINE
  5
2DE
330
1E
100
AcDbEntity
  8
0
100
AcDbLine
 10
137.25
 20
1343.835
 30
0.0
 11
137.25
 21
1345.835
 31
0.0
  0
LINE
  5
2DF
330
1E
100
AcDbEntity
  8
0
100
AcDbLine
 10
137.25
 20
1343.835
 30
0.0
 11
139.25
 21
1343.835
 31
0.0
  0
LINE
  5
2E0
330
1E
100
AcDbEntity
  8
0
100
AcDbLine
 10
137.8429999999999
 20
1343.835
 30
0.0
 11
137.8429999999999
 21
1345.835
 31
0.0
  0
LINE
  5
2E1
330
1E
100
AcDbEntity
  8
0
100
AcDbLine
 10
137.8429999999999
 20
1343.835
 30
0.0
 11
138.3607
 21
1343.835
 31
0.0
  0
LINE
  5
2E2
330
1E
100
AcDbEntity
  8
0
100
AcDbLine
 10
137.8429999999999
 20
1343.835
 30
0.0
 11
139.7749
 21
1343.835
 31
0.0
  0
LINE
  5
2E3
330
1E
100
AcDbEntity
  8
0
100
AcDbLine
 10
138.3607
 20
1343.835
 30
0.0
 11
138.3607
 21
1345.835
 31
0.0
  0
LINE
  5
2E4
330
1E
100
AcDbEntity
  8
0
100
AcDbLine
 10
138.3607
 20
1343.835
 30
0.0
 11
140.2924999999999
 21
1343.835
 31
0.0
  0
LINE
  5
2E5
330
1E
100
AcDbEntity
  8
0
100
AcDbLine
 10
140.0994
 20
1343.835
 30
0.0
 11
141.0994
 21
1343.835
 31
0.0
  0
LINE
  5
2E6
330
1E
100
AcDbEntity
  8
0
100
AcDbLine
 10
140.0994
 20
1343.835
 30
0.0
 11
141.8314
 21
1343.835
 31
0.0
  0
LINE
  5
2E7
330
1E
100
AcDbEntity
  8
0
100
AcDbLine
 10
141.0994
 20
1343.835
 30
0.0
 11
142.8314
 21
1343.835
 31
0.0
  0
LINE
  5
2E8
330
1E
100
AcDbEntity
  8
0
100
AcDbLine
 10
141.7339
 20
1343.835
 30
0.0
 11
141.7339
 21
1345.835
 31
0.0
  0
LINE
  5
2E9
330
1E
100
AcDbEntity
  8
0
100
AcDbLine
 10
141.8314
 20
1343.835
 30
0.0
 11
142.8314
 21
1343.835
 31
0.0
  0
LINE
  5
2EA
330
1E
100
AcDbEntity
  8
0
100
AcDbLine
 10
142.384
 20
1343.835
 30
0.0
 11
144.116
 21
1343.835
 31
0.0
  0
LINE
  5
2EB
330
1E
100
AcDbEntity
  8
0
100
AcDbLine
 10
141.3839999999999
 20
1343.835
 30
0.0
 11
143.116
 21
1343.835
 31
0.0
  0
LINE
  5
2EC
330
1E
100
AcDbEntity
  8
0
100
AcDbLine
 10
141.3839999999999
 20
1343.835
 30
0.0
 11
142.384
 21
1343.835
 31
0.0
  0
LINE
  5
2ED
330
1E
100
AcDbEntity
  8
0
100
AcDbLine
 10
143.116
 20
1343.835
 30
0.0
 11
143.116
 21
1345.835
 31
0.0
  0
LINE
  5
2EE
330
1E
100
AcDbEntity
  8
0
100
AcDbLine
 10
143.116
 20
1343.835
 30
0.0
 11
144.116
 21
1343.835
 31
0.0
  0
LINE
  5
2EF
330
1E
100
AcDbEntity
  8
0
100
AcDbLine
 10
139.7749
 20
1343.835
 30
0.0
 11
140.2924999999999
 21
1343.835
 31
0.0
  0
LINE
  5
2F0
330
1E
100
AcDbEntity
  8
0
100
AcDbLine
 10
139.8020999999999
 20
1343.835
 30
0.0
 11
141.7339
 21
1343.835
 31
0.0
  0
LINE
  5
2F1
330
1E
100
AcDbEntity
  8
0
100
AcDbLine
 10
139.2845
 20
1343.835
 30
0.0
 11
141.2162999999999
 21
1343.835
 31
0.0
  0
LINE
  5
2F2
330
1E
100
AcDbEntity
  8
0
100
AcDbLine
 10
139.2845
 20
1343.835
 30
0.0
 11
139.8020999999999
 21
1343.835
 31
0.0
  0
LINE
  5
2F3
330
1E
100
AcDbEntity
  8
0
100
AcDbLine
 10
139.2845
 20
1343.835
 30
0.0
 11
139.2845
 21
1345.835
 31
0.0
  0
LINE
  5
2F4
330
1E
100
AcDbEntity
  8
0
100
AcDbLine
 10
141.2162999999999
 20
1343.835
 30
0.0
 11
141.7339
 21
1343.835
 31
0.0
  0
LINE
  5
2F5
330
1E
100
AcDbEntity
  8
0
100
AcDbLine
 10
141.2162999999999
 20
1343.835
 30
0.0
 11
141.2162999999999
 21
1345.835
 31
0.0
  0
LINE
  5
2F6
330
1E
100
AcDbEntity
  8
0
100
AcDbLine
 10
143.8651999999999
 20
1343.835
 30
0.0
 11
145.2794
 21
1343.835
 31
0.0
  0
LINE
  5
2F7
330
1E
100
AcDbEntity
  8
0
100
AcDbLine
 10
143.6844
 20
1343.835
 30
0.0
 11
145.6161999999999
 21
1343.835
 31
0.0
  0
LINE
  5
2F8
330
1E
100
AcDbEntity
  8
0
100
AcDbLine
 10
137.25
 20
1345.835
 30
0.0
 11
137.25
 21
1343.835
 31
0.0
  0
LINE
  5
2F9
330
1E
100
AcDbEntity
  8
0
100
AcDbLine
 10
137.25
 20
1345.835
 30
0.0
 11
137.8429999999999
 21
1345.835
 31
0.0
  0
LINE
  5
2FA
330
1E
100
AcDbEntity
  8
0
100
AcDbLine
 10
137.8429999999999
 20
1345.835
 30
0.0
 11
138.3607
 21
1345.835
 31
0.0
  0
LINE
  5
2FB
330
1E
100
AcDbEntity
  8
0
100
AcDbLine
 10
137.8429999999999
 20
1345.835
 30
0.0
 11
137.8429999999999
 21
1343.835
 31
0.0
  0
LINE
  5
2FC
330
1E
100
AcDbEntity
  8
0
100
AcDbLine
 10
139.2845
 20
1345.835
 30
0.0
 11
141.2162999999999
 21
1345.835
 31
0.0
  0
LINE
  5
2FD
330
1E
100
AcDbEntity
  8
0
100
AcDbLine
 10
139.2845
 20
1345.835
 30
0.0
 11
139.2845
 21
1343.835
 31
0.0
  0
LINE
  5
2FE
330
1E
100
AcDbEntity
  8
0
100
AcDbLine
 10
141.2162999999999
 20
1345.835
 30
0.0
 11
141.7339
 21
1345.835
 31
0.0
  0
LINE
  5
2FF
330
1E
100
AcDbEntity
  8
0
100
AcDbLine
 10
141.2162999999999
 20
1345.835
 30
0.0
 11
141.2162999999999
 21
1343.835
 31
0.0
  0
LINE
  5
300
330
1E
100
AcDbEntity
  8
0
100
AcDbLine
 10
143.1667
 20
1345.835
 30
0.0
 11
145.0986
 21
1345.835
 31
0.0
  0
LINE
  5
301
330
1E
100
AcDbEntity
  8
0
100
AcDbLine
 10
143.1667
 20
1345.835
 30
0.0
 11
143.1667
 21
1343.835
 31
0.0
  0
LINE
  5
302
330
1E
100
AcDbEntity
  8
0
100
AcDbLine
 10
145.0986
 20
1345.835
 30
0.0
 11
145.6161999999999
 21
1345.835
 31
0.0
  0
LINE
  5
303
330
1E
100
AcDbEntity
  8
0
100
AcDbLine
 10
145.0986
 20
1345.835
 30
0.0
 11
145.0986
 21
1343.835
 31
0.0
  0
LINE
  5
304
330
1E
100
AcDbEntity
  8
0
100
AcDbLine
 10
141.7339
 20
1345.835
 30
0.0
 11
143.116
 21
1345.835
 31
0.0
  0
LINE
  5
305
330
1E
100
AcDbEntity
  8
0
100
AcDbLine
 10
141.7339
 20
1345.835
 30
0.0
 11
141.7339
 21
1343.835
 31
0.0
  0
LINE
  5
306
330
1E
100
AcDbEntity
  8
0
100
AcDbLine
 10
143.116
 20
1345.835
 30
0.0
 11
143.1667
 21
1345.835
 31
0.0
  0
LINE
  5
307
330
1E
100
AcDbEntity
  8
0
100
AcDbLine
 10
143.116
 20
1345.835
 30
0.0
 11
143.116
 21
1343.835
 31
0.0
  0
LINE
  5
308
330
1E
100
AcDbEntity
  8
0
100
AcDbLine
 10
138.3607
 20
1345.835
 30
0.0
 11
139.2845
 21
1345.835
 31
0.0
  0
LINE
  5
309
330
1E
100
AcDbEntity
  8
0
100
AcDbLine
 10
138.3607
 20
1345.835
 30
0.0
 11
138.3607
 21
1343.835
 31
0.0
  0
LINE
  5
30A
330
1E
100
AcDbEntity
  8
0
100
AcDbLine
 10
143.1667
 20
1343.835
 30
0.0
 11
145.0986
 21
1343.835
 31
0.0
  0
LINE
  5
30B
330
1E
100
AcDbEntity
  8
0
100
AcDbLine
 10
143.1667
 20
1343.835
 30
0.0
 11
143.6844
 21
1343.835
 31
0.0
  0
LINE
  5
30C
330
1E
100
AcDbEntity
  8
0
100
AcDbLine
 10
143.1667
 20
1343.835
 30
0.0
 11
143.1667
 21
1345.835
 31
0.0
  0
LINE
  5
30D
330
1E
100
AcDbEntity
  8
0
100
AcDbLine
 10
145.6161999999999
 20
1343.835
 30
0.0
 11
145.6161999999999
 21
1345.835
 31
0.0
  0
LINE
  5
30E
330
1E
100
AcDbEntity
  8
0
100
AcDbLine
 10
146.6936
 20
1343.835
 30
0.0
 11
146.6936
 21
1345.835
 31
0.0
  0
LINE
  5
30F
330
1E
100
AcDbEntity
  8
0
100
AcDbLine
 10
145.2794
 20
1343.835
 30
0.0
 11
146.6936
 21
1343.835
 31
0.0
  0
LINE
  5
310
330
1E
100
AcDbEntity
  8
0
100
AcDbLine
 10
147.567
 20
1343.835
 30
0.0
 11
149.499
 21
1343.835
 31
0.0
  0
LINE
  5
311
330
1E
100
AcDbEntity
  8
0
100
AcDbLine
 10
147.049
 20
1343.835
 30
0.0
 11
147.049
 21
1345.835
 31
0.0
  0
LINE
  5
312
330
1E
100
AcDbEntity
  8
0
100
AcDbLine
 10
147.049
 20
1343.835
 30
0.0
 11
148.981
 21
1343.835
 31
0.0
  0
LINE
  5
313
330
1E
100
AcDbEntity
  8
0
100
AcDbLine
 10
147.049
 20
1343.835
 30
0.0
 11
147.567
 21
1343.835
 31
0.0
  0
LINE
  5
314
330
1E
100
AcDbEntity
  8
0
100
AcDbLine
 10
151.25
 20
1343.835
 30
0.0
 11
151.25
 21
362.8349999999999
 31
0.0
  0
LINE
  5
315
330
1E
100
AcDbEntity
  8
0
100
AcDbLine
 10
149.499
 20
1343.835
 30
0.0
 11
149.499
 21
1345.835
 31
0.0
  0
LINE
  5
316
330
1E
100
AcDbEntity
  8
0
100
AcDbLine
 10
148.981
 20
1343.835
 30
0.0
 11
148.981
 21
1345.835
 31
0.0
  0
LINE
  5
317
330
1E
100
AcDbEntity
  8
0
100
AcDbLine
 10
148.981
 20
1343.835
 30
0.0
 11
149.499
 21
1343.835
 31
0.0
  0
LINE
  5
318
330
1E
100
AcDbEntity
  8
0
100
AcDbLine
 10
151.4489999999999
 20
1343.835
 30
0.0
 11
153.381
 21
1343.835
 31
0.0
  0
LINE
  5
319
330
1E
100
AcDbEntity
  8
0
100
AcDbLine
 10
150.931
 20
1343.835
 30
0.0
 11
150.931
 21
1345.835
 31
0.0
  0
LINE
  5
31A
330
1E
100
AcDbEntity
  8
0
100
AcDbLine
 10
150.931
 20
1343.835
 30
0.0
 11
152.8629999999999
 21
1343.835
 31
0.0
  0
LINE
  5
31B
330
1E
100
AcDbEntity
  8
0
100
AcDbLine
 10
150.931
 20
1343.835
 30
0.0
 11
151.4489999999999
 21
1343.835
 31
0.0
  0
LINE
  5
31C
330
1E
100
AcDbEntity
  8
0
100
AcDbLine
 10
153.381
 20
1343.835
 30
0.0
 11
153.381
 21
1345.835
 31
0.0
  0
LINE
  5
31D
330
1E
100
AcDbEntity
  8
0
100
AcDbLine
 10
152.8629999999999
 20
1343.835
 30
0.0
 11
152.8629999999999
 21
1345.835
 31
0.0
  0
LINE
  5
31E
330
1E
100
AcDbEntity
  8
0
100
AcDbLine
 10
152.8629999999999
 20
1343.835
 30
0.0
 11
153.381
 21
1343.835
 31
0.0
  0
LINE
  5
31F
330
1E
100
AcDbEntity
  8
0
100
AcDbLine
 10
149.8839999999999
 20
1343.835
 30
0.0
 11
151.616
 21
1343.835
 31
0.0
  0
LINE
  5
320
330
1E
100
AcDbEntity
  8
0
100
AcDbLine
 10
148.8839999999999
 20
1343.835
 30
0.0
 11
150.616
 21
1343.835
 31
0.0
  0
LINE
  5
321
330
1E
100
AcDbEntity
  8
0
100
AcDbLine
 10
148.8839999999999
 20
1343.835
 30
0.0
 11
149.8839999999999
 21
1343.835
 31
0.0
  0
LINE
  5
322
330
1E
100
AcDbEntity
  8
0
100
AcDbLine
 10
145.6161999999999
 20
1345.835
 30
0.0
 11
146.6936
 21
1345.835
 31
0.0
  0
LINE
  5
323
330
1E
100
AcDbEntity
  8
0
100
AcDbLine
 10
145.6161999999999
 20
1345.835
 30
0.0
 11
145.6161999999999
 21
1343.835
 31
0.0
  0
LINE
  5
324
330
1E
100
AcDbEntity
  8
0
100
AcDbLine
 10
147.049
 20
1345.835
 30
0.0
 11
148.981
 21
1345.835
 31
0.0
  0
LINE
  5
325
330
1E
100
AcDbEntity
  8
0
100
AcDbLine
 10
147.049
 20
1345.835
 30
0.0
 11
147.049
 21
1343.835
 31
0.0
  0
LINE
  5
326
330
1E
100
AcDbEntity
  8
0
100
AcDbLine
 10
148.981
 20
1345.835
 30
0.0
 11
149.499
 21
1345.835
 31
0.0
  0
LINE
  5
327
330
1E
100
AcDbEntity
  8
0
100
AcDbLine
 10
148.981
 20
1345.835
 30
0.0
 11
148.981
 21
1343.835
 31
0.0
  0
LINE
  5
328
330
1E
100
AcDbEntity
  8
0
100
AcDbLine
 10
149.499
 20
1345.835
 30
0.0
 11
150.616
 21
1345.835
 31
0.0
  0
LINE
  5
329
330
1E
100
AcDbEntity
  8
0
100
AcDbLine
 10
149.499
 20
1345.835
 30
0.0
 11
149.499
 21
1343.835
 31
0.0
  0
LINE
  5
32A
330
1E
100
AcDbEntity
  8
0
100
AcDbLine
 10
150.931
 20
1345.835
 30
0.0
 11
152.8629999999999
 21
1345.835
 31
0.0
  0
LINE
  5
32B
330
1E
100
AcDbEntity
  8
0
100
AcDbLine
 10
150.931
 20
1345.835
 30
0.0
 11
150.931
 21
1343.835
 31
0.0
  0
LINE
  5
32C
330
1E
100
AcDbEntity
  8
0
100
AcDbLine
 10
152.8629999999999
 20
1345.835
 30
0.0
 11
153.381
 21
1345.835
 31
0.0
  0
LINE
  5
32D
330
1E
100
AcDbEntity
  8
0
100
AcDbLine
 10
152.8629999999999
 20
1345.835
 30
0.0
 11
152.8629999999999
 21
1343.835
 31
0.0
  0
LINE
  5
32E
330
1E
100
AcDbEntity
  8
0
100
AcDbLine
 10
150.616
 20
1345.835
 30
0.0
 11
150.931
 21
1345.835
 31
0.0
  0
LINE
  5
32F
330
1E
100
AcDbEntity
  8
0
100
AcDbLine
 10
150.616
 20
1345.835
 30
0.0
 11
150.616
 21
1343.835
 31
0.0
  0
LINE
  5
330
330
1E
100
AcDbEntity
  8
0
100
AcDbLine
 10
150.616
 20
1343.835
 30
0.0
 11
150.616
 21
1345.835
 31
0.0
  0
LINE
  5
331
330
1E
100
AcDbEntity
  8
0
100
AcDbLine
 10
150.616
 20
1343.835
 30
0.0
 11
151.616
 21
1343.835
 31
0.0
  0
LINE
  5
332
330
1E
100
AcDbEntity
  8
0
100
AcDbLine
 10
145.0986
 20
1343.835
 30
0.0
 11
145.6161999999999
 21
1343.835
 31
0.0
  0
LINE
  5
333
330
1E
100
AcDbEntity
  8
0
100
AcDbLine
 10
145.0986
 20
1343.835
 30
0.0
 11
145.0986
 21
1345.835
 31
0.0
  0
LINE
  5
334
330
1E
100
AcDbEntity
  8
0
100
AcDbLine
 10
139.3499999999999
 20
1345.835
 30
0.0
 11
162.25
 21
1345.835
 31
0.0
  0
LINE
  5
335
330
1E
100
AcDbEntity
  8
0
100
AcDbLine
 10
136.616
 20
1345.835
 30
0.0
 11
137.25
 21
1345.835
 31
0.0
  0
LINE
  5
336
330
1E
100
AcDbEntity
  8
0
100
AcDbLine
 10
136.616
 20
1345.835
 30
0.0
 11
136.616
 21
1343.835
 31
0.0
  0
LINE
  5
337
330
1E
100
AcDbEntity
  8
0
100
AcDbLine
 10
125.8036
 20
1345.835
 30
0.0
 11
126.384
 21
1345.835
 31
0.0
  0
LINE
  5
338
330
1E
100
AcDbEntity
  8
0
100
AcDbLine
 10
125.8036
 20
1345.835
 30
0.0
 11
125.8036
 21
1343.835
 31
0.0
  0
LINE
  5
339
330
1E
100
AcDbEntity
  8
0
100
AcDbLine
 10
121.616
 20
1345.835
 30
0.0
 11
122.2499999999999
 21
1345.835
 31
0.0
  0
LINE
  5
33A
330
1E
100
AcDbEntity
  8
0
100
AcDbLine
 10
121.616
 20
1345.835
 30
0.0
 11
121.616
 21
1343.835
 31
0.0
  0
LINE
  5
33B
330
1E
100
AcDbEntity
  8
0
100
AcDbLine
 10
118.05
 20
1345.835
 30
0.0
 11
118.884
 21
1345.835
 31
0.0
  0
LINE
  5
33C
330
1E
100
AcDbEntity
  8
0
100
AcDbLine
 10
118.05
 20
1345.835
 30
0.0
 11
139.3499999999999
 21
1345.835
 31
0.0
  0
LINE
  5
33D
330
1E
100
AcDbEntity
  8
0
100
AcDbLine
 10
155.331
 20
1343.835
 30
0.0
 11
157.263
 21
1343.835
 31
0.0
  0
LINE
  5
33E
330
1E
100
AcDbEntity
  8
0
100
AcDbLine
 10
154.814
 20
1343.835
 30
0.0
 11
154.814
 21
1345.835
 31
0.0
  0
LINE
  5
33F
330
1E
100
AcDbEntity
  8
0
100
AcDbLine
 10
154.814
 20
1343.835
 30
0.0
 11
156.745
 21
1343.835
 31
0.0
  0
LINE
  5
340
330
1E
100
AcDbEntity
  8
0
100
AcDbLine
 10
154.814
 20
1343.835
 30
0.0
 11
155.331
 21
1343.835
 31
0.0
  0
LINE
  5
341
330
1E
100
AcDbEntity
  8
0
100
AcDbLine
 10
157.263
 20
1343.835
 30
0.0
 11
157.263
 21
1345.835
 31
0.0
  0
LINE
  5
342
330
1E
100
AcDbEntity
  8
0
100
AcDbLine
 10
156.745
 20
1343.835
 30
0.0
 11
156.745
 21
1345.835
 31
0.0
  0
LINE
  5
343
330
1E
100
AcDbEntity
  8
0
100
AcDbLine
 10
156.745
 20
1343.835
 30
0.0
 11
157.263
 21
1343.835
 31
0.0
  0
LINE
  5
344
330
1E
100
AcDbEntity
  8
0
100
AcDbLine
 10
154.814
 20
1345.835
 30
0.0
 11
156.745
 21
1345.835
 31
0.0
  0
LINE
  5
345
330
1E
100
AcDbEntity
  8
0
100
AcDbLine
 10
154.814
 20
1345.835
 30
0.0
 11
154.814
 21
1343.835
 31
0.0
  0
LINE
  5
346
330
1E
100
AcDbEntity
  8
0
100
AcDbLine
 10
156.745
 20
1345.835
 30
0.0
 11
157.263
 21
1345.835
 31
0.0
  0
LINE
  5
347
330
1E
100
AcDbEntity
  8
0
100
AcDbLine
 10
156.745
 20
1345.835
 30
0.0
 11
156.745
 21
1343.835
 31
0.0
  0
LINE
  5
348
330
1E
100
AcDbEntity
  8
0
100
AcDbLine
 10
161.25
 20
1345.835
 30
0.0
 11
161.25
 21
1343.835
 31
0.0
  0
LINE
  5
349
330
1E
100
AcDbEntity
  8
0
100
AcDbLine
 10
161.25
 20
1345.835
 30
0.0
 11
163.25
 21
1345.835
 31
0.0
  0
LINE
  5
34A
330
1E
100
AcDbEntity
  8
0
100
AcDbLine
 10
161.25
 20
1343.835
 30
0.0
 11
161.25
 21
1345.835
 31
0.0
  0
LINE
  5
34B
330
1E
100
AcDbEntity
  8
0
100
AcDbLine
 10
161.25
 20
1343.835
 30
0.0
 11
163.25
 21
1343.835
 31
0.0
  0
LINE
  5
34C
330
1E
100
AcDbEntity
  8
0
100
AcDbLine
 10
169.6859999999999
 20
1343.835
 30
0.0
 11
169.6859999999999
 21
1345.835
 31
0.0
  0
LINE
  5
34D
330
1E
100
AcDbEntity
  8
0
100
AcDbLine
 10
169.169
 20
1343.835
 30
0.0
 11
169.6859999999999
 21
1343.835
 31
0.0
  0
LINE
  5
34E
330
1E
100
AcDbEntity
  8
0
100
AcDbLine
 10
167.755
 20
1343.835
 30
0.0
 11
169.6859999999999
 21
1343.835
 31
0.0
  0
LINE
  5
34F
330
1E
100
AcDbEntity
  8
0
100
AcDbLine
 10
167.755
 20
1343.835
 30
0.0
 11
167.755
 21
1345.835
 31
0.0
  0
LINE
  5
350
330
1E
100
AcDbEntity
  8
0
100
AcDbLine
 10
167.2369999999999
 20
1343.835
 30
0.0
 11
167.755
 21
1343.835
 31
0.0
  0
LINE
  5
351
330
1E
100
AcDbEntity
  8
0
100
AcDbLine
 10
167.2369999999999
 20
1343.835
 30
0.0
 11
169.169
 21
1343.835
 31
0.0
  0
LINE
  5
352
330
1E
100
AcDbEntity
  8
0
100
AcDbLine
 10
167.2369999999999
 20
1343.835
 30
0.0
 11
167.2369999999999
 21
1345.835
 31
0.0
  0
LINE
  5
353
330
1E
100
AcDbEntity
  8
0
100
AcDbLine
 10
173.2499999999999
 20
1343.835
 30
0.0
 11
173.2499999999999
 21
362.8349999999999
 31
0.0
  0
LINE
  5
354
330
1E
100
AcDbEntity
  8
0
100
AcDbLine
 10
173.569
 20
1343.835
 30
0.0
 11
173.569
 21
1345.835
 31
0.0
  0
LINE
  5
355
330
1E
100
AcDbEntity
  8
0
100
AcDbLine
 10
174.6159999999999
 20
1343.835
 30
0.0
 11
175.6159999999999
 21
1343.835
 31
0.0
  0
LINE
  5
356
330
1E
100
AcDbEntity
  8
0
100
AcDbLine
 10
173.884
 20
1343.835
 30
0.0
 11
175.6159999999999
 21
1343.835
 31
0.0
  0
LINE
  5
357
330
1E
100
AcDbEntity
  8
0
100
AcDbLine
 10
173.884
 20
1343.835
 30
0.0
 11
173.884
 21
1345.835
 31
0.0
  0
LINE
  5
358
330
1E
100
AcDbEntity
  8
0
100
AcDbLine
 10
172.884
 20
1343.835
 30
0.0
 11
173.884
 21
1343.835
 31
0.0
  0
LINE
  5
359
330
1E
100
AcDbEntity
  8
0
100
AcDbLine
 10
172.884
 20
1343.835
 30
0.0
 11
174.6159999999999
 21
1343.835
 31
0.0
  0
LINE
  5
35A
330
1E
100
AcDbEntity
  8
0
100
AcDbLine
 10
173.0509999999999
 20
1343.835
 30
0.0
 11
173.569
 21
1343.835
 31
0.0
  0
LINE
  5
35B
330
1E
100
AcDbEntity
  8
0
100
AcDbLine
 10
171.6369999999999
 20
1343.835
 30
0.0
 11
173.569
 21
1343.835
 31
0.0
  0
LINE
  5
35C
330
1E
100
AcDbEntity
  8
0
100
AcDbLine
 10
171.6369999999999
 20
1343.835
 30
0.0
 11
171.6369999999999
 21
1345.835
 31
0.0
  0
LINE
  5
35D
330
1E
100
AcDbEntity
  8
0
100
AcDbLine
 10
171.119
 20
1343.835
 30
0.0
 11
171.6369999999999
 21
1343.835
 31
0.0
  0
LINE
  5
35E
330
1E
100
AcDbEntity
  8
0
100
AcDbLine
 10
171.119
 20
1343.835
 30
0.0
 11
173.0509999999999
 21
1343.835
 31
0.0
  0
LINE
  5
35F
330
1E
100
AcDbEntity
  8
0
100
AcDbLine
 10
171.119
 20
1343.835
 30
0.0
 11
171.119
 21
1345.835
 31
0.0
  0
LINE
  5
360
330
1E
100
AcDbEntity
  8
0
100
AcDbLine
 10
177.451
 20
1343.835
 30
0.0
 11
177.451
 21
1345.835
 31
0.0
  0
LINE
  5
361
330
1E
100
AcDbEntity
  8
0
100
AcDbLine
 10
176.933
 20
1343.835
 30
0.0
 11
177.451
 21
1343.835
 31
0.0
  0
LINE
  5
362
330
1E
100
AcDbEntity
  8
0
100
AcDbLine
 10
175.5189999999999
 20
1343.835
 30
0.0
 11
177.451
 21
1343.835
 31
0.0
  0
LINE
  5
363
330
1E
100
AcDbEntity
  8
0
100
AcDbLine
 10
175.5189999999999
 20
1343.835
 30
0.0
 11
175.5189999999999
 21
1345.835
 31
0.0
  0
LINE
  5
364
330
1E
100
AcDbEntity
  8
0
100
AcDbLine
 10
167.755
 20
1345.835
 30
0.0
 11
167.755
 21
1343.835
 31
0.0
  0
LINE
  5
365
330
1E
100
AcDbEntity
  8
0
100
AcDbLine
 10
167.755
 20
1345.835
 30
0.0
 11
169.6859999999999
 21
1345.835
 31
0.0
  0
LINE
  5
366
330
1E
100
AcDbEntity
  8
0
100
AcDbLine
 10
167.2369999999999
 20
1345.835
 30
0.0
 11
167.2369999999999
 21
1343.835
 31
0.0
  0
LINE
  5
367
330
1E
100
AcDbEntity
  8
0
100
AcDbLine
 10
167.2369999999999
 20
1345.835
 30
0.0
 11
167.755
 21
1345.835
 31
0.0
  0
LINE
  5
368
330
1E
100
AcDbEntity
  8
0
100
AcDbLine
 10
171.6369999999999
 20
1345.835
 30
0.0
 11
171.6369999999999
 21
1343.835
 31
0.0
  0
LINE
  5
369
330
1E
100
AcDbEntity
  8
0
100
AcDbLine
 10
171.6369999999999
 20
1345.835
 30
0.0
 11
173.569
 21
1345.835
 31
0.0
  0
LINE
  5
36A
330
1E
100
AcDbEntity
  8
0
100
AcDbLine
 10
175.5189999999999
 20
1345.835
 30
0.0
 11
175.5189999999999
 21
1343.835
 31
0.0
  0
LINE
  5
36B
330
1E
100
AcDbEntity
  8
0
100
AcDbLine
 10
175.5189999999999
 20
1345.835
 30
0.0
 11
177.451
 21
1345.835
 31
0.0
  0
LINE
  5
36C
330
1E
100
AcDbEntity
  8
0
100
AcDbLine
 10
175.0009999999999
 20
1345.835
 30
0.0
 11
175.0009999999999
 21
1343.835
 31
0.0
  0
LINE
  5
36D
330
1E
100
AcDbEntity
  8
0
100
AcDbLine
 10
175.0009999999999
 20
1345.835
 30
0.0
 11
175.5189999999999
 21
1345.835
 31
0.0
  0
LINE
  5
36E
330
1E
100
AcDbEntity
  8
0
100
AcDbLine
 10
173.884
 20
1345.835
 30
0.0
 11
173.884
 21
1343.835
 31
0.0
  0
LINE
  5
36F
330
1E
100
AcDbEntity
  8
0
100
AcDbLine
 10
173.884
 20
1345.835
 30
0.0
 11
175.0009999999999
 21
1345.835
 31
0.0
  0
LINE
  5
370
330
1E
100
AcDbEntity
  8
0
100
AcDbLine
 10
173.569
 20
1345.835
 30
0.0
 11
173.884
 21
1345.835
 31
0.0
  0
LINE
  5
371
330
1E
100
AcDbEntity
  8
0
100
AcDbLine
 10
173.569
 20
1345.835
 30
0.0
 11
173.569
 21
1343.835
 31
0.0
  0
LINE
  5
372
330
1E
100
AcDbEntity
  8
0
100
AcDbLine
 10
171.119
 20
1345.835
 30
0.0
 11
171.119
 21
1343.835
 31
0.0
  0
LINE
  5
373
330
1E
100
AcDbEntity
  8
0
100
AcDbLine
 10
171.119
 20
1345.835
 30
0.0
 11
171.6369999999999
 21
1345.835
 31
0.0
  0
LINE
  5
374
330
1E
100
AcDbEntity
  8
0
100
AcDbLine
 10
175.0009999999999
 20
1343.835
 30
0.0
 11
175.5189999999999
 21
1343.835
 31
0.0
  0
LINE
  5
375
330
1E
100
AcDbEntity
  8
0
100
AcDbLine
 10
175.0009999999999
 20
1343.835
 30
0.0
 11
176.933
 21
1343.835
 31
0.0
  0
LINE
  5
376
330
1E
100
AcDbEntity
  8
0
100
AcDbLine
 10
175.0009999999999
 20
1343.835
 30
0.0
 11
175.0009999999999
 21
1345.835
 31
0.0
  0
LINE
  5
377
330
1E
100
AcDbEntity
  8
0
100
AcDbLine
 10
163.25
 20
1343.835
 30
0.0
 11
163.25
 21
1345.835
 31
0.0
  0
LINE
  5
378
330
1E
100
AcDbEntity
  8
0
100
AcDbLine
 10
169.6859999999999
 20
1345.835
 30
0.0
 11
171.119
 21
1345.835
 31
0.0
  0
LINE
  5
379
330
1E
100
AcDbEntity
  8
0
100
AcDbLine
 10
169.6859999999999
 20
1345.835
 30
0.0
 11
169.6859999999999
 21
1343.835
 31
0.0
  0
LINE
  5
37A
330
1E
100
AcDbEntity
  8
0
100
AcDbLine
 10
179.2209999999999
 20
1343.835
 30
0.0
 11
180.6349999999999
 21
1343.835
 31
0.0
  0
LINE
  5
37B
330
1E
100
AcDbEntity
  8
0
100
AcDbLine
 10
177.8059999999999
 20
1343.835
 30
0.0
 11
179.2209999999999
 21
1343.835
 31
0.0
  0
LINE
  5
37C
330
1E
100
AcDbEntity
  8
0
100
AcDbLine
 10
177.8059999999999
 20
1343.835
 30
0.0
 11
177.8059999999999
 21
1345.835
 31
0.0
  0
LINE
  5
37D
330
1E
100
AcDbEntity
  8
0
100
AcDbLine
 10
181.333
 20
1343.835
 30
0.0
 11
181.333
 21
1345.835
 31
0.0
  0
LINE
  5
37E
330
1E
100
AcDbEntity
  8
0
100
AcDbLine
 10
181.669
 20
1343.835
 30
0.0
 11
183.4009999999999
 21
1343.835
 31
0.0
  0
LINE
  5
37F
330
1E
100
AcDbEntity
  8
0
100
AcDbLine
 10
181.669
 20
1343.835
 30
0.0
 11
182.669
 21
1343.835
 31
0.0
  0
LINE
  5
380
330
1E
100
AcDbEntity
  8
0
100
AcDbLine
 10
182.669
 20
1343.835
 30
0.0
 11
184.4009999999999
 21
1343.835
 31
0.0
  0
LINE
  5
381
330
1E
100
AcDbEntity
  8
0
100
AcDbLine
 10
182.1159999999999
 20
1343.835
 30
0.0
 11
183.1159999999999
 21
1343.835
 31
0.0
  0
LINE
  5
382
330
1E
100
AcDbEntity
  8
0
100
AcDbLine
 10
181.384
 20
1343.835
 30
0.0
 11
183.1159999999999
 21
1343.835
 31
0.0
  0
LINE
  5
383
330
1E
100
AcDbEntity
  8
0
100
AcDbLine
 10
181.384
 20
1343.835
 30
0.0
 11
181.384
 21
1345.835
 31
0.0
  0
LINE
  5
384
330
1E
100
AcDbEntity
  8
0
100
AcDbLine
 10
180.384
 20
1343.835
 30
0.0
 11
181.384
 21
1343.835
 31
0.0
  0
LINE
  5
385
330
1E
100
AcDbEntity
  8
0
100
AcDbLine
 10
180.384
 20
1343.835
 30
0.0
 11
182.1159999999999
 21
1343.835
 31
0.0
  0
LINE
  5
386
330
1E
100
AcDbEntity
  8
0
100
AcDbLine
 10
180.8159999999999
 20
1343.835
 30
0.0
 11
181.333
 21
1343.835
 31
0.0
  0
LINE
  5
387
330
1E
100
AcDbEntity
  8
0
100
AcDbLine
 10
179.4009999999999
 20
1343.835
 30
0.0
 11
181.333
 21
1343.835
 31
0.0
  0
LINE
  5
388
330
1E
100
AcDbEntity
  8
0
100
AcDbLine
 10
179.4009999999999
 20
1343.835
 30
0.0
 11
179.4009999999999
 21
1345.835
 31
0.0
  0
LINE
  5
389
330
1E
100
AcDbEntity
  8
0
100
AcDbLine
 10
178.884
 20
1343.835
 30
0.0
 11
179.4009999999999
 21
1343.835
 31
0.0
  0
LINE
  5
38A
330
1E
100
AcDbEntity
  8
0
100
AcDbLine
 10
178.884
 20
1343.835
 30
0.0
 11
180.8159999999999
 21
1343.835
 31
0.0
  0
LINE
  5
38B
330
1E
100
AcDbEntity
  8
0
100
AcDbLine
 10
178.884
 20
1343.835
 30
0.0
 11
178.884
 21
1345.835
 31
0.0
  0
LINE
  5
38C
330
1E
100
AcDbEntity
  8
0
100
AcDbLine
 10
183.4009999999999
 20
1343.835
 30
0.0
 11
184.4009999999999
 21
1343.835
 31
0.0
  0
LINE
  5
38D
330
1E
100
AcDbEntity
  8
0
100
AcDbLine
 10
186.657
 20
1343.835
 30
0.0
 11
186.657
 21
1345.835
 31
0.0
  0
LINE
  5
38E
330
1E
100
AcDbEntity
  8
0
100
AcDbLine
 10
185.2159999999999
 20
1343.835
 30
0.0
 11
185.2159999999999
 21
1345.835
 31
0.0
  0
LINE
  5
38F
330
1E
100
AcDbEntity
  8
0
100
AcDbLine
 10
187.25
 20
1343.835
 30
0.0
 11
187.25
 21
1345.835
 31
0.0
  0
LINE
  5
390
330
1E
100
AcDbEntity
  8
0
100
AcDbLine
 10
185.25
 20
1343.835
 30
0.0
 11
187.25
 21
1343.835
 31
0.0
  0
LINE
  5
391
330
1E
100
AcDbEntity
  8
0
100
AcDbLine
 10
184.725
 20
1343.835
 30
0.0
 11
186.657
 21
1343.835
 31
0.0
  0
LINE
  5
392
330
1E
100
AcDbEntity
  8
0
100
AcDbLine
 10
186.139
 20
1343.835
 30
0.0
 11
186.657
 21
1343.835
 31
0.0
  0
LINE
  5
393
330
1E
100
AcDbEntity
  8
0
100
AcDbLine
 10
186.139
 20
1343.835
 30
0.0
 11
186.139
 21
1345.835
 31
0.0
  0
LINE
  5
394
330
1E
100
AcDbEntity
  8
0
100
AcDbLine
 10
184.2069999999999
 20
1343.835
 30
0.0
 11
186.139
 21
1343.835
 31
0.0
  0
LINE
  5
395
330
1E
100
AcDbEntity
  8
0
100
AcDbLine
 10
184.2069999999999
 20
1343.835
 30
0.0
 11
184.725
 21
1343.835
 31
0.0
  0
LINE
  5
396
330
1E
100
AcDbEntity
  8
0
100
AcDbLine
 10
187.884
 20
1343.835
 30
0.0
 11
188.884
 21
1343.835
 31
0.0
  0
LINE
  5
397
330
1E
100
AcDbEntity
  8
0
100
AcDbLine
 10
187.884
 20
1343.835
 30
0.0
 11
189.6159999999999
 21
1343.835
 31
0.0
  0
LINE
  5
398
330
1E
100
AcDbEntity
  8
0
100
AcDbLine
 10
187.884
 20
1343.835
 30
0.0
 11
187.884
 21
1345.835
 31
0.0
  0
LINE
  5
399
330
1E
100
AcDbEntity
  8
0
100
AcDbLine
 10
191.2409999999999
 20
1343.835
 30
0.0
 11
191.2409999999999
 21
1345.835
 31
0.0
  0
LINE
  5
39A
330
1E
100
AcDbEntity
  8
0
100
AcDbLine
 10
190.6159999999999
 20
1343.835
 30
0.0
 11
190.6159999999999
 21
1345.835
 31
0.0
  0
LINE
  5
39B
330
1E
100
AcDbEntity
  8
0
100
AcDbLine
 10
194.659
 20
1343.835
 30
0.0
 11
196.391
 21
1343.835
 31
0.0
  0
LINE
  5
39C
330
1E
100
AcDbEntity
  8
0
100
AcDbLine
 10
194.659
 20
1343.835
 30
0.0
 11
195.659
 21
1343.835
 31
0.0
  0
LINE
  5
39D
330
1E
100
AcDbEntity
  8
0
100
AcDbLine
 10
194.659
 20
1343.835
 30
0.0
 11
194.659
 21
1345.835
 31
0.0
  0
LINE
  5
39E
330
1E
100
AcDbEntity
  8
0
100
AcDbLine
 10
189.6159999999999
 20
1343.835
 30
0.0
 11
190.6159999999999
 21
1343.835
 31
0.0
  0
LINE
  5
39F
330
1E
100
AcDbEntity
  8
0
100
AcDbLine
 10
188.884
 20
1343.835
 30
0.0
 11
190.6159999999999
 21
1343.835
 31
0.0
  0
LINE
  5
3A0
330
1E
100
AcDbEntity
  8
0
100
AcDbLine
 10
188.884
 20
1343.835
 30
0.0
 11
188.884
 21
1345.835
 31
0.0
  0
LINE
  5
3A1
330
1E
100
AcDbEntity
  8
0
100
AcDbLine
 10
195.659
 20
1343.835
 30
0.0
 11
197.391
 21
1343.835
 31
0.0
  0
LINE
  5
3A2
330
1E
100
AcDbEntity
  8
0
100
AcDbLine
 10
196.391
 20
1343.835
 30
0.0
 11
197.391
 21
1343.835
 31
0.0
  0
LINE
  5
3A3
330
1E
100
AcDbEntity
  8
0
100
AcDbLine
 10
198.1159999999999
 20
1343.835
 30
0.0
 11
198.1159999999999
 21
1345.835
 31
0.0
  0
LINE
  5
3A4
330
1E
100
AcDbEntity
  8
0
100
AcDbLine
 10
197.1159999999999
 20
1343.835
 30
0.0
 11
198.1159999999999
 21
1343.835
 31
0.0
  0
LINE
  5
3A5
330
1E
100
AcDbEntity
  8
0
100
AcDbLine
 10
196.384
 20
1343.835
 30
0.0
 11
198.1159999999999
 21
1343.835
 31
0.0
  0
LINE
  5
3A6
330
1E
100
AcDbEntity
  8
0
100
AcDbLine
 10
196.384
 20
1343.835
 30
0.0
 11
196.384
 21
1345.835
 31
0.0
  0
LINE
  5
3A7
330
1E
100
AcDbEntity
  8
0
100
AcDbLine
 10
195.384
 20
1343.835
 30
0.0
 11
196.384
 21
1343.835
 31
0.0
  0
LINE
  5
3A8
330
1E
100
AcDbEntity
  8
0
100
AcDbLine
 10
195.384
 20
1343.835
 30
0.0
 11
197.1159999999999
 21
1343.835
 31
0.0
  0
LINE
  5
3A9
330
1E
100
AcDbEntity
  8
0
100
AcDbLine
 10
195.384
 20
1343.835
 30
0.0
 11
195.384
 21
1345.835
 31
0.0
  0
LINE
  5
3AA
330
1E
100
AcDbEntity
  8
0
100
AcDbLine
 10
189.827
 20
1343.835
 30
0.0
 11
191.2409999999999
 21
1343.835
 31
0.0
  0
LINE
  5
3AB
330
1E
100
AcDbEntity
  8
0
100
AcDbLine
 10
188.4129999999999
 20
1343.835
 30
0.0
 11
189.827
 21
1343.835
 31
0.0
  0
LINE
  5
3AC
330
1E
100
AcDbEntity
  8
0
100
AcDbLine
 10
184.6979999999999
 20
1343.835
 30
0.0
 11
185.2159999999999
 21
1343.835
 31
0.0
  0
LINE
  5
3AD
330
1E
100
AcDbEntity
  8
0
100
AcDbLine
 10
183.284
 20
1343.835
 30
0.0
 11
185.2159999999999
 21
1343.835
 31
0.0
  0
LINE
  5
3AE
330
1E
100
AcDbEntity
  8
0
100
AcDbLine
 10
183.284
 20
1343.835
 30
0.0
 11
183.284
 21
1345.835
 31
0.0
  0
LINE
  5
3AF
330
1E
100
AcDbEntity
  8
0
100
AcDbLine
 10
181.384
 20
1345.835
 30
0.0
 11
181.384
 21
1343.835
 31
0.0
  0
LINE
  5
3B0
330
1E
100
AcDbEntity
  8
0
100
AcDbLine
 10
181.384
 20
1345.835
 30
0.0
 11
182.7659999999999
 21
1345.835
 31
0.0
  0
LINE
  5
3B1
330
1E
100
AcDbEntity
  8
0
100
AcDbLine
 10
186.139
 20
1345.835
 30
0.0
 11
186.139
 21
1343.835
 31
0.0
  0
LINE
  5
3B2
330
1E
100
AcDbEntity
  8
0
100
AcDbLine
 10
186.139
 20
1345.835
 30
0.0
 11
186.657
 21
1345.835
 31
0.0
  0
LINE
  5
3B3
330
1E
100
AcDbEntity
  8
0
100
AcDbLine
 10
190.6159999999999
 20
1345.835
 30
0.0
 11
190.6159999999999
 21
1343.835
 31
0.0
  0
LINE
  5
3B4
330
1E
100
AcDbEntity
  8
0
100
AcDbLine
 10
190.6159999999999
 20
1345.835
 30
0.0
 11
191.2409999999999
 21
1345.835
 31
0.0
  0
LINE
  5
3B5
330
1E
100
AcDbEntity
  8
0
100
AcDbLine
 10
188.884
 20
1345.835
 30
0.0
 11
188.884
 21
1343.835
 31
0.0
  0
LINE
  5
3B6
330
1E
100
AcDbEntity
  8
0
100
AcDbLine
 10
188.884
 20
1345.835
 30
0.0
 11
190.6159999999999
 21
1345.835
 31
0.0
  0
LINE
  5
3B7
330
1E
100
AcDbEntity
  8
0
100
AcDbLine
 10
185.2159999999999
 20
1345.835
 30
0.0
 11
185.2159999999999
 21
1343.835
 31
0.0
  0
LINE
  5
3B8
330
1E
100
AcDbEntity
  8
0
100
AcDbLine
 10
185.2159999999999
 20
1345.835
 30
0.0
 11
186.139
 21
1345.835
 31
0.0
  0
LINE
  5
3B9
330
1E
100
AcDbEntity
  8
0
100
AcDbLine
 10
183.284
 20
1345.835
 30
0.0
 11
183.284
 21
1343.835
 31
0.0
  0
LINE
  5
3BA
330
1E
100
AcDbEntity
  8
0
100
AcDbLine
 10
183.284
 20
1345.835
 30
0.0
 11
185.2159999999999
 21
1345.835
 31
0.0
  0
LINE
  5
3BB
330
1E
100
AcDbEntity
  8
0
100
AcDbLine
 10
182.7659999999999
 20
1345.835
 30
0.0
 11
182.7659999999999
 21
1343.835
 31
0.0
  0
LINE
  5
3BC
330
1E
100
AcDbEntity
  8
0
100
AcDbLine
 10
182.7659999999999
 20
1345.835
 30
0.0
 11
183.284
 21
1345.835
 31
0.0
  0
LINE
  5
3BD
330
1E
100
AcDbEntity
  8
0
100
AcDbLine
 10
181.333
 20
1345.835
 30
0.0
 11
181.333
 21
1343.835
 31
0.0
  0
LINE
  5
3BE
330
1E
100
AcDbEntity
  8
0
100
AcDbLine
 10
181.333
 20
1345.835
 30
0.0
 11
181.384
 21
1345.835
 31
0.0
  0
LINE
  5
3BF
330
1E
100
AcDbEntity
  8
0
100
AcDbLine
 10
179.4009999999999
 20
1345.835
 30
0.0
 11
179.4009999999999
 21
1343.835
 31
0.0
  0
LINE
  5
3C0
330
1E
100
AcDbEntity
  8
0
100
AcDbLine
 10
179.4009999999999
 20
1345.835
 30
0.0
 11
181.333
 21
1345.835
 31
0.0
  0
LINE
  5
3C1
330
1E
100
AcDbEntity
  8
0
100
AcDbLine
 10
178.884
 20
1345.835
 30
0.0
 11
178.884
 21
1343.835
 31
0.0
  0
LINE
  5
3C2
330
1E
100
AcDbEntity
  8
0
100
AcDbLine
 10
178.884
 20
1345.835
 30
0.0
 11
179.4009999999999
 21
1345.835
 31
0.0
  0
LINE
  5
3C3
330
1E
100
AcDbEntity
  8
0
100
AcDbLine
 10
186.657
 20
1345.835
 30
0.0
 11
187.25
 21
1345.835
 31
0.0
  0
LINE
  5
3C4
330
1E
100
AcDbEntity
  8
0
100
AcDbLine
 10
186.657
 20
1345.835
 30
0.0
 11
186.657
 21
1343.835
 31
0.0
  0
LINE
  5
3C5
330
1E
100
AcDbEntity
  8
0
100
AcDbLine
 10
196.384
 20
1345.835
 30
0.0
 11
196.384
 21
1343.835
 31
0.0
  0
LINE
  5
3C6
330
1E
100
AcDbEntity
  8
0
100
AcDbLine
 10
196.384
 20
1345.835
 30
0.0
 11
198.1159999999999
 21
1345.835
 31
0.0
  0
LINE
  5
3C7
330
1E
100
AcDbEntity
  8
0
100
AcDbLine
 10
195.384
 20
1345.835
 30
0.0
 11
195.384
 21
1343.835
 31
0.0
  0
LINE
  5
3C8
330
1E
100
AcDbEntity
  8
0
100
AcDbLine
 10
195.384
 20
1345.835
 30
0.0
 11
196.384
 21
1345.835
 31
0.0
  0
LINE
  5
3C9
330
1E
100
AcDbEntity
  8
0
100
AcDbLine
 10
194.659
 20
1345.835
 30
0.0
 11
194.659
 21
1343.835
 31
0.0
  0
LINE
  5
3CA
330
1E
100
AcDbEntity
  8
0
100
AcDbLine
 10
194.659
 20
1345.835
 30
0.0
 11
195.384
 21
1345.835
 31
0.0
  0
LINE
  5
3CB
330
1E
100
AcDbEntity
  8
0
100
AcDbLine
 10
187.884
 20
1345.835
 30
0.0
 11
187.884
 21
1343.835
 31
0.0
  0
LINE
  5
3CC
330
1E
100
AcDbEntity
  8
0
100
AcDbLine
 10
187.884
 20
1345.835
 30
0.0
 11
188.884
 21
1345.835
 31
0.0
  0
LINE
  5
3CD
330
1E
100
AcDbEntity
  8
0
100
AcDbLine
 10
177.8059999999999
 20
1345.835
 30
0.0
 11
177.8059999999999
 21
1343.835
 31
0.0
  0
LINE
  5
3CE
330
1E
100
AcDbEntity
  8
0
100
AcDbLine
 10
177.8059999999999
 20
1345.835
 30
0.0
 11
178.884
 21
1345.835
 31
0.0
  0
LINE
  5
3CF
330
1E
100
AcDbEntity
  8
0
100
AcDbLine
 10
182.7659999999999
 20
1343.835
 30
0.0
 11
183.284
 21
1343.835
 31
0.0
  0
LINE
  5
3D0
330
1E
100
AcDbEntity
  8
0
100
AcDbLine
 10
182.7659999999999
 20
1343.835
 30
0.0
 11
184.6979999999999
 21
1343.835
 31
0.0
  0
LINE
  5
3D1
330
1E
100
AcDbEntity
  8
0
100
AcDbLine
 10
182.7659999999999
 20
1343.835
 30
0.0
 11
182.7659999999999
 21
1345.835
 31
0.0
  0
LINE
  5
3D2
330
1E
100
AcDbEntity
  8
0
100
AcDbLine
 10
200.2499999999999
 20
1343.835
 30
0.0
 11
202.2499999999999
 21
1343.835
 31
0.0
  0
LINE
  5
3D3
330
1E
100
AcDbEntity
  8
0
100
AcDbLine
 10
199.214
 20
1343.835
 30
0.0
 11
201.146
 21
1343.835
 31
0.0
  0
LINE
  5
3D4
330
1E
100
AcDbEntity
  8
0
100
AcDbLine
 10
198.696
 20
1343.835
 30
0.0
 11
200.6279999999999
 21
1343.835
 31
0.0
  0
LINE
  5
3D5
330
1E
100
AcDbEntity
  8
0
100
AcDbLine
 10
198.696
 20
1343.835
 30
0.0
 11
199.214
 21
1343.835
 31
0.0
  0
LINE
  5
3D6
330
1E
100
AcDbEntity
  8
0
100
AcDbLine
 10
198.696
 20
1343.835
 30
0.0
 11
198.696
 21
1345.835
 31
0.0
  0
LINE
  5
3D7
330
1E
100
AcDbEntity
  8
0
100
AcDbLine
 10
201.8479999999999
 20
1343.835
 30
0.0
 11
201.8479999999999
 21
1345.835
 31
0.0
  0
LINE
  5
3D8
330
1E
100
AcDbEntity
  8
0
100
AcDbLine
 10
202.2499999999999
 20
1343.835
 30
0.0
 11
202.2499999999999
 21
1345.835
 31
0.0
  0
LINE
  5
3D9
330
1E
100
AcDbEntity
  8
0
100
AcDbLine
 10
200.6279999999999
 20
1343.835
 30
0.0
 11
201.146
 21
1343.835
 31
0.0
  0
LINE
  5
3DA
330
1E
100
AcDbEntity
  8
0
100
AcDbLine
 10
200.434
 20
1343.835
 30
0.0
 11
201.8479999999999
 21
1343.835
 31
0.0
  0
LINE
  5
3DB
330
1E
100
AcDbEntity
  8
0
100
AcDbLine
 10
200.434
 20
1343.835
 30
0.0
 11
200.434
 21
1345.835
 31
0.0
  0
LINE
  5
3DC
330
1E
100
AcDbEntity
  8
0
100
AcDbLine
 10
200.434
 20
1345.835
 30
0.0
 11
200.434
 21
1343.835
 31
0.0
  0
LINE
  5
3DD
330
1E
100
AcDbEntity
  8
0
100
AcDbLine
 10
200.434
 20
1345.835
 30
0.0
 11
201.8479999999999
 21
1345.835
 31
0.0
  0
LINE
  5
3DE
330
1E
100
AcDbEntity
  8
0
100
AcDbLine
 10
199.02
 20
1345.835
 30
0.0
 11
199.02
 21
1343.835
 31
0.0
  0
LINE
  5
3DF
330
1E
100
AcDbEntity
  8
0
100
AcDbLine
 10
199.02
 20
1345.835
 30
0.0
 11
200.434
 21
1345.835
 31
0.0
  0
LINE
  5
3E0
330
1E
100
AcDbEntity
  8
0
100
AcDbLine
 10
201.8479999999999
 20
1345.835
 30
0.0
 11
202.2499999999999
 21
1345.835
 31
0.0
  0
LINE
  5
3E1
330
1E
100
AcDbEntity
  8
0
100
AcDbLine
 10
201.8479999999999
 20
1345.835
 30
0.0
 11
201.8479999999999
 21
1343.835
 31
0.0
  0
LINE
  5
3E2
330
1E
100
AcDbEntity
  8
0
100
AcDbLine
 10
198.696
 20
1345.835
 30
0.0
 11
198.696
 21
1343.835
 31
0.0
  0
LINE
  5
3E3
330
1E
100
AcDbEntity
  8
0
100
AcDbLine
 10
198.696
 20
1345.835
 30
0.0
 11
199.02
 21
1345.835
 31
0.0
  0
LINE
  5
3E4
330
1E
100
AcDbEntity
  8
0
100
AcDbLine
 10
199.02
 20
1343.835
 30
0.0
 11
200.434
 21
1343.835
 31
0.0
  0
LINE
  5
3E5
330
1E
100
AcDbEntity
  8
0
100
AcDbLine
 10
199.02
 20
1343.835
 30
0.0
 11
199.02
 21
1345.835
 31
0.0
  0
LINE
  5
3E6
330
1E
100
AcDbEntity
  8
0
100
AcDbLine
 10
198.1159999999999
 20
1345.835
 30
0.0
 11
198.696
 21
1345.835
 31
0.0
  0
LINE
  5
3E7
330
1E
100
AcDbEntity
  8
0
100
AcDbLine
 10
198.1159999999999
 20
1345.835
 30
0.0
 11
198.1159999999999
 21
1343.835
 31
0.0
  0
LINE
  5
3E8
330
1E
100
AcDbEntity
  8
0
100
AcDbLine
 10
191.2409999999999
 20
1345.835
 30
0.0
 11
194.659
 21
1345.835
 31
0.0
  0
LINE
  5
3E9
330
1E
100
AcDbEntity
  8
0
100
AcDbLine
 10
191.2409999999999
 20
1345.835
 30
0.0
 11
191.2409999999999
 21
1343.835
 31
0.0
  0
LINE
  5
3EA
330
1E
100
AcDbEntity
  8
0
100
AcDbLine
 10
202.884
 20
1345.835
 30
0.0
 11
202.884
 21
1343.835
 31
0.0
  0
LINE
  5
3EB
330
1E
100
AcDbEntity
  8
0
100
AcDbLine
 10
202.884
 20
1345.835
 30
0.0
 11
203.8839999999999
 21
1345.835
 31
0.0
  0
LINE
  5
3EC
330
1E
100
AcDbEntity
  8
0
100
AcDbLine
 10
205.6159999999999
 20
1343.835
 30
0.0
 11
205.6159999999999
 21
1345.835
 31
0.0
  0
LINE
  5
3ED
330
1E
100
AcDbEntity
  8
0
100
AcDbLine
 10
204.6159999999999
 20
1343.835
 30
0.0
 11
205.6159999999999
 21
1343.835
 31
0.0
  0
LINE
  5
3EE
330
1E
100
AcDbEntity
  8
0
100
AcDbLine
 10
203.8839999999999
 20
1345.835
 30
0.0
 11
203.8839999999999
 21
1343.835
 31
0.0
  0
LINE
  5
3EF
330
1E
100
AcDbEntity
  8
0
100
AcDbLine
 10
203.8839999999999
 20
1345.835
 30
0.0
 11
205.6159999999999
 21
1345.835
 31
0.0
  0
LINE
  5
3F0
330
1E
100
AcDbEntity
  8
0
100
AcDbLine
 10
203.8839999999999
 20
1343.835
 30
0.0
 11
205.6159999999999
 21
1343.835
 31
0.0
  0
LINE
  5
3F1
330
1E
100
AcDbEntity
  8
0
100
AcDbLine
 10
203.8839999999999
 20
1343.835
 30
0.0
 11
203.8839999999999
 21
1345.835
 31
0.0
  0
LINE
  5
3F2
330
1E
100
AcDbEntity
  8
0
100
AcDbLine
 10
202.884
 20
1343.835
 30
0.0
 11
203.8839999999999
 21
1343.835
 31
0.0
  0
LINE
  5
3F3
330
1E
100
AcDbEntity
  8
0
100
AcDbLine
 10
202.884
 20
1343.835
 30
0.0
 11
204.6159999999999
 21
1343.835
 31
0.0
  0
LINE
  5
3F4
330
1E
100
AcDbEntity
  8
0
100
AcDbLine
 10
202.884
 20
1343.835
 30
0.0
 11
202.884
 21
1345.835
 31
0.0
  0
LINE
  5
3F5
330
1E
100
AcDbEntity
  8
0
100
AcDbLine
 10
205.6159999999999
 20
1345.835
 30
0.0
 11
206.4499999999999
 21
1345.835
 31
0.0
  0
LINE
  5
3F6
330
1E
100
AcDbEntity
  8
0
100
AcDbLine
 10
205.6159999999999
 20
1345.835
 30
0.0
 11
205.6159999999999
 21
1343.835
 31
0.0
  0
LINE
  5
3F7
330
1E
100
AcDbEntity
  8
0
100
AcDbLine
 10
202.2499999999999
 20
1345.835
 30
0.0
 11
202.884
 21
1345.835
 31
0.0
  0
LINE
  5
3F8
330
1E
100
AcDbEntity
  8
0
100
AcDbLine
 10
202.2499999999999
 20
1345.835
 30
0.0
 11
202.2499999999999
 21
1343.835
 31
0.0
  0
LINE
  5
3F9
330
1E
100
AcDbEntity
  8
0
100
AcDbLine
 10
187.25
 20
1345.835
 30
0.0
 11
187.884
 21
1345.835
 31
0.0
  0
LINE
  5
3FA
330
1E
100
AcDbEntity
  8
0
100
AcDbLine
 10
187.25
 20
1345.835
 30
0.0
 11
187.25
 21
1343.835
 31
0.0
  0
LINE
  5
3FB
330
1E
100
AcDbEntity
  8
0
100
AcDbLine
 10
177.451
 20
1345.835
 30
0.0
 11
177.8059999999999
 21
1345.835
 31
0.0
  0
LINE
  5
3FC
330
1E
100
AcDbEntity
  8
0
100
AcDbLine
 10
177.451
 20
1345.835
 30
0.0
 11
177.451
 21
1343.835
 31
0.0
  0
LINE
  5
3FD
330
1E
100
AcDbEntity
  8
0
100
AcDbLine
 10
163.25
 20
1345.835
 30
0.0
 11
167.2369999999999
 21
1345.835
 31
0.0
  0
LINE
  5
3FE
330
1E
100
AcDbEntity
  8
0
100
AcDbLine
 10
163.25
 20
1345.835
 30
0.0
 11
163.25
 21
1343.835
 31
0.0
  0
LINE
  5
3FF
330
1E
100
AcDbEntity
  8
0
100
AcDbLine
 10
208.6489999999999
 20
1343.835
 30
0.0
 11
210.3809999999999
 21
1343.835
 31
0.0
  0
LINE
  5
400
330
1E
100
AcDbEntity
  8
0
100
AcDbLine
 10
209.3809999999999
 20
1343.835
 30
0.0
 11
210.3809999999999
 21
1343.835
 31
0.0
  0
LINE
  5
401
330
1E
100
AcDbEntity
  8
0
100
AcDbLine
 10
209.3809999999999
 20
1343.835
 30
0.0
 11
209.3809999999999
 21
1345.835
 31
0.0
  0
LINE
  5
402
330
1E
100
AcDbEntity
  8
0
100
AcDbLine
 10
207.649
 20
1343.835
 30
0.0
 11
209.3809999999999
 21
1343.835
 31
0.0
  0
LINE
  5
403
330
1E
100
AcDbEntity
  8
0
100
AcDbLine
 10
207.649
 20
1343.835
 30
0.0
 11
208.6489999999999
 21
1343.835
 31
0.0
  0
LINE
  5
404
330
1E
100
AcDbEntity
  8
0
100
AcDbLine
 10
207.649
 20
1343.835
 30
0.0
 11
207.649
 21
1345.835
 31
0.0
  0
LINE
  5
405
330
1E
100
AcDbEntity
  8
0
100
AcDbLine
 10
212.455
 20
1343.835
 30
0.0
 11
212.455
 21
1345.835
 31
0.0
  0
LINE
  5
406
330
1E
100
AcDbEntity
  8
0
100
AcDbLine
 10
211.0399999999999
 20
1343.835
 30
0.0
 11
212.455
 21
1343.835
 31
0.0
  0
LINE
  5
407
330
1E
100
AcDbEntity
  8
0
100
AcDbLine
 10
211.0399999999999
 20
1343.835
 30
0.0
 11
211.0399999999999
 21
1345.835
 31
0.0
  0
LINE
  5
408
330
1E
100
AcDbEntity
  8
0
100
AcDbLine
 10
211.0399999999999
 20
1345.835
 30
0.0
 11
211.0399999999999
 21
1343.835
 31
0.0
  0
LINE
  5
409
330
1E
100
AcDbEntity
  8
0
100
AcDbLine
 10
211.0399999999999
 20
1345.835
 30
0.0
 11
212.455
 21
1345.835
 31
0.0
  0
LINE
  5
40A
330
1E
100
AcDbEntity
  8
0
100
AcDbLine
 10
209.626
 20
1345.835
 30
0.0
 11
209.626
 21
1343.835
 31
0.0
  0
LINE
  5
40B
330
1E
100
AcDbEntity
  8
0
100
AcDbLine
 10
209.626
 20
1345.835
 30
0.0
 11
211.0399999999999
 21
1345.835
 31
0.0
  0
LINE
  5
40C
330
1E
100
AcDbEntity
  8
0
100
AcDbLine
 10
209.3809999999999
 20
1345.835
 30
0.0
 11
209.3809999999999
 21
1343.835
 31
0.0
  0
LINE
  5
40D
330
1E
100
AcDbEntity
  8
0
100
AcDbLine
 10
209.3809999999999
 20
1345.835
 30
0.0
 11
209.626
 21
1345.835
 31
0.0
  0
LINE
  5
40E
330
1E
100
AcDbEntity
  8
0
100
AcDbLine
 10
207.649
 20
1345.835
 30
0.0
 11
207.649
 21
1343.835
 31
0.0
  0
LINE
  5
40F
330
1E
100
AcDbEntity
  8
0
100
AcDbLine
 10
207.649
 20
1345.835
 30
0.0
 11
209.3809999999999
 21
1345.835
 31
0.0
  0
LINE
  5
410
330
1E
100
AcDbEntity
  8
0
100
AcDbLine
 10
209.626
 20
1343.835
 30
0.0
 11
211.0399999999999
 21
1343.835
 31
0.0
  0
LINE
  5
411
330
1E
100
AcDbEntity
  8
0
100
AcDbLine
 10
209.626
 20
1343.835
 30
0.0
 11
209.626
 21
1345.835
 31
0.0
  0
LINE
  5
412
330
1E
100
AcDbEntity
  8
0
100
AcDbLine
 10
213.703
 20
1343.835
 30
0.0
 11
215.6349999999999
 21
1343.835
 31
0.0
  0
LINE
  5
413
330
1E
100
AcDbEntity
  8
0
100
AcDbLine
 10
215.6349999999999
 20
1343.835
 30
0.0
 11
215.6349999999999
 21
1345.835
 31
0.0
  0
LINE
  5
414
330
1E
100
AcDbEntity
  8
0
100
AcDbLine
 10
217.2499999999999
 20
1343.835
 30
0.0
 11
217.2499999999999
 21
1345.835
 31
0.0
  0
LINE
  5
415
330
1E
100
AcDbEntity
  8
0
100
AcDbLine
 10
215.2499999999999
 20
1343.835
 30
0.0
 11
217.2499999999999
 21
1343.835
 31
0.0
  0
LINE
  5
416
330
1E
100
AcDbEntity
  8
0
100
AcDbLine
 10
215.117
 20
1343.835
 30
0.0
 11
215.6349999999999
 21
1343.835
 31
0.0
  0
LINE
  5
417
330
1E
100
AcDbEntity
  8
0
100
AcDbLine
 10
215.117
 20
1343.835
 30
0.0
 11
215.117
 21
1345.835
 31
0.0
  0
LINE
  5
418
330
1E
100
AcDbEntity
  8
0
100
AcDbLine
 10
213.185
 20
1343.835
 30
0.0
 11
215.117
 21
1343.835
 31
0.0
  0
LINE
  5
419
330
1E
100
AcDbEntity
  8
0
100
AcDbLine
 10
213.185
 20
1343.835
 30
0.0
 11
213.703
 21
1343.835
 31
0.0
  0
LINE
  5
41A
330
1E
100
AcDbEntity
  8
0
100
AcDbLine
 10
213.185
 20
1343.835
 30
0.0
 11
213.185
 21
1345.835
 31
0.0
  0
LINE
  5
41B
330
1E
100
AcDbEntity
  8
0
100
AcDbLine
 10
221.6399999999999
 20
1343.835
 30
0.0
 11
223.372
 21
1343.835
 31
0.0
  0
LINE
  5
41C
330
1E
100
AcDbEntity
  8
0
100
AcDbLine
 10
220.6399999999999
 20
1343.835
 30
0.0
 11
222.372
 21
1343.835
 31
0.0
  0
LINE
  5
41D
330
1E
100
AcDbEntity
  8
0
100
AcDbLine
 10
220.6399999999999
 20
1343.835
 30
0.0
 11
221.6399999999999
 21
1343.835
 31
0.0
  0
LINE
  5
41E
330
1E
100
AcDbEntity
  8
0
100
AcDbLine
 10
223.0609999999999
 20
1343.835
 30
0.0
 11
223.0609999999999
 21
1345.835
 31
0.0
  0
LINE
  5
41F
330
1E
100
AcDbEntity
  8
0
100
AcDbLine
 10
223.372
 20
1343.835
 30
0.0
 11
223.372
 21
1345.835
 31
0.0
  0
LINE
  5
420
330
1E
100
AcDbEntity
  8
0
100
AcDbLine
 10
230.124
 20
1343.835
 30
0.0
 11
230.124
 21
1345.835
 31
0.0
  0
LINE
  5
421
330
1E
100
AcDbEntity
  8
0
100
AcDbLine
 10
232.25
 20
1343.835
 30
0.0
 11
232.25
 21
1345.835
 31
0.0
  0
LINE
  5
422
330
1E
100
AcDbEntity
  8
0
100
AcDbLine
 10
230.25
 20
1343.835
 30
0.0
 11
232.25
 21
1343.835
 31
0.0
  0
LINE
  5
423
330
1E
100
AcDbEntity
  8
0
100
AcDbLine
 10
230.25
 20
1343.835
 30
0.0
 11
230.25
 21
1345.835
 31
0.0
  0
LINE
  5
424
330
1E
100
AcDbEntity
  8
0
100
AcDbLine
 10
228.1919999999999
 20
1343.835
 30
0.0
 11
230.124
 21
1343.835
 31
0.0
  0
LINE
  5
425
330
1E
100
AcDbEntity
  8
0
100
AcDbLine
 10
229.606
 20
1343.835
 30
0.0
 11
230.124
 21
1343.835
 31
0.0
  0
LINE
  5
426
330
1E
100
AcDbEntity
  8
0
100
AcDbLine
 10
229.606
 20
1343.835
 30
0.0
 11
229.606
 21
1345.835
 31
0.0
  0
LINE
  5
427
330
1E
100
AcDbEntity
  8
0
100
AcDbLine
 10
227.674
 20
1343.835
 30
0.0
 11
229.606
 21
1343.835
 31
0.0
  0
LINE
  5
428
330
1E
100
AcDbEntity
  8
0
100
AcDbLine
 10
227.674
 20
1343.835
 30
0.0
 11
228.1919999999999
 21
1343.835
 31
0.0
  0
LINE
  5
429
330
1E
100
AcDbEntity
  8
0
100
AcDbLine
 10
227.674
 20
1343.835
 30
0.0
 11
227.674
 21
1345.835
 31
0.0
  0
LINE
  5
42A
330
1E
100
AcDbEntity
  8
0
100
AcDbLine
 10
222.372
 20
1343.835
 30
0.0
 11
223.372
 21
1343.835
 31
0.0
  0
LINE
  5
42B
330
1E
100
AcDbEntity
  8
0
100
AcDbLine
 10
221.647
 20
1343.835
 30
0.0
 11
223.0609999999999
 21
1343.835
 31
0.0
  0
LINE
  5
42C
330
1E
100
AcDbEntity
  8
0
100
AcDbLine
 10
221.647
 20
1343.835
 30
0.0
 11
221.647
 21
1345.835
 31
0.0
  0
LINE
  5
42D
330
1E
100
AcDbEntity
  8
0
100
AcDbLine
 10
215.117
 20
1345.835
 30
0.0
 11
215.117
 21
1343.835
 31
0.0
  0
LINE
  5
42E
330
1E
100
AcDbEntity
  8
0
100
AcDbLine
 10
215.117
 20
1345.835
 30
0.0
 11
215.6349999999999
 21
1345.835
 31
0.0
  0
LINE
  5
42F
330
1E
100
AcDbEntity
  8
0
100
AcDbLine
 10
215.6349999999999
 20
1345.835
 30
0.0
 11
217.2499999999999
 21
1345.835
 31
0.0
  0
LINE
  5
430
330
1E
100
AcDbEntity
  8
0
100
AcDbLine
 10
215.6349999999999
 20
1345.835
 30
0.0
 11
215.6349999999999
 21
1343.835
 31
0.0
  0
LINE
  5
431
330
1E
100
AcDbEntity
  8
0
100
AcDbLine
 10
213.185
 20
1345.835
 30
0.0
 11
213.185
 21
1343.835
 31
0.0
  0
LINE
  5
432
330
1E
100
AcDbEntity
  8
0
100
AcDbLine
 10
213.185
 20
1345.835
 30
0.0
 11
215.117
 21
1345.835
 31
0.0
  0
LINE
  5
433
330
1E
100
AcDbEntity
  8
0
100
AcDbLine
 10
229.606
 20
1345.835
 30
0.0
 11
229.606
 21
1343.835
 31
0.0
  0
LINE
  5
434
330
1E
100
AcDbEntity
  8
0
100
AcDbLine
 10
229.606
 20
1345.835
 30
0.0
 11
230.124
 21
1345.835
 31
0.0
  0
LINE
  5
435
330
1E
100
AcDbEntity
  8
0
100
AcDbLine
 10
221.647
 20
1345.835
 30
0.0
 11
221.647
 21
1343.835
 31
0.0
  0
LINE
  5
436
330
1E
100
AcDbEntity
  8
0
100
AcDbLine
 10
221.647
 20
1345.835
 30
0.0
 11
223.0609999999999
 21
1345.835
 31
0.0
  0
LINE
  5
437
330
1E
100
AcDbEntity
  8
0
100
AcDbLine
 10
223.0609999999999
 20
1345.835
 30
0.0
 11
223.372
 21
1345.835
 31
0.0
  0
LINE
  5
438
330
1E
100
AcDbEntity
  8
0
100
AcDbLine
 10
223.0609999999999
 20
1345.835
 30
0.0
 11
223.0609999999999
 21
1343.835
 31
0.0
  0
LINE
  5
439
330
1E
100
AcDbEntity
  8
0
100
AcDbLine
 10
230.25
 20
1345.835
 30
0.0
 11
230.25
 21
1343.835
 31
0.0
  0
LINE
  5
43A
330
1E
100
AcDbEntity
  8
0
100
AcDbLine
 10
230.25
 20
1345.835
 30
0.0
 11
232.25
 21
1345.835
 31
0.0
  0
LINE
  5
43B
330
1E
100
AcDbEntity
  8
0
100
AcDbLine
 10
227.674
 20
1345.835
 30
0.0
 11
227.674
 21
1343.835
 31
0.0
  0
LINE
  5
43C
330
1E
100
AcDbEntity
  8
0
100
AcDbLine
 10
227.674
 20
1345.835
 30
0.0
 11
229.606
 21
1345.835
 31
0.0
  0
LINE
  5
43D
330
1E
100
AcDbEntity
  8
0
100
AcDbLine
 10
220.2329999999999
 20
1345.835
 30
0.0
 11
220.2329999999999
 21
1343.835
 31
0.0
  0
LINE
  5
43E
330
1E
100
AcDbEntity
  8
0
100
AcDbLine
 10
220.2329999999999
 20
1345.835
 30
0.0
 11
221.647
 21
1345.835
 31
0.0
  0
LINE
  5
43F
330
1E
100
AcDbEntity
  8
0
100
AcDbLine
 10
220.2329999999999
 20
1343.835
 30
0.0
 11
221.647
 21
1343.835
 31
0.0
  0
LINE
  5
440
330
1E
100
AcDbEntity
  8
0
100
AcDbLine
 10
220.2329999999999
 20
1343.835
 30
0.0
 11
220.2329999999999
 21
1345.835
 31
0.0
  0
LINE
  5
441
330
1E
100
AcDbEntity
  8
0
100
AcDbLine
 10
234.6299999999999
 20
1343.835
 30
0.0
 11
236.362
 21
1343.835
 31
0.0
  0
LINE
  5
442
330
1E
100
AcDbEntity
  8
0
100
AcDbLine
 10
236.362
 20
1343.835
 30
0.0
 11
236.362
 21
1345.835
 31
0.0
  0
LINE
  5
443
330
1E
100
AcDbEntity
  8
0
100
AcDbLine
 10
235.3619999999999
 20
1343.835
 30
0.0
 11
236.362
 21
1343.835
 31
0.0
  0
LINE
  5
444
330
1E
100
AcDbEntity
  8
0
100
AcDbLine
 10
235.3619999999999
 20
1343.835
 30
0.0
 11
235.3619999999999
 21
1345.835
 31
0.0
  0
LINE
  5
445
330
1E
100
AcDbEntity
  8
0
100
AcDbLine
 10
235.3619999999999
 20
1345.835
 30
0.0
 11
235.3619999999999
 21
1343.835
 31
0.0
  0
LINE
  5
446
330
1E
100
AcDbEntity
  8
0
100
AcDbLine
 10
235.3619999999999
 20
1345.835
 30
0.0
 11
236.362
 21
1345.835
 31
0.0
  0
LINE
  5
447
330
1E
100
AcDbEntity
  8
0
100
AcDbLine
 10
233.63
 20
1345.835
 30
0.0
 11
233.63
 21
1343.835
 31
0.0
  0
LINE
  5
448
330
1E
100
AcDbEntity
  8
0
100
AcDbLine
 10
233.63
 20
1345.835
 30
0.0
 11
235.3619999999999
 21
1345.835
 31
0.0
  0
LINE
  5
449
330
1E
100
AcDbEntity
  8
0
100
AcDbLine
 10
233.63
 20
1343.835
 30
0.0
 11
235.3619999999999
 21
1343.835
 31
0.0
  0
LINE
  5
44A
330
1E
100
AcDbEntity
  8
0
100
AcDbLine
 10
233.63
 20
1343.835
 30
0.0
 11
234.6299999999999
 21
1343.835
 31
0.0
  0
LINE
  5
44B
330
1E
100
AcDbEntity
  8
0
100
AcDbLine
 10
233.63
 20
1343.835
 30
0.0
 11
233.63
 21
1345.835
 31
0.0
  0
LINE
  5
44C
330
1E
100
AcDbEntity
  8
0
100
AcDbLine
 10
232.25
 20
1345.835
 30
0.0
 11
233.63
 21
1345.835
 31
0.0
  0
LINE
  5
44D
330
1E
100
AcDbEntity
  8
0
100
AcDbLine
 10
232.25
 20
1345.835
 30
0.0
 11
232.25
 21
1343.835
 31
0.0
  0
LINE
  5
44E
330
1E
100
AcDbEntity
  8
0
100
AcDbLine
 10
230.124
 20
1345.835
 30
0.0
 11
230.25
 21
1345.835
 31
0.0
  0
LINE
  5
44F
330
1E
100
AcDbEntity
  8
0
100
AcDbLine
 10
230.124
 20
1345.835
 30
0.0
 11
230.124
 21
1343.835
 31
0.0
  0
LINE
  5
450
330
1E
100
AcDbEntity
  8
0
100
AcDbLine
 10
236.362
 20
1345.835
 30
0.0
 11
239.3499999999999
 21
1345.835
 31
0.0
  0
LINE
  5
451
330
1E
100
AcDbEntity
  8
0
100
AcDbLine
 10
236.362
 20
1345.835
 30
0.0
 11
236.362
 21
1343.835
 31
0.0
  0
LINE
  5
452
330
1E
100
AcDbEntity
  8
0
100
AcDbLine
 10
217.2499999999999
 20
1345.835
 30
0.0
 11
220.2329999999999
 21
1345.835
 31
0.0
  0
LINE
  5
453
330
1E
100
AcDbEntity
  8
0
100
AcDbLine
 10
217.2499999999999
 20
1345.835
 30
0.0
 11
217.2499999999999
 21
1343.835
 31
0.0
  0
LINE
  5
454
330
1E
100
AcDbEntity
  8
0
100
AcDbLine
 10
212.455
 20
1345.835
 30
0.0
 11
213.185
 21
1345.835
 31
0.0
  0
LINE
  5
455
330
1E
100
AcDbEntity
  8
0
100
AcDbLine
 10
212.455
 20
1345.835
 30
0.0
 11
212.455
 21
1343.835
 31
0.0
  0
LINE
  5
456
330
1E
100
AcDbEntity
  8
0
100
AcDbLine
 10
223.372
 20
1345.835
 30
0.0
 11
225.05
 21
1345.835
 31
0.0
  0
LINE
  5
457
330
1E
100
AcDbEntity
  8
0
100
AcDbLine
 10
223.372
 20
1345.835
 30
0.0
 11
223.372
 21
1343.835
 31
0.0
  0
LINE
  5
458
330
1E
100
AcDbEntity
  8
0
100
AcDbLine
 10
242.6809999999999
 20
1343.835
 30
0.0
 11
244.613
 21
1343.835
 31
0.0
  0
LINE
  5
459
330
1E
100
AcDbEntity
  8
0
100
AcDbLine
 10
244.613
 20
1343.835
 30
0.0
 11
244.613
 21
1345.835
 31
0.0
  0
LINE
  5
45A
330
1E
100
AcDbEntity
  8
0
100
AcDbLine
 10
247.25
 20
1343.835
 30
0.0
 11
247.25
 21
1345.835
 31
0.0
  0
LINE
  5
45B
330
1E
100
AcDbEntity
  8
0
100
AcDbLine
 10
245.25
 20
1343.835
 30
0.0
 11
247.25
 21
1343.835
 31
0.0
  0
LINE
  5
45C
330
1E
100
AcDbEntity
  8
0
100
AcDbLine
 10
245.25
 20
1343.835
 30
0.0
 11
245.25
 21
1345.835
 31
0.0
  0
LINE
  5
45D
330
1E
100
AcDbEntity
  8
0
100
AcDbLine
 10
244.0949999999999
 20
1343.835
 30
0.0
 11
244.613
 21
1343.835
 31
0.0
  0
LINE
  5
45E
330
1E
100
AcDbEntity
  8
0
100
AcDbLine
 10
244.0949999999999
 20
1343.835
 30
0.0
 11
244.0949999999999
 21
1345.835
 31
0.0
  0
LINE
  5
45F
330
1E
100
AcDbEntity
  8
0
100
AcDbLine
 10
244.0949999999999
 20
1345.835
 30
0.0
 11
244.0949999999999
 21
1343.835
 31
0.0
  0
LINE
  5
460
330
1E
100
AcDbEntity
  8
0
100
AcDbLine
 10
244.0949999999999
 20
1345.835
 30
0.0
 11
244.613
 21
1345.835
 31
0.0
  0
LINE
  5
461
330
1E
100
AcDbEntity
  8
0
100
AcDbLine
 10
245.25
 20
1345.835
 30
0.0
 11
245.25
 21
1343.835
 31
0.0
  0
LINE
  5
462
330
1E
100
AcDbEntity
  8
0
100
AcDbLine
 10
245.25
 20
1345.835
 30
0.0
 11
247.25
 21
1345.835
 31
0.0
  0
LINE
  5
463
330
1E
100
AcDbEntity
  8
0
100
AcDbLine
 10
242.1629999999999
 20
1345.835
 30
0.0
 11
242.1629999999999
 21
1343.835
 31
0.0
  0
LINE
  5
464
330
1E
100
AcDbEntity
  8
0
100
AcDbLine
 10
242.1629999999999
 20
1345.835
 30
0.0
 11
244.0949999999999
 21
1345.835
 31
0.0
  0
LINE
  5
465
330
1E
100
AcDbEntity
  8
0
100
AcDbLine
 10
242.1629999999999
 20
1343.835
 30
0.0
 11
244.0949999999999
 21
1343.835
 31
0.0
  0
LINE
  5
466
330
1E
100
AcDbEntity
  8
0
100
AcDbLine
 10
242.1629999999999
 20
1343.835
 30
0.0
 11
242.6809999999999
 21
1343.835
 31
0.0
  0
LINE
  5
467
330
1E
100
AcDbEntity
  8
0
100
AcDbLine
 10
242.1629999999999
 20
1343.835
 30
0.0
 11
242.1629999999999
 21
1345.835
 31
0.0
  0
LINE
  5
468
330
1E
100
AcDbEntity
  8
0
100
AcDbLine
 10
247.25
 20
1345.835
 30
0.0
 11
248.05
 21
1345.835
 31
0.0
  0
LINE
  5
469
330
1E
100
AcDbEntity
  8
0
100
AcDbLine
 10
247.25
 20
1345.835
 30
0.0
 11
247.25
 21
1343.835
 31
0.0
  0
LINE
  5
46A
330
1E
100
AcDbEntity
  8
0
100
AcDbLine
 10
244.613
 20
1345.835
 30
0.0
 11
245.25
 21
1345.835
 31
0.0
  0
LINE
  5
46B
330
1E
100
AcDbEntity
  8
0
100
AcDbLine
 10
244.613
 20
1345.835
 30
0.0
 11
244.613
 21
1343.835
 31
0.0
  0
LINE
  5
46C
330
1E
100
AcDbEntity
  8
0
100
AcDbLine
 10
339.4499999999999
 20
707.7289999999999
 30
0.0
 11
341.25
 21
700.911
 31
0.0
  0
LINE
  5
46D
330
1E
100
AcDbEntity
  8
0
100
AcDbLine
 10
342.1499999999999
 20
700.804
 30
0.0
 11
345.05
 21
694.0629999999999
 31
0.0
  0
LINE
  5
46E
330
1E
100
AcDbEntity
  8
0
100
AcDbLine
 10
340.45
 20
707.1629999999999
 30
0.0
 11
342.1499999999999
 21
700.804
 31
0.0
  0
LINE
  5
46F
330
1E
100
AcDbEntity
  8
0
100
AcDbLine
 10
341.25
 20
700.911
 30
0.0
 11
344.05
 21
694.3999999999999
 31
0.0
  0
LINE
  5
470
330
1E
100
AcDbEntity
  8
0
100
AcDbLine
 10
343.35
 20
707.316
 30
0.0
 11
345.05
 21
701.8769999999999
 31
0.0
  0
LINE
  5
471
330
1E
100
AcDbEntity
  8
0
100
AcDbLine
 10
348.75
 20
688.0880000000001
 30
0.0
 11
353.75
 21
682.4189999999999
 31
0.0
  0
LINE
  5
472
330
1E
100
AcDbEntity
  8
0
100
AcDbLine
 10
359.55
 20
677.2869999999999
 30
0.0
 11
366.25
 21
672.8439999999999
 31
0.0
  0
LINE
  5
473
330
1E
100
AcDbEntity
  8
0
100
AcDbLine
 10
358.85
 20
677.393
 30
0.0
 11
365.6499999999999
 21
672.8739999999999
 31
0.0
  0
LINE
  5
474
330
1E
100
AcDbEntity
  8
0
100
AcDbLine
 10
357.7519999999999
 20
684.202378526316
 30
0.0
 11
357.7519999999999
 21
683.45
 31
0.0
  0
LINE
  5
475
330
1E
100
AcDbEntity
  8
0
100
AcDbLine
 10
357.7519999999999
 20
684.982
 30
0.0
 11
357.7519999999999
 21
683.45
 31
0.0
  0
LINE
  5
476
330
1E
100
AcDbEntity
  8
0
100
AcDbLine
 10
357.7519999999999
 20
684.982
 30
0.0
 11
359.7519999999999
 21
684.982
 31
0.0
  0
LINE
  5
477
330
1E
100
AcDbEntity
  8
0
100
AcDbLine
 10
357.7519999999999
 20
683.45
 30
0.0
 11
357.7519999999999
 21
684.202378526316
 31
0.0
  0
LINE
  5
478
330
1E
100
AcDbEntity
  8
0
100
AcDbLine
 10
357.7519999999999
 20
683.45
 30
0.0
 11
357.7519999999999
 21
684.982
 31
0.0
  0
LINE
  5
479
330
1E
100
AcDbEntity
  8
0
100
AcDbLine
 10
357.7519999999999
 20
683.45
 30
0.0
 11
359.7519999999999
 21
683.45
 31
0.0
  0
LINE
  5
47A
330
1E
100
AcDbEntity
  8
0
100
AcDbLine
 10
356.1499999999999
 20
683.7979999999999
 30
0.0
 11
361.75
 21
678.9719999999999
 31
0.0
  0
LINE
  5
47B
330
1E
100
AcDbEntity
  8
0
100
AcDbLine
 10
353.75
 20
682.4189999999999
 30
0.0
 11
359.55
 21
677.2869999999999
 31
0.0
  0
LINE
  5
47C
330
1E
100
AcDbEntity
  8
0
100
AcDbLine
 10
352.95
 20
682.6030000000001
 30
0.0
 11
358.85
 21
677.393
 31
0.0
  0
LINE
  5
47D
330
1E
100
AcDbEntity
  8
0
100
AcDbLine
 10
344.75
 20
713.2975641025638
 30
0.0
 11
344.75
 21
712.4179999999999
 31
0.0
  0
LINE
  5
47E
330
1E
100
AcDbEntity
  8
0
100
AcDbLine
 10
344.75
 20
714.2246410256411
 30
0.0
 11
344.75
 21
713.95
 31
0.0
  0
LINE
  5
47F
330
1E
100
AcDbEntity
  8
0
100
AcDbLine
 10
344.75
 20
713.95
 30
0.0
 11
344.75
 21
712.4179999999999
 31
0.0
  0
LINE
  5
480
330
1E
100
AcDbEntity
  8
0
100
AcDbLine
 10
344.75
 20
713.95
 30
0.0
 11
344.75
 21
714.2246410256411
 31
0.0
  0
LINE
  5
481
330
1E
100
AcDbEntity
  8
0
100
AcDbLine
 10
344.75
 20
713.95
 30
0.0
 11
346.75
 21
713.95
 31
0.0
  0
LINE
  5
482
330
1E
100
AcDbEntity
  8
0
100
AcDbLine
 10
344.75
 20
712.4179999999999
 30
0.0
 11
344.75
 21
713.2975641025638
 31
0.0
  0
LINE
  5
483
330
1E
100
AcDbEntity
  8
0
100
AcDbLine
 10
344.75
 20
712.4179999999999
 30
0.0
 11
344.75
 21
713.95
 31
0.0
  0
LINE
  5
484
330
1E
100
AcDbEntity
  8
0
100
AcDbLine
 10
344.75
 20
712.4179999999999
 30
0.0
 11
346.75
 21
712.4179999999999
 31
0.0
  0
LINE
  5
485
330
1E
100
AcDbEntity
  8
0
100
AcDbLine
 10
345.05
 20
701.8769999999999
 30
0.0
 11
347.75
 21
694.983
 31
0.0
  0
LINE
  5
486
330
1E
100
AcDbEntity
  8
0
100
AcDbLine
 10
351.195
 20
693.2560000000001
 30
0.0
 11
351.195
 21
691.97
 31
0.0
  0
LINE
  5
487
330
1E
100
AcDbEntity
  8
0
100
AcDbLine
 10
351.195
 20
693.5019999999999
 30
0.0
 11
351.195
 21
691.97
 31
0.0
  0
LINE
  5
488
330
1E
100
AcDbEntity
  8
0
100
AcDbLine
 10
351.195
 20
693.5019999999999
 30
0.0
 11
353.195
 21
693.5019999999999
 31
0.0
  0
LINE
  5
489
330
1E
100
AcDbEntity
  8
0
100
AcDbLine
 10
351.195
 20
691.97
 30
0.0
 11
351.195
 21
693.2560000000001
 31
0.0
  0
LINE
  5
48A
330
1E
100
AcDbEntity
  8
0
100
AcDbLine
 10
351.195
 20
691.97
 30
0.0
 11
351.195
 21
693.5019999999999
 31
0.0
  0
LINE
  5
48B
330
1E
100
AcDbEntity
  8
0
100
AcDbLine
 10
351.195
 20
691.97
 30
0.0
 11
353.195
 21
691.97
 31
0.0
  0
LINE
  5
48C
330
1E
100
AcDbEntity
  8
0
100
AcDbLine
 10
353.195
 20
693.5019999999999
 30
0.0
 11
353.195
 21
691.97
 31
0.0
  0
LINE
  5
48D
330
1E
100
AcDbEntity
  8
0
100
AcDbLine
 10
353.195
 20
691.97
 30
0.0
 11
353.195
 21
693.5019999999999
 31
0.0
  0
LINE
  5
48E
330
1E
100
AcDbEntity
  8
0
100
AcDbLine
 10
351.35
 20
689.2369999999999
 30
0.0
 11
356.1499999999999
 21
683.7979999999999
 31
0.0
  0
LINE
  5
48F
330
1E
100
AcDbEntity
  8
0
100
AcDbLine
 10
346.639
 20
703.3949999999999
 30
0.0
 11
346.639
 21
702.1089999999999
 31
0.0
  0
LINE
  5
490
330
1E
100
AcDbEntity
  8
0
100
AcDbLine
 10
346.639
 20
703.641
 30
0.0
 11
346.639
 21
702.1089999999999
 31
0.0
  0
LINE
  5
491
330
1E
100
AcDbEntity
  8
0
100
AcDbLine
 10
346.639
 20
703.641
 30
0.0
 11
348.639
 21
703.641
 31
0.0
  0
LINE
  5
492
330
1E
100
AcDbEntity
  8
0
100
AcDbLine
 10
346.639
 20
702.1089999999999
 30
0.0
 11
346.639
 21
703.3949999999999
 31
0.0
  0
LINE
  5
493
330
1E
100
AcDbEntity
  8
0
100
AcDbLine
 10
346.639
 20
702.1089999999999
 30
0.0
 11
346.639
 21
703.641
 31
0.0
  0
LINE
  5
494
330
1E
100
AcDbEntity
  8
0
100
AcDbLine
 10
346.639
 20
702.1089999999999
 30
0.0
 11
348.639
 21
702.1089999999999
 31
0.0
  0
LINE
  5
495
330
1E
100
AcDbEntity
  8
0
100
AcDbLine
 10
346.75
 20
713.95
 30
0.0
 11
346.75
 21
714.622282051282
 31
0.0
  0
LINE
  5
496
330
1E
100
AcDbEntity
  8
0
100
AcDbLine
 10
346.75
 20
713.95
 30
0.0
 11
346.75
 21
712.4179999999999
 31
0.0
  0
LINE
  5
497
330
1E
100
AcDbEntity
  8
0
100
AcDbLine
 10
346.75
 20
712.4179999999999
 30
0.0
 11
346.75
 21
713.95
 31
0.0
  0
LINE
  5
498
330
1E
100
AcDbEntity
  8
0
100
AcDbLine
 10
348.639
 20
703.641
 30
0.0
 11
348.639
 21
702.1089999999999
 31
0.0
  0
LINE
  5
499
330
1E
100
AcDbEntity
  8
0
100
AcDbLine
 10
348.639
 20
702.1089999999999
 30
0.0
 11
348.639
 21
703.641
 31
0.0
  0
LINE
  5
49A
330
1E
100
AcDbEntity
  8
0
100
AcDbLine
 10
356.7499999999999
 20
712.0969999999999
 30
0.0
 11
356.7499999999999
 21
713.6289999999998
 31
0.0
  0
LINE
  5
49B
330
1E
100
AcDbEntity
  8
0
100
AcDbLine
 10
356.7499999999999
 20
712.0969999999999
 30
0.0
 11
358.7499999999999
 21
712.0969999999999
 31
0.0
  0
LINE
  5
49C
330
1E
100
AcDbEntity
  8
0
100
AcDbLine
 10
358.7499999999999
 20
713.6289999999998
 30
0.0
 11
358.7499999999999
 21
712.0969999999999
 31
0.0
  0
LINE
  5
49D
330
1E
100
AcDbEntity
  8
0
100
AcDbLine
 10
358.861
 20
701.9580000000001
 30
0.0
 11
358.861
 21
703.49
 31
0.0
  0
LINE
  5
49E
330
1E
100
AcDbEntity
  8
0
100
AcDbLine
 10
358.861
 20
701.9580000000001
 30
0.0
 11
360.861
 21
701.9580000000001
 31
0.0
  0
LINE
  5
49F
330
1E
100
AcDbEntity
  8
0
100
AcDbLine
 10
358.861
 20
703.6467702185789
 30
0.0
 11
358.861
 21
703.49
 31
0.0
  0
LINE
  5
4A0
330
1E
100
AcDbEntity
  8
0
100
AcDbLine
 10
358.861
 20
703.49
 30
0.0
 11
358.861
 21
701.9580000000001
 31
0.0
  0
LINE
  5
4A1
330
1E
100
AcDbEntity
  8
0
100
AcDbLine
 10
358.861
 20
703.49
 30
0.0
 11
358.861
 21
703.6467702185789
 31
0.0
  0
LINE
  5
4A2
330
1E
100
AcDbEntity
  8
0
100
AcDbLine
 10
358.861
 20
703.49
 30
0.0
 11
360.861
 21
703.49
 31
0.0
  0
LINE
  5
4A3
330
1E
100
AcDbEntity
  8
0
100
AcDbLine
 10
358.7499999999999
 20
712.0969999999999
 30
0.0
 11
358.7499999999999
 21
713.6289999999998
 31
0.0
  0
LINE
  5
4A4
330
1E
100
AcDbEntity
  8
0
100
AcDbLine
 10
356.7499999999999
 20
713.6289999999998
 30
0.0
 11
356.7499999999999
 21
712.0969999999999
 31
0.0
  0
LINE
  5
4A5
330
1E
100
AcDbEntity
  8
0
100
AcDbLine
 10
356.7499999999999
 20
713.6289999999998
 30
0.0
 11
358.7499999999999
 21
713.6289999999998
 31
0.0
  0
LINE
  5
4A6
330
1E
100
AcDbEntity
  8
0
100
AcDbLine
 10
346.75
 20
714.622282051282
 30
0.0
 11
346.75
 21
713.95
 31
0.0
  0
LINE
  5
4A7
330
1E
100
AcDbEntity
  8
0
100
AcDbLine
 10
347.75
 20
694.983
 30
0.0
 11
351.35
 21
689.2369999999999
 31
0.0
  0
LINE
  5
4A8
330
1E
100
AcDbEntity
  8
0
100
AcDbLine
 10
345.05
 20
694.0629999999999
 30
0.0
 11
348.75
 21
688.0880000000001
 31
0.0
  0
LINE
  5
4A9
330
1E
100
AcDbEntity
  8
0
100
AcDbLine
 10
347.9499999999999
 20
688.348
 30
0.0
 11
352.95
 21
682.6030000000001
 31
0.0
  0
LINE
  5
4AA
330
1E
100
AcDbEntity
  8
0
100
AcDbLine
 10
344.05
 20
694.3999999999999
 30
0.0
 11
347.9499999999999
 21
688.348
 31
0.0
  0
LINE
  5
4AB
330
1E
100
AcDbEntity
  8
0
100
AcDbLine
 10
343.35
 20
720.3389999999999
 30
0.0
 11
345.05
 21
725.778
 31
0.0
  0
LINE
  5
4AC
330
1E
100
AcDbEntity
  8
0
100
AcDbLine
 10
342.75
 20
713.827
 30
0.0
 11
343.35
 21
720.3389999999999
 31
0.0
  0
LINE
  5
4AD
330
1E
100
AcDbEntity
  8
0
100
AcDbLine
 10
342.75
 20
713.827
 30
0.0
 11
343.35
 21
707.316
 31
0.0
  0
LINE
  5
4AE
330
1E
100
AcDbEntity
  8
0
100
AcDbLine
 10
340.45
 20
720.4919999999999
 30
0.0
 11
342.1499999999999
 21
726.85
 31
0.0
  0
LINE
  5
4AF
330
1E
100
AcDbEntity
  8
0
100
AcDbLine
 10
339.7499999999999
 20
713.827
 30
0.0
 11
340.45
 21
720.4919999999999
 31
0.0
  0
LINE
  5
4B0
330
1E
100
AcDbEntity
  8
0
100
AcDbLine
 10
339.7499999999999
 20
713.827
 30
0.0
 11
340.45
 21
707.1629999999999
 31
0.0
  0
LINE
  5
4B1
330
1E
100
AcDbEntity
  8
0
100
AcDbLine
 10
346.639
 20
725.462718087432
 30
0.0
 11
346.639
 21
724.26
 31
0.0
  0
LINE
  5
4B2
330
1E
100
AcDbEntity
  8
0
100
AcDbLine
 10
346.639
 20
724.26
 30
0.0
 11
346.639
 21
725.462718087432
 31
0.0
  0
LINE
  5
4B3
330
1E
100
AcDbEntity
  8
0
100
AcDbLine
 10
346.639
 20
724.26
 30
0.0
 11
346.639
 21
722.728
 31
0.0
  0
LINE
  5
4B4
330
1E
100
AcDbEntity
  8
0
100
AcDbLine
 10
346.639
 20
724.26
 30
0.0
 11
348.639
 21
724.26
 31
0.0
  0
LINE
  5
4B5
330
1E
100
AcDbEntity
  8
0
100
AcDbLine
 10
358.861
 20
723.768
 30
0.0
 11
358.861
 21
722.2360000000001
 31
0.0
  0
LINE
  5
4B6
330
1E
100
AcDbEntity
  8
0
100
AcDbLine
 10
358.861
 20
723.768
 30
0.0
 11
360.861
 21
723.768
 31
0.0
  0
LINE
  5
4B7
330
1E
100
AcDbEntity
  8
0
100
AcDbLine
 10
358.861
 20
723.037686284153
 30
0.0
 11
358.861
 21
722.2360000000001
 31
0.0
  0
LINE
  5
4B8
330
1E
100
AcDbEntity
  8
0
100
AcDbLine
 10
358.861
 20
722.2360000000001
 30
0.0
 11
358.861
 21
723.768
 31
0.0
  0
LINE
  5
4B9
330
1E
100
AcDbEntity
  8
0
100
AcDbLine
 10
358.861
 20
722.2360000000001
 30
0.0
 11
358.861
 21
723.037686284153
 31
0.0
  0
LINE
  5
4BA
330
1E
100
AcDbEntity
  8
0
100
AcDbLine
 10
358.861
 20
722.2360000000001
 30
0.0
 11
360.861
 21
722.2360000000001
 31
0.0
  0
LINE
  5
4BB
330
1E
100
AcDbEntity
  8
0
100
AcDbLine
 10
348.639
 20
722.728
 30
0.0
 11
348.639
 21
724.26
 31
0.0
  0
LINE
  5
4BC
330
1E
100
AcDbEntity
  8
0
100
AcDbLine
 10
348.639
 20
725.065887486339
 30
0.0
 11
348.639
 21
724.26
 31
0.0
  0
LINE
  5
4BD
330
1E
100
AcDbEntity
  8
0
100
AcDbLine
 10
348.639
 20
724.26
 30
0.0
 11
348.639
 21
722.728
 31
0.0
  0
LINE
  5
4BE
330
1E
100
AcDbEntity
  8
0
100
AcDbLine
 10
348.639
 20
724.26
 30
0.0
 11
348.639
 21
725.065887486339
 31
0.0
  0
LINE
  5
4BF
330
1E
100
AcDbEntity
  8
0
100
AcDbLine
 10
346.639
 20
722.728
 30
0.0
 11
346.639
 21
724.26
 31
0.0
  0
LINE
  5
4C0
330
1E
100
AcDbEntity
  8
0
100
AcDbLine
 10
346.639
 20
722.728
 30
0.0
 11
348.639
 21
722.728
 31
0.0
  0
LINE
  5
4C1
330
1E
100
AcDbEntity
  8
0
100
AcDbLine
 10
345.05
 20
725.778
 30
0.0
 11
347.75
 21
732.672
 31
0.0
  0
LINE
  5
4C2
330
1E
100
AcDbEntity
  8
0
100
AcDbLine
 10
342.1499999999999
 20
726.85
 30
0.0
 11
345.05
 21
733.591
 31
0.0
  0
LINE
  5
4C3
330
1E
100
AcDbEntity
  8
0
100
AcDbLine
 10
339.4499999999999
 20
721.211
 30
0.0
 11
341.25
 21
728.0289999999999
 31
0.0
  0
LINE
  5
4C4
330
1E
100
AcDbEntity
  8
0
100
AcDbLine
 10
338.75
 20
714.47
 30
0.0
 11
339.4499999999999
 21
721.211
 31
0.0
  0
LINE
  5
4C5
330
1E
100
AcDbEntity
  8
0
100
AcDbLine
 10
338.75
 20
714.47
 30
0.0
 11
339.4499999999999
 21
707.7289999999999
 31
0.0
  0
LINE
  5
4C6
330
1E
100
AcDbEntity
  8
0
100
AcDbLine
 10
338.75
 20
714.47
 30
0.0
 11
338.75
 21
727.9689999999999
 31
0.0
  0
LINE
  5
4C7
330
1E
100
AcDbEntity
  8
0
100
AcDbLine
 10
351.195
 20
734.3989999999998
 30
0.0
 11
351.195
 21
735.684
 31
0.0
  0
LINE
  5
4C8
330
1E
100
AcDbEntity
  8
0
100
AcDbLine
 10
351.195
 20
734.3989999999998
 30
0.0
 11
351.195
 21
732.8660000000001
 31
0.0
  0
LINE
  5
4C9
330
1E
100
AcDbEntity
  8
0
100
AcDbLine
 10
351.195
 20
734.3989999999998
 30
0.0
 11
353.195
 21
734.3989999999998
 31
0.0
  0
LINE
  5
4CA
330
1E
100
AcDbEntity
  8
0
100
AcDbLine
 10
353.195
 20
732.8660000000001
 30
0.0
 11
353.195
 21
734.3989999999998
 31
0.0
  0
LINE
  5
4CB
330
1E
100
AcDbEntity
  8
0
100
AcDbLine
 10
353.195
 20
734.3989999999998
 30
0.0
 11
353.195
 21
732.8660000000001
 31
0.0
  0
LINE
  5
4CC
330
1E
100
AcDbEntity
  8
0
100
AcDbLine
 10
351.195
 20
732.8660000000001
 30
0.0
 11
351.195
 21
734.3989999999998
 31
0.0
  0
LINE
  5
4CD
330
1E
100
AcDbEntity
  8
0
100
AcDbLine
 10
351.195
 20
732.8660000000001
 30
0.0
 11
353.195
 21
732.8660000000001
 31
0.0
  0
LINE
  5
4CE
330
1E
100
AcDbEntity
  8
0
100
AcDbLine
 10
347.75
 20
732.672
 30
0.0
 11
351.35
 21
738.4169999999999
 31
0.0
  0
LINE
  5
4CF
330
1E
100
AcDbEntity
  8
0
100
AcDbLine
 10
345.05
 20
733.591
 30
0.0
 11
348.75
 21
739.566
 31
0.0
  0
LINE
  5
4D0
330
1E
100
AcDbEntity
  8
0
100
AcDbLine
 10
351.195
 20
735.684
 30
0.0
 11
351.195
 21
734.3989999999998
 31
0.0
  0
LINE
  5
4D1
330
1E
100
AcDbEntity
  8
0
100
AcDbLine
 10
351.35
 20
738.4169999999999
 30
0.0
 11
356.1499999999999
 21
743.8560000000001
 31
0.0
  0
LINE
  5
4D2
330
1E
100
AcDbEntity
  8
0
100
AcDbLine
 10
357.7519999999999
 20
741.3869999999999
 30
0.0
 11
357.7519999999999
 21
742.919
 31
0.0
  0
LINE
  5
4D3
330
1E
100
AcDbEntity
  8
0
100
AcDbLine
 10
357.7519999999999
 20
741.3869999999999
 30
0.0
 11
359.7519999999999
 21
741.3869999999999
 31
0.0
  0
LINE
  5
4D4
330
1E
100
AcDbEntity
  8
0
100
AcDbLine
 10
348.75
 20
739.566
 30
0.0
 11
353.75
 21
745.235
 31
0.0
  0
LINE
  5
4D5
330
1E
100
AcDbEntity
  8
0
100
AcDbLine
 10
347.9499999999999
 20
740.592
 30
0.0
 11
352.95
 21
746.337
 31
0.0
  0
LINE
  5
4D6
330
1E
100
AcDbEntity
  8
0
100
AcDbLine
 10
344.05
 20
734.5399999999999
 30
0.0
 11
347.9499999999999
 21
740.592
 31
0.0
  0
LINE
  5
4D7
330
1E
100
AcDbEntity
  8
0
100
AcDbLine
 10
341.25
 20
728.0289999999999
 30
0.0
 11
344.05
 21
734.5399999999999
 31
0.0
  0
LINE
  5
4D8
330
1E
100
AcDbEntity
  8
0
100
AcDbLine
 10
357.7519999999999
 20
743.3431913684209
 30
0.0
 11
357.7519999999999
 21
742.919
 31
0.0
  0
LINE
  5
4D9
330
1E
100
AcDbEntity
  8
0
100
AcDbLine
 10
357.7519999999999
 20
742.919
 30
0.0
 11
357.7519999999999
 21
743.3431913684209
 31
0.0
  0
LINE
  5
4DA
330
1E
100
AcDbEntity
  8
0
100
AcDbLine
 10
357.7519999999999
 20
742.919
 30
0.0
 11
357.7519999999999
 21
741.3869999999999
 31
0.0
  0
LINE
  5
4DB
330
1E
100
AcDbEntity
  8
0
100
AcDbLine
 10
357.7519999999999
 20
742.919
 30
0.0
 11
359.7519999999999
 21
742.919
 31
0.0
  0
LINE
  5
4DC
330
1E
100
AcDbEntity
  8
0
100
AcDbLine
 10
356.1499999999999
 20
743.8560000000001
 30
0.0
 11
361.75
 21
748.682
 31
0.0
  0
LINE
  5
4DD
330
1E
100
AcDbEntity
  8
0
100
AcDbLine
 10
353.75
 20
745.235
 30
0.0
 11
359.55
 21
750.3680000000001
 31
0.0
  0
LINE
  5
4DE
330
1E
100
AcDbEntity
  8
0
100
AcDbLine
 10
352.95
 20
746.337
 30
0.0
 11
358.85
 21
751.547
 31
0.0
  0
LINE
  5
4DF
330
1E
100
AcDbEntity
  8
0
100
AcDbLine
 10
344.05
 20
748.0389999999999
 30
0.0
 11
347.9499999999999
 21
754.091
 31
0.0
  0
LINE
  5
4E0
330
1E
100
AcDbEntity
  8
0
100
AcDbLine
 10
341.25
 20
741.528
 30
0.0
 11
344.05
 21
748.0389999999999
 31
0.0
  0
LINE
  5
4E1
330
1E
100
AcDbEntity
  8
0
100
AcDbLine
 10
339.4499999999999
 20
734.71
 30
0.0
 11
341.25
 21
741.528
 31
0.0
  0
LINE
  5
4E2
330
1E
100
AcDbEntity
  8
0
100
AcDbLine
 10
338.75
 20
727.9689999999999
 30
0.0
 11
339.4499999999999
 21
734.71
 31
0.0
  0
LINE
  5
4E3
330
1E
100
AcDbEntity
  8
0
100
AcDbLine
 10
338.75
 20
727.9689999999999
 30
0.0
 11
338.75
 21
714.47
 31
0.0
  0
LINE
  5
4E4
330
1E
100
AcDbEntity
  8
0
100
AcDbLine
 10
359.7519999999999
 20
684.982
 30
0.0
 11
359.7519999999999
 21
685.7461810596029
 31
0.0
  0
LINE
  5
4E5
330
1E
100
AcDbEntity
  8
0
100
AcDbLine
 10
359.7519999999999
 20
684.982
 30
0.0
 11
359.7519999999999
 21
683.45
 31
0.0
  0
LINE
  5
4E6
330
1E
100
AcDbEntity
  8
0
100
AcDbLine
 10
359.7519999999999
 20
683.45
 30
0.0
 11
359.7519999999999
 21
684.982
 31
0.0
  0
LINE
  5
4E7
330
1E
100
AcDbEntity
  8
0
100
AcDbLine
 10
360.861
 20
703.49
 30
0.0
 11
360.861
 21
703.9030543715849
 31
0.0
  0
LINE
  5
4E8
330
1E
100
AcDbEntity
  8
0
100
AcDbLine
 10
360.861
 20
703.49
 30
0.0
 11
360.861
 21
701.9580000000001
 31
0.0
  0
LINE
  5
4E9
330
1E
100
AcDbEntity
  8
0
100
AcDbLine
 10
360.861
 20
701.9580000000001
 30
0.0
 11
360.861
 21
703.49
 31
0.0
  0
LINE
  5
4EA
330
1E
100
AcDbEntity
  8
0
100
AcDbLine
 10
360.861
 20
703.9030543715849
 30
0.0
 11
360.861
 21
703.49
 31
0.0
  0
LINE
  5
4EB
330
1E
100
AcDbEntity
  8
0
100
AcDbLine
 10
359.7519999999999
 20
685.7461810596029
 30
0.0
 11
359.7519999999999
 21
684.982
 31
0.0
  0
LINE
  5
4EC
330
1E
100
AcDbEntity
  8
0
100
AcDbLine
 10
359.7519999999999
 20
741.3869999999999
 30
0.0
 11
359.7519999999999
 21
742.919
 31
0.0
  0
LINE
  5
4ED
330
1E
100
AcDbEntity
  8
0
100
AcDbLine
 10
359.7519999999999
 20
742.919
 30
0.0
 11
359.7519999999999
 21
741.3869999999999
 31
0.0
  0
LINE
  5
4EE
330
1E
100
AcDbEntity
  8
0
100
AcDbLine
 10
360.861
 20
722.2360000000001
 30
0.0
 11
360.861
 21
723.768
 31
0.0
  0
LINE
  5
4EF
330
1E
100
AcDbEntity
  8
0
100
AcDbLine
 10
364.9739999999999
 20
691.819
 30
0.0
 11
364.9739999999999
 21
693.351
 31
0.0
  0
LINE
  5
4F0
330
1E
100
AcDbEntity
  8
0
100
AcDbLine
 10
364.9739999999999
 20
691.819
 30
0.0
 11
366.974
 21
691.819
 31
0.0
  0
LINE
  5
4F1
330
1E
100
AcDbEntity
  8
0
100
AcDbLine
 10
364.9739999999999
 20
693.351
 30
0.0
 11
364.9739999999999
 21
691.819
 31
0.0
  0
LINE
  5
4F2
330
1E
100
AcDbEntity
  8
0
100
AcDbLine
 10
364.9739999999999
 20
693.351
 30
0.0
 11
366.974
 21
693.351
 31
0.0
  0
LINE
  5
4F3
330
1E
100
AcDbEntity
  8
0
100
AcDbLine
 10
364.9739999999999
 20
733.9069999999999
 30
0.0
 11
364.9739999999999
 21
732.375
 31
0.0
  0
LINE
  5
4F4
330
1E
100
AcDbEntity
  8
0
100
AcDbLine
 10
364.9739999999999
 20
733.9069999999999
 30
0.0
 11
366.974
 21
733.9069999999999
 31
0.0
  0
LINE
  5
4F5
330
1E
100
AcDbEntity
  8
0
100
AcDbLine
 10
364.9739999999999
 20
732.375
 30
0.0
 11
364.9739999999999
 21
733.9069999999999
 31
0.0
  0
LINE
  5
4F6
330
1E
100
AcDbEntity
  8
0
100
AcDbLine
 10
364.9739999999999
 20
732.375
 30
0.0
 11
366.974
 21
732.375
 31
0.0
  0
LINE
  5
4F7
330
1E
100
AcDbEntity
  8
0
100
AcDbLine
 10
360.861
 20
723.768
 30
0.0
 11
360.861
 21
722.2360000000001
 31
0.0
  0
LINE
  5
4F8
330
1E
100
AcDbEntity
  8
0
100
AcDbLine
 10
361.75
 20
678.9719999999999
 30
0.0
 11
368.05
 21
674.682
 31
0.0
  0
LINE
  5
4F9
330
1E
100
AcDbEntity
  8
0
100
AcDbLine
 10
365.6499999999999
 20
672.8739999999999
 30
0.0
 11
373.15
 21
669.0439999999999
 31
0.0
  0
LINE
  5
4FA
330
1E
100
AcDbEntity
  8
0
100
AcDbLine
 10
361.75
 20
748.682
 30
0.0
 11
368.05
 21
752.972
 31
0.0
  0
LINE
  5
4FB
330
1E
100
AcDbEntity
  8
0
100
AcDbLine
 10
359.55
 20
750.3680000000001
 30
0.0
 11
366.25
 21
754.811
 31
0.0
  0
LINE
  5
4FC
330
1E
100
AcDbEntity
  8
0
100
AcDbLine
 10
352.95
 20
759.836
 30
0.0
 11
358.85
 21
765.0449999999999
 31
0.0
  0
LINE
  5
4FD
330
1E
100
AcDbEntity
  8
0
100
AcDbLine
 10
347.9499999999999
 20
754.091
 30
0.0
 11
352.95
 21
759.836
 31
0.0
  0
LINE
  5
4FE
330
1E
100
AcDbEntity
  8
0
100
AcDbLine
 10
358.85
 20
751.547
 30
0.0
 11
365.6499999999999
 21
756.066
 31
0.0
  0
LINE
  5
4FF
330
1E
100
AcDbEntity
  8
0
100
AcDbLine
 10
365.6499999999999
 20
756.066
 30
0.0
 11
373.15
 21
759.896
 31
0.0
  0
LINE
  5
500
330
1E
100
AcDbEntity
  8
0
100
AcDbLine
 10
358.85
 20
765.0449999999999
 30
0.0
 11
365.6499999999999
 21
769.565
 31
0.0
  0
LINE
  5
501
330
1E
100
AcDbEntity
  8
0
100
AcDbLine
 10
366.531
 20
677.664
 30
0.0
 11
366.531
 21
676.378
 31
0.0
  0
LINE
  5
502
330
1E
100
AcDbEntity
  8
0
100
AcDbLine
 10
366.974
 20
693.351
 30
0.0
 11
366.974
 21
691.819
 31
0.0
  0
LINE
  5
503
330
1E
100
AcDbEntity
  8
0
100
AcDbLine
 10
366.974
 20
691.819
 30
0.0
 11
366.974
 21
693.351
 31
0.0
  0
LINE
  5
504
330
1E
100
AcDbEntity
  8
0
100
AcDbLine
 10
366.531
 20
677.9099999999999
 30
0.0
 11
366.531
 21
676.378
 31
0.0
  0
LINE
  5
505
330
1E
100
AcDbEntity
  8
0
100
AcDbLine
 10
366.531
 20
677.9099999999999
 30
0.0
 11
368.531
 21
677.9099999999999
 31
0.0
  0
LINE
  5
506
330
1E
100
AcDbEntity
  8
0
100
AcDbLine
 10
366.531
 20
676.378
 30
0.0
 11
366.531
 21
677.664
 31
0.0
  0
LINE
  5
507
330
1E
100
AcDbEntity
  8
0
100
AcDbLine
 10
366.531
 20
676.378
 30
0.0
 11
366.531
 21
677.9099999999999
 31
0.0
  0
LINE
  5
508
330
1E
100
AcDbEntity
  8
0
100
AcDbLine
 10
366.531
 20
676.378
 30
0.0
 11
368.531
 21
676.378
 31
0.0
  0
LINE
  5
509
330
1E
100
AcDbEntity
  8
0
100
AcDbLine
 10
366.974
 20
732.375
 30
0.0
 11
366.974
 21
733.9069999999999
 31
0.0
  0
LINE
  5
50A
330
1E
100
AcDbEntity
  8
0
100
AcDbLine
 10
366.531
 20
751.276
 30
0.0
 11
366.531
 21
749.99
 31
0.0
  0
LINE
  5
50B
330
1E
100
AcDbEntity
  8
0
100
AcDbLine
 10
366.531
 20
749.99
 30
0.0
 11
366.531
 21
751.276
 31
0.0
  0
LINE
  5
50C
330
1E
100
AcDbEntity
  8
0
100
AcDbLine
 10
366.531
 20
749.99
 30
0.0
 11
366.531
 21
748.4580000000001
 31
0.0
  0
LINE
  5
50D
330
1E
100
AcDbEntity
  8
0
100
AcDbLine
 10
366.531
 20
749.99
 30
0.0
 11
368.531
 21
749.99
 31
0.0
  0
LINE
  5
50E
330
1E
100
AcDbEntity
  8
0
100
AcDbLine
 10
366.531
 20
748.4580000000001
 30
0.0
 11
366.531
 21
749.99
 31
0.0
  0
LINE
  5
50F
330
1E
100
AcDbEntity
  8
0
100
AcDbLine
 10
366.531
 20
748.4580000000001
 30
0.0
 11
368.531
 21
748.4580000000001
 31
0.0
  0
LINE
  5
510
330
1E
100
AcDbEntity
  8
0
100
AcDbLine
 10
366.974
 20
733.9069999999999
 30
0.0
 11
366.974
 21
732.375
 31
0.0
  0
LINE
  5
511
330
1E
100
AcDbEntity
  8
0
100
AcDbLine
 10
368.05
 20
674.682
 30
0.0
 11
375.15
 21
671.0049999999999
 31
0.0
  0
LINE
  5
512
330
1E
100
AcDbEntity
  8
0
100
AcDbLine
 10
366.25
 20
672.8439999999999
 30
0.0
 11
373.6499999999999
 21
669.0139999999999
 31
0.0
  0
LINE
  5
513
330
1E
100
AcDbEntity
  8
0
100
AcDbLine
 10
368.531
 20
677.9099999999999
 30
0.0
 11
368.531
 21
676.378
 31
0.0
  0
LINE
  5
514
330
1E
100
AcDbEntity
  8
0
100
AcDbLine
 10
368.531
 20
676.378
 30
0.0
 11
368.531
 21
677.9099999999999
 31
0.0
  0
LINE
  5
515
330
1E
100
AcDbEntity
  8
0
100
AcDbLine
 10
368.75
 20
712.587262411348
 30
0.0
 11
368.75
 21
711.776
 31
0.0
  0
LINE
  5
516
330
1E
100
AcDbEntity
  8
0
100
AcDbLine
 10
368.531
 20
748.4580000000001
 30
0.0
 11
368.531
 21
749.99
 31
0.0
  0
LINE
  5
517
330
1E
100
AcDbEntity
  8
0
100
AcDbLine
 10
368.531
 20
749.99
 30
0.0
 11
368.531
 21
748.4580000000001
 31
0.0
  0
LINE
  5
518
330
1E
100
AcDbEntity
  8
0
100
AcDbLine
 10
368.75
 20
713.4620141843969
 30
0.0
 11
368.75
 21
713.3079999999999
 31
0.0
  0
LINE
  5
519
330
1E
100
AcDbEntity
  8
0
100
AcDbLine
 10
368.75
 20
713.3079999999999
 30
0.0
 11
368.75
 21
711.776
 31
0.0
  0
LINE
  5
51A
330
1E
100
AcDbEntity
  8
0
100
AcDbLine
 10
368.75
 20
713.3079999999999
 30
0.0
 11
368.75
 21
713.4620141843969
 31
0.0
  0
LINE
  5
51B
330
1E
100
AcDbEntity
  8
0
100
AcDbLine
 10
368.75
 20
713.3079999999999
 30
0.0
 11
370.75
 21
713.3079999999999
 31
0.0
  0
LINE
  5
51C
330
1E
100
AcDbEntity
  8
0
100
AcDbLine
 10
370.75
 20
713.3079999999999
 30
0.0
 11
370.75
 21
713.5414468085111
 31
0.0
  0
LINE
  5
51D
330
1E
100
AcDbEntity
  8
0
100
AcDbLine
 10
370.75
 20
713.3079999999999
 30
0.0
 11
370.75
 21
711.776
 31
0.0
  0
LINE
  5
51E
330
1E
100
AcDbEntity
  8
0
100
AcDbLine
 10
372.308
 20
684.833
 30
0.0
 11
372.308
 21
686.3649999999999
 31
0.0
  0
LINE
  5
51F
330
1E
100
AcDbEntity
  8
0
100
AcDbLine
 10
372.308
 20
684.833
 30
0.0
 11
374.308
 21
684.833
 31
0.0
  0
LINE
  5
520
330
1E
100
AcDbEntity
  8
0
100
AcDbLine
 10
371.75
 20
702.404
 30
0.0
 11
371.75
 21
703.936
 31
0.0
  0
LINE
  5
521
330
1E
100
AcDbEntity
  8
0
100
AcDbLine
 10
371.75
 20
702.404
 30
0.0
 11
373.75
 21
702.404
 31
0.0
  0
LINE
  5
522
330
1E
100
AcDbEntity
  8
0
100
AcDbLine
 10
371.75
 20
703.936
 30
0.0
 11
371.75
 21
702.404
 31
0.0
  0
LINE
  5
523
330
1E
100
AcDbEntity
  8
0
100
AcDbLine
 10
371.75
 20
703.936
 30
0.0
 11
373.75
 21
703.936
 31
0.0
  0
LINE
  5
524
330
1E
100
AcDbEntity
  8
0
100
AcDbLine
 10
372.308
 20
686.553274328358
 30
0.0
 11
372.308
 21
686.3649999999999
 31
0.0
  0
LINE
  5
525
330
1E
100
AcDbEntity
  8
0
100
AcDbLine
 10
372.308
 20
686.3649999999999
 30
0.0
 11
372.308
 21
684.833
 31
0.0
  0
LINE
  5
526
330
1E
100
AcDbEntity
  8
0
100
AcDbLine
 10
372.308
 20
686.3649999999999
 30
0.0
 11
372.308
 21
686.553274328358
 31
0.0
  0
LINE
  5
527
330
1E
100
AcDbEntity
  8
0
100
AcDbLine
 10
372.308
 20
686.3649999999999
 30
0.0
 11
374.308
 21
686.3649999999999
 31
0.0
  0
LINE
  5
528
330
1E
100
AcDbEntity
  8
0
100
AcDbLine
 10
370.75
 20
711.776
 30
0.0
 11
370.75
 21
713.3079999999999
 31
0.0
  0
LINE
  5
529
330
1E
100
AcDbEntity
  8
0
100
AcDbLine
 10
371.75
 20
722.6799999999999
 30
0.0
 11
371.75
 21
721.148
 31
0.0
  0
LINE
  5
52A
330
1E
100
AcDbEntity
  8
0
100
AcDbLine
 10
371.75
 20
722.6799999999999
 30
0.0
 11
373.75
 21
722.6799999999999
 31
0.0
  0
LINE
  5
52B
330
1E
100
AcDbEntity
  8
0
100
AcDbLine
 10
372.308
 20
740.893
 30
0.0
 11
372.308
 21
739.3610000000001
 31
0.0
  0
LINE
  5
52C
330
1E
100
AcDbEntity
  8
0
100
AcDbLine
 10
372.308
 20
740.893
 30
0.0
 11
374.308
 21
740.893
 31
0.0
  0
LINE
  5
52D
330
1E
100
AcDbEntity
  8
0
100
AcDbLine
 10
372.308
 20
740.0874728358211
 30
0.0
 11
372.308
 21
739.3610000000001
 31
0.0
  0
LINE
  5
52E
330
1E
100
AcDbEntity
  8
0
100
AcDbLine
 10
372.308
 20
739.3610000000001
 30
0.0
 11
372.308
 21
740.893
 31
0.0
  0
LINE
  5
52F
330
1E
100
AcDbEntity
  8
0
100
AcDbLine
 10
372.308
 20
739.3610000000001
 30
0.0
 11
372.308
 21
740.0874728358211
 31
0.0
  0
LINE
  5
530
330
1E
100
AcDbEntity
  8
0
100
AcDbLine
 10
372.308
 20
739.3610000000001
 30
0.0
 11
374.308
 21
739.3610000000001
 31
0.0
  0
LINE
  5
531
330
1E
100
AcDbEntity
  8
0
100
AcDbLine
 10
371.75
 20
721.148
 30
0.0
 11
371.75
 21
722.6799999999999
 31
0.0
  0
LINE
  5
532
330
1E
100
AcDbEntity
  8
0
100
AcDbLine
 10
371.75
 20
721.148
 30
0.0
 11
373.75
 21
721.148
 31
0.0
  0
LINE
  5
533
330
1E
100
AcDbEntity
  8
0
100
AcDbLine
 10
370.75
 20
713.5414468085111
 30
0.0
 11
370.75
 21
713.3079999999999
 31
0.0
  0
LINE
  5
534
330
1E
100
AcDbEntity
  8
0
100
AcDbLine
 10
368.75
 20
711.776
 30
0.0
 11
368.75
 21
712.587262411348
 31
0.0
  0
LINE
  5
535
330
1E
100
AcDbEntity
  8
0
100
AcDbLine
 10
368.75
 20
711.776
 30
0.0
 11
368.75
 21
713.3079999999999
 31
0.0
  0
LINE
  5
536
330
1E
100
AcDbEntity
  8
0
100
AcDbLine
 10
368.75
 20
711.776
 30
0.0
 11
370.75
 21
711.776
 31
0.0
  0
LINE
  5
537
330
1E
100
AcDbEntity
  8
0
100
AcDbLine
 10
373.15
 20
669.0439999999999
 30
0.0
 11
381.05
 21
666.056
 31
0.0
  0
LINE
  5
538
330
1E
100
AcDbEntity
  8
0
100
AcDbLine
 10
368.05
 20
752.972
 30
0.0
 11
375.15
 21
756.6489999999999
 31
0.0
  0
LINE
  5
539
330
1E
100
AcDbEntity
  8
0
100
AcDbLine
 10
366.25
 20
754.811
 30
0.0
 11
373.6499999999999
 21
758.641
 31
0.0
  0
LINE
  5
53A
330
1E
100
AcDbEntity
  8
0
100
AcDbLine
 10
373.75
 20
703.936
 30
0.0
 11
373.75
 21
702.404
 31
0.0
  0
LINE
  5
53B
330
1E
100
AcDbEntity
  8
0
100
AcDbLine
 10
373.75
 20
702.404
 30
0.0
 11
373.75
 21
703.936
 31
0.0
  0
LINE
  5
53C
330
1E
100
AcDbEntity
  8
0
100
AcDbLine
 10
373.75
 20
721.148
 30
0.0
 11
373.75
 21
722.6799999999999
 31
0.0
  0
LINE
  5
53D
330
1E
100
AcDbEntity
  8
0
100
AcDbLine
 10
373.75
 20
723.6128416988419
 30
0.0
 11
373.75
 21
722.6799999999999
 31
0.0
  0
LINE
  5
53E
330
1E
100
AcDbEntity
  8
0
100
AcDbLine
 10
374.308
 20
686.3649999999999
 30
0.0
 11
374.308
 21
684.833
 31
0.0
  0
LINE
  5
53F
330
1E
100
AcDbEntity
  8
0
100
AcDbLine
 10
374.308
 20
684.833
 30
0.0
 11
374.308
 21
686.3649999999999
 31
0.0
  0
LINE
  5
540
330
1E
100
AcDbEntity
  8
0
100
AcDbLine
 10
374.308
 20
739.3610000000001
 30
0.0
 11
374.308
 21
740.893
 31
0.0
  0
LINE
  5
541
330
1E
100
AcDbEntity
  8
0
100
AcDbLine
 10
374.308
 20
740.893
 30
0.0
 11
374.308
 21
739.3610000000001
 31
0.0
  0
LINE
  5
542
330
1E
100
AcDbEntity
  8
0
100
AcDbLine
 10
373.75
 20
722.6799999999999
 30
0.0
 11
373.75
 21
721.148
 31
0.0
  0
LINE
  5
543
330
1E
100
AcDbEntity
  8
0
100
AcDbLine
 10
373.75
 20
722.6799999999999
 30
0.0
 11
373.75
 21
723.6128416988419
 31
0.0
  0
LINE
  5
544
330
1E
100
AcDbEntity
  8
0
100
AcDbLine
 10
375.134
 20
755.5499999999999
 30
0.0
 11
375.134
 21
754.265
 31
0.0
  0
LINE
  5
545
330
1E
100
AcDbEntity
  8
0
100
AcDbLine
 10
375.134
 20
754.265
 30
0.0
 11
376.866
 21
755.031
 31
0.0
  0
LINE
  5
546
330
1E
100
AcDbEntity
  8
0
100
AcDbLine
 10
375.134
 20
754.265
 30
0.0
 11
375.134
 21
755.5499999999999
 31
0.0
  0
LINE
  5
547
330
1E
100
AcDbEntity
  8
0
100
AcDbLine
 10
375.134
 20
754.265
 30
0.0
 11
376.134
 21
752.9379999999999
 31
0.0
  0
LINE
  5
548
330
1E
100
AcDbEntity
  8
0
100
AcDbLine
 10
375.134
 20
673.3889999999998
 30
0.0
 11
375.134
 21
672.1039999999999
 31
0.0
  0
LINE
  5
549
330
1E
100
AcDbEntity
  8
0
100
AcDbLine
 10
375.134
 20
672.1039999999999
 30
0.0
 11
376.866
 21
671.338
 31
0.0
  0
LINE
  5
54A
330
1E
100
AcDbEntity
  8
0
100
AcDbLine
 10
375.134
 20
672.1039999999999
 30
0.0
 11
376.134
 21
673.431
 31
0.0
  0
LINE
  5
54B
330
1E
100
AcDbEntity
  8
0
100
AcDbLine
 10
375.134
 20
672.1039999999999
 30
0.0
 11
375.134
 21
673.3889999999998
 31
0.0
  0
LINE
  5
54C
330
1E
100
AcDbEntity
  8
0
100
AcDbLine
 10
375.15
 20
671.0049999999999
 30
0.0
 11
382.6499999999999
 21
668.248
 31
0.0
  0
LINE
  5
54D
330
1E
100
AcDbEntity
  8
0
100
AcDbLine
 10
373.6499999999999
 20
669.0139999999999
 30
0.0
 11
381.4499999999999
 21
666.1789999999999
 31
0.0
  0
LINE
  5
54E
330
1E
100
AcDbEntity
  8
0
100
AcDbLine
 10
377.97
 20
532.835
 30
0.0
 11
379.05
 21
540.395
 31
0.0
  0
LINE
  5
54F
330
1E
100
AcDbEntity
  8
0
100
AcDbLine
 10
377.97
 20
532.835
 30
0.0
 11
379.05
 21
525.2749999999999
 31
0.0
  0
LINE
  5
550
330
1E
100
AcDbEntity
  8
0
100
AcDbLine
 10
379.05
 20
540.395
 30
0.0
 11
381.93
 21
547.355
 31
0.0
  0
LINE
  5
551
330
1E
100
AcDbEntity
  8
0
100
AcDbLine
 10
378.33
 20
540.5149999999999
 30
0.0
 11
381.21
 21
547.715
 31
0.0
  0
LINE
  5
552
330
1E
100
AcDbEntity
  8
0
100
AcDbLine
 10
377.2499999999999
 20
532.835
 30
0.0
 11
378.33
 21
540.5149999999999
 31
0.0
  0
LINE
  5
553
330
1E
100
AcDbEntity
  8
0
100
AcDbLine
 10
377.2499999999999
 20
532.835
 30
0.0
 11
378.33
 21
525.1549999999999
 31
0.0
  0
LINE
  5
554
330
1E
100
AcDbEntity
  8
0
100
AcDbLine
 10
376.134
 20
752.9379999999999
 30
0.0
 11
377.8659999999999
 21
753.7039999999999
 31
0.0
  0
LINE
  5
555
330
1E
100
AcDbEntity
  8
0
100
AcDbLine
 10
377.8659999999999
 20
672.6639999999999
 30
0.0
 11
377.8659999999999
 21
672.8537276190479
 31
0.0
  0
LINE
  5
556
330
1E
100
AcDbEntity
  8
0
100
AcDbLine
 10
376.866
 20
671.338
 30
0.0
 11
377.8659999999999
 21
672.6639999999999
 31
0.0
  0
LINE
  5
557
330
1E
100
AcDbEntity
  8
0
100
AcDbLine
 10
378.974
 20
692.946
 30
0.0
 11
378.974
 21
694.478
 31
0.0
  0
LINE
  5
558
330
1E
100
AcDbEntity
  8
0
100
AcDbLine
 10
378.974
 20
692.946
 30
0.0
 11
380.974
 21
692.946
 31
0.0
  0
LINE
  5
559
330
1E
100
AcDbEntity
  8
0
100
AcDbLine
 10
378.974
 20
694.478
 30
0.0
 11
378.974
 21
692.946
 31
0.0
  0
LINE
  5
55A
330
1E
100
AcDbEntity
  8
0
100
AcDbLine
 10
378.974
 20
694.478
 30
0.0
 11
380.974
 21
694.478
 31
0.0
  0
LINE
  5
55B
330
1E
100
AcDbEntity
  8
0
100
AcDbLine
 10
380.75
 20
711.5642836879429
 30
0.0
 11
380.75
 21
711.4539999999999
 31
0.0
  0
LINE
  5
55C
330
1E
100
AcDbEntity
  8
0
100
AcDbLine
 10
377.8659999999999
 20
753.7039999999999
 30
0.0
 11
377.8659999999999
 21
754.562853333333
 31
0.0
  0
LINE
  5
55D
330
1E
100
AcDbEntity
  8
0
100
AcDbLine
 10
378.974
 20
732.1369999999999
 30
0.0
 11
378.974
 21
730.6049999999999
 31
0.0
  0
LINE
  5
55E
330
1E
100
AcDbEntity
  8
0
100
AcDbLine
 10
378.974
 20
732.1369999999999
 30
0.0
 11
380.974
 21
732.1369999999999
 31
0.0
  0
LINE
  5
55F
330
1E
100
AcDbEntity
  8
0
100
AcDbLine
 10
378.974
 20
730.6049999999999
 30
0.0
 11
378.974
 21
732.1369999999999
 31
0.0
  0
LINE
  5
560
330
1E
100
AcDbEntity
  8
0
100
AcDbLine
 10
378.974
 20
730.6049999999999
 30
0.0
 11
380.974
 21
730.6049999999999
 31
0.0
  0
LINE
  5
561
330
1E
100
AcDbEntity
  8
0
100
AcDbLine
 10
377.8659999999999
 20
754.562853333333
 30
0.0
 11
377.8659999999999
 21
753.7039999999999
 31
0.0
  0
LINE
  5
562
330
1E
100
AcDbEntity
  8
0
100
AcDbLine
 10
376.866
 20
755.3309485714289
 30
0.0
 11
376.866
 21
755.031
 31
0.0
  0
LINE
  5
563
330
1E
100
AcDbEntity
  8
0
100
AcDbLine
 10
376.866
 20
755.031
 30
0.0
 11
376.866
 21
755.3309485714289
 31
0.0
  0
LINE
  5
564
330
1E
100
AcDbEntity
  8
0
100
AcDbLine
 10
376.866
 20
755.031
 30
0.0
 11
377.8659999999999
 21
753.7039999999999
 31
0.0
  0
LINE
  5
565
330
1E
100
AcDbEntity
  8
0
100
AcDbLine
 10
380.75
 20
713.938609929078
 30
0.0
 11
380.75
 21
712.986
 31
0.0
  0
LINE
  5
566
330
1E
100
AcDbEntity
  8
0
100
AcDbLine
 10
380.75
 20
712.986
 30
0.0
 11
380.75
 21
711.4539999999999
 31
0.0
  0
LINE
  5
567
330
1E
100
AcDbEntity
  8
0
100
AcDbLine
 10
380.75
 20
712.986
 30
0.0
 11
380.75
 21
713.938609929078
 31
0.0
  0
LINE
  5
568
330
1E
100
AcDbEntity
  8
0
100
AcDbLine
 10
380.75
 20
712.986
 30
0.0
 11
382.75
 21
712.986
 31
0.0
  0
LINE
  5
569
330
1E
100
AcDbEntity
  8
0
100
AcDbLine
 10
380.974
 20
694.478
 30
0.0
 11
380.974
 21
692.946
 31
0.0
  0
LINE
  5
56A
330
1E
100
AcDbEntity
  8
0
100
AcDbLine
 10
380.974
 20
692.946
 30
0.0
 11
380.974
 21
694.478
 31
0.0
  0
LINE
  5
56B
330
1E
100
AcDbEntity
  8
0
100
AcDbLine
 10
380.974
 20
730.6049999999999
 30
0.0
 11
380.974
 21
732.1369999999999
 31
0.0
  0
LINE
  5
56C
330
1E
100
AcDbEntity
  8
0
100
AcDbLine
 10
380.974
 20
733.1227821319799
 30
0.0
 11
380.974
 21
732.1369999999999
 31
0.0
  0
LINE
  5
56D
330
1E
100
AcDbEntity
  8
0
100
AcDbLine
 10
380.974
 20
732.1369999999999
 30
0.0
 11
380.974
 21
730.6049999999999
 31
0.0
  0
LINE
  5
56E
330
1E
100
AcDbEntity
  8
0
100
AcDbLine
 10
380.974
 20
732.1369999999999
 30
0.0
 11
380.974
 21
733.1227821319799
 31
0.0
  0
LINE
  5
56F
330
1E
100
AcDbEntity
  8
0
100
AcDbLine
 10
380.75
 20
711.4539999999999
 30
0.0
 11
380.75
 21
711.5642836879429
 31
0.0
  0
LINE
  5
570
330
1E
100
AcDbEntity
  8
0
100
AcDbLine
 10
380.75
 20
711.4539999999999
 30
0.0
 11
380.75
 21
712.986
 31
0.0
  0
LINE
  5
571
330
1E
100
AcDbEntity
  8
0
100
AcDbLine
 10
380.75
 20
711.4539999999999
 30
0.0
 11
382.75
 21
711.4539999999999
 31
0.0
  0
LINE
  5
572
330
1E
100
AcDbEntity
  8
0
100
AcDbLine
 10
377.8659999999999
 20
672.8537276190479
 30
0.0
 11
377.8659999999999
 21
672.6639999999999
 31
0.0
  0
LINE
  5
573
330
1E
100
AcDbEntity
  8
0
100
AcDbLine
 10
376.134
 20
673.431
 30
0.0
 11
377.8659999999999
 21
672.6639999999999
 31
0.0
  0
LINE
  5
574
330
1E
100
AcDbEntity
  8
0
100
AcDbLine
 10
381.05
 20
666.056
 30
0.0
 11
389.55
 21
663.911
 31
0.0
  0
LINE
  5
575
330
1E
100
AcDbEntity
  8
0
100
AcDbLine
 10
375.15
 20
756.6489999999999
 30
0.0
 11
382.6499999999999
 21
759.4069999999999
 31
0.0
  0
LINE
  5
576
330
1E
100
AcDbEntity
  8
0
100
AcDbLine
 10
373.6499999999999
 20
758.641
 30
0.0
 11
381.4499999999999
 21
761.475
 31
0.0
  0
LINE
  5
577
330
1E
100
AcDbEntity
  8
0
100
AcDbLine
 10
373.15
 20
759.896
 30
0.0
 11
381.05
 21
762.8839999999999
 31
0.0
  0
LINE
  5
578
330
1E
100
AcDbEntity
  8
0
100
AcDbLine
 10
381.05
 20
762.8839999999999
 30
0.0
 11
389.55
 21
765.029
 31
0.0
  0
LINE
  5
579
330
1E
100
AcDbEntity
  8
0
100
AcDbLine
 10
365.6499999999999
 20
769.565
 30
0.0
 11
373.15
 21
773.395
 31
0.0
  0
LINE
  5
57A
330
1E
100
AcDbEntity
  8
0
100
AcDbLine
 10
373.15
 20
773.395
 30
0.0
 11
381.05
 21
776.383
 31
0.0
  0
LINE
  5
57B
330
1E
100
AcDbEntity
  8
0
100
AcDbLine
 10
381.93
 20
547.355
 30
0.0
 11
386.61
 21
553.475
 31
0.0
  0
LINE
  5
57C
330
1E
100
AcDbEntity
  8
0
100
AcDbLine
 10
381.21
 20
547.715
 30
0.0
 11
386.01
 21
554.075
 31
0.0
  0
LINE
  5
57D
330
1E
100
AcDbEntity
  8
0
100
AcDbLine
 10
382.134
 20
744.656
 30
0.0
 11
383.8659999999999
 21
745.422
 31
0.0
  0
LINE
  5
57E
330
1E
100
AcDbEntity
  8
0
100
AcDbLine
 10
381.134
 20
745.9819999999999
 30
0.0
 11
382.8659999999999
 21
746.7480000000001
 31
0.0
  0
LINE
  5
57F
330
1E
100
AcDbEntity
  8
0
100
AcDbLine
 10
381.134
 20
745.9819999999999
 30
0.0
 11
382.134
 21
744.656
 31
0.0
  0
LINE
  5
580
330
1E
100
AcDbEntity
  8
0
100
AcDbLine
 10
382.134
 20
681.071
 30
0.0
 11
382.134
 21
681.78375030303
 31
0.0
  0
LINE
  5
581
330
1E
100
AcDbEntity
  8
0
100
AcDbLine
 10
382.134
 20
681.071
 30
0.0
 11
383.8659999999999
 21
680.3049999999999
 31
0.0
  0
LINE
  5
582
330
1E
100
AcDbEntity
  8
0
100
AcDbLine
 10
382.134
 20
681.78375030303
 30
0.0
 11
382.134
 21
681.071
 31
0.0
  0
LINE
  5
583
330
1E
100
AcDbEntity
  8
0
100
AcDbLine
 10
381.134
 20
679.7439999999999
 30
0.0
 11
382.8659999999999
 21
678.978
 31
0.0
  0
LINE
  5
584
330
1E
100
AcDbEntity
  8
0
100
AcDbLine
 10
381.134
 20
679.7439999999999
 30
0.0
 11
382.134
 21
681.071
 31
0.0
  0
LINE
  5
585
330
1E
100
AcDbEntity
  8
0
100
AcDbLine
 10
382.6499999999999
 20
668.248
 30
0.0
 11
391.6499999999999
 21
666.1789999999999
 31
0.0
  0
LINE
  5
586
330
1E
100
AcDbEntity
  8
0
100
AcDbLine
 10
381.4499999999999
 20
666.1789999999999
 30
0.0
 11
390.25
 21
663.9580000000001
 31
0.0
  0
LINE
  5
587
330
1E
100
AcDbEntity
  8
0
100
AcDbLine
 10
388.934
 20
527.971
 30
0.0
 11
390.758
 21
523.4109999999999
 31
0.0
  0
LINE
  5
588
330
1E
100
AcDbEntity
  8
0
100
AcDbLine
 10
388.7059999999999
 20
532.835
 30
0.0
 11
389.39
 21
537.623
 31
0.0
  0
LINE
  5
589
330
1E
100
AcDbEntity
  8
0
100
AcDbLine
 10
388.7059999999999
 20
532.835
 30
0.0
 11
389.39
 21
528.047
 31
0.0
  0
LINE
  5
58A
330
1E
100
AcDbEntity
  8
0
100
AcDbLine
 10
388.25
 20
532.835
 30
0.0
 11
388.934
 21
537.6990000000001
 31
0.0
  0
LINE
  5
58B
330
1E
100
AcDbEntity
  8
0
100
AcDbLine
 10
388.25
 20
532.835
 30
0.0
 11
388.934
 21
527.971
 31
0.0
  0
LINE
  5
58C
330
1E
100
AcDbEntity
  8
0
100
AcDbLine
 10
389.39
 20
528.047
 30
0.0
 11
391.2139999999999
 21
523.639
 31
0.0
  0
LINE
  5
58D
330
1E
100
AcDbEntity
  8
0
100
AcDbLine
 10
389.39
 20
537.623
 30
0.0
 11
391.2139999999999
 21
542.0309999999999
 31
0.0
  0
LINE
  5
58E
330
1E
100
AcDbEntity
  8
0
100
AcDbLine
 10
388.934
 20
537.6990000000001
 30
0.0
 11
390.758
 21
542.259
 31
0.0
  0
LINE
  5
58F
330
1E
100
AcDbEntity
  8
0
100
AcDbLine
 10
386.61
 20
553.475
 30
0.0
 11
392.73
 21
558.155
 31
0.0
  0
LINE
  5
590
330
1E
100
AcDbEntity
  8
0
100
AcDbLine
 10
386.01
 20
554.075
 30
0.0
 11
392.37
 21
558.875
 31
0.0
  0
LINE
  5
591
330
1E
100
AcDbEntity
  8
0
100
AcDbLine
 10
389.465
 20
667.437
 30
0.0
 11
390.4649999999999
 21
668.7639999999999
 31
0.0
  0
LINE
  5
592
330
1E
100
AcDbEntity
  8
0
100
AcDbLine
 10
388.733
 20
669.5299999999999
 30
0.0
 11
390.4649999999999
 21
668.7639999999999
 31
0.0
  0
LINE
  5
593
330
1E
100
AcDbEntity
  8
0
100
AcDbLine
 10
387.733
 20
668.203
 30
0.0
 11
389.465
 21
667.437
 31
0.0
  0
LINE
  5
594
330
1E
100
AcDbEntity
  8
0
100
AcDbLine
 10
387.733
 20
668.203
 30
0.0
 11
388.733
 21
669.5299999999999
 31
0.0
  0
LINE
  5
595
330
1E
100
AcDbEntity
  8
0
100
AcDbLine
 10
382.75
 20
712.986
 30
0.0
 11
382.75
 21
714.0180425531919
 31
0.0
  0
LINE
  5
596
330
1E
100
AcDbEntity
  8
0
100
AcDbLine
 10
382.75
 20
712.986
 30
0.0
 11
382.75
 21
711.4539999999999
 31
0.0
  0
LINE
  5
597
330
1E
100
AcDbEntity
  8
0
100
AcDbLine
 10
387.084
 20
701.4860000000001
 30
0.0
 11
387.084
 21
703.018
 31
0.0
  0
LINE
  5
598
330
1E
100
AcDbEntity
  8
0
100
AcDbLine
 10
385.084
 20
701.6254987450979
 30
0.0
 11
385.084
 21
701.4860000000001
 31
0.0
  0
LINE
  5
599
330
1E
100
AcDbEntity
  8
0
100
AcDbLine
 10
387.084
 20
703.018
 30
0.0
 11
387.084
 21
703.808106942149
 31
0.0
  0
LINE
  5
59A
330
1E
100
AcDbEntity
  8
0
100
AcDbLine
 10
387.084
 20
703.018
 30
0.0
 11
387.084
 21
701.4860000000001
 31
0.0
  0
LINE
  5
59B
330
1E
100
AcDbEntity
  8
0
100
AcDbLine
 10
387.084
 20
703.808106942149
 30
0.0
 11
387.084
 21
703.018
 31
0.0
  0
LINE
  5
59C
330
1E
100
AcDbEntity
  8
0
100
AcDbLine
 10
385.084
 20
703.018
 30
0.0
 11
385.084
 21
701.4860000000001
 31
0.0
  0
LINE
  5
59D
330
1E
100
AcDbEntity
  8
0
100
AcDbLine
 10
385.084
 20
703.018
 30
0.0
 11
387.084
 21
703.018
 31
0.0
  0
LINE
  5
59E
330
1E
100
AcDbEntity
  8
0
100
AcDbLine
 10
385.084
 20
701.4860000000001
 30
0.0
 11
385.084
 21
701.6254987450979
 31
0.0
  0
LINE
  5
59F
330
1E
100
AcDbEntity
  8
0
100
AcDbLine
 10
385.084
 20
701.4860000000001
 30
0.0
 11
385.084
 21
703.018
 31
0.0
  0
LINE
  5
5A0
330
1E
100
AcDbEntity
  8
0
100
AcDbLine
 10
385.084
 20
701.4860000000001
 30
0.0
 11
387.084
 21
701.4860000000001
 31
0.0
  0
LINE
  5
5A1
330
1E
100
AcDbEntity
  8
0
100
AcDbLine
 10
382.75
 20
711.4539999999999
 30
0.0
 11
382.75
 21
712.986
 31
0.0
  0
LINE
  5
5A2
330
1E
100
AcDbEntity
  8
0
100
AcDbLine
 10
385.084
 20
723.875042823529
 30
0.0
 11
385.084
 21
722.955
 31
0.0
  0
LINE
  5
5A3
330
1E
100
AcDbEntity
  8
0
100
AcDbLine
 10
385.084
 20
722.955
 30
0.0
 11
385.084
 21
723.875042823529
 31
0.0
  0
LINE
  5
5A4
330
1E
100
AcDbEntity
  8
0
100
AcDbLine
 10
385.084
 20
722.955
 30
0.0
 11
385.084
 21
721.423
 31
0.0
  0
LINE
  5
5A5
330
1E
100
AcDbEntity
  8
0
100
AcDbLine
 10
385.084
 20
722.955
 30
0.0
 11
387.084
 21
722.955
 31
0.0
  0
LINE
  5
5A6
330
1E
100
AcDbEntity
  8
0
100
AcDbLine
 10
385.084
 20
722.478292892562
 30
0.0
 11
385.084
 21
721.423
 31
0.0
  0
LINE
  5
5A7
330
1E
100
AcDbEntity
  8
0
100
AcDbLine
 10
387.084
 20
721.423
 30
0.0
 11
387.084
 21
722.955
 31
0.0
  0
LINE
  5
5A8
330
1E
100
AcDbEntity
  8
0
100
AcDbLine
 10
387.084
 20
723.097631058824
 30
0.0
 11
387.084
 21
722.955
 31
0.0
  0
LINE
  5
5A9
330
1E
100
AcDbEntity
  8
0
100
AcDbLine
 10
387.084
 20
722.955
 30
0.0
 11
387.084
 21
721.423
 31
0.0
  0
LINE
  5
5AA
330
1E
100
AcDbEntity
  8
0
100
AcDbLine
 10
387.084
 20
722.955
 30
0.0
 11
387.084
 21
723.097631058824
 31
0.0
  0
LINE
  5
5AB
330
1E
100
AcDbEntity
  8
0
100
AcDbLine
 10
385.084
 20
721.423
 30
0.0
 11
385.084
 21
722.955
 31
0.0
  0
LINE
  5
5AC
330
1E
100
AcDbEntity
  8
0
100
AcDbLine
 10
385.084
 20
721.423
 30
0.0
 11
385.084
 21
722.478292892562
 31
0.0
  0
LINE
  5
5AD
330
1E
100
AcDbEntity
  8
0
100
AcDbLine
 10
385.084
 20
721.423
 30
0.0
 11
387.084
 21
721.423
 31
0.0
  0
LINE
  5
5AE
330
1E
100
AcDbEntity
  8
0
100
AcDbLine
 10
382.8659999999999
 20
746.7480000000001
 30
0.0
 11
383.8659999999999
 21
745.422
 31
0.0
  0
LINE
  5
5AF
330
1E
100
AcDbEntity
  8
0
100
AcDbLine
 10
387.134
 20
737.7
 30
0.0
 11
388.8659999999999
 21
738.466
 31
0.0
  0
LINE
  5
5B0
330
1E
100
AcDbEntity
  8
0
100
AcDbLine
 10
387.134
 20
737.7
 30
0.0
 11
388.134
 21
736.373
 31
0.0
  0
LINE
  5
5B1
330
1E
100
AcDbEntity
  8
0
100
AcDbLine
 10
382.75
 20
714.0180425531919
 30
0.0
 11
382.75
 21
712.986
 31
0.0
  0
LINE
  5
5B2
330
1E
100
AcDbEntity
  8
0
100
AcDbLine
 10
389.8659999999999
 20
687.9439999999999
 30
0.0
 11
389.8659999999999
 21
688.7186934999999
 31
0.0
  0
LINE
  5
5B3
330
1E
100
AcDbEntity
  8
0
100
AcDbLine
 10
388.8659999999999
 20
686.6169999999999
 30
0.0
 11
389.8659999999999
 21
687.9439999999999
 31
0.0
  0
LINE
  5
5B4
330
1E
100
AcDbEntity
  8
0
100
AcDbLine
 10
389.8659999999999
 20
737.1389999999998
 30
0.0
 11
389.8659999999999
 21
737.2230329999999
 31
0.0
  0
LINE
  5
5B5
330
1E
100
AcDbEntity
  8
0
100
AcDbLine
 10
388.733
 20
756.8389999999999
 30
0.0
 11
390.4649999999999
 21
757.605
 31
0.0
  0
LINE
  5
5B6
330
1E
100
AcDbEntity
  8
0
100
AcDbLine
 10
389.465
 20
760.218
 30
0.0
 11
389.465
 21
758.932
 31
0.0
  0
LINE
  5
5B7
330
1E
100
AcDbEntity
  8
0
100
AcDbLine
 10
387.733
 20
758.166
 30
0.0
 11
389.465
 21
758.932
 31
0.0
  0
LINE
  5
5B8
330
1E
100
AcDbEntity
  8
0
100
AcDbLine
 10
387.733
 20
758.166
 30
0.0
 11
388.733
 21
756.8389999999999
 31
0.0
  0
LINE
  5
5B9
330
1E
100
AcDbEntity
  8
0
100
AcDbLine
 10
389.465
 20
758.932
 30
0.0
 11
389.465
 21
760.218
 31
0.0
  0
LINE
  5
5BA
330
1E
100
AcDbEntity
  8
0
100
AcDbLine
 10
389.465
 20
758.932
 30
0.0
 11
390.4649999999999
 21
757.605
 31
0.0
  0
LINE
  5
5BB
330
1E
100
AcDbEntity
  8
0
100
AcDbLine
 10
388.8659999999999
 20
738.466
 30
0.0
 11
389.8659999999999
 21
737.1389999999998
 31
0.0
  0
LINE
  5
5BC
330
1E
100
AcDbEntity
  8
0
100
AcDbLine
 10
389.8659999999999
 20
737.2230329999999
 30
0.0
 11
389.8659999999999
 21
737.1389999999998
 31
0.0
  0
LINE
  5
5BD
330
1E
100
AcDbEntity
  8
0
100
AcDbLine
 10
388.134
 20
736.373
 30
0.0
 11
389.8659999999999
 21
737.1389999999998
 31
0.0
  0
LINE
  5
5BE
330
1E
100
AcDbEntity
  8
0
100
AcDbLine
 10
389.8659999999999
 20
688.7186934999999
 30
0.0
 11
389.8659999999999
 21
687.9439999999999
 31
0.0
  0
LINE
  5
5BF
330
1E
100
AcDbEntity
  8
0
100
AcDbLine
 10
388.134
 20
688.71
 30
0.0
 11
389.8659999999999
 21
687.9439999999999
 31
0.0
  0
LINE
  5
5C0
330
1E
100
AcDbEntity
  8
0
100
AcDbLine
 10
387.134
 20
687.383
 30
0.0
 11
388.8659999999999
 21
686.6169999999999
 31
0.0
  0
LINE
  5
5C1
330
1E
100
AcDbEntity
  8
0
100
AcDbLine
 10
387.134
 20
687.383
 30
0.0
 11
388.134
 21
688.71
 31
0.0
  0
LINE
  5
5C2
330
1E
100
AcDbEntity
  8
0
100
AcDbLine
 10
382.8659999999999
 20
678.978
 30
0.0
 11
383.8659999999999
 21
680.3049999999999
 31
0.0
  0
LINE
  5
5C3
330
1E
100
AcDbEntity
  8
0
100
AcDbLine
 10
390.25
 20
663.9580000000001
 30
0.0
 11
398.55
 21
662.6549999999999
 31
0.0
  0
LINE
  5
5C4
330
1E
100
AcDbEntity
  8
0
100
AcDbLine
 10
389.55
 20
663.911
 30
0.0
 11
398.45
 21
662.5319999999999
 31
0.0
  0
LINE
  5
5C5
330
1E
100
AcDbEntity
  8
0
100
AcDbLine
 10
382.6499999999999
 20
759.4069999999999
 30
0.0
 11
391.6499999999999
 21
761.475
 31
0.0
  0
LINE
  5
5C6
330
1E
100
AcDbEntity
  8
0
100
AcDbLine
 10
381.4499999999999
 20
761.475
 30
0.0
 11
390.25
 21
763.6969999999999
 31
0.0
  0
LINE
  5
5C7
330
1E
100
AcDbEntity
  8
0
100
AcDbLine
 10
391.2139999999999
 20
542.0309999999999
 30
0.0
 11
393.25
 21
544.6934615384619
 31
0.0
  0
LINE
  5
5C8
330
1E
100
AcDbEntity
  8
0
100
AcDbLine
 10
390.758
 20
542.259
 30
0.0
 11
393.25
 21
545.5608999999999
 31
0.0
  0
LINE
  5
5C9
330
1E
100
AcDbEntity
  8
0
100
AcDbLine
 10
395.098
 20
557.835
 30
0.0
 11
397.065
 21
557.835
 31
0.0
  0
LINE
  5
5CA
330
1E
100
AcDbEntity
  8
0
100
AcDbLine
 10
393.754
 20
557.835
 30
0.0
 11
395.098
 21
557.835
 31
0.0
  0
LINE
  5
5CB
330
1E
100
AcDbEntity
  8
0
100
AcDbLine
 10
392.73
 20
558.155
 30
0.0
 11
398.012312004231
 21
560.340784277613
 31
0.0
  0
LINE
  5
5CC
330
1E
100
AcDbEntity
  8
0
100
AcDbLine
 10
392.37
 20
558.875
 30
0.0
 11
398.0715665097499
 21
561.1556266039
 31
0.0
  0
LINE
  5
5CD
330
1E
100
AcDbEntity
  8
0
100
AcDbLine
 10
393.25
 20
557.835
 30
0.0
 11
393.754
 21
557.835
 31
0.0
  0
LINE
  5
5CE
330
1E
100
AcDbEntity
  8
0
100
AcDbLine
 10
393.25
 20
557.835
 30
0.0
 11
393.25
 21
507.8349999999999
 31
0.0
  0
LINE
  5
5CF
330
1E
100
AcDbEntity
  8
0
100
AcDbLine
 10
395.1499999999999
 20
563.1469999999999
 30
0.0
 11
396.45
 21
562.344
 31
0.0
  0
LINE
  5
5D0
330
1E
100
AcDbEntity
  8
0
100
AcDbLine
 10
395.1499999999999
 20
563.1469999999999
 30
0.0
 11
396.15
 21
562.253
 31
0.0
  0
LINE
  5
5D1
330
1E
100
AcDbEntity
  8
0
100
AcDbLine
 10
394.75
 20
564.0159999999999
 30
0.0
 11
395.1499999999999
 21
563.1469999999999
 31
0.0
  0
LINE
  5
5D2
330
1E
100
AcDbEntity
  8
0
100
AcDbLine
 10
394.75
 20
564.0159999999999
 30
0.0
 11
394.75
 21
645.2069999999999
 31
0.0
  0
LINE
  5
5D3
330
1E
100
AcDbEntity
  8
0
100
AcDbLine
 10
395.1499999999999
 20
642.957
 30
0.0
 11
396.45
 21
640.836
 31
0.0
  0
LINE
  5
5D4
330
1E
100
AcDbEntity
  8
0
100
AcDbLine
 10
394.75
 20
645.2069999999999
 30
0.0
 11
395.1499999999999
 21
647.5209999999999
 31
0.0
  0
LINE
  5
5D5
330
1E
100
AcDbEntity
  8
0
100
AcDbLine
 10
394.75
 20
645.2069999999999
 30
0.0
 11
395.1499999999999
 21
642.957
 31
0.0
  0
LINE
  5
5D6
330
1E
100
AcDbEntity
  8
0
100
AcDbLine
 10
394.75
 20
645.2069999999999
 30
0.0
 11
394.75
 21
564.0159999999999
 31
0.0
  0
LINE
  5
5D7
330
1E
100
AcDbEntity
  8
0
100
AcDbLine
 10
396.15
 20
562.253
 30
0.0
 11
397.25
 21
561.565
 31
0.0
  0
LINE
  5
5D8
330
1E
100
AcDbEntity
  8
0
100
AcDbLine
 10
396.025147928994
 20
562.4877218934909
 30
0.0
 11
396.15
 21
562.253
 31
0.0
  0
LINE
  5
5D9
330
1E
100
AcDbEntity
  8
0
100
AcDbLine
 10
397.065
 20
557.835
 30
0.0
 11
397.065
 21
507.8349999999999
 31
0.0
  0
LINE
  5
5DA
330
1E
100
AcDbEntity
  8
0
100
AcDbLine
 10
397.065
 20
557.835
 30
0.0
 11
399.0469999999999
 21
557.835
 31
0.0
  0
LINE
  5
5DB
330
1E
100
AcDbEntity
  8
0
100
AcDbLine
 10
397.25
 20
561.565
 30
0.0
 11
399.1499999999999
 21
560.9169999999998
 31
0.0
  0
LINE
  5
5DC
330
1E
100
AcDbEntity
  8
0
100
AcDbLine
 10
396.45
 20
562.344
 30
0.0
 11
398.45
 21
561.708
 31
0.0
  0
LINE
  5
5DD
330
1E
100
AcDbEntity
  8
0
100
AcDbLine
 10
396.45
 20
640.836
 30
0.0
 11
398.45
 21
638.9719999999999
 31
0.0
  0
LINE
  5
5DE
330
1E
100
AcDbEntity
  8
0
100
AcDbLine
 10
395.1499999999999
 20
647.5209999999999
 30
0.0
 11
396.45
 21
649.6419999999999
 31
0.0
  0
LINE
  5
5DF
330
1E
100
AcDbEntity
  8
0
100
AcDbLine
 10
392.75
 20
712.4179999999999
 30
0.0
 11
392.75
 21
711.133
 31
0.0
  0
LINE
  5
5E0
330
1E
100
AcDbEntity
  8
0
100
AcDbLine
 10
392.75
 20
713.95
 30
0.0
 11
392.75
 21
712.6649999999999
 31
0.0
  0
LINE
  5
5E1
330
1E
100
AcDbEntity
  8
0
100
AcDbLine
 10
393.134
 20
729.4179999999999
 30
0.0
 11
394.8659999999999
 21
730.1839999999999
 31
0.0
  0
LINE
  5
5E2
330
1E
100
AcDbEntity
  8
0
100
AcDbLine
 10
393.134
 20
729.4179999999999
 30
0.0
 11
394.134
 21
728.091
 31
0.0
  0
LINE
  5
5E3
330
1E
100
AcDbEntity
  8
0
100
AcDbLine
 10
392.75
 20
712.6649999999999
 30
0.0
 11
392.75
 21
711.133
 31
0.0
  0
LINE
  5
5E4
330
1E
100
AcDbEntity
  8
0
100
AcDbLine
 10
392.75
 20
712.6649999999999
 30
0.0
 11
392.75
 21
713.95
 31
0.0
  0
LINE
  5
5E5
330
1E
100
AcDbEntity
  8
0
100
AcDbLine
 10
392.75
 20
712.6649999999999
 30
0.0
 11
394.75
 21
712.6649999999999
 31
0.0
  0
LINE
  5
5E6
330
1E
100
AcDbEntity
  8
0
100
AcDbLine
 10
392.75
 20
711.133
 30
0.0
 11
392.75
 21
712.4179999999999
 31
0.0
  0
LINE
  5
5E7
330
1E
100
AcDbEntity
  8
0
100
AcDbLine
 10
392.75
 20
711.133
 30
0.0
 11
392.75
 21
712.6649999999999
 31
0.0
  0
LINE
  5
5E8
330
1E
100
AcDbEntity
  8
0
100
AcDbLine
 10
392.75
 20
711.133
 30
0.0
 11
394.75
 21
711.133
 31
0.0
  0
LINE
  5
5E9
330
1E
100
AcDbEntity
  8
0
100
AcDbLine
 10
393.6519999999999
 20
676.075
 30
0.0
 11
395.3839999999999
 21
675.309
 31
0.0
  0
LINE
  5
5EA
330
1E
100
AcDbEntity
  8
0
100
AcDbLine
 10
393.6519999999999
 20
676.075
 30
0.0
 11
394.6519999999999
 21
677.4019999999999
 31
0.0
  0
LINE
  5
5EB
330
1E
100
AcDbEntity
  8
0
100
AcDbLine
 10
395.3839999999999
 20
675.309
 30
0.0
 11
396.384
 21
676.636
 31
0.0
  0
LINE
  5
5EC
330
1E
100
AcDbEntity
  8
0
100
AcDbLine
 10
394.6519999999999
 20
677.4019999999999
 30
0.0
 11
396.384
 21
676.636
 31
0.0
  0
LINE
  5
5ED
330
1E
100
AcDbEntity
  8
0
100
AcDbLine
 10
394.8659999999999
 20
694.2569999999999
 30
0.0
 11
395.866
 21
695.5839999999999
 31
0.0
  0
LINE
  5
5EE
330
1E
100
AcDbEntity
  8
0
100
AcDbLine
 10
394.134
 20
696.35
 30
0.0
 11
394.134
 21
697.3440496842109
 31
0.0
  0
LINE
  5
5EF
330
1E
100
AcDbEntity
  8
0
100
AcDbLine
 10
394.134
 20
696.35
 30
0.0
 11
395.866
 21
695.5839999999999
 31
0.0
  0
LINE
  5
5F0
330
1E
100
AcDbEntity
  8
0
100
AcDbLine
 10
394.6519999999999
 20
748.3239999999999
 30
0.0
 11
396.384
 21
749.09
 31
0.0
  0
LINE
  5
5F1
330
1E
100
AcDbEntity
  8
0
100
AcDbLine
 10
393.6519999999999
 20
749.651
 30
0.0
 11
395.3839999999999
 21
750.4169999999999
 31
0.0
  0
LINE
  5
5F2
330
1E
100
AcDbEntity
  8
0
100
AcDbLine
 10
393.6519999999999
 20
749.651
 30
0.0
 11
394.6519999999999
 21
748.3239999999999
 31
0.0
  0
LINE
  5
5F3
330
1E
100
AcDbEntity
  8
0
100
AcDbLine
 10
394.134
 20
728.091
 30
0.0
 11
395.866
 21
728.8569999999999
 31
0.0
  0
LINE
  5
5F4
330
1E
100
AcDbEntity
  8
0
100
AcDbLine
 10
394.75
 20
712.6649999999999
 30
0.0
 11
394.75
 21
713.8151213872831
 31
0.0
  0
LINE
  5
5F5
330
1E
100
AcDbEntity
  8
0
100
AcDbLine
 10
394.75
 20
712.6649999999999
 30
0.0
 11
394.75
 21
711.133
 31
0.0
  0
LINE
  5
5F6
330
1E
100
AcDbEntity
  8
0
100
AcDbLine
 10
394.75
 20
711.133
 30
0.0
 11
394.75
 21
712.6649999999999
 31
0.0
  0
LINE
  5
5F7
330
1E
100
AcDbEntity
  8
0
100
AcDbLine
 10
395.3839999999999
 20
750.4169999999999
 30
0.0
 11
396.384
 21
749.09
 31
0.0
  0
LINE
  5
5F8
330
1E
100
AcDbEntity
  8
0
100
AcDbLine
 10
394.8659999999999
 20
730.1839999999999
 30
0.0
 11
395.866
 21
728.8569999999999
 31
0.0
  0
LINE
  5
5F9
330
1E
100
AcDbEntity
  8
0
100
AcDbLine
 10
394.75
 20
713.8151213872831
 30
0.0
 11
394.75
 21
712.6649999999999
 31
0.0
  0
LINE
  5
5FA
330
1E
100
AcDbEntity
  8
0
100
AcDbLine
 10
394.134
 20
697.3440496842109
 30
0.0
 11
394.134
 21
696.35
 31
0.0
  0
LINE
  5
5FB
330
1E
100
AcDbEntity
  8
0
100
AcDbLine
 10
393.134
 20
695.023
 30
0.0
 11
394.8659999999999
 21
694.2569999999999
 31
0.0
  0
LINE
  5
5FC
330
1E
100
AcDbEntity
  8
0
100
AcDbLine
 10
393.134
 20
695.023
 30
0.0
 11
394.134
 21
696.35
 31
0.0
  0
LINE
  5
5FD
330
1E
100
AcDbEntity
  8
0
100
AcDbLine
 10
396.45
 20
649.6419999999999
 30
0.0
 11
398.2499999999999
 21
651.3205
 31
0.0
  0
LINE
  5
5FE
330
1E
100
AcDbEntity
  8
0
100
AcDbLine
 10
391.6499999999999
 20
666.1789999999999
 30
0.0
 11
398.75
 21
664.8769999999999
 31
0.0
  0
LINE
  5
5FF
330
1E
100
AcDbEntity
  8
0
100
AcDbLine
 10
391.6499999999999
 20
761.475
 30
0.0
 11
398.75
 21
762.7769999999999
 31
0.0
  0
LINE
  5
600
330
1E
100
AcDbEntity
  8
0
100
AcDbLine
 10
390.25
 20
763.6969999999999
 30
0.0
 11
398.55
 21
764.9989999999998
 31
0.0
  0
LINE
  5
601
330
1E
100
AcDbEntity
  8
0
100
AcDbLine
 10
389.55
 20
765.029
 30
0.0
 11
398.45
 21
766.408
 31
0.0
  0
LINE
  5
602
330
1E
100
AcDbEntity
  8
0
100
AcDbLine
 10
381.05
 20
776.383
 30
0.0
 11
389.55
 21
778.5269999999999
 31
0.0
  0
LINE
  5
603
330
1E
100
AcDbEntity
  8
0
100
AcDbLine
 10
389.55
 20
778.5269999999999
 30
0.0
 11
398.45
 21
779.906
 31
0.0
  0
LINE
  5
604
330
1E
100
AcDbEntity
  8
0
100
AcDbLine
 10
251.25
 20
1345.835
 30
0.0
 11
252.2499999999999
 21
1346.835
 31
0.0
  0
LINE
  5
605
330
1E
100
AcDbEntity
  8
0
100
AcDbLine
 10
248.05
 20
1345.835
 30
0.0
 11
251.25
 21
1345.835
 31
0.0
  0
LINE
  5
606
330
1E
100
AcDbEntity
  8
0
100
AcDbLine
 10
239.3499999999999
 20
1345.835
 30
0.0
 11
248.05
 21
1345.835
 31
0.0
  0
LINE
  5
607
330
1E
100
AcDbEntity
  8
0
100
AcDbLine
 10
239.3499999999999
 20
1345.835
 30
0.0
 11
242.1629999999999
 21
1345.835
 31
0.0
  0
LINE
  5
608
330
1E
100
AcDbEntity
  8
0
100
AcDbLine
 10
225.05
 20
1345.835
 30
0.0
 11
239.3499999999999
 21
1345.835
 31
0.0
  0
LINE
  5
609
330
1E
100
AcDbEntity
  8
0
100
AcDbLine
 10
225.05
 20
1345.835
 30
0.0
 11
227.674
 21
1345.835
 31
0.0
  0
LINE
  5
60A
330
1E
100
AcDbEntity
  8
0
100
AcDbLine
 10
206.4499999999999
 20
1345.835
 30
0.0
 11
225.05
 21
1345.835
 31
0.0
  0
LINE
  5
60B
330
1E
100
AcDbEntity
  8
0
100
AcDbLine
 10
206.4499999999999
 20
1345.835
 30
0.0
 11
207.649
 21
1345.835
 31
0.0
  0
LINE
  5
60C
330
1E
100
AcDbEntity
  8
0
100
AcDbLine
 10
185.15
 20
1345.835
 30
0.0
 11
206.4499999999999
 21
1345.835
 31
0.0
  0
LINE
  5
60D
330
1E
100
AcDbEntity
  8
0
100
AcDbLine
 10
162.25
 20
1345.835
 30
0.0
 11
185.15
 21
1345.835
 31
0.0
  0
LINE
  5
60E
330
1E
100
AcDbEntity
  8
0
100
AcDbLine
 10
157.263
 20
1345.835
 30
0.0
 11
161.25
 21
1345.835
 31
0.0
  0
LINE
  5
60F
330
1E
100
AcDbEntity
  8
0
100
AcDbLine
 10
157.263
 20
1345.835
 30
0.0
 11
157.263
 21
1343.835
 31
0.0
  0
LINE
  5
610
330
1E
100
AcDbEntity
  8
0
100
AcDbLine
 10
153.381
 20
1345.835
 30
0.0
 11
154.814
 21
1345.835
 31
0.0
  0
LINE
  5
611
330
1E
100
AcDbEntity
  8
0
100
AcDbLine
 10
153.381
 20
1345.835
 30
0.0
 11
153.381
 21
1343.835
 31
0.0
  0
LINE
  5
612
330
1E
100
AcDbEntity
  8
0
100
AcDbLine
 10
72.25
 20
1396.835
 30
0.0
 11
73.25
 21
1397.835
 31
0.0
  0
LINE
  5
613
330
1E
100
AcDbEntity
  8
0
100
AcDbLine
 10
72.25
 20
1396.835
 30
0.0
 11
72.25
 21
1357.835
 31
0.0
  0
LINE
  5
614
330
1E
100
AcDbEntity
  8
0
100
AcDbLine
 10
72.25
 20
1396.835
 30
0.0
 11
75.54999999999999
 21
1396.835
 31
0.0
  0
LINE
  5
615
330
1E
100
AcDbEntity
  8
0
100
AcDbLine
 10
72.25
 20
1357.835
 30
0.0
 11
73.25
 21
1356.835
 31
0.0
  0
LINE
  5
616
330
1E
100
AcDbEntity
  8
0
100
AcDbLine
 10
72.25
 20
1357.835
 30
0.0
 11
72.25
 21
1396.835
 31
0.0
  0
LINE
  5
617
330
1E
100
AcDbEntity
  8
0
100
AcDbLine
 10
72.25
 20
1357.835
 30
0.0
 11
75.54999999999999
 21
1357.835
 31
0.0
  0
LINE
  5
618
330
1E
100
AcDbEntity
  8
0
100
AcDbLine
 10
72.25
 20
1355.835
 30
0.0
 11
73.25
 21
1356.835
 31
0.0
  0
LINE
  5
619
330
1E
100
AcDbEntity
  8
0
100
AcDbLine
 10
72.25
 20
1355.835
 30
0.0
 11
72.25
 21
1346.835
 31
0.0
  0
LINE
  5
61A
330
1E
100
AcDbEntity
  8
0
100
AcDbLine
 10
72.25
 20
1355.835
 30
0.0
 11
75.54999999999999
 21
1355.835
 31
0.0
  0
LINE
  5
61B
330
1E
100
AcDbEntity
  8
0
100
AcDbLine
 10
75.54999999999999
 20
1346.835
 30
0.0
 11
84.35
 21
1346.835
 31
0.0
  0
LINE
  5
61C
330
1E
100
AcDbEntity
  8
0
100
AcDbLine
 10
84.35
 20
1346.835
 30
0.0
 11
98.65000000000001
 21
1346.835
 31
0.0
  0
LINE
  5
61D
330
1E
100
AcDbEntity
  8
0
100
AcDbLine
 10
98.65000000000001
 20
1346.835
 30
0.0
 11
117.5499999999999
 21
1346.835
 31
0.0
  0
LINE
  5
61E
330
1E
100
AcDbEntity
  8
0
100
AcDbLine
 10
252.2499999999999
 20
1346.835
 30
0.0
 11
252.2499999999999
 21
1355.835
 31
0.0
  0
LINE
  5
61F
330
1E
100
AcDbEntity
  8
0
100
AcDbLine
 10
248.95
 20
1346.835
 30
0.0
 11
252.2499999999999
 21
1346.835
 31
0.0
  0
LINE
  5
620
330
1E
100
AcDbEntity
  8
0
100
AcDbLine
 10
240.1499999999999
 20
1346.835
 30
0.0
 11
248.95
 21
1346.835
 31
0.0
  0
LINE
  5
621
330
1E
100
AcDbEntity
  8
0
100
AcDbLine
 10
225.85
 20
1346.835
 30
0.0
 11
240.1499999999999
 21
1346.835
 31
0.0
  0
LINE
  5
622
330
1E
100
AcDbEntity
  8
0
100
AcDbLine
 10
206.95
 20
1346.835
 30
0.0
 11
225.85
 21
1346.835
 31
0.0
  0
LINE
  5
623
330
1E
100
AcDbEntity
  8
0
100
AcDbLine
 10
185.35
 20
1346.835
 30
0.0
 11
206.95
 21
1346.835
 31
0.0
  0
LINE
  5
624
330
1E
100
AcDbEntity
  8
0
100
AcDbLine
 10
162.25
 20
1346.835
 30
0.0
 11
185.35
 21
1346.835
 31
0.0
  0
LINE
  5
625
330
1E
100
AcDbEntity
  8
0
100
AcDbLine
 10
117.5499999999999
 20
1346.835
 30
0.0
 11
139.15
 21
1346.835
 31
0.0
  0
LINE
  5
626
330
1E
100
AcDbEntity
  8
0
100
AcDbLine
 10
75.54999999999999
 20
1355.835
 30
0.0
 11
84.35
 21
1355.835
 31
0.0
  0
LINE
  5
627
330
1E
100
AcDbEntity
  8
0
100
AcDbLine
 10
84.35
 20
1355.835
 30
0.0
 11
98.65000000000001
 21
1355.835
 31
0.0
  0
LINE
  5
628
330
1E
100
AcDbEntity
  8
0
100
AcDbLine
 10
98.65000000000001
 20
1355.835
 30
0.0
 11
117.5499999999999
 21
1355.835
 31
0.0
  0
LINE
  5
629
330
1E
100
AcDbEntity
  8
0
100
AcDbLine
 10
73.25
 20
1356.835
 30
0.0
 11
76.45
 21
1356.835
 31
0.0
  0
LINE
  5
62A
330
1E
100
AcDbEntity
  8
0
100
AcDbLine
 10
76.45
 20
1356.835
 30
0.0
 11
85.15
 21
1356.835
 31
0.0
  0
LINE
  5
62B
330
1E
100
AcDbEntity
  8
0
100
AcDbLine
 10
85.15
 20
1356.835
 30
0.0
 11
99.45
 21
1356.835
 31
0.0
  0
LINE
  5
62C
330
1E
100
AcDbEntity
  8
0
100
AcDbLine
 10
75.54999999999999
 20
1357.835
 30
0.0
 11
84.35
 21
1357.835
 31
0.0
  0
LINE
  5
62D
330
1E
100
AcDbEntity
  8
0
100
AcDbLine
 10
84.35
 20
1357.835
 30
0.0
 11
98.65000000000001
 21
1357.835
 31
0.0
  0
LINE
  5
62E
330
1E
100
AcDbEntity
  8
0
100
AcDbLine
 10
75.54999999999999
 20
1396.835
 30
0.0
 11
84.35
 21
1396.835
 31
0.0
  0
LINE
  5
62F
330
1E
100
AcDbEntity
  8
0
100
AcDbLine
 10
84.35
 20
1396.835
 30
0.0
 11
98.65000000000001
 21
1396.835
 31
0.0
  0
LINE
  5
630
330
1E
100
AcDbEntity
  8
0
100
AcDbLine
 10
73.25
 20
1397.835
 30
0.0
 11
76.45
 21
1397.835
 31
0.0
  0
LINE
  5
631
330
1E
100
AcDbEntity
  8
0
100
AcDbLine
 10
76.45
 20
1397.835
 30
0.0
 11
85.15
 21
1397.835
 31
0.0
  0
LINE
  5
632
330
1E
100
AcDbEntity
  8
0
100
AcDbLine
 10
85.15
 20
1397.835
 30
0.0
 11
99.45
 21
1397.835
 31
0.0
  0
LINE
  5
633
330
1E
100
AcDbEntity
  8
0
100
AcDbLine
 10
99.45
 20
1397.835
 30
0.0
 11
118.05
 21
1397.835
 31
0.0
  0
LINE
  5
634
330
1E
100
AcDbEntity
  8
0
100
AcDbLine
 10
98.65000000000001
 20
1396.835
 30
0.0
 11
117.5499999999999
 21
1396.835
 31
0.0
  0
LINE
  5
635
330
1E
100
AcDbEntity
  8
0
100
AcDbLine
 10
117.5499999999999
 20
1396.835
 30
0.0
 11
139.15
 21
1396.835
 31
0.0
  0
LINE
  5
636
330
1E
100
AcDbEntity
  8
0
100
AcDbLine
 10
98.65000000000001
 20
1357.835
 30
0.0
 11
117.5499999999999
 21
1357.835
 31
0.0
  0
LINE
  5
637
330
1E
100
AcDbEntity
  8
0
100
AcDbLine
 10
118.05
 20
1397.835
 30
0.0
 11
139.3499999999999
 21
1397.835
 31
0.0
  0
LINE
  5
638
330
1E
100
AcDbEntity
  8
0
100
AcDbLine
 10
117.5499999999999
 20
1357.835
 30
0.0
 11
139.15
 21
1357.835
 31
0.0
  0
LINE
  5
639
330
1E
100
AcDbEntity
  8
0
100
AcDbLine
 10
99.45
 20
1356.835
 30
0.0
 11
118.05
 21
1356.835
 31
0.0
  0
LINE
  5
63A
330
1E
100
AcDbEntity
  8
0
100
AcDbLine
 10
137.095642356688
 20
1397.835
 30
0.0
 11
141.1135999999999
 21
1402.975
 31
0.0
  0
LINE
  5
63B
330
1E
100
AcDbEntity
  8
0
100
AcDbLine
 10
139.15
 20
1396.835
 30
0.0
 11
162.25
 21
1396.835
 31
0.0
  0
LINE
  5
63C
330
1E
100
AcDbEntity
  8
0
100
AcDbLine
 10
139.15
 20
1357.835
 30
0.0
 11
162.25
 21
1357.835
 31
0.0
  0
LINE
  5
63D
330
1E
100
AcDbEntity
  8
0
100
AcDbLine
 10
118.05
 20
1356.835
 30
0.0
 11
139.3499999999999
 21
1356.835
 31
0.0
  0
LINE
  5
63E
330
1E
100
AcDbEntity
  8
0
100
AcDbLine
 10
117.5499999999999
 20
1355.835
 30
0.0
 11
139.15
 21
1355.835
 31
0.0
  0
LINE
  5
63F
330
1E
100
AcDbEntity
  8
0
100
AcDbLine
 10
162.25
 20
1356.835
 30
0.0
 11
185.15
 21
1356.835
 31
0.0
  0
LINE
  5
640
330
1E
100
AcDbEntity
  8
0
100
AcDbLine
 10
252.2499999999999
 20
1355.835
 30
0.0
 11
252.2499999999999
 21
1346.835
 31
0.0
  0
LINE
  5
641
330
1E
100
AcDbEntity
  8
0
100
AcDbLine
 10
248.95
 20
1355.835
 30
0.0
 11
252.2499999999999
 21
1355.835
 31
0.0
  0
LINE
  5
642
330
1E
100
AcDbEntity
  8
0
100
AcDbLine
 10
240.1499999999999
 20
1355.835
 30
0.0
 11
248.95
 21
1355.835
 31
0.0
  0
LINE
  5
643
330
1E
100
AcDbEntity
  8
0
100
AcDbLine
 10
225.85
 20
1355.835
 30
0.0
 11
240.1499999999999
 21
1355.835
 31
0.0
  0
LINE
  5
644
330
1E
100
AcDbEntity
  8
0
100
AcDbLine
 10
206.95
 20
1355.835
 30
0.0
 11
225.85
 21
1355.835
 31
0.0
  0
LINE
  5
645
330
1E
100
AcDbEntity
  8
0
100
AcDbLine
 10
251.25
 20
1356.835
 30
0.0
 11
252.2499999999999
 21
1355.835
 31
0.0
  0
LINE
  5
646
330
1E
100
AcDbEntity
  8
0
100
AcDbLine
 10
251.25
 20
1356.835
 30
0.0
 11
252.2499999999999
 21
1357.835
 31
0.0
  0
LINE
  5
647
330
1E
100
AcDbEntity
  8
0
100
AcDbLine
 10
248.05
 20
1356.835
 30
0.0
 11
251.25
 21
1356.835
 31
0.0
  0
LINE
  5
648
330
1E
100
AcDbEntity
  8
0
100
AcDbLine
 10
239.3499999999999
 20
1356.835
 30
0.0
 11
248.05
 21
1356.835
 31
0.0
  0
LINE
  5
649
330
1E
100
AcDbEntity
  8
0
100
AcDbLine
 10
225.05
 20
1356.835
 30
0.0
 11
239.3499999999999
 21
1356.835
 31
0.0
  0
LINE
  5
64A
330
1E
100
AcDbEntity
  8
0
100
AcDbLine
 10
206.4499999999999
 20
1356.835
 30
0.0
 11
225.05
 21
1356.835
 31
0.0
  0
LINE
  5
64B
330
1E
100
AcDbEntity
  8
0
100
AcDbLine
 10
185.15
 20
1356.835
 30
0.0
 11
206.4499999999999
 21
1356.835
 31
0.0
  0
LINE
  5
64C
330
1E
100
AcDbEntity
  8
0
100
AcDbLine
 10
185.35
 20
1355.835
 30
0.0
 11
206.95
 21
1355.835
 31
0.0
  0
LINE
  5
64D
330
1E
100
AcDbEntity
  8
0
100
AcDbLine
 10
162.25
 20
1355.835
 30
0.0
 11
185.35
 21
1355.835
 31
0.0
  0
LINE
  5
64E
330
1E
100
AcDbEntity
  8
0
100
AcDbLine
 10
252.2499999999999
 20
1357.835
 30
0.0
 11
252.2499999999999
 21
1396.835
 31
0.0
  0
LINE
  5
64F
330
1E
100
AcDbEntity
  8
0
100
AcDbLine
 10
248.95
 20
1357.835
 30
0.0
 11
252.2499999999999
 21
1357.835
 31
0.0
  0
LINE
  5
650
330
1E
100
AcDbEntity
  8
0
100
AcDbLine
 10
240.1499999999999
 20
1357.835
 30
0.0
 11
248.95
 21
1357.835
 31
0.0
  0
LINE
  5
651
330
1E
100
AcDbEntity
  8
0
100
AcDbLine
 10
225.85
 20
1357.835
 30
0.0
 11
240.1499999999999
 21
1357.835
 31
0.0
  0
LINE
  5
652
330
1E
100
AcDbEntity
  8
0
100
AcDbLine
 10
206.95
 20
1357.835
 30
0.0
 11
225.85
 21
1357.835
 31
0.0
  0
LINE
  5
653
330
1E
100
AcDbEntity
  8
0
100
AcDbLine
 10
185.35
 20
1357.835
 30
0.0
 11
206.95
 21
1357.835
 31
0.0
  0
LINE
  5
654
330
1E
100
AcDbEntity
  8
0
100
AcDbLine
 10
151.25
 20
1397.835
 30
0.0
 11
151.25
 21
1411.835
 31
0.0
  0
LINE
  5
655
330
1E
100
AcDbEntity
  8
0
100
AcDbLine
 10
151.25
 20
1397.835
 30
0.0
 11
151.25
 21
1436.835
 31
0.0
  0
LINE
  5
656
330
1E
100
AcDbEntity
  8
0
100
AcDbLine
 10
151.25
 20
1509.924999999999
 30
0.0
 11
151.25
 21
1532.335
 31
0.0
  0
LINE
  5
657
330
1E
100
AcDbEntity
  8
0
100
AcDbLine
 10
151.25
 20
1509.924999999999
 30
0.0
 11
151.25
 21
1486.265
 31
0.0
  0
LINE
  5
658
330
1E
100
AcDbEntity
  8
0
100
AcDbLine
 10
151.25
 20
1486.265
 30
0.0
 11
151.25
 21
1461.765
 31
0.0
  0
LINE
  5
659
330
1E
100
AcDbEntity
  8
0
100
AcDbLine
 10
151.25
 20
1486.265
 30
0.0
 11
151.25
 21
1509.924999999999
 31
0.0
  0
LINE
  5
65A
330
1E
100
AcDbEntity
  8
0
100
AcDbLine
 10
151.25
 20
1461.765
 30
0.0
 11
151.25
 21
1436.835
 31
0.0
  0
LINE
  5
65B
330
1E
100
AcDbEntity
  8
0
100
AcDbLine
 10
151.25
 20
1461.765
 30
0.0
 11
151.25
 21
1486.265
 31
0.0
  0
LINE
  5
65C
330
1E
100
AcDbEntity
  8
0
100
AcDbLine
 10
151.25
 20
1532.335
 30
0.0
 11
151.25
 21
1553.105
 31
0.0
  0
LINE
  5
65D
330
1E
100
AcDbEntity
  8
0
100
AcDbLine
 10
151.25
 20
1532.335
 30
0.0
 11
151.25
 21
1509.924999999999
 31
0.0
  0
LINE
  5
65E
330
1E
100
AcDbEntity
  8
0
100
AcDbLine
 10
151.25
 20
1436.835
 30
0.0
 11
151.25
 21
1411.835
 31
0.0
  0
LINE
  5
65F
330
1E
100
AcDbEntity
  8
0
100
AcDbLine
 10
151.25
 20
1436.835
 30
0.0
 11
151.25
 21
1461.765
 31
0.0
  0
LINE
  5
660
330
1E
100
AcDbEntity
  8
0
100
AcDbLine
 10
151.25
 20
1436.835
 30
0.0
 11
151.25
 21
1397.835
 31
0.0
  0
LINE
  5
661
330
1E
100
AcDbEntity
  8
0
100
AcDbLine
 10
151.25
 20
1621.325
 30
0.0
 11
151.25
 21
1613.295
 31
0.0
  0
LINE
  5
662
330
1E
100
AcDbEntity
  8
0
100
AcDbLine
 10
151.25
 20
1621.325
 30
0.0
 11
151.25
 21
1626.204999999999
 31
0.0
  0
LINE
  5
663
330
1E
100
AcDbEntity
  8
0
100
AcDbLine
 10
151.25
 20
1613.295
 30
0.0
 11
151.25
 21
1621.325
 31
0.0
  0
LINE
  5
664
330
1E
100
AcDbEntity
  8
0
100
AcDbLine
 10
151.25
 20
1613.295
 30
0.0
 11
151.25
 21
1602.244999999999
 31
0.0
  0
LINE
  5
665
330
1E
100
AcDbEntity
  8
0
100
AcDbLine
 10
151.25
 20
1613.295
 30
0.0
 11
151.25
 21
1621.325
 31
0.0
  0
LINE
  5
666
330
1E
100
AcDbEntity
  8
0
100
AcDbLine
 10
151.25
 20
1621.325
 30
0.0
 11
151.25
 21
1626.204999999999
 31
0.0
  0
LINE
  5
667
330
1E
100
AcDbEntity
  8
0
100
AcDbLine
 10
151.25
 20
1621.325
 30
0.0
 11
151.25
 21
1613.295
 31
0.0
  0
LINE
  5
668
330
1E
100
AcDbEntity
  8
0
100
AcDbLine
 10
151.25
 20
1627.835
 30
0.0
 11
151.25
 21
1626.204999999999
 31
0.0
  0
LINE
  5
669
330
1E
100
AcDbEntity
  8
0
100
AcDbLine
 10
151.25
 20
1627.835
 30
0.0
 11
151.646
 21
1630.655
 31
0.0
  0
LINE
  5
66A
330
1E
100
AcDbEntity
  8
0
100
AcDbLine
 10
151.25
 20
1626.204999999999
 30
0.0
 11
151.25
 21
1627.835
 31
0.0
  0
LINE
  5
66B
330
1E
100
AcDbEntity
  8
0
100
AcDbLine
 10
151.25
 20
1626.204999999999
 30
0.0
 11
151.25
 21
1621.325
 31
0.0
  0
LINE
  5
66C
330
1E
100
AcDbEntity
  8
0
100
AcDbLine
 10
151.25
 20
1626.204999999999
 30
0.0
 11
151.25
 21
1621.325
 31
0.0
  0
LINE
  5
66D
330
1E
100
AcDbEntity
  8
0
100
AcDbLine
 10
151.25
 20
1602.244999999999
 30
0.0
 11
151.25
 21
1588.365
 31
0.0
  0
LINE
  5
66E
330
1E
100
AcDbEntity
  8
0
100
AcDbLine
 10
151.25
 20
1602.244999999999
 30
0.0
 11
151.25
 21
1613.295
 31
0.0
  0
LINE
  5
66F
330
1E
100
AcDbEntity
  8
0
100
AcDbLine
 10
151.25
 20
1588.365
 30
0.0
 11
151.25
 21
1571.895
 31
0.0
  0
LINE
  5
670
330
1E
100
AcDbEntity
  8
0
100
AcDbLine
 10
151.25
 20
1588.365
 30
0.0
 11
151.25
 21
1602.244999999999
 31
0.0
  0
LINE
  5
671
330
1E
100
AcDbEntity
  8
0
100
AcDbLine
 10
151.25
 20
1571.895
 30
0.0
 11
151.25
 21
1553.105
 31
0.0
  0
LINE
  5
672
330
1E
100
AcDbEntity
  8
0
100
AcDbLine
 10
151.25
 20
1571.895
 30
0.0
 11
151.25
 21
1588.365
 31
0.0
  0
LINE
  5
673
330
1E
100
AcDbEntity
  8
0
100
AcDbLine
 10
151.25
 20
1553.105
 30
0.0
 11
151.25
 21
1571.895
 31
0.0
  0
LINE
  5
674
330
1E
100
AcDbEntity
  8
0
100
AcDbLine
 10
151.25
 20
1553.105
 30
0.0
 11
151.25
 21
1532.335
 31
0.0
  0
LINE
  5
675
330
1E
100
AcDbEntity
  8
0
100
AcDbLine
 10
147.3859999999999
 20
1407.885
 30
0.0
 11
151.25
 21
1409.44346001974
 31
0.0
  0
LINE
  5
676
330
1E
100
AcDbEntity
  8
0
100
AcDbLine
 10
141.1135999999999
 20
1402.975
 30
0.0
 11
147.3859999999999
 21
1407.885
 31
0.0
  0
LINE
  5
677
330
1E
100
AcDbEntity
  8
0
100
AcDbLine
 10
162.25
 20
1638.835
 30
0.0
 11
165.0659999999999
 21
1638.435
 31
0.0
  0
LINE
  5
678
330
1E
100
AcDbEntity
  8
0
100
AcDbLine
 10
159.434
 20
1638.435
 30
0.0
 11
162.25
 21
1638.835
 31
0.0
  0
LINE
  5
679
330
1E
100
AcDbEntity
  8
0
100
AcDbLine
 10
156.7939999999999
 20
1637.385
 30
0.0
 11
159.434
 21
1638.435
 31
0.0
  0
LINE
  5
67A
330
1E
100
AcDbEntity
  8
0
100
AcDbLine
 10
154.462
 20
1635.625
 30
0.0
 11
156.7939999999999
 21
1637.385
 31
0.0
  0
LINE
  5
67B
330
1E
100
AcDbEntity
  8
0
100
AcDbLine
 10
152.702
 20
1633.295
 30
0.0
 11
154.462
 21
1635.625
 31
0.0
  0
LINE
  5
67C
330
1E
100
AcDbEntity
  8
0
100
AcDbLine
 10
151.646
 20
1630.655
 30
0.0
 11
152.702
 21
1633.295
 31
0.0
  0
LINE
  5
67D
330
1E
100
AcDbEntity
  8
0
100
AcDbLine
 10
151.25
 20
1411.835
 30
0.0
 11
151.25
 21
1397.835
 31
0.0
  0
LINE
  5
67E
330
1E
100
AcDbEntity
  8
0
100
AcDbLine
 10
151.25
 20
1411.835
 30
0.0
 11
151.25
 21
1436.835
 31
0.0
  0
LINE
  5
67F
330
1E
100
AcDbEntity
  8
0
100
AcDbLine
 10
162.25
 20
1397.835
 30
0.0
 11
185.15
 21
1397.835
 31
0.0
  0
LINE
  5
680
330
1E
100
AcDbEntity
  8
0
100
AcDbLine
 10
252.2499999999999
 20
1396.835
 30
0.0
 11
252.2499999999999
 21
1357.835
 31
0.0
  0
LINE
  5
681
330
1E
100
AcDbEntity
  8
0
100
AcDbLine
 10
248.95
 20
1396.835
 30
0.0
 11
252.2499999999999
 21
1396.835
 31
0.0
  0
LINE
  5
682
330
1E
100
AcDbEntity
  8
0
100
AcDbLine
 10
240.1499999999999
 20
1396.835
 30
0.0
 11
248.95
 21
1396.835
 31
0.0
  0
LINE
  5
683
330
1E
100
AcDbEntity
  8
0
100
AcDbLine
 10
225.85
 20
1396.835
 30
0.0
 11
240.1499999999999
 21
1396.835
 31
0.0
  0
LINE
  5
684
330
1E
100
AcDbEntity
  8
0
100
AcDbLine
 10
206.95
 20
1396.835
 30
0.0
 11
225.85
 21
1396.835
 31
0.0
  0
LINE
  5
685
330
1E
100
AcDbEntity
  8
0
100
AcDbLine
 10
173.2499999999999
 20
1397.835
 30
0.0
 11
173.2499999999999
 21
1436.835
 31
0.0
  0
LINE
  5
686
330
1E
100
AcDbEntity
  8
0
100
AcDbLine
 10
173.2499999999999
 20
1436.835
 30
0.0
 11
173.2499999999999
 21
1397.835
 31
0.0
  0
LINE
  5
687
330
1E
100
AcDbEntity
  8
0
100
AcDbLine
 10
173.2499999999999
 20
1436.835
 30
0.0
 11
173.2499999999999
 21
1461.765
 31
0.0
  0
LINE
  5
688
330
1E
100
AcDbEntity
  8
0
100
AcDbLine
 10
173.2499999999999
 20
1509.924999999999
 30
0.0
 11
173.2499999999999
 21
1532.335
 31
0.0
  0
LINE
  5
689
330
1E
100
AcDbEntity
  8
0
100
AcDbLine
 10
173.2499999999999
 20
1509.924999999999
 30
0.0
 11
173.2499999999999
 21
1486.265
 31
0.0
  0
LINE
  5
68A
330
1E
100
AcDbEntity
  8
0
100
AcDbLine
 10
173.2499999999999
 20
1486.265
 30
0.0
 11
173.2499999999999
 21
1461.765
 31
0.0
  0
LINE
  5
68B
330
1E
100
AcDbEntity
  8
0
100
AcDbLine
 10
173.2499999999999
 20
1486.265
 30
0.0
 11
173.2499999999999
 21
1509.924999999999
 31
0.0
  0
LINE
  5
68C
330
1E
100
AcDbEntity
  8
0
100
AcDbLine
 10
173.2499999999999
 20
1461.765
 30
0.0
 11
173.2499999999999
 21
1486.265
 31
0.0
  0
LINE
  5
68D
330
1E
100
AcDbEntity
  8
0
100
AcDbLine
 10
173.2499999999999
 20
1461.765
 30
0.0
 11
173.2499999999999
 21
1436.835
 31
0.0
  0
LINE
  5
68E
330
1E
100
AcDbEntity
  8
0
100
AcDbLine
 10
173.2499999999999
 20
1532.335
 30
0.0
 11
173.2499999999999
 21
1553.105
 31
0.0
  0
LINE
  5
68F
330
1E
100
AcDbEntity
  8
0
100
AcDbLine
 10
173.2499999999999
 20
1532.335
 30
0.0
 11
173.2499999999999
 21
1509.924999999999
 31
0.0
  0
LINE
  5
690
330
1E
100
AcDbEntity
  8
0
100
AcDbLine
 10
173.2499999999999
 20
1553.105
 30
0.0
 11
173.2499999999999
 21
1571.895
 31
0.0
  0
LINE
  5
691
330
1E
100
AcDbEntity
  8
0
100
AcDbLine
 10
173.2499999999999
 20
1553.105
 30
0.0
 11
173.2499999999999
 21
1532.335
 31
0.0
  0
LINE
  5
692
330
1E
100
AcDbEntity
  8
0
100
AcDbLine
 10
173.2499999999999
 20
1621.325
 30
0.0
 11
173.2499999999999
 21
1613.295
 31
0.0
  0
LINE
  5
693
330
1E
100
AcDbEntity
  8
0
100
AcDbLine
 10
173.2499999999999
 20
1621.325
 30
0.0
 11
173.2499999999999
 21
1626.204999999999
 31
0.0
  0
LINE
  5
694
330
1E
100
AcDbEntity
  8
0
100
AcDbLine
 10
173.2499999999999
 20
1613.295
 30
0.0
 11
173.2499999999999
 21
1602.244999999999
 31
0.0
  0
LINE
  5
695
330
1E
100
AcDbEntity
  8
0
100
AcDbLine
 10
173.2499999999999
 20
1613.295
 30
0.0
 11
173.2499999999999
 21
1621.325
 31
0.0
  0
LINE
  5
696
330
1E
100
AcDbEntity
  8
0
100
AcDbLine
 10
173.2499999999999
 20
1602.244999999999
 30
0.0
 11
173.2499999999999
 21
1588.365
 31
0.0
  0
LINE
  5
697
330
1E
100
AcDbEntity
  8
0
100
AcDbLine
 10
173.2499999999999
 20
1602.244999999999
 30
0.0
 11
173.2499999999999
 21
1613.295
 31
0.0
  0
LINE
  5
698
330
1E
100
AcDbEntity
  8
0
100
AcDbLine
 10
173.2499999999999
 20
1588.365
 30
0.0
 11
173.2499999999999
 21
1571.895
 31
0.0
  0
LINE
  5
699
330
1E
100
AcDbEntity
  8
0
100
AcDbLine
 10
173.2499999999999
 20
1588.365
 30
0.0
 11
173.2499999999999
 21
1602.244999999999
 31
0.0
  0
LINE
  5
69A
330
1E
100
AcDbEntity
  8
0
100
AcDbLine
 10
173.2499999999999
 20
1571.895
 30
0.0
 11
173.2499999999999
 21
1588.365
 31
0.0
  0
LINE
  5
69B
330
1E
100
AcDbEntity
  8
0
100
AcDbLine
 10
173.2499999999999
 20
1571.895
 30
0.0
 11
173.2499999999999
 21
1553.105
 31
0.0
  0
LINE
  5
69C
330
1E
100
AcDbEntity
  8
0
100
AcDbLine
 10
165.0659999999999
 20
1638.435
 30
0.0
 11
167.7059999999999
 21
1637.385
 31
0.0
  0
LINE
  5
69D
330
1E
100
AcDbEntity
  8
0
100
AcDbLine
 10
167.7059999999999
 20
1637.385
 30
0.0
 11
170.0379999999999
 21
1635.625
 31
0.0
  0
LINE
  5
69E
330
1E
100
AcDbEntity
  8
0
100
AcDbLine
 10
170.0379999999999
 20
1635.625
 30
0.0
 11
171.798
 21
1633.295
 31
0.0
  0
LINE
  5
69F
330
1E
100
AcDbEntity
  8
0
100
AcDbLine
 10
171.798
 20
1633.295
 30
0.0
 11
172.854
 21
1630.655
 31
0.0
  0
LINE
  5
6A0
330
1E
100
AcDbEntity
  8
0
100
AcDbLine
 10
172.854
 20
1630.655
 30
0.0
 11
173.2499999999999
 21
1627.835
 31
0.0
  0
LINE
  5
6A1
330
1E
100
AcDbEntity
  8
0
100
AcDbLine
 10
173.2499999999999
 20
1627.835
 30
0.0
 11
173.2499999999999
 21
1626.204999999999
 31
0.0
  0
LINE
  5
6A2
330
1E
100
AcDbEntity
  8
0
100
AcDbLine
 10
173.2499999999999
 20
1626.204999999999
 30
0.0
 11
173.2499999999999
 21
1627.835
 31
0.0
  0
LINE
  5
6A3
330
1E
100
AcDbEntity
  8
0
100
AcDbLine
 10
173.2499999999999
 20
1626.204999999999
 30
0.0
 11
173.2499999999999
 21
1621.325
 31
0.0
  0
LINE
  5
6A4
330
1E
100
AcDbEntity
  8
0
100
AcDbLine
 10
173.2499999999999
 20
1409.44346001974
 30
0.0
 11
177.114
 21
1407.885
 31
0.0
  0
LINE
  5
6A5
330
1E
100
AcDbEntity
  8
0
100
AcDbLine
 10
177.114
 20
1407.885
 30
0.0
 11
183.3859999999999
 21
1402.975
 31
0.0
  0
LINE
  5
6A6
330
1E
100
AcDbEntity
  8
0
100
AcDbLine
 10
183.3859999999999
 20
1402.975
 30
0.0
 11
187.403875796178
 21
1397.835
 31
0.0
  0
LINE
  5
6A7
330
1E
100
AcDbEntity
  8
0
100
AcDbLine
 10
251.25
 20
1397.835
 30
0.0
 11
252.2499999999999
 21
1396.835
 31
0.0
  0
LINE
  5
6A8
330
1E
100
AcDbEntity
  8
0
100
AcDbLine
 10
248.05
 20
1397.835
 30
0.0
 11
251.25
 21
1397.835
 31
0.0
  0
LINE
  5
6A9
330
1E
100
AcDbEntity
  8
0
100
AcDbLine
 10
239.3499999999999
 20
1397.835
 30
0.0
 11
248.05
 21
1397.835
 31
0.0
  0
LINE
  5
6AA
330
1E
100
AcDbEntity
  8
0
100
AcDbLine
 10
225.05
 20
1397.835
 30
0.0
 11
239.3499999999999
 21
1397.835
 31
0.0
  0
LINE
  5
6AB
330
1E
100
AcDbEntity
  8
0
100
AcDbLine
 10
206.4499999999999
 20
1397.835
 30
0.0
 11
225.05
 21
1397.835
 31
0.0
  0
LINE
  5
6AC
330
1E
100
AcDbEntity
  8
0
100
AcDbLine
 10
185.15
 20
1397.835
 30
0.0
 11
206.4499999999999
 21
1397.835
 31
0.0
  0
LINE
  5
6AD
330
1E
100
AcDbEntity
  8
0
100
AcDbLine
 10
185.35
 20
1396.835
 30
0.0
 11
206.95
 21
1396.835
 31
0.0
  0
LINE
  5
6AE
330
1E
100
AcDbEntity
  8
0
100
AcDbLine
 10
162.25
 20
1396.835
 30
0.0
 11
185.35
 21
1396.835
 31
0.0
  0
LINE
  5
6AF
330
1E
100
AcDbEntity
  8
0
100
AcDbLine
 10
162.25
 20
1357.835
 30
0.0
 11
185.35
 21
1357.835
 31
0.0
  0
LINE
  5
6B0
330
1E
100
AcDbEntity
  8
0
100
AcDbLine
 10
139.3499999999999
 20
1397.835
 30
0.0
 11
162.25
 21
1397.835
 31
0.0
  0
LINE
  5
6B1
330
1E
100
AcDbEntity
  8
0
100
AcDbLine
 10
139.3499999999999
 20
1356.835
 30
0.0
 11
162.25
 21
1356.835
 31
0.0
  0
LINE
  5
6B2
330
1E
100
AcDbEntity
  8
0
100
AcDbLine
 10
139.15
 20
1355.835
 30
0.0
 11
162.25
 21
1355.835
 31
0.0
  0
LINE
  5
6B3
330
1E
100
AcDbEntity
  8
0
100
AcDbLine
 10
139.15
 20
1346.835
 30
0.0
 11
162.25
 21
1346.835
 31
0.0
  0
LINE
  5
6B4
330
1E
100
AcDbEntity
  8
0
100
AcDbLine
 10
72.25
 20
1346.835
 30
0.0
 11
73.25
 21
1345.835
 31
0.0
  0
LINE
  5
6B5
330
1E
100
AcDbEntity
  8
0
100
AcDbLine
 10
72.25
 20
1346.835
 30
0.0
 11
72.25
 21
1355.835
 31
0.0
  0
LINE
  5
6B6
330
1E
100
AcDbEntity
  8
0
100
AcDbLine
 10
72.25
 20
1346.835
 30
0.0
 11
75.54999999999999
 21
1346.835
 31
0.0
  0
LINE
  5
6B7
330
1E
100
AcDbEntity
  8
0
100
AcDbLine
 10
146.6936
 20
1345.835
 30
0.0
 11
147.049
 21
1345.835
 31
0.0
  0
LINE
  5
6B8
330
1E
100
AcDbEntity
  8
0
100
AcDbLine
 10
146.6936
 20
1345.835
 30
0.0
 11
146.6936
 21
1343.835
 31
0.0
  0
LINE
  5
6B9
330
1E
100
AcDbEntity
  8
0
100
AcDbLine
 10
398.45
 20
561.708
 30
0.0
 11
401.05
 21
561.164
 31
0.0
  0
LINE
  5
6BA
330
1E
100
AcDbEntity
  8
0
100
AcDbLine
 10
398.45
 20
638.9719999999999
 30
0.0
 11
401.05
 21
637.558
 31
0.0
  0
LINE
  5
6BB
330
1E
100
AcDbEntity
  8
0
100
AcDbLine
 10
398.2499999999999
 20
645.2069999999999
 30
0.0
 11
398.55
 21
643.5999999999999
 31
0.0
  0
LINE
  5
6BC
330
1E
100
AcDbEntity
  8
0
100
AcDbLine
 10
398.2499999999999
 20
645.2069999999999
 30
0.0
 11
398.2499999999999
 21
662.562988764045
 31
0.0
  0
LINE
  5
6BD
330
1E
100
AcDbEntity
  8
0
100
AcDbLine
 10
398.2499999999999
 20
662.562988764045
 30
0.0
 11
398.2499999999999
 21
645.2069999999999
 31
0.0
  0
LINE
  5
6BE
330
1E
100
AcDbEntity
  8
0
100
AcDbLine
 10
398.45
 20
662.5319999999999
 30
0.0
 11
406.25
 21
662.056909090909
 31
0.0
  0
LINE
  5
6BF
330
1E
100
AcDbEntity
  8
0
100
AcDbLine
 10
398.55
 20
643.5999999999999
 30
0.0
 11
399.45
 21
642.058
 31
0.0
  0
LINE
  5
6C0
330
1E
100
AcDbEntity
  8
0
100
AcDbLine
 10
398.75
 20
664.8769999999999
 30
0.0
 11
406.25
 21
664.471117647059
 31
0.0
  0
LINE
  5
6C1
330
1E
100
AcDbEntity
  8
0
100
AcDbLine
 10
398.55
 20
662.6549999999999
 30
0.0
 11
406.25
 21
662.1806091954019
 31
0.0
  0
LINE
  5
6C2
330
1E
100
AcDbEntity
  8
0
100
AcDbLine
 10
399.0469999999999
 20
557.835
 30
0.0
 11
399.0469999999999
 21
507.8349999999999
 31
0.0
  0
LINE
  5
6C3
330
1E
100
AcDbEntity
  8
0
100
AcDbLine
 10
399.1499999999999
 20
560.9169999999998
 30
0.0
 11
401.55
 21
560.3609999999999
 31
0.0
  0
LINE
  5
6C4
330
1E
100
AcDbEntity
  8
0
100
AcDbLine
 10
401.55
 20
560.3609999999999
 30
0.0
 11
404.25
 21
560.101
 31
0.0
  0
LINE
  5
6C5
330
1E
100
AcDbEntity
  8
0
100
AcDbLine
 10
401.05
 20
561.164
 30
0.0
 11
404.0499999999999
 21
560.84
 31
0.0
  0
LINE
  5
6C6
330
1E
100
AcDbEntity
  8
0
100
AcDbLine
 10
401.05
 20
637.558
 30
0.0
 11
404.0499999999999
 21
636.6579999999999
 31
0.0
  0
LINE
  5
6C7
330
1E
100
AcDbEntity
  8
0
100
AcDbLine
 10
404.0499999999999
 20
560.84
 30
0.0
 11
407.2499999999999
 21
560.6709999999999
 31
0.0
  0
LINE
  5
6C8
330
1E
100
AcDbEntity
  8
0
100
AcDbLine
 10
407.2499999999999
 20
559.9969999999999
 30
0.0
 11
410.25
 21
560.101
 31
0.0
  0
LINE
  5
6C9
330
1E
100
AcDbEntity
  8
0
100
AcDbLine
 10
410.25
 20
560.101
 30
0.0
 11
412.95
 21
560.3609999999999
 31
0.0
  0
LINE
  5
6CA
330
1E
100
AcDbEntity
  8
0
100
AcDbLine
 10
407.2499999999999
 20
560.6709999999999
 30
0.0
 11
410.4499999999999
 21
560.84
 31
0.0
  0
LINE
  5
6CB
330
1E
100
AcDbEntity
  8
0
100
AcDbLine
 10
407.2499999999999
 20
636.3369999999999
 30
0.0
 11
410.4499999999999
 21
636.6579999999999
 31
0.0
  0
LINE
  5
6CC
330
1E
100
AcDbEntity
  8
0
100
AcDbLine
 10
407.2499999999999
 20
638.8440000000001
 30
0.0
 11
409.55
 21
639.101
 31
0.0
  0
LINE
  5
6CD
330
1E
100
AcDbEntity
  8
0
100
AcDbLine
 10
412.95
 20
560.3609999999999
 30
0.0
 11
415.35
 21
560.9169999999998
 31
0.0
  0
LINE
  5
6CE
330
1E
100
AcDbEntity
  8
0
100
AcDbLine
 10
410.4499999999999
 20
560.84
 30
0.0
 11
413.45
 21
561.164
 31
0.0
  0
LINE
  5
6CF
330
1E
100
AcDbEntity
  8
0
100
AcDbLine
 10
410.4499999999999
 20
636.6579999999999
 30
0.0
 11
413.45
 21
637.558
 31
0.0
  0
LINE
  5
6D0
330
1E
100
AcDbEntity
  8
0
100
AcDbLine
 10
409.55
 20
639.101
 30
0.0
 11
411.7499999999999
 21
639.679
 31
0.0
  0
LINE
  5
6D1
330
1E
100
AcDbEntity
  8
0
100
AcDbLine
 10
404.25
 20
560.101
 30
0.0
 11
407.2499999999999
 21
559.9969999999999
 31
0.0
  0
LINE
  5
6D2
330
1E
100
AcDbEntity
  8
0
100
AcDbLine
 10
404.0499999999999
 20
636.6579999999999
 30
0.0
 11
407.2499999999999
 21
636.3369999999999
 31
0.0
  0
LINE
  5
6D3
330
1E
100
AcDbEntity
  8
0
100
AcDbLine
 10
411.7499999999999
 20
639.679
 30
0.0
 11
413.6499999999999
 21
640.708
 31
0.0
  0
LINE
  5
6D4
330
1E
100
AcDbEntity
  8
0
100
AcDbLine
 10
404.95
 20
639.101
 30
0.0
 11
407.2499999999999
 21
638.8440000000001
 31
0.0
  0
LINE
  5
6D5
330
1E
100
AcDbEntity
  8
0
100
AcDbLine
 10
402.7499999999999
 20
639.679
 30
0.0
 11
404.95
 21
639.101
 31
0.0
  0
LINE
  5
6D6
330
1E
100
AcDbEntity
  8
0
100
AcDbLine
 10
406.25
 20
659.7599999999999
 30
0.0
 11
406.25
 21
659.822
 31
0.0
  0
LINE
  5
6D7
330
1E
100
AcDbEntity
  8
0
100
AcDbLine
 10
406.25
 20
659.7599999999999
 30
0.0
 11
406.25
 21
660.186
 31
0.0
  0
LINE
  5
6D8
330
1E
100
AcDbEntity
  8
0
100
AcDbLine
 10
406.25
 20
659.7599999999999
 30
0.0
 11
408.25
 21
659.7599999999999
 31
0.0
  0
LINE
  5
6D9
330
1E
100
AcDbEntity
  8
0
100
AcDbLine
 10
406.25
 20
660.186
 30
0.0
 11
406.25
 21
659.7599999999999
 31
0.0
  0
LINE
  5
6DA
330
1E
100
AcDbEntity
  8
0
100
AcDbLine
 10
406.25
 20
660.186
 30
0.0
 11
406.25
 21
660.982
 31
0.0
  0
LINE
  5
6DB
330
1E
100
AcDbEntity
  8
0
100
AcDbLine
 10
406.25
 20
659.822
 30
0.0
 11
406.25
 21
660.5239999999999
 31
0.0
  0
LINE
  5
6DC
330
1E
100
AcDbEntity
  8
0
100
AcDbLine
 10
406.25
 20
659.822
 30
0.0
 11
406.25
 21
659.7599999999999
 31
0.0
  0
LINE
  5
6DD
330
1E
100
AcDbEntity
  8
0
100
AcDbLine
 10
406.25
 20
659.822
 30
0.0
 11
408.25
 21
659.822
 31
0.0
  0
LINE
  5
6DE
330
1E
100
AcDbEntity
  8
0
100
AcDbLine
 10
406.25
 20
660.5239999999999
 30
0.0
 11
406.25
 21
661.4060000000001
 31
0.0
  0
LINE
  5
6DF
330
1E
100
AcDbEntity
  8
0
100
AcDbLine
 10
406.25
 20
660.5239999999999
 30
0.0
 11
406.25
 21
659.822
 31
0.0
  0
LINE
  5
6E0
330
1E
100
AcDbEntity
  8
0
100
AcDbLine
 10
408.25
 20
659.7599999999999
 30
0.0
 11
408.25
 21
659.822
 31
0.0
  0
LINE
  5
6E1
330
1E
100
AcDbEntity
  8
0
100
AcDbLine
 10
408.25
 20
659.822
 30
0.0
 11
408.25
 21
659.7599999999999
 31
0.0
  0
LINE
  5
6E2
330
1E
100
AcDbEntity
  8
0
100
AcDbLine
 10
408.25
 20
659.822
 30
0.0
 11
408.25
 21
660.5239999999999
 31
0.0
  0
LINE
  5
6E3
330
1E
100
AcDbEntity
  8
0
100
AcDbLine
 10
406.25
 20
660.982
 30
0.0
 11
406.25
 21
660.186
 31
0.0
  0
LINE
  5
6E4
330
1E
100
AcDbEntity
  8
0
100
AcDbLine
 10
406.25
 20
661.4060000000001
 30
0.0
 11
406.25
 21
663.705
 31
0.0
  0
LINE
  5
6E5
330
1E
100
AcDbEntity
  8
0
100
AcDbLine
 10
406.25
 20
661.4060000000001
 30
0.0
 11
406.25
 21
660.5239999999999
 31
0.0
  0
LINE
  5
6E6
330
1E
100
AcDbEntity
  8
0
100
AcDbLine
 10
408.25
 20
660.5239999999999
 30
0.0
 11
408.25
 21
659.822
 31
0.0
  0
LINE
  5
6E7
330
1E
100
AcDbEntity
  8
0
100
AcDbLine
 10
408.25
 20
660.5239999999999
 30
0.0
 11
408.25
 21
661.4060000000001
 31
0.0
  0
LINE
  5
6E8
330
1E
100
AcDbEntity
  8
0
100
AcDbLine
 10
408.25
 20
661.4060000000001
 30
0.0
 11
408.25
 21
660.5239999999999
 31
0.0
  0
LINE
  5
6E9
330
1E
100
AcDbEntity
  8
0
100
AcDbLine
 10
408.25
 20
661.4060000000001
 30
0.0
 11
408.25
 21
663.7699999999999
 31
0.0
  0
LINE
  5
6EA
330
1E
100
AcDbEntity
  8
0
100
AcDbLine
 10
400.85
 20
640.708
 30
0.0
 11
402.7499999999999
 21
639.679
 31
0.0
  0
LINE
  5
6EB
330
1E
100
AcDbEntity
  8
0
100
AcDbLine
 10
399.45
 20
642.058
 30
0.0
 11
400.85
 21
640.708
 31
0.0
  0
LINE
  5
6EC
330
1E
100
AcDbEntity
  8
0
100
AcDbLine
 10
406.25
 20
664.4169999999999
 30
0.0
 11
406.25
 21
660.982
 31
0.0
  0
LINE
  5
6ED
330
1E
100
AcDbEntity
  8
0
100
AcDbLine
 10
406.25
 20
663.705
 30
0.0
 11
406.25
 21
671.03
 31
0.0
  0
LINE
  5
6EE
330
1E
100
AcDbEntity
  8
0
100
AcDbLine
 10
406.25
 20
663.705
 30
0.0
 11
406.25
 21
661.4060000000001
 31
0.0
  0
LINE
  5
6EF
330
1E
100
AcDbEntity
  8
0
100
AcDbLine
 10
408.25
 20
663.7699999999999
 30
0.0
 11
408.25
 21
661.4060000000001
 31
0.0
  0
LINE
  5
6F0
330
1E
100
AcDbEntity
  8
0
100
AcDbLine
 10
408.25
 20
663.7699999999999
 30
0.0
 11
408.25
 21
671.031
 31
0.0
  0
LINE
  5
6F1
330
1E
100
AcDbEntity
  8
0
100
AcDbLine
 10
403.2059999999999
 20
665.39
 30
0.0
 11
404.2059999999999
 21
666.7169999999999
 31
0.0
  0
LINE
  5
6F2
330
1E
100
AcDbEntity
  8
0
100
AcDbLine
 10
402.4739999999999
 20
667.483
 30
0.0
 11
404.2059999999999
 21
666.7169999999999
 31
0.0
  0
LINE
  5
6F3
330
1E
100
AcDbEntity
  8
0
100
AcDbLine
 10
401.4739999999999
 20
666.156
 30
0.0
 11
403.2059999999999
 21
665.39
 31
0.0
  0
LINE
  5
6F4
330
1E
100
AcDbEntity
  8
0
100
AcDbLine
 10
401.4739999999999
 20
666.156
 30
0.0
 11
402.4739999999999
 21
667.483
 31
0.0
  0
LINE
  5
6F5
330
1E
100
AcDbEntity
  8
0
100
AcDbLine
 10
400.229
 20
686.0139999999999
 30
0.0
 11
401.961
 21
685.248
 31
0.0
  0
LINE
  5
6F6
330
1E
100
AcDbEntity
  8
0
100
AcDbLine
 10
399.229
 20
684.687
 30
0.0
 11
400.961
 21
683.921
 31
0.0
  0
LINE
  5
6F7
330
1E
100
AcDbEntity
  8
0
100
AcDbLine
 10
399.229
 20
684.687
 30
0.0
 11
400.229
 21
686.0139999999999
 31
0.0
  0
LINE
  5
6F8
330
1E
100
AcDbEntity
  8
0
100
AcDbLine
 10
400.961
 20
683.921
 30
0.0
 11
401.961
 21
685.248
 31
0.0
  0
LINE
  5
6F9
330
1E
100
AcDbEntity
  8
0
100
AcDbLine
 10
400.8659999999999
 20
701.896
 30
0.0
 11
401.8659999999999
 21
703.2230000000001
 31
0.0
  0
LINE
  5
6FA
330
1E
100
AcDbEntity
  8
0
100
AcDbLine
 10
401.8659999999999
 20
703.2230000000001
 30
0.0
 11
401.8659999999999
 21
704.5089999999999
 31
0.0
  0
LINE
  5
6FB
330
1E
100
AcDbEntity
  8
0
100
AcDbLine
 10
401.8659999999999
 20
704.5089999999999
 30
0.0
 11
401.8659999999999
 21
703.2230000000001
 31
0.0
  0
LINE
  5
6FC
330
1E
100
AcDbEntity
  8
0
100
AcDbLine
 10
400.1339999999999
 20
703.9889999999999
 30
0.0
 11
400.1339999999999
 21
705.2749999999999
 31
0.0
  0
LINE
  5
6FD
330
1E
100
AcDbEntity
  8
0
100
AcDbLine
 10
400.1339999999999
 20
703.9889999999999
 30
0.0
 11
401.8659999999999
 21
703.2230000000001
 31
0.0
  0
LINE
  5
6FE
330
1E
100
AcDbEntity
  8
0
100
AcDbLine
 10
400.1339999999999
 20
705.2749999999999
 30
0.0
 11
400.1339999999999
 21
703.9889999999999
 31
0.0
  0
LINE
  5
6FF
330
1E
100
AcDbEntity
  8
0
100
AcDbLine
 10
399.134
 20
703.948
 30
0.0
 11
399.134
 21
702.6619999999999
 31
0.0
  0
LINE
  5
700
330
1E
100
AcDbEntity
  8
0
100
AcDbLine
 10
399.134
 20
702.6619999999999
 30
0.0
 11
400.8659999999999
 21
701.896
 31
0.0
  0
LINE
  5
701
330
1E
100
AcDbEntity
  8
0
100
AcDbLine
 10
399.134
 20
702.6619999999999
 30
0.0
 11
400.1339999999999
 21
703.9889999999999
 31
0.0
  0
LINE
  5
702
330
1E
100
AcDbEntity
  8
0
100
AcDbLine
 10
399.134
 20
702.6619999999999
 30
0.0
 11
399.134
 21
703.948
 31
0.0
  0
LINE
  5
703
330
1E
100
AcDbEntity
  8
0
100
AcDbLine
 10
402.43
 20
710.918
 30
0.0
 11
402.91
 21
709.9989999999999
 31
0.0
  0
LINE
  5
704
330
1E
100
AcDbEntity
  8
0
100
AcDbLine
 10
402.2499999999999
 20
712.5419999999999
 30
0.0
 11
402.43
 21
713.5219999999999
 31
0.0
  0
LINE
  5
705
330
1E
100
AcDbEntity
  8
0
100
AcDbLine
 10
402.2499999999999
 20
712.5419999999999
 30
0.0
 11
402.2499999999999
 21
711.8989999999999
 31
0.0
  0
LINE
  5
706
330
1E
100
AcDbEntity
  8
0
100
AcDbLine
 10
402.43
 20
713.5219999999999
 30
0.0
 11
402.91
 21
714.441
 31
0.0
  0
LINE
  5
707
330
1E
100
AcDbEntity
  8
0
100
AcDbLine
 10
402.2499999999999
 20
711.8989999999999
 30
0.0
 11
402.43
 21
712.8789999999999
 31
0.0
  0
LINE
  5
708
330
1E
100
AcDbEntity
  8
0
100
AcDbLine
 10
402.2499999999999
 20
711.8989999999999
 30
0.0
 11
402.2499999999999
 21
712.5419999999999
 31
0.0
  0
LINE
  5
709
330
1E
100
AcDbEntity
  8
0
100
AcDbLine
 10
402.2499999999999
 20
711.8989999999999
 30
0.0
 11
402.43
 21
710.918
 31
0.0
  0
LINE
  5
70A
330
1E
100
AcDbEntity
  8
0
100
AcDbLine
 10
402.91
 20
709.9989999999999
 30
0.0
 11
403.7099999999999
 21
709.187
 31
0.0
  0
LINE
  5
70B
330
1E
100
AcDbEntity
  8
0
100
AcDbLine
 10
403.7099999999999
 20
709.187
 30
0.0
 11
404.7699999999999
 21
708.5739999999999
 31
0.0
  0
LINE
  5
70C
330
1E
100
AcDbEntity
  8
0
100
AcDbLine
 10
402.43
 20
712.8789999999999
 30
0.0
 11
402.91
 21
713.799
 31
0.0
  0
LINE
  5
70D
330
1E
100
AcDbEntity
  8
0
100
AcDbLine
 10
402.91
 20
714.441
 30
0.0
 11
403.7099999999999
 21
715.253
 31
0.0
  0
LINE
  5
70E
330
1E
100
AcDbEntity
  8
0
100
AcDbLine
 10
402.91
 20
713.799
 30
0.0
 11
403.7099999999999
 21
714.6110000000001
 31
0.0
  0
LINE
  5
70F
330
1E
100
AcDbEntity
  8
0
100
AcDbLine
 10
404.7699999999999
 20
708.5739999999999
 30
0.0
 11
405.97
 21
708.2069999999999
 31
0.0
  0
LINE
  5
710
330
1E
100
AcDbEntity
  8
0
100
AcDbLine
 10
405.97
 20
708.2069999999999
 30
0.0
 11
407.2499999999999
 21
708.0689999999999
 31
0.0
  0
LINE
  5
711
330
1E
100
AcDbEntity
  8
0
100
AcDbLine
 10
403.7099999999999
 20
714.6110000000001
 30
0.0
 11
404.7699999999999
 21
715.2230000000001
 31
0.0
  0
LINE
  5
712
330
1E
100
AcDbEntity
  8
0
100
AcDbLine
 10
403.7099999999999
 20
715.253
 30
0.0
 11
404.7699999999999
 21
715.8660000000001
 31
0.0
  0
LINE
  5
713
330
1E
100
AcDbEntity
  8
0
100
AcDbLine
 10
400.1339999999999
 20
719.808
 30
0.0
 11
401.8659999999999
 21
720.575
 31
0.0
  0
LINE
  5
714
330
1E
100
AcDbEntity
  8
0
100
AcDbLine
 10
400.229
 20
739.0689999999999
 30
0.0
 11
401.961
 21
739.835
 31
0.0
  0
LINE
  5
715
330
1E
100
AcDbEntity
  8
0
100
AcDbLine
 10
399.229
 20
740.396
 30
0.0
 11
400.961
 21
741.1619999999999
 31
0.0
  0
LINE
  5
716
330
1E
100
AcDbEntity
  8
0
100
AcDbLine
 10
399.229
 20
740.396
 30
0.0
 11
400.229
 21
739.0689999999999
 31
0.0
  0
LINE
  5
717
330
1E
100
AcDbEntity
  8
0
100
AcDbLine
 10
400.8659999999999
 20
723.187
 30
0.0
 11
400.8659999999999
 21
721.901
 31
0.0
  0
LINE
  5
718
330
1E
100
AcDbEntity
  8
0
100
AcDbLine
 10
399.134
 20
722.421
 30
0.0
 11
399.134
 21
721.135
 31
0.0
  0
LINE
  5
719
330
1E
100
AcDbEntity
  8
0
100
AcDbLine
 10
399.134
 20
721.135
 30
0.0
 11
400.8659999999999
 21
721.901
 31
0.0
  0
LINE
  5
71A
330
1E
100
AcDbEntity
  8
0
100
AcDbLine
 10
399.134
 20
721.135
 30
0.0
 11
399.134
 21
722.421
 31
0.0
  0
LINE
  5
71B
330
1E
100
AcDbEntity
  8
0
100
AcDbLine
 10
399.134
 20
721.135
 30
0.0
 11
400.1339999999999
 21
719.808
 31
0.0
  0
LINE
  5
71C
330
1E
100
AcDbEntity
  8
0
100
AcDbLine
 10
401.8659999999999
 20
720.575
 30
0.0
 11
401.8659999999999
 21
721.86
 31
0.0
  0
LINE
  5
71D
330
1E
100
AcDbEntity
  8
0
100
AcDbLine
 10
400.961
 20
741.1619999999999
 30
0.0
 11
401.961
 21
739.835
 31
0.0
  0
LINE
  5
71E
330
1E
100
AcDbEntity
  8
0
100
AcDbLine
 10
402.4739999999999
 20
758.8860000000001
 30
0.0
 11
404.2059999999999
 21
759.6519999999999
 31
0.0
  0
LINE
  5
71F
330
1E
100
AcDbEntity
  8
0
100
AcDbLine
 10
403.2059999999999
 20
762.2639999999998
 30
0.0
 11
403.2059999999999
 21
760.9789999999999
 31
0.0
  0
LINE
  5
720
330
1E
100
AcDbEntity
  8
0
100
AcDbLine
 10
401.4739999999999
 20
760.213
 30
0.0
 11
403.2059999999999
 21
760.9789999999999
 31
0.0
  0
LINE
  5
721
330
1E
100
AcDbEntity
  8
0
100
AcDbLine
 10
401.4739999999999
 20
760.213
 30
0.0
 11
402.4739999999999
 21
758.8860000000001
 31
0.0
  0
LINE
  5
722
330
1E
100
AcDbEntity
  8
0
100
AcDbLine
 10
403.2059999999999
 20
760.9789999999999
 30
0.0
 11
403.2059999999999
 21
762.2639999999998
 31
0.0
  0
LINE
  5
723
330
1E
100
AcDbEntity
  8
0
100
AcDbLine
 10
403.2059999999999
 20
760.9789999999999
 30
0.0
 11
404.2059999999999
 21
759.6519999999999
 31
0.0
  0
LINE
  5
724
330
1E
100
AcDbEntity
  8
0
100
AcDbLine
 10
401.8659999999999
 20
721.86
 30
0.0
 11
401.8659999999999
 21
720.575
 31
0.0
  0
LINE
  5
725
330
1E
100
AcDbEntity
  8
0
100
AcDbLine
 10
400.8659999999999
 20
721.901
 30
0.0
 11
400.8659999999999
 21
723.187
 31
0.0
  0
LINE
  5
726
330
1E
100
AcDbEntity
  8
0
100
AcDbLine
 10
400.8659999999999
 20
721.901
 30
0.0
 11
401.8659999999999
 21
720.575
 31
0.0
  0
LINE
  5
727
330
1E
100
AcDbEntity
  8
0
100
AcDbLine
 10
404.7699999999999
 20
715.8660000000001
 30
0.0
 11
405.97
 21
716.2339999999999
 31
0.0
  0
LINE
  5
728
330
1E
100
AcDbEntity
  8
0
100
AcDbLine
 10
405.97
 20
716.2339999999999
 30
0.0
 11
407.2499999999999
 21
716.3719999999999
 31
0.0
  0
LINE
  5
729
330
1E
100
AcDbEntity
  8
0
100
AcDbLine
 10
404.7699999999999
 20
715.2230000000001
 30
0.0
 11
405.97
 21
715.591
 31
0.0
  0
LINE
  5
72A
330
1E
100
AcDbEntity
  8
0
100
AcDbLine
 10
406.5699999999999
 20
692.914
 30
0.0
 11
408.3019999999999
 21
692.148
 31
0.0
  0
LINE
  5
72B
330
1E
100
AcDbEntity
  8
0
100
AcDbLine
 10
406.5699999999999
 20
692.914
 30
0.0
 11
407.57
 21
694.2410000000001
 31
0.0
  0
LINE
  5
72C
330
1E
100
AcDbEntity
  8
0
100
AcDbLine
 10
406.5699999999999
 20
731.5269999999999
 30
0.0
 11
408.3019999999999
 21
732.293
 31
0.0
  0
LINE
  5
72D
330
1E
100
AcDbEntity
  8
0
100
AcDbLine
 10
406.5699999999999
 20
731.5269999999999
 30
0.0
 11
407.57
 21
730.2
 31
0.0
  0
LINE
  5
72E
330
1E
100
AcDbEntity
  8
0
100
AcDbLine
 10
407.2499999999999
 20
716.3719999999999
 30
0.0
 11
408.53
 21
716.2339999999999
 31
0.0
  0
LINE
  5
72F
330
1E
100
AcDbEntity
  8
0
100
AcDbLine
 10
407.2499999999999
 20
715.7289999999999
 30
0.0
 11
408.53
 21
715.591
 31
0.0
  0
LINE
  5
730
330
1E
100
AcDbEntity
  8
0
100
AcDbLine
 10
407.2499999999999
 20
708.0689999999999
 30
0.0
 11
408.53
 21
708.2069999999999
 31
0.0
  0
LINE
  5
731
330
1E
100
AcDbEntity
  8
0
100
AcDbLine
 10
405.97
 20
715.591
 30
0.0
 11
407.2499999999999
 21
715.7289999999999
 31
0.0
  0
LINE
  5
732
330
1E
100
AcDbEntity
  8
0
100
AcDbLine
 10
406.25
 20
671.03
 30
0.0
 11
406.25
 21
664.4169999999999
 31
0.0
  0
LINE
  5
733
330
1E
100
AcDbEntity
  8
0
100
AcDbLine
 10
406.25
 20
671.03
 30
0.0
 11
406.25
 21
663.705
 31
0.0
  0
LINE
  5
734
330
1E
100
AcDbEntity
  8
0
100
AcDbLine
 10
406.25
 20
671.03
 30
0.0
 11
408.25
 21
671.031
 31
0.0
  0
LINE
  5
735
330
1E
100
AcDbEntity
  8
0
100
AcDbLine
 10
407.57
 20
730.2
 30
0.0
 11
409.302
 21
730.966
 31
0.0
  0
LINE
  5
736
330
1E
100
AcDbEntity
  8
0
100
AcDbLine
 10
408.17
 20
750.666
 30
0.0
 11
409.902
 21
751.432
 31
0.0
  0
LINE
  5
737
330
1E
100
AcDbEntity
  8
0
100
AcDbLine
 10
408.17
 20
750.666
 30
0.0
 11
409.17
 21
749.3389999999999
 31
0.0
  0
LINE
  5
738
330
1E
100
AcDbEntity
  8
0
100
AcDbLine
 10
407.57
 20
694.2410000000001
 30
0.0
 11
409.302
 21
693.475
 31
0.0
  0
LINE
  5
739
330
1E
100
AcDbEntity
  8
0
100
AcDbLine
 10
408.17
 20
675.0599999999999
 30
0.0
 11
409.902
 21
674.2939999999999
 31
0.0
  0
LINE
  5
73A
330
1E
100
AcDbEntity
  8
0
100
AcDbLine
 10
408.17
 20
675.0599999999999
 30
0.0
 11
409.17
 21
676.3869999999999
 31
0.0
  0
LINE
  5
73B
330
1E
100
AcDbEntity
  8
0
100
AcDbLine
 10
408.25
 20
671.031
 30
0.0
 11
408.25
 21
663.7699999999999
 31
0.0
  0
LINE
  5
73C
330
1E
100
AcDbEntity
  8
0
100
AcDbLine
 10
407.2499999999999
 20
763.2369999999999
 30
0.0
 11
415.7499999999999
 21
762.7769999999999
 31
0.0
  0
LINE
  5
73D
330
1E
100
AcDbEntity
  8
0
100
AcDbLine
 10
408.25
 20
664.471117647059
 30
0.0
 11
415.7499999999999
 21
664.8769999999999
 31
0.0
  0
LINE
  5
73E
330
1E
100
AcDbEntity
  8
0
100
AcDbLine
 10
408.3019999999999
 20
692.148
 30
0.0
 11
409.302
 21
693.475
 31
0.0
  0
LINE
  5
73F
330
1E
100
AcDbEntity
  8
0
100
AcDbLine
 10
412.6339999999999
 20
704.5089999999999
 30
0.0
 11
412.6339999999999
 21
703.2230000000001
 31
0.0
  0
LINE
  5
740
330
1E
100
AcDbEntity
  8
0
100
AcDbLine
 10
412.6339999999999
 20
703.2230000000001
 30
0.0
 11
414.3659999999999
 21
703.9889999999999
 31
0.0
  0
LINE
  5
741
330
1E
100
AcDbEntity
  8
0
100
AcDbLine
 10
412.6339999999999
 20
703.2230000000001
 30
0.0
 11
413.634
 21
701.896
 31
0.0
  0
LINE
  5
742
330
1E
100
AcDbEntity
  8
0
100
AcDbLine
 10
412.6339999999999
 20
703.2230000000001
 30
0.0
 11
412.6339999999999
 21
704.5089999999999
 31
0.0
  0
LINE
  5
743
330
1E
100
AcDbEntity
  8
0
100
AcDbLine
 10
409.902
 20
674.2939999999999
 30
0.0
 11
410.902
 21
675.6210000000001
 31
0.0
  0
LINE
  5
744
330
1E
100
AcDbEntity
  8
0
100
AcDbLine
 10
409.17
 20
676.3869999999999
 30
0.0
 11
410.902
 21
675.6210000000001
 31
0.0
  0
LINE
  5
745
330
1E
100
AcDbEntity
  8
0
100
AcDbLine
 10
409.73
 20
715.2230000000001
 30
0.0
 11
410.7899999999999
 21
714.6110000000001
 31
0.0
  0
LINE
  5
746
330
1E
100
AcDbEntity
  8
0
100
AcDbLine
 10
408.3019999999999
 20
732.293
 30
0.0
 11
409.302
 21
730.966
 31
0.0
  0
LINE
  5
747
330
1E
100
AcDbEntity
  8
0
100
AcDbLine
 10
409.17
 20
749.3389999999999
 30
0.0
 11
410.902
 21
750.105
 31
0.0
  0
LINE
  5
748
330
1E
100
AcDbEntity
  8
0
100
AcDbLine
 10
409.73
 20
715.8660000000001
 30
0.0
 11
410.7899999999999
 21
715.253
 31
0.0
  0
LINE
  5
749
330
1E
100
AcDbEntity
  8
0
100
AcDbLine
 10
408.53
 20
716.2339999999999
 30
0.0
 11
409.73
 21
715.8660000000001
 31
0.0
  0
LINE
  5
74A
330
1E
100
AcDbEntity
  8
0
100
AcDbLine
 10
408.53
 20
715.591
 30
0.0
 11
409.73
 21
715.2230000000001
 31
0.0
  0
LINE
  5
74B
330
1E
100
AcDbEntity
  8
0
100
AcDbLine
 10
411.5899999999999
 20
714.441
 30
0.0
 11
412.07
 21
713.5219999999999
 31
0.0
  0
LINE
  5
74C
330
1E
100
AcDbEntity
  8
0
100
AcDbLine
 10
411.5899999999999
 20
713.799
 30
0.0
 11
412.07
 21
712.8789999999999
 31
0.0
  0
LINE
  5
74D
330
1E
100
AcDbEntity
  8
0
100
AcDbLine
 10
409.902
 20
751.432
 30
0.0
 11
410.902
 21
750.105
 31
0.0
  0
LINE
  5
74E
330
1E
100
AcDbEntity
  8
0
100
AcDbLine
 10
410.7899999999999
 20
715.253
 30
0.0
 11
411.5899999999999
 21
714.441
 31
0.0
  0
LINE
  5
74F
330
1E
100
AcDbEntity
  8
0
100
AcDbLine
 10
410.7899999999999
 20
714.6110000000001
 30
0.0
 11
411.5899999999999
 21
713.799
 31
0.0
  0
LINE
  5
750
330
1E
100
AcDbEntity
  8
0
100
AcDbLine
 10
412.25
 20
712.5419999999999
 30
0.0
 11
412.25
 21
711.8989999999999
 31
0.0
  0
LINE
  5
751
330
1E
100
AcDbEntity
  8
0
100
AcDbLine
 10
412.07
 20
713.5219999999999
 30
0.0
 11
412.25
 21
712.5419999999999
 31
0.0
  0
LINE
  5
752
330
1E
100
AcDbEntity
  8
0
100
AcDbLine
 10
412.07
 20
712.8789999999999
 30
0.0
 11
412.25
 21
711.8989999999999
 31
0.0
  0
LINE
  5
753
330
1E
100
AcDbEntity
  8
0
100
AcDbLine
 10
412.6339999999999
 20
721.86
 30
0.0
 11
412.6339999999999
 21
720.575
 31
0.0
  0
LINE
  5
754
330
1E
100
AcDbEntity
  8
0
100
AcDbLine
 10
412.6339999999999
 20
720.575
 30
0.0
 11
414.3659999999999
 21
719.808
 31
0.0
  0
LINE
  5
755
330
1E
100
AcDbEntity
  8
0
100
AcDbLine
 10
412.6339999999999
 20
720.575
 30
0.0
 11
413.634
 21
721.901
 31
0.0
  0
LINE
  5
756
330
1E
100
AcDbEntity
  8
0
100
AcDbLine
 10
412.6339999999999
 20
720.575
 30
0.0
 11
412.6339999999999
 21
721.86
 31
0.0
  0
LINE
  5
757
330
1E
100
AcDbEntity
  8
0
100
AcDbLine
 10
412.25
 20
711.8989999999999
 30
0.0
 11
412.25
 21
712.5419999999999
 31
0.0
  0
LINE
  5
758
330
1E
100
AcDbEntity
  8
0
100
AcDbLine
 10
412.07
 20
710.918
 30
0.0
 11
412.25
 21
711.8989999999999
 31
0.0
  0
LINE
  5
759
330
1E
100
AcDbEntity
  8
0
100
AcDbLine
 10
411.5899999999999
 20
709.9989999999999
 30
0.0
 11
412.07
 21
710.918
 31
0.0
  0
LINE
  5
75A
330
1E
100
AcDbEntity
  8
0
100
AcDbLine
 10
410.7899999999999
 20
709.187
 30
0.0
 11
411.5899999999999
 21
709.9989999999999
 31
0.0
  0
LINE
  5
75B
330
1E
100
AcDbEntity
  8
0
100
AcDbLine
 10
409.73
 20
708.5739999999999
 30
0.0
 11
410.7899999999999
 21
709.187
 31
0.0
  0
LINE
  5
75C
330
1E
100
AcDbEntity
  8
0
100
AcDbLine
 10
408.53
 20
708.2069999999999
 30
0.0
 11
409.73
 21
708.5739999999999
 31
0.0
  0
LINE
  5
75D
330
1E
100
AcDbEntity
  8
0
100
AcDbLine
 10
408.25
 20
662.1806091954019
 30
0.0
 11
415.9499999999999
 21
662.6549999999999
 31
0.0
  0
LINE
  5
75E
330
1E
100
AcDbEntity
  8
0
100
AcDbLine
 10
408.25
 20
662.056909090909
 30
0.0
 11
416.0499999999999
 21
662.5319999999999
 31
0.0
  0
LINE
  5
75F
330
1E
100
AcDbEntity
  8
0
100
AcDbLine
 10
398.75
 20
762.7769999999999
 30
0.0
 11
407.2499999999999
 21
763.2369999999999
 31
0.0
  0
LINE
  5
760
330
1E
100
AcDbEntity
  8
0
100
AcDbLine
 10
407.2499999999999
 20
765.5349999999999
 30
0.0
 11
415.9499999999999
 21
764.9989999999998
 31
0.0
  0
LINE
  5
761
330
1E
100
AcDbEntity
  8
0
100
AcDbLine
 10
407.2499999999999
 20
766.9439999999999
 30
0.0
 11
416.0499999999999
 21
766.408
 31
0.0
  0
LINE
  5
762
330
1E
100
AcDbEntity
  8
0
100
AcDbLine
 10
398.55
 20
764.9989999999998
 30
0.0
 11
407.2499999999999
 21
765.5349999999999
 31
0.0
  0
LINE
  5
763
330
1E
100
AcDbEntity
  8
0
100
AcDbLine
 10
398.45
 20
766.408
 30
0.0
 11
407.2499999999999
 21
766.9439999999999
 31
0.0
  0
LINE
  5
764
330
1E
100
AcDbEntity
  8
0
100
AcDbLine
 10
407.2499999999999
 20
780.4429999999999
 30
0.0
 11
416.0499999999999
 21
779.906
 31
0.0
  0
LINE
  5
765
330
1E
100
AcDbEntity
  8
0
100
AcDbLine
 10
398.45
 20
779.906
 30
0.0
 11
407.2499999999999
 21
780.4429999999999
 31
0.0
  0
LINE
  5
766
330
1E
100
AcDbEntity
  8
0
100
AcDbLine
 10
397.8300939191889
 20
557.835
 30
0.0
 11
398.0807327240989
 21
561.281676418307
 31
0.0
  0
LINE
  5
767
330
1E
100
AcDbEntity
  8
0
100
AcDbLine
 10
412.06
 20
527.0309999999999
 30
0.0
 11
413.243
 21
549.519
 31
0.0
  0
LINE
  5
768
330
1E
100
AcDbEntity
  8
0
100
AcDbLine
 10
413.45
 20
561.164
 30
0.0
 11
416.0499999999999
 21
561.708
 31
0.0
  0
LINE
  5
769
330
1E
100
AcDbEntity
  8
0
100
AcDbLine
 10
414.81
 20
504.635
 30
0.0
 11
421.7699999999999
 21
507.5149999999999
 31
0.0
  0
LINE
  5
76A
330
1E
100
AcDbEntity
  8
0
100
AcDbLine
 10
414.93
 20
503.915
 30
0.0
 11
422.13
 21
506.795
 31
0.0
  0
LINE
  5
76B
330
1E
100
AcDbEntity
  8
0
100
AcDbLine
 10
415.038
 20
507.8349999999999
 30
0.0
 11
416.798
 21
507.8349999999999
 31
0.0
  0
LINE
  5
76C
330
1E
100
AcDbEntity
  8
0
100
AcDbLine
 10
413.8444983202689
 20
557.835
 30
0.0
 11
415.038
 21
557.835
 31
0.0
  0
LINE
  5
76D
330
1E
100
AcDbEntity
  8
0
100
AcDbLine
 10
415.038
 20
557.835
 30
0.0
 11
415.453
 21
557.835
 31
0.0
  0
LINE
  5
76E
330
1E
100
AcDbEntity
  8
0
100
AcDbLine
 10
414.1939999999999
 20
507.8349999999999
 30
0.0
 11
417.1619999999999
 21
507.8349999999999
 31
0.0
  0
LINE
  5
76F
330
1E
100
AcDbEntity
  8
0
100
AcDbLine
 10
413.45
 20
637.558
 30
0.0
 11
416.0499999999999
 21
638.9719999999999
 31
0.0
  0
LINE
  5
770
330
1E
100
AcDbEntity
  8
0
100
AcDbLine
 10
413.6499999999999
 20
640.708
 30
0.0
 11
415.05
 21
642.058
 31
0.0
  0
LINE
  5
771
330
1E
100
AcDbEntity
  8
0
100
AcDbLine
 10
415.1866307541629
 20
560.8791527913809
 30
0.0
 11
421.7699999999999
 21
558.155
 31
0.0
  0
LINE
  5
772
330
1E
100
AcDbEntity
  8
0
100
AcDbLine
 10
415.453
 20
557.835
 30
0.0
 11
415.453
 21
507.8349999999999
 31
0.0
  0
LINE
  5
773
330
1E
100
AcDbEntity
  8
0
100
AcDbLine
 10
415.453
 20
557.835
 30
0.0
 11
417.435
 21
557.835
 31
0.0
  0
LINE
  5
774
330
1E
100
AcDbEntity
  8
0
100
AcDbLine
 10
415.453
 20
507.8349999999999
 30
0.0
 11
416.798
 21
507.8349999999999
 31
0.0
  0
LINE
  5
775
330
1E
100
AcDbEntity
  8
0
100
AcDbLine
 10
415.453
 20
507.8349999999999
 30
0.0
 11
417.435
 21
507.8349999999999
 31
0.0
  0
LINE
  5
776
330
1E
100
AcDbEntity
  8
0
100
AcDbLine
 10
415.453
 20
507.8349999999999
 30
0.0
 11
415.453
 21
557.835
 31
0.0
  0
LINE
  5
777
330
1E
100
AcDbEntity
  8
0
100
AcDbLine
 10
415.35
 20
560.9169999999998
 30
0.0
 11
417.25
 21
561.565
 31
0.0
  0
LINE
  5
778
330
1E
100
AcDbEntity
  8
0
100
AcDbLine
 10
416.0499999999999
 20
561.708
 30
0.0
 11
418.05
 21
562.344
 31
0.0
  0
LINE
  5
779
330
1E
100
AcDbEntity
  8
0
100
AcDbLine
 10
416.0499999999999
 20
638.9719999999999
 30
0.0
 11
418.05
 21
640.836
 31
0.0
  0
LINE
  5
77A
330
1E
100
AcDbEntity
  8
0
100
AcDbLine
 10
415.05
 20
642.058
 30
0.0
 11
415.9499999999999
 21
643.5999999999999
 31
0.0
  0
LINE
  5
77B
330
1E
100
AcDbEntity
  8
0
100
AcDbLine
 10
416.2499999999999
 20
651.3205
 30
0.0
 11
418.05
 21
649.6419999999999
 31
0.0
  0
LINE
  5
77C
330
1E
100
AcDbEntity
  8
0
100
AcDbLine
 10
415.9499999999999
 20
643.5999999999999
 30
0.0
 11
416.2499999999999
 21
645.2069999999999
 31
0.0
  0
LINE
  5
77D
330
1E
100
AcDbEntity
  8
0
100
AcDbLine
 10
416.798
 20
507.8349999999999
 30
0.0
 11
417.854
 21
507.8349999999999
 31
0.0
  0
LINE
  5
77E
330
1E
100
AcDbEntity
  8
0
100
AcDbLine
 10
416.2541193181819
 20
561.2253522727269
 30
0.0
 11
422.13
 21
558.875
 31
0.0
  0
LINE
  5
77F
330
1E
100
AcDbEntity
  8
0
100
AcDbLine
 10
417.1619999999999
 20
507.8349999999999
 30
0.0
 11
419.402
 21
507.8349999999999
 31
0.0
  0
LINE
  5
780
330
1E
100
AcDbEntity
  8
0
100
AcDbLine
 10
417.854
 20
507.8349999999999
 30
0.0
 11
418.25
 21
507.8349999999999
 31
0.0
  0
LINE
  5
781
330
1E
100
AcDbEntity
  8
0
100
AcDbLine
 10
417.435
 20
557.835
 30
0.0
 11
419.402
 21
557.835
 31
0.0
  0
LINE
  5
782
330
1E
100
AcDbEntity
  8
0
100
AcDbLine
 10
417.435
 20
557.835
 30
0.0
 11
417.435
 21
507.8349999999999
 31
0.0
  0
LINE
  5
783
330
1E
100
AcDbEntity
  8
0
100
AcDbLine
 10
417.435
 20
507.8349999999999
 30
0.0
 11
417.435
 21
557.835
 31
0.0
  0
LINE
  5
784
330
1E
100
AcDbEntity
  8
0
100
AcDbLine
 10
417.435
 20
507.8349999999999
 30
0.0
 11
419.402
 21
507.8349999999999
 31
0.0
  0
LINE
  5
785
330
1E
100
AcDbEntity
  8
0
100
AcDbLine
 10
417.25
 20
561.565
 30
0.0
 11
418.35
 21
562.253
 31
0.0
  0
LINE
  5
786
330
1E
100
AcDbEntity
  8
0
100
AcDbLine
 10
418.05
 20
562.344
 30
0.0
 11
419.35
 21
563.1469999999999
 31
0.0
  0
LINE
  5
787
330
1E
100
AcDbEntity
  8
0
100
AcDbLine
 10
418.35
 20
562.253
 30
0.0
 11
419.35
 21
563.1469999999999
 31
0.0
  0
LINE
  5
788
330
1E
100
AcDbEntity
  8
0
100
AcDbLine
 10
418.35
 20
562.253
 30
0.0
 11
418.4748520710059
 21
562.4877218934909
 31
0.0
  0
LINE
  5
789
330
1E
100
AcDbEntity
  8
0
100
AcDbLine
 10
419.35
 20
563.1469999999999
 30
0.0
 11
419.7499999999999
 21
564.0159999999999
 31
0.0
  0
LINE
  5
78A
330
1E
100
AcDbEntity
  8
0
100
AcDbLine
 10
418.05
 20
640.836
 30
0.0
 11
419.35
 21
642.957
 31
0.0
  0
LINE
  5
78B
330
1E
100
AcDbEntity
  8
0
100
AcDbLine
 10
419.35
 20
642.957
 30
0.0
 11
419.7499999999999
 21
645.2069999999999
 31
0.0
  0
LINE
  5
78C
330
1E
100
AcDbEntity
  8
0
100
AcDbLine
 10
419.402
 20
557.835
 30
0.0
 11
420.746
 21
557.835
 31
0.0
  0
LINE
  5
78D
330
1E
100
AcDbEntity
  8
0
100
AcDbLine
 10
419.402
 20
507.8349999999999
 30
0.0
 11
420.746
 21
507.8349999999999
 31
0.0
  0
LINE
  5
78E
330
1E
100
AcDbEntity
  8
0
100
AcDbLine
 10
420.746
 20
557.835
 30
0.0
 11
421.25
 21
557.835
 31
0.0
  0
LINE
  5
78F
330
1E
100
AcDbEntity
  8
0
100
AcDbLine
 10
421.25
 20
544.6934615384619
 30
0.0
 11
423.286
 21
542.0309999999999
 31
0.0
  0
LINE
  5
790
330
1E
100
AcDbEntity
  8
0
100
AcDbLine
 10
421.25
 20
545.5608999999999
 30
0.0
 11
423.7419999999999
 21
542.259
 31
0.0
  0
LINE
  5
791
330
1E
100
AcDbEntity
  8
0
100
AcDbLine
 10
421.25
 20
520.9765384615379
 30
0.0
 11
423.286
 21
523.639
 31
0.0
  0
LINE
  5
792
330
1E
100
AcDbEntity
  8
0
100
AcDbLine
 10
421.25
 20
520.1090999999999
 30
0.0
 11
423.7419999999999
 21
523.4109999999999
 31
0.0
  0
LINE
  5
793
330
1E
100
AcDbEntity
  8
0
100
AcDbLine
 10
423.286
 20
542.0309999999999
 30
0.0
 11
425.11
 21
537.623
 31
0.0
  0
LINE
  5
794
330
1E
100
AcDbEntity
  8
0
100
AcDbLine
 10
423.7419999999999
 20
542.259
 30
0.0
 11
425.5659999999999
 21
537.6990000000001
 31
0.0
  0
LINE
  5
795
330
1E
100
AcDbEntity
  8
0
100
AcDbLine
 10
423.286
 20
523.639
 30
0.0
 11
425.11
 21
528.047
 31
0.0
  0
LINE
  5
796
330
1E
100
AcDbEntity
  8
0
100
AcDbLine
 10
425.11
 20
537.623
 30
0.0
 11
425.794
 21
532.835
 31
0.0
  0
LINE
  5
797
330
1E
100
AcDbEntity
  8
0
100
AcDbLine
 10
425.5659999999999
 20
537.6990000000001
 30
0.0
 11
426.25
 21
532.835
 31
0.0
  0
LINE
  5
798
330
1E
100
AcDbEntity
  8
0
100
AcDbLine
 10
425.11
 20
528.047
 30
0.0
 11
425.794
 21
532.835
 31
0.0
  0
LINE
  5
799
330
1E
100
AcDbEntity
  8
0
100
AcDbLine
 10
425.5659999999999
 20
527.971
 30
0.0
 11
426.25
 21
532.835
 31
0.0
  0
LINE
  5
79A
330
1E
100
AcDbEntity
  8
0
100
AcDbLine
 10
423.7419999999999
 20
523.4109999999999
 30
0.0
 11
425.5659999999999
 21
527.971
 31
0.0
  0
LINE
  5
79B
330
1E
100
AcDbEntity
  8
0
100
AcDbLine
 10
427.89
 20
553.475
 30
0.0
 11
432.57
 21
547.355
 31
0.0
  0
LINE
  5
79C
330
1E
100
AcDbEntity
  8
0
100
AcDbLine
 10
428.49
 20
554.075
 30
0.0
 11
433.29
 21
547.715
 31
0.0
  0
LINE
  5
79D
330
1E
100
AcDbEntity
  8
0
100
AcDbLine
 10
427.89
 20
512.195
 30
0.0
 11
432.57
 21
518.315
 31
0.0
  0
LINE
  5
79E
330
1E
100
AcDbEntity
  8
0
100
AcDbLine
 10
421.7699999999999
 20
507.5149999999999
 30
0.0
 11
427.89
 21
512.195
 31
0.0
  0
LINE
  5
79F
330
1E
100
AcDbEntity
  8
0
100
AcDbLine
 10
435.4499999999999
 20
540.395
 30
0.0
 11
436.5299999999999
 21
532.835
 31
0.0
  0
LINE
  5
7A0
330
1E
100
AcDbEntity
  8
0
100
AcDbLine
 10
432.57
 20
547.355
 30
0.0
 11
435.4499999999999
 21
540.395
 31
0.0
  0
LINE
  5
7A1
330
1E
100
AcDbEntity
  8
0
100
AcDbLine
 10
433.29
 20
547.715
 30
0.0
 11
436.1699999999999
 21
540.5149999999999
 31
0.0
  0
LINE
  5
7A2
330
1E
100
AcDbEntity
  8
0
100
AcDbLine
 10
436.1699999999999
 20
540.5149999999999
 30
0.0
 11
437.25
 21
532.835
 31
0.0
  0
LINE
  5
7A3
330
1E
100
AcDbEntity
  8
0
100
AcDbLine
 10
435.4499999999999
 20
525.2749999999999
 30
0.0
 11
436.5299999999999
 21
532.835
 31
0.0
  0
LINE
  5
7A4
330
1E
100
AcDbEntity
  8
0
100
AcDbLine
 10
432.57
 20
518.315
 30
0.0
 11
435.4499999999999
 21
525.2749999999999
 31
0.0
  0
LINE
  5
7A5
330
1E
100
AcDbEntity
  8
0
100
AcDbLine
 10
436.1699999999999
 20
525.1549999999999
 30
0.0
 11
437.25
 21
532.835
 31
0.0
  0
LINE
  5
7A6
330
1E
100
AcDbEntity
  8
0
100
AcDbLine
 10
433.29
 20
517.955
 30
0.0
 11
436.1699999999999
 21
525.1549999999999
 31
0.0
  0
LINE
  5
7A7
330
1E
100
AcDbEntity
  8
0
100
AcDbLine
 10
428.49
 20
511.595
 30
0.0
 11
433.29
 21
517.955
 31
0.0
  0
LINE
  5
7A8
330
1E
100
AcDbEntity
  8
0
100
AcDbLine
 10
422.13
 20
506.795
 30
0.0
 11
428.49
 21
511.595
 31
0.0
  0
LINE
  5
7A9
330
1E
100
AcDbEntity
  8
0
100
AcDbLine
 10
421.25
 20
507.8349999999999
 30
0.0
 11
421.25
 21
557.835
 31
0.0
  0
LINE
  5
7AA
330
1E
100
AcDbEntity
  8
0
100
AcDbLine
 10
421.7699999999999
 20
558.155
 30
0.0
 11
427.89
 21
553.475
 31
0.0
  0
LINE
  5
7AB
330
1E
100
AcDbEntity
  8
0
100
AcDbLine
 10
422.13
 20
558.875
 30
0.0
 11
428.49
 21
554.075
 31
0.0
  0
LINE
  5
7AC
330
1E
100
AcDbEntity
  8
0
100
AcDbLine
 10
421.25
 20
557.835
 30
0.0
 11
421.25
 21
507.8349999999999
 31
0.0
  0
LINE
  5
7AD
330
1E
100
AcDbEntity
  8
0
100
AcDbLine
 10
420.746
 20
507.8349999999999
 30
0.0
 11
421.25
 21
507.8349999999999
 31
0.0
  0
LINE
  5
7AE
330
1E
100
AcDbEntity
  8
0
100
AcDbLine
 10
419.7499999999999
 20
645.2069999999999
 30
0.0
 11
419.7499999999999
 21
564.0159999999999
 31
0.0
  0
LINE
  5
7AF
330
1E
100
AcDbEntity
  8
0
100
AcDbLine
 10
419.7499999999999
 20
564.0159999999999
 30
0.0
 11
419.7499999999999
 21
645.2069999999999
 31
0.0
  0
LINE
  5
7B0
330
1E
100
AcDbEntity
  8
0
100
AcDbLine
 10
419.35
 20
647.5209999999999
 30
0.0
 11
419.7499999999999
 21
645.2069999999999
 31
0.0
  0
LINE
  5
7B1
330
1E
100
AcDbEntity
  8
0
100
AcDbLine
 10
418.05
 20
649.6419999999999
 30
0.0
 11
419.35
 21
647.5209999999999
 31
0.0
  0
LINE
  5
7B2
330
1E
100
AcDbEntity
  8
0
100
AcDbLine
 10
416.2499999999999
 20
645.2069999999999
 30
0.0
 11
416.2499999999999
 21
662.562988764045
 31
0.0
  0
LINE
  5
7B3
330
1E
100
AcDbEntity
  8
0
100
AcDbLine
 10
416.2499999999999
 20
662.562988764045
 30
0.0
 11
416.2499999999999
 21
645.2069999999999
 31
0.0
  0
LINE
  5
7B4
330
1E
100
AcDbEntity
  8
0
100
AcDbLine
 10
413.634
 20
701.896
 30
0.0
 11
415.366
 21
702.6619999999999
 31
0.0
  0
LINE
  5
7B5
330
1E
100
AcDbEntity
  8
0
100
AcDbLine
 10
413.533
 20
740.3319999999999
 30
0.0
 11
415.2649999999999
 21
741.0980000000001
 31
0.0
  0
LINE
  5
7B6
330
1E
100
AcDbEntity
  8
0
100
AcDbLine
 10
413.533
 20
740.3319999999999
 30
0.0
 11
414.533
 21
739.005
 31
0.0
  0
LINE
  5
7B7
330
1E
100
AcDbEntity
  8
0
100
AcDbLine
 10
413.634
 20
723.187
 30
0.0
 11
413.634
 21
721.901
 31
0.0
  0
LINE
  5
7B8
330
1E
100
AcDbEntity
  8
0
100
AcDbLine
 10
414.3659999999999
 20
705.2749999999999
 30
0.0
 11
414.3659999999999
 21
703.9889999999999
 31
0.0
  0
LINE
  5
7B9
330
1E
100
AcDbEntity
  8
0
100
AcDbLine
 10
414.3659999999999
 20
703.9889999999999
 30
0.0
 11
415.366
 21
702.6619999999999
 31
0.0
  0
LINE
  5
7BA
330
1E
100
AcDbEntity
  8
0
100
AcDbLine
 10
414.3659999999999
 20
703.9889999999999
 30
0.0
 11
414.3659999999999
 21
705.2749999999999
 31
0.0
  0
LINE
  5
7BB
330
1E
100
AcDbEntity
  8
0
100
AcDbLine
 10
414.3839999999999
 20
760.4085167058819
 30
0.0
 11
414.3839999999999
 21
760.1230000000001
 31
0.0
  0
LINE
  5
7BC
330
1E
100
AcDbEntity
  8
0
100
AcDbLine
 10
414.3839999999999
 20
760.1230000000001
 30
0.0
 11
416.1159999999999
 21
760.8889999999998
 31
0.0
  0
LINE
  5
7BD
330
1E
100
AcDbEntity
  8
0
100
AcDbLine
 10
414.3839999999999
 20
760.1230000000001
 30
0.0
 11
414.3839999999999
 21
760.4085167058819
 31
0.0
  0
LINE
  5
7BE
330
1E
100
AcDbEntity
  8
0
100
AcDbLine
 10
414.3839999999999
 20
760.1230000000001
 30
0.0
 11
415.384
 21
758.796
 31
0.0
  0
LINE
  5
7BF
330
1E
100
AcDbEntity
  8
0
100
AcDbLine
 10
414.3659999999999
 20
719.808
 30
0.0
 11
415.366
 21
721.135
 31
0.0
  0
LINE
  5
7C0
330
1E
100
AcDbEntity
  8
0
100
AcDbLine
 10
413.634
 20
721.901
 30
0.0
 11
413.634
 21
723.187
 31
0.0
  0
LINE
  5
7C1
330
1E
100
AcDbEntity
  8
0
100
AcDbLine
 10
413.634
 20
721.901
 30
0.0
 11
415.366
 21
721.135
 31
0.0
  0
LINE
  5
7C2
330
1E
100
AcDbEntity
  8
0
100
AcDbLine
 10
413.533
 20
684.751
 30
0.0
 11
415.2649999999999
 21
683.985
 31
0.0
  0
LINE
  5
7C3
330
1E
100
AcDbEntity
  8
0
100
AcDbLine
 10
413.533
 20
684.751
 30
0.0
 11
414.533
 21
686.078
 31
0.0
  0
LINE
  5
7C4
330
1E
100
AcDbEntity
  8
0
100
AcDbLine
 10
414.533
 20
739.005
 30
0.0
 11
416.265
 21
739.771
 31
0.0
  0
LINE
  5
7C5
330
1E
100
AcDbEntity
  8
0
100
AcDbLine
 10
415.366
 20
702.6619999999999
 30
0.0
 11
415.366
 21
703.948
 31
0.0
  0
LINE
  5
7C6
330
1E
100
AcDbEntity
  8
0
100
AcDbLine
 10
415.366
 20
703.948
 30
0.0
 11
415.366
 21
702.6619999999999
 31
0.0
  0
LINE
  5
7C7
330
1E
100
AcDbEntity
  8
0
100
AcDbLine
 10
415.2649999999999
 20
741.0980000000001
 30
0.0
 11
416.265
 21
739.771
 31
0.0
  0
LINE
  5
7C8
330
1E
100
AcDbEntity
  8
0
100
AcDbLine
 10
415.366
 20
721.135
 30
0.0
 11
415.366
 21
722.421
 31
0.0
  0
LINE
  5
7C9
330
1E
100
AcDbEntity
  8
0
100
AcDbLine
 10
415.384
 20
758.796
 30
0.0
 11
417.1159999999999
 21
759.562
 31
0.0
  0
LINE
  5
7CA
330
1E
100
AcDbEntity
  8
0
100
AcDbLine
 10
415.366
 20
722.421
 30
0.0
 11
415.366
 21
721.135
 31
0.0
  0
LINE
  5
7CB
330
1E
100
AcDbEntity
  8
0
100
AcDbLine
 10
415.2649999999999
 20
683.985
 30
0.0
 11
416.265
 21
685.312
 31
0.0
  0
LINE
  5
7CC
330
1E
100
AcDbEntity
  8
0
100
AcDbLine
 10
414.533
 20
686.078
 30
0.0
 11
416.265
 21
685.312
 31
0.0
  0
LINE
  5
7CD
330
1E
100
AcDbEntity
  8
0
100
AcDbLine
 10
415.384
 20
667.5729999999999
 30
0.0
 11
417.1159999999999
 21
666.807
 31
0.0
  0
LINE
  5
7CE
330
1E
100
AcDbEntity
  8
0
100
AcDbLine
 10
414.3839999999999
 20
667.0388155294119
 30
0.0
 11
414.3839999999999
 21
666.2460000000001
 31
0.0
  0
LINE
  5
7CF
330
1E
100
AcDbEntity
  8
0
100
AcDbLine
 10
414.3839999999999
 20
666.2460000000001
 30
0.0
 11
416.1159999999999
 21
665.48
 31
0.0
  0
LINE
  5
7D0
330
1E
100
AcDbEntity
  8
0
100
AcDbLine
 10
414.3839999999999
 20
666.2460000000001
 30
0.0
 11
415.384
 21
667.5729999999999
 31
0.0
  0
LINE
  5
7D1
330
1E
100
AcDbEntity
  8
0
100
AcDbLine
 10
414.3839999999999
 20
666.2460000000001
 30
0.0
 11
414.3839999999999
 21
667.0388155294119
 31
0.0
  0
LINE
  5
7D2
330
1E
100
AcDbEntity
  8
0
100
AcDbLine
 10
415.7499999999999
 20
762.7769999999999
 30
0.0
 11
422.85
 21
761.475
 31
0.0
  0
LINE
  5
7D3
330
1E
100
AcDbEntity
  8
0
100
AcDbLine
 10
415.9499999999999
 20
764.9989999999998
 30
0.0
 11
424.2499999999999
 21
763.6969999999999
 31
0.0
  0
LINE
  5
7D4
330
1E
100
AcDbEntity
  8
0
100
AcDbLine
 10
416.1159999999999
 20
760.8889999999998
 30
0.0
 11
416.1159999999999
 21
762.1749999999999
 31
0.0
  0
LINE
  5
7D5
330
1E
100
AcDbEntity
  8
0
100
AcDbLine
 10
416.1159999999999
 20
760.8889999999998
 30
0.0
 11
417.1159999999999
 21
759.562
 31
0.0
  0
LINE
  5
7D6
330
1E
100
AcDbEntity
  8
0
100
AcDbLine
 10
421.4669999999999
 20
675.6669999999999
 30
0.0
 11
422.4669999999999
 21
676.9939999999999
 31
0.0
  0
LINE
  5
7D7
330
1E
100
AcDbEntity
  8
0
100
AcDbLine
 10
418.634
 20
695.5839999999999
 30
0.0
 11
420.366
 21
696.35
 31
0.0
  0
LINE
  5
7D8
330
1E
100
AcDbEntity
  8
0
100
AcDbLine
 10
418.634
 20
695.5839999999999
 30
0.0
 11
419.634
 21
694.2569999999999
 31
0.0
  0
LINE
  5
7D9
330
1E
100
AcDbEntity
  8
0
100
AcDbLine
 10
419.634
 20
694.2569999999999
 30
0.0
 11
421.3659999999999
 21
695.023
 31
0.0
  0
LINE
  5
7DA
330
1E
100
AcDbEntity
  8
0
100
AcDbLine
 10
418.634
 20
728.8569999999999
 30
0.0
 11
420.366
 21
728.091
 31
0.0
  0
LINE
  5
7DB
330
1E
100
AcDbEntity
  8
0
100
AcDbLine
 10
418.634
 20
728.8569999999999
 30
0.0
 11
419.634
 21
730.1839999999999
 31
0.0
  0
LINE
  5
7DC
330
1E
100
AcDbEntity
  8
0
100
AcDbLine
 10
419.7359999999999
 20
749.768755384615
 30
0.0
 11
419.7359999999999
 21
749.293
 31
0.0
  0
LINE
  5
7DD
330
1E
100
AcDbEntity
  8
0
100
AcDbLine
 10
419.7359999999999
 20
749.293
 30
0.0
 11
421.4669999999999
 21
750.0589999999999
 31
0.0
  0
LINE
  5
7DE
330
1E
100
AcDbEntity
  8
0
100
AcDbLine
 10
419.7359999999999
 20
749.293
 30
0.0
 11
419.7359999999999
 21
749.768755384615
 31
0.0
  0
LINE
  5
7DF
330
1E
100
AcDbEntity
  8
0
100
AcDbLine
 10
419.7359999999999
 20
749.293
 30
0.0
 11
420.7359999999999
 21
747.9659999999999
 31
0.0
  0
LINE
  5
7E0
330
1E
100
AcDbEntity
  8
0
100
AcDbLine
 10
419.634
 20
730.1839999999999
 30
0.0
 11
421.3659999999999
 21
729.4179999999999
 31
0.0
  0
LINE
  5
7E1
330
1E
100
AcDbEntity
  8
0
100
AcDbLine
 10
420.7359999999999
 20
677.7599999999999
 30
0.0
 11
420.7359999999999
 21
677.989550232558
 31
0.0
  0
LINE
  5
7E2
330
1E
100
AcDbEntity
  8
0
100
AcDbLine
 10
420.7359999999999
 20
677.7599999999999
 30
0.0
 11
422.4669999999999
 21
676.9939999999999
 31
0.0
  0
LINE
  5
7E3
330
1E
100
AcDbEntity
  8
0
100
AcDbLine
 10
419.7499999999999
 20
712.4179999999999
 30
0.0
 11
419.7499999999999
 21
711.133
 31
0.0
  0
LINE
  5
7E4
330
1E
100
AcDbEntity
  8
0
100
AcDbLine
 10
419.7499999999999
 20
711.133
 30
0.0
 11
419.7499999999999
 21
712.6649999999999
 31
0.0
  0
LINE
  5
7E5
330
1E
100
AcDbEntity
  8
0
100
AcDbLine
 10
419.7499999999999
 20
711.133
 30
0.0
 11
421.75
 21
711.133
 31
0.0
  0
LINE
  5
7E6
330
1E
100
AcDbEntity
  8
0
100
AcDbLine
 10
419.7499999999999
 20
711.133
 30
0.0
 11
419.7499999999999
 21
712.4179999999999
 31
0.0
  0
LINE
  5
7E7
330
1E
100
AcDbEntity
  8
0
100
AcDbLine
 10
419.7499999999999
 20
713.8151213872831
 30
0.0
 11
419.7499999999999
 21
712.6649999999999
 31
0.0
  0
LINE
  5
7E8
330
1E
100
AcDbEntity
  8
0
100
AcDbLine
 10
419.7499999999999
 20
712.6649999999999
 30
0.0
 11
421.75
 21
712.6649999999999
 31
0.0
  0
LINE
  5
7E9
330
1E
100
AcDbEntity
  8
0
100
AcDbLine
 10
419.7499999999999
 20
712.6649999999999
 30
0.0
 11
419.7499999999999
 21
713.8151213872831
 31
0.0
  0
LINE
  5
7EA
330
1E
100
AcDbEntity
  8
0
100
AcDbLine
 10
419.7499999999999
 20
712.6649999999999
 30
0.0
 11
419.7499999999999
 21
711.133
 31
0.0
  0
LINE
  5
7EB
330
1E
100
AcDbEntity
  8
0
100
AcDbLine
 10
420.366
 20
697.3440496842109
 30
0.0
 11
420.366
 21
696.35
 31
0.0
  0
LINE
  5
7EC
330
1E
100
AcDbEntity
  8
0
100
AcDbLine
 10
420.366
 20
696.35
 30
0.0
 11
421.3659999999999
 21
695.023
 31
0.0
  0
LINE
  5
7ED
330
1E
100
AcDbEntity
  8
0
100
AcDbLine
 10
420.366
 20
696.35
 30
0.0
 11
420.366
 21
697.3440496842109
 31
0.0
  0
LINE
  5
7EE
330
1E
100
AcDbEntity
  8
0
100
AcDbLine
 10
421.75
 20
711.133
 30
0.0
 11
421.75
 21
712.6649999999999
 31
0.0
  0
LINE
  5
7EF
330
1E
100
AcDbEntity
  8
0
100
AcDbLine
 10
421.4669999999999
 20
750.0589999999999
 30
0.0
 11
422.4669999999999
 21
748.7319999999999
 31
0.0
  0
LINE
  5
7F0
330
1E
100
AcDbEntity
  8
0
100
AcDbLine
 10
420.7359999999999
 20
747.9659999999999
 30
0.0
 11
422.4669999999999
 21
748.7319999999999
 31
0.0
  0
LINE
  5
7F1
330
1E
100
AcDbEntity
  8
0
100
AcDbLine
 10
421.75
 20
713.95
 30
0.0
 11
421.75
 21
712.6649999999999
 31
0.0
  0
LINE
  5
7F2
330
1E
100
AcDbEntity
  8
0
100
AcDbLine
 10
421.75
 20
712.6649999999999
 30
0.0
 11
421.75
 21
711.133
 31
0.0
  0
LINE
  5
7F3
330
1E
100
AcDbEntity
  8
0
100
AcDbLine
 10
421.75
 20
712.6649999999999
 30
0.0
 11
421.75
 21
713.95
 31
0.0
  0
LINE
  5
7F4
330
1E
100
AcDbEntity
  8
0
100
AcDbLine
 10
420.366
 20
728.091
 30
0.0
 11
421.3659999999999
 21
729.4179999999999
 31
0.0
  0
LINE
  5
7F5
330
1E
100
AcDbEntity
  8
0
100
AcDbLine
 10
420.7359999999999
 20
677.989550232558
 30
0.0
 11
420.7359999999999
 21
677.7599999999999
 31
0.0
  0
LINE
  5
7F6
330
1E
100
AcDbEntity
  8
0
100
AcDbLine
 10
419.7359999999999
 20
676.8592215384619
 30
0.0
 11
419.7359999999999
 21
676.433
 31
0.0
  0
LINE
  5
7F7
330
1E
100
AcDbEntity
  8
0
100
AcDbLine
 10
419.7359999999999
 20
676.433
 30
0.0
 11
421.4669999999999
 21
675.6669999999999
 31
0.0
  0
LINE
  5
7F8
330
1E
100
AcDbEntity
  8
0
100
AcDbLine
 10
419.7359999999999
 20
676.433
 30
0.0
 11
420.7359999999999
 21
677.7599999999999
 31
0.0
  0
LINE
  5
7F9
330
1E
100
AcDbEntity
  8
0
100
AcDbLine
 10
419.7359999999999
 20
676.433
 30
0.0
 11
419.7359999999999
 21
676.8592215384619
 31
0.0
  0
LINE
  5
7FA
330
1E
100
AcDbEntity
  8
0
100
AcDbLine
 10
416.1159999999999
 20
665.48
 30
0.0
 11
417.1159999999999
 21
666.807
 31
0.0
  0
LINE
  5
7FB
330
1E
100
AcDbEntity
  8
0
100
AcDbLine
 10
416.1159999999999
 20
762.1749999999999
 30
0.0
 11
416.1159999999999
 21
760.8889999999998
 31
0.0
  0
LINE
  5
7FC
330
1E
100
AcDbEntity
  8
0
100
AcDbLine
 10
422.85
 20
761.475
 30
0.0
 11
431.85
 21
759.4069999999999
 31
0.0
  0
LINE
  5
7FD
330
1E
100
AcDbEntity
  8
0
100
AcDbLine
 10
416.0499999999999
 20
766.408
 30
0.0
 11
424.95
 21
765.029
 31
0.0
  0
LINE
  5
7FE
330
1E
100
AcDbEntity
  8
0
100
AcDbLine
 10
416.0499999999999
 20
779.906
 30
0.0
 11
424.95
 21
778.5269999999999
 31
0.0
  0
LINE
  5
7FF
330
1E
100
AcDbEntity
  8
0
100
AcDbLine
 10
424.2499999999999
 20
763.6969999999999
 30
0.0
 11
433.0499999999999
 21
761.475
 31
0.0
  0
LINE
  5
800
330
1E
100
AcDbEntity
  8
0
100
AcDbLine
 10
422.85
 20
666.1789999999999
 30
0.0
 11
431.85
 21
668.248
 31
0.0
  0
LINE
  5
801
330
1E
100
AcDbEntity
  8
0
100
AcDbLine
 10
415.7499999999999
 20
664.8769999999999
 30
0.0
 11
422.85
 21
666.1789999999999
 31
0.0
  0
LINE
  5
802
330
1E
100
AcDbEntity
  8
0
100
AcDbLine
 10
424.634
 20
688.7186934999999
 30
0.0
 11
424.634
 21
687.9439999999999
 31
0.0
  0
LINE
  5
803
330
1E
100
AcDbEntity
  8
0
100
AcDbLine
 10
424.634
 20
687.9439999999999
 30
0.0
 11
426.3659999999999
 21
688.71
 31
0.0
  0
LINE
  5
804
330
1E
100
AcDbEntity
  8
0
100
AcDbLine
 10
424.634
 20
687.9439999999999
 30
0.0
 11
425.6339999999999
 21
686.6169999999999
 31
0.0
  0
LINE
  5
805
330
1E
100
AcDbEntity
  8
0
100
AcDbLine
 10
424.634
 20
687.9439999999999
 30
0.0
 11
424.634
 21
688.7186934999999
 31
0.0
  0
LINE
  5
806
330
1E
100
AcDbEntity
  8
0
100
AcDbLine
 10
424.634
 20
737.2230329999999
 30
0.0
 11
424.634
 21
737.1389999999998
 31
0.0
  0
LINE
  5
807
330
1E
100
AcDbEntity
  8
0
100
AcDbLine
 10
424.634
 20
737.1389999999998
 30
0.0
 11
426.3659999999999
 21
736.373
 31
0.0
  0
LINE
  5
808
330
1E
100
AcDbEntity
  8
0
100
AcDbLine
 10
424.634
 20
737.1389999999998
 30
0.0
 11
425.6339999999999
 21
738.466
 31
0.0
  0
LINE
  5
809
330
1E
100
AcDbEntity
  8
0
100
AcDbLine
 10
424.634
 20
737.1389999999998
 30
0.0
 11
424.634
 21
737.2230329999999
 31
0.0
  0
LINE
  5
80A
330
1E
100
AcDbEntity
  8
0
100
AcDbLine
 10
424.95
 20
765.029
 30
0.0
 11
433.45
 21
762.8839999999999
 31
0.0
  0
LINE
  5
80B
330
1E
100
AcDbEntity
  8
0
100
AcDbLine
 10
424.95
 20
778.5269999999999
 30
0.0
 11
433.45
 21
776.383
 31
0.0
  0
LINE
  5
80C
330
1E
100
AcDbEntity
  8
0
100
AcDbLine
 10
424.2499999999999
 20
663.9580000000001
 30
0.0
 11
433.0499999999999
 21
666.1789999999999
 31
0.0
  0
LINE
  5
80D
330
1E
100
AcDbEntity
  8
0
100
AcDbLine
 10
415.9499999999999
 20
662.6549999999999
 30
0.0
 11
424.2499999999999
 21
663.9580000000001
 31
0.0
  0
LINE
  5
80E
330
1E
100
AcDbEntity
  8
0
100
AcDbLine
 10
428.5
 20
667.768
 30
0.0
 11
429.4999999999999
 21
669.095
 31
0.0
  0
LINE
  5
80F
330
1E
100
AcDbEntity
  8
0
100
AcDbLine
 10
426.3659999999999
 20
688.71
 30
0.0
 11
427.3659999999999
 21
687.383
 31
0.0
  0
LINE
  5
810
330
1E
100
AcDbEntity
  8
0
100
AcDbLine
 10
425.6339999999999
 20
686.6169999999999
 30
0.0
 11
427.3659999999999
 21
687.383
 31
0.0
  0
LINE
  5
811
330
1E
100
AcDbEntity
  8
0
100
AcDbLine
 10
427.416
 20
702.302126196078
 30
0.0
 11
427.416
 21
701.4860000000001
 31
0.0
  0
LINE
  5
812
330
1E
100
AcDbEntity
  8
0
100
AcDbLine
 10
427.416
 20
701.4860000000001
 30
0.0
 11
427.416
 21
703.018
 31
0.0
  0
LINE
  5
813
330
1E
100
AcDbEntity
  8
0
100
AcDbLine
 10
427.416
 20
701.4860000000001
 30
0.0
 11
429.4159999999999
 21
701.4860000000001
 31
0.0
  0
LINE
  5
814
330
1E
100
AcDbEntity
  8
0
100
AcDbLine
 10
427.416
 20
701.4860000000001
 30
0.0
 11
427.416
 21
702.302126196078
 31
0.0
  0
LINE
  5
815
330
1E
100
AcDbEntity
  8
0
100
AcDbLine
 10
427.416
 20
703.808106942149
 30
0.0
 11
427.416
 21
703.018
 31
0.0
  0
LINE
  5
816
330
1E
100
AcDbEntity
  8
0
100
AcDbLine
 10
427.416
 20
703.018
 30
0.0
 11
429.4159999999999
 21
703.018
 31
0.0
  0
LINE
  5
817
330
1E
100
AcDbEntity
  8
0
100
AcDbLine
 10
427.416
 20
703.018
 30
0.0
 11
427.416
 21
703.808106942149
 31
0.0
  0
LINE
  5
818
330
1E
100
AcDbEntity
  8
0
100
AcDbLine
 10
427.416
 20
703.018
 30
0.0
 11
427.416
 21
701.4860000000001
 31
0.0
  0
LINE
  5
819
330
1E
100
AcDbEntity
  8
0
100
AcDbLine
 10
426.3659999999999
 20
736.373
 30
0.0
 11
427.3659999999999
 21
737.7
 31
0.0
  0
LINE
  5
81A
330
1E
100
AcDbEntity
  8
0
100
AcDbLine
 10
426.768
 20
757.835
 30
0.0
 11
428.5
 21
758.6010000000001
 31
0.0
  0
LINE
  5
81B
330
1E
100
AcDbEntity
  8
0
100
AcDbLine
 10
426.768
 20
757.835
 30
0.0
 11
427.768
 21
756.508
 31
0.0
  0
LINE
  5
81C
330
1E
100
AcDbEntity
  8
0
100
AcDbLine
 10
425.6339999999999
 20
738.466
 30
0.0
 11
427.3659999999999
 21
737.7
 31
0.0
  0
LINE
  5
81D
330
1E
100
AcDbEntity
  8
0
100
AcDbLine
 10
427.416
 20
723.097631058824
 30
0.0
 11
427.416
 21
722.955
 31
0.0
  0
LINE
  5
81E
330
1E
100
AcDbEntity
  8
0
100
AcDbLine
 10
427.416
 20
722.955
 30
0.0
 11
427.416
 21
721.423
 31
0.0
  0
LINE
  5
81F
330
1E
100
AcDbEntity
  8
0
100
AcDbLine
 10
427.416
 20
722.955
 30
0.0
 11
429.4159999999999
 21
722.955
 31
0.0
  0
LINE
  5
820
330
1E
100
AcDbEntity
  8
0
100
AcDbLine
 10
427.416
 20
722.955
 30
0.0
 11
427.416
 21
723.097631058824
 31
0.0
  0
LINE
  5
821
330
1E
100
AcDbEntity
  8
0
100
AcDbLine
 10
427.768
 20
756.508
 30
0.0
 11
429.4999999999999
 21
757.2739999999998
 31
0.0
  0
LINE
  5
822
330
1E
100
AcDbEntity
  8
0
100
AcDbLine
 10
427.416
 20
721.5387887603309
 30
0.0
 11
427.416
 21
721.423
 31
0.0
  0
LINE
  5
823
330
1E
100
AcDbEntity
  8
0
100
AcDbLine
 10
427.416
 20
721.423
 30
0.0
 11
429.4159999999999
 21
721.423
 31
0.0
  0
LINE
  5
824
330
1E
100
AcDbEntity
  8
0
100
AcDbLine
 10
427.416
 20
721.423
 30
0.0
 11
427.416
 21
721.5387887603309
 31
0.0
  0
LINE
  5
825
330
1E
100
AcDbEntity
  8
0
100
AcDbLine
 10
427.416
 20
721.423
 30
0.0
 11
427.416
 21
722.955
 31
0.0
  0
LINE
  5
826
330
1E
100
AcDbEntity
  8
0
100
AcDbLine
 10
429.4999999999999
 20
669.095
 30
0.0
 11
429.4999999999999
 21
670.3078023255809
 31
0.0
  0
LINE
  5
827
330
1E
100
AcDbEntity
  8
0
100
AcDbLine
 10
429.4159999999999
 20
701.4860000000001
 30
0.0
 11
429.4159999999999
 21
703.018
 31
0.0
  0
LINE
  5
828
330
1E
100
AcDbEntity
  8
0
100
AcDbLine
 10
429.4159999999999
 20
703.018
 30
0.0
 11
429.4159999999999
 21
701.4860000000001
 31
0.0
  0
LINE
  5
829
330
1E
100
AcDbEntity
  8
0
100
AcDbLine
 10
428.5
 20
759.8860000000001
 30
0.0
 11
428.5
 21
758.6010000000001
 31
0.0
  0
LINE
  5
82A
330
1E
100
AcDbEntity
  8
0
100
AcDbLine
 10
428.5
 20
758.6010000000001
 30
0.0
 11
428.5
 21
759.8860000000001
 31
0.0
  0
LINE
  5
82B
330
1E
100
AcDbEntity
  8
0
100
AcDbLine
 10
428.5
 20
758.6010000000001
 30
0.0
 11
429.4999999999999
 21
757.2739999999998
 31
0.0
  0
LINE
  5
82C
330
1E
100
AcDbEntity
  8
0
100
AcDbLine
 10
429.4159999999999
 20
723.875042823529
 30
0.0
 11
429.4159999999999
 21
722.955
 31
0.0
  0
LINE
  5
82D
330
1E
100
AcDbEntity
  8
0
100
AcDbLine
 10
429.4159999999999
 20
722.955
 30
0.0
 11
429.4159999999999
 21
723.875042823529
 31
0.0
  0
LINE
  5
82E
330
1E
100
AcDbEntity
  8
0
100
AcDbLine
 10
429.4159999999999
 20
722.955
 30
0.0
 11
429.4159999999999
 21
721.423
 31
0.0
  0
LINE
  5
82F
330
1E
100
AcDbEntity
  8
0
100
AcDbLine
 10
430.634
 20
680.3049999999999
 30
0.0
 11
432.366
 21
681.071
 31
0.0
  0
LINE
  5
830
330
1E
100
AcDbEntity
  8
0
100
AcDbLine
 10
430.634
 20
680.3049999999999
 30
0.0
 11
431.634
 21
678.978
 31
0.0
  0
LINE
  5
831
330
1E
100
AcDbEntity
  8
0
100
AcDbLine
 10
431.634
 20
678.978
 30
0.0
 11
433.366
 21
679.7439999999999
 31
0.0
  0
LINE
  5
832
330
1E
100
AcDbEntity
  8
0
100
AcDbLine
 10
431.7499999999999
 20
711.4539999999999
 30
0.0
 11
431.7499999999999
 21
712.986
 31
0.0
  0
LINE
  5
833
330
1E
100
AcDbEntity
  8
0
100
AcDbLine
 10
431.7499999999999
 20
711.4539999999999
 30
0.0
 11
433.75
 21
711.4539999999999
 31
0.0
  0
LINE
  5
834
330
1E
100
AcDbEntity
  8
0
100
AcDbLine
 10
431.7499999999999
 20
714.0180425531919
 30
0.0
 11
431.7499999999999
 21
712.986
 31
0.0
  0
LINE
  5
835
330
1E
100
AcDbEntity
  8
0
100
AcDbLine
 10
431.7499999999999
 20
712.986
 30
0.0
 11
433.75
 21
712.986
 31
0.0
  0
LINE
  5
836
330
1E
100
AcDbEntity
  8
0
100
AcDbLine
 10
431.7499999999999
 20
712.986
 30
0.0
 11
431.7499999999999
 21
714.0180425531919
 31
0.0
  0
LINE
  5
837
330
1E
100
AcDbEntity
  8
0
100
AcDbLine
 10
431.7499999999999
 20
712.986
 30
0.0
 11
431.7499999999999
 21
711.4539999999999
 31
0.0
  0
LINE
  5
838
330
1E
100
AcDbEntity
  8
0
100
AcDbLine
 10
430.634
 20
745.422
 30
0.0
 11
432.366
 21
744.656
 31
0.0
  0
LINE
  5
839
330
1E
100
AcDbEntity
  8
0
100
AcDbLine
 10
430.634
 20
745.422
 30
0.0
 11
431.634
 21
746.7480000000001
 31
0.0
  0
LINE
  5
83A
330
1E
100
AcDbEntity
  8
0
100
AcDbLine
 10
431.634
 20
746.7480000000001
 30
0.0
 11
433.366
 21
745.9819999999999
 31
0.0
  0
LINE
  5
83B
330
1E
100
AcDbEntity
  8
0
100
AcDbLine
 10
429.4159999999999
 20
721.423
 30
0.0
 11
429.4159999999999
 21
722.955
 31
0.0
  0
LINE
  5
83C
330
1E
100
AcDbEntity
  8
0
100
AcDbLine
 10
429.4999999999999
 20
670.3078023255809
 30
0.0
 11
429.4999999999999
 21
669.095
 31
0.0
  0
LINE
  5
83D
330
1E
100
AcDbEntity
  8
0
100
AcDbLine
 10
427.768
 20
669.8610000000001
 30
0.0
 11
429.4999999999999
 21
669.095
 31
0.0
  0
LINE
  5
83E
330
1E
100
AcDbEntity
  8
0
100
AcDbLine
 10
426.768
 20
668.534
 30
0.0
 11
428.5
 21
667.768
 31
0.0
  0
LINE
  5
83F
330
1E
100
AcDbEntity
  8
0
100
AcDbLine
 10
426.768
 20
668.534
 30
0.0
 11
427.768
 21
669.8610000000001
 31
0.0
  0
LINE
  5
840
330
1E
100
AcDbEntity
  8
0
100
AcDbLine
 10
432.366
 20
681.78375030303
 30
0.0
 11
432.366
 21
681.071
 31
0.0
  0
LINE
  5
841
330
1E
100
AcDbEntity
  8
0
100
AcDbLine
 10
432.366
 20
681.071
 30
0.0
 11
433.366
 21
679.7439999999999
 31
0.0
  0
LINE
  5
842
330
1E
100
AcDbEntity
  8
0
100
AcDbLine
 10
432.366
 20
681.071
 30
0.0
 11
432.366
 21
681.78375030303
 31
0.0
  0
LINE
  5
843
330
1E
100
AcDbEntity
  8
0
100
AcDbLine
 10
432.366
 20
744.656
 30
0.0
 11
433.366
 21
745.9819999999999
 31
0.0
  0
LINE
  5
844
330
1E
100
AcDbEntity
  8
0
100
AcDbLine
 10
431.85
 20
759.4069999999999
 30
0.0
 11
439.35
 21
756.6489999999999
 31
0.0
  0
LINE
  5
845
330
1E
100
AcDbEntity
  8
0
100
AcDbLine
 10
433.0499999999999
 20
761.475
 30
0.0
 11
440.85
 21
758.641
 31
0.0
  0
LINE
  5
846
330
1E
100
AcDbEntity
  8
0
100
AcDbLine
 10
433.5259999999999
 20
692.946
 30
0.0
 11
433.5259999999999
 21
694.478
 31
0.0
  0
LINE
  5
847
330
1E
100
AcDbEntity
  8
0
100
AcDbLine
 10
433.5259999999999
 20
692.946
 30
0.0
 11
435.526
 21
692.946
 31
0.0
  0
LINE
  5
848
330
1E
100
AcDbEntity
  8
0
100
AcDbLine
 10
433.5259999999999
 20
694.478
 30
0.0
 11
435.526
 21
694.478
 31
0.0
  0
LINE
  5
849
330
1E
100
AcDbEntity
  8
0
100
AcDbLine
 10
433.5259999999999
 20
694.478
 30
0.0
 11
433.5259999999999
 21
692.946
 31
0.0
  0
LINE
  5
84A
330
1E
100
AcDbEntity
  8
0
100
AcDbLine
 10
433.75
 20
711.4539999999999
 30
0.0
 11
433.75
 21
712.986
 31
0.0
  0
LINE
  5
84B
330
1E
100
AcDbEntity
  8
0
100
AcDbLine
 10
433.75
 20
713.938609929078
 30
0.0
 11
433.75
 21
712.986
 31
0.0
  0
LINE
  5
84C
330
1E
100
AcDbEntity
  8
0
100
AcDbLine
 10
435.526
 20
692.946
 30
0.0
 11
435.526
 21
694.478
 31
0.0
  0
LINE
  5
84D
330
1E
100
AcDbEntity
  8
0
100
AcDbLine
 10
435.526
 20
694.478
 30
0.0
 11
435.526
 21
692.946
 31
0.0
  0
LINE
  5
84E
330
1E
100
AcDbEntity
  8
0
100
AcDbLine
 10
433.75
 20
712.986
 30
0.0
 11
433.75
 21
711.4539999999999
 31
0.0
  0
LINE
  5
84F
330
1E
100
AcDbEntity
  8
0
100
AcDbLine
 10
433.75
 20
712.986
 30
0.0
 11
433.75
 21
713.938609929078
 31
0.0
  0
LINE
  5
850
330
1E
100
AcDbEntity
  8
0
100
AcDbLine
 10
433.5259999999999
 20
733.1227821319799
 30
0.0
 11
433.5259999999999
 21
732.1369999999999
 31
0.0
  0
LINE
  5
851
330
1E
100
AcDbEntity
  8
0
100
AcDbLine
 10
435.526
 20
732.1369999999999
 30
0.0
 11
435.526
 21
730.6049999999999
 31
0.0
  0
LINE
  5
852
330
1E
100
AcDbEntity
  8
0
100
AcDbLine
 10
433.5259999999999
 20
732.1369999999999
 30
0.0
 11
433.5259999999999
 21
730.6049999999999
 31
0.0
  0
LINE
  5
853
330
1E
100
AcDbEntity
  8
0
100
AcDbLine
 10
433.5259999999999
 20
732.1369999999999
 30
0.0
 11
435.526
 21
732.1369999999999
 31
0.0
  0
LINE
  5
854
330
1E
100
AcDbEntity
  8
0
100
AcDbLine
 10
433.5259999999999
 20
732.1369999999999
 30
0.0
 11
433.5259999999999
 21
733.1227821319799
 31
0.0
  0
LINE
  5
855
330
1E
100
AcDbEntity
  8
0
100
AcDbLine
 10
433.5259999999999
 20
730.6049999999999
 30
0.0
 11
435.526
 21
730.6049999999999
 31
0.0
  0
LINE
  5
856
330
1E
100
AcDbEntity
  8
0
100
AcDbLine
 10
433.5259999999999
 20
730.6049999999999
 30
0.0
 11
433.5259999999999
 21
732.1369999999999
 31
0.0
  0
LINE
  5
857
330
1E
100
AcDbEntity
  8
0
100
AcDbLine
 10
436.634
 20
672.8537276190479
 30
0.0
 11
436.634
 21
672.6639999999999
 31
0.0
  0
LINE
  5
858
330
1E
100
AcDbEntity
  8
0
100
AcDbLine
 10
436.634
 20
672.6639999999999
 30
0.0
 11
438.3659999999999
 21
673.431
 31
0.0
  0
LINE
  5
859
330
1E
100
AcDbEntity
  8
0
100
AcDbLine
 10
436.634
 20
672.6639999999999
 30
0.0
 11
437.6339999999999
 21
671.338
 31
0.0
  0
LINE
  5
85A
330
1E
100
AcDbEntity
  8
0
100
AcDbLine
 10
436.634
 20
672.6639999999999
 30
0.0
 11
436.634
 21
672.8537276190479
 31
0.0
  0
LINE
  5
85B
330
1E
100
AcDbEntity
  8
0
100
AcDbLine
 10
437.6339999999999
 20
671.338
 30
0.0
 11
439.3659999999999
 21
672.1039999999999
 31
0.0
  0
LINE
  5
85C
330
1E
100
AcDbEntity
  8
0
100
AcDbLine
 10
435.526
 20
730.6049999999999
 30
0.0
 11
435.526
 21
732.1369999999999
 31
0.0
  0
LINE
  5
85D
330
1E
100
AcDbEntity
  8
0
100
AcDbLine
 10
437.6339999999999
 20
755.3309485714289
 30
0.0
 11
437.6339999999999
 21
755.031
 31
0.0
  0
LINE
  5
85E
330
1E
100
AcDbEntity
  8
0
100
AcDbLine
 10
436.634
 20
754.562853333333
 30
0.0
 11
436.634
 21
753.7039999999999
 31
0.0
  0
LINE
  5
85F
330
1E
100
AcDbEntity
  8
0
100
AcDbLine
 10
436.634
 20
753.7039999999999
 30
0.0
 11
438.3659999999999
 21
752.9379999999999
 31
0.0
  0
LINE
  5
860
330
1E
100
AcDbEntity
  8
0
100
AcDbLine
 10
436.634
 20
753.7039999999999
 30
0.0
 11
437.6339999999999
 21
755.031
 31
0.0
  0
LINE
  5
861
330
1E
100
AcDbEntity
  8
0
100
AcDbLine
 10
436.634
 20
753.7039999999999
 30
0.0
 11
436.634
 21
754.562853333333
 31
0.0
  0
LINE
  5
862
330
1E
100
AcDbEntity
  8
0
100
AcDbLine
 10
438.3659999999999
 20
673.431
 30
0.0
 11
439.3659999999999
 21
672.1039999999999
 31
0.0
  0
LINE
  5
863
330
1E
100
AcDbEntity
  8
0
100
AcDbLine
 10
438.3659999999999
 20
752.9379999999999
 30
0.0
 11
439.3659999999999
 21
754.265
 31
0.0
  0
LINE
  5
864
330
1E
100
AcDbEntity
  8
0
100
AcDbLine
 10
437.6339999999999
 20
755.031
 30
0.0
 11
437.6339999999999
 21
755.3309485714289
 31
0.0
  0
LINE
  5
865
330
1E
100
AcDbEntity
  8
0
100
AcDbLine
 10
437.6339999999999
 20
755.031
 30
0.0
 11
439.3659999999999
 21
754.265
 31
0.0
  0
LINE
  5
866
330
1E
100
AcDbEntity
  8
0
100
AcDbLine
 10
439.35
 20
756.6489999999999
 30
0.0
 11
446.45
 21
752.972
 31
0.0
  0
LINE
  5
867
330
1E
100
AcDbEntity
  8
0
100
AcDbLine
 10
433.45
 20
762.8839999999999
 30
0.0
 11
441.3499999999999
 21
759.896
 31
0.0
  0
LINE
  5
868
330
1E
100
AcDbEntity
  8
0
100
AcDbLine
 10
433.45
 20
776.383
 30
0.0
 11
441.3499999999999
 21
773.395
 31
0.0
  0
LINE
  5
869
330
1E
100
AcDbEntity
  8
0
100
AcDbLine
 10
439.3659999999999
 20
672.1039999999999
 30
0.0
 11
439.3659999999999
 21
673.3889999999998
 31
0.0
  0
LINE
  5
86A
330
1E
100
AcDbEntity
  8
0
100
AcDbLine
 10
439.3659999999999
 20
673.3889999999998
 30
0.0
 11
439.3659999999999
 21
672.1039999999999
 31
0.0
  0
LINE
  5
86B
330
1E
100
AcDbEntity
  8
0
100
AcDbLine
 10
439.3659999999999
 20
754.265
 30
0.0
 11
439.3659999999999
 21
755.5499999999999
 31
0.0
  0
LINE
  5
86C
330
1E
100
AcDbEntity
  8
0
100
AcDbLine
 10
440.1919999999999
 20
684.833
 30
0.0
 11
440.1919999999999
 21
686.3649999999999
 31
0.0
  0
LINE
  5
86D
330
1E
100
AcDbEntity
  8
0
100
AcDbLine
 10
440.1919999999999
 20
684.833
 30
0.0
 11
442.1919999999999
 21
684.833
 31
0.0
  0
LINE
  5
86E
330
1E
100
AcDbEntity
  8
0
100
AcDbLine
 10
440.1919999999999
 20
686.3649999999999
 30
0.0
 11
442.1919999999999
 21
686.3649999999999
 31
0.0
  0
LINE
  5
86F
330
1E
100
AcDbEntity
  8
0
100
AcDbLine
 10
440.1919999999999
 20
686.3649999999999
 30
0.0
 11
440.1919999999999
 21
684.833
 31
0.0
  0
LINE
  5
870
330
1E
100
AcDbEntity
  8
0
100
AcDbLine
 10
440.7499999999999
 20
702.404
 30
0.0
 11
440.7499999999999
 21
703.936
 31
0.0
  0
LINE
  5
871
330
1E
100
AcDbEntity
  8
0
100
AcDbLine
 10
440.7499999999999
 20
702.404
 30
0.0
 11
442.75
 21
702.404
 31
0.0
  0
LINE
  5
872
330
1E
100
AcDbEntity
  8
0
100
AcDbLine
 10
440.7499999999999
 20
703.936
 30
0.0
 11
442.75
 21
703.936
 31
0.0
  0
LINE
  5
873
330
1E
100
AcDbEntity
  8
0
100
AcDbLine
 10
440.7499999999999
 20
703.936
 30
0.0
 11
440.7499999999999
 21
702.404
 31
0.0
  0
LINE
  5
874
330
1E
100
AcDbEntity
  8
0
100
AcDbLine
 10
440.7499999999999
 20
723.6128416988419
 30
0.0
 11
440.7499999999999
 21
722.6799999999999
 31
0.0
  0
LINE
  5
875
330
1E
100
AcDbEntity
  8
0
100
AcDbLine
 10
440.7499999999999
 20
722.6799999999999
 30
0.0
 11
440.7499999999999
 21
721.148
 31
0.0
  0
LINE
  5
876
330
1E
100
AcDbEntity
  8
0
100
AcDbLine
 10
440.7499999999999
 20
722.6799999999999
 30
0.0
 11
442.75
 21
722.6799999999999
 31
0.0
  0
LINE
  5
877
330
1E
100
AcDbEntity
  8
0
100
AcDbLine
 10
440.7499999999999
 20
722.6799999999999
 30
0.0
 11
440.7499999999999
 21
723.6128416988419
 31
0.0
  0
LINE
  5
878
330
1E
100
AcDbEntity
  8
0
100
AcDbLine
 10
440.7499999999999
 20
721.148
 30
0.0
 11
442.75
 21
721.148
 31
0.0
  0
LINE
  5
879
330
1E
100
AcDbEntity
  8
0
100
AcDbLine
 10
440.7499999999999
 20
721.148
 30
0.0
 11
440.7499999999999
 21
722.6799999999999
 31
0.0
  0
LINE
  5
87A
330
1E
100
AcDbEntity
  8
0
100
AcDbLine
 10
440.1919999999999
 20
740.893
 30
0.0
 11
440.1919999999999
 21
739.3610000000001
 31
0.0
  0
LINE
  5
87B
330
1E
100
AcDbEntity
  8
0
100
AcDbLine
 10
440.1919999999999
 20
740.893
 30
0.0
 11
442.1919999999999
 21
740.893
 31
0.0
  0
LINE
  5
87C
330
1E
100
AcDbEntity
  8
0
100
AcDbLine
 10
440.1919999999999
 20
739.3610000000001
 30
0.0
 11
442.1919999999999
 21
739.3610000000001
 31
0.0
  0
LINE
  5
87D
330
1E
100
AcDbEntity
  8
0
100
AcDbLine
 10
440.1919999999999
 20
739.3610000000001
 30
0.0
 11
440.1919999999999
 21
740.893
 31
0.0
  0
LINE
  5
87E
330
1E
100
AcDbEntity
  8
0
100
AcDbLine
 10
439.3659999999999
 20
755.5499999999999
 30
0.0
 11
439.3659999999999
 21
754.265
 31
0.0
  0
LINE
  5
87F
330
1E
100
AcDbEntity
  8
0
100
AcDbLine
 10
440.85
 20
758.641
 30
0.0
 11
448.2499999999999
 21
754.811
 31
0.0
  0
LINE
  5
880
330
1E
100
AcDbEntity
  8
0
100
AcDbLine
 10
439.35
 20
671.0049999999999
 30
0.0
 11
446.45
 21
674.682
 31
0.0
  0
LINE
  5
881
330
1E
100
AcDbEntity
  8
0
100
AcDbLine
 10
431.85
 20
668.248
 30
0.0
 11
439.35
 21
671.0049999999999
 31
0.0
  0
LINE
  5
882
330
1E
100
AcDbEntity
  8
0
100
AcDbLine
 10
441.3499999999999
 20
759.896
 30
0.0
 11
448.85
 21
756.066
 31
0.0
  0
LINE
  5
883
330
1E
100
AcDbEntity
  8
0
100
AcDbLine
 10
441.3499999999999
 20
773.395
 30
0.0
 11
448.85
 21
769.565
 31
0.0
  0
LINE
  5
884
330
1E
100
AcDbEntity
  8
0
100
AcDbLine
 10
440.85
 20
669.0139999999999
 30
0.0
 11
448.2499999999999
 21
672.8439999999999
 31
0.0
  0
LINE
  5
885
330
1E
100
AcDbEntity
  8
0
100
AcDbLine
 10
433.0499999999999
 20
666.1789999999999
 30
0.0
 11
440.85
 21
669.0139999999999
 31
0.0
  0
LINE
  5
886
330
1E
100
AcDbEntity
  8
0
100
AcDbLine
 10
448.2499999999999
 20
672.8439999999999
 30
0.0
 11
454.95
 21
677.2869999999999
 31
0.0
  0
LINE
  5
887
330
1E
100
AcDbEntity
  8
0
100
AcDbLine
 10
442.1919999999999
 20
684.833
 30
0.0
 11
442.1919999999999
 21
686.3649999999999
 31
0.0
  0
LINE
  5
888
330
1E
100
AcDbEntity
  8
0
100
AcDbLine
 10
442.1919999999999
 20
686.553274328358
 30
0.0
 11
442.1919999999999
 21
686.3649999999999
 31
0.0
  0
LINE
  5
889
330
1E
100
AcDbEntity
  8
0
100
AcDbLine
 10
442.1919999999999
 20
686.3649999999999
 30
0.0
 11
442.1919999999999
 21
684.833
 31
0.0
  0
LINE
  5
88A
330
1E
100
AcDbEntity
  8
0
100
AcDbLine
 10
442.1919999999999
 20
686.3649999999999
 30
0.0
 11
442.1919999999999
 21
686.553274328358
 31
0.0
  0
LINE
  5
88B
330
1E
100
AcDbEntity
  8
0
100
AcDbLine
 10
442.1919999999999
 20
740.893
 30
0.0
 11
442.1919999999999
 21
739.3610000000001
 31
0.0
  0
LINE
  5
88C
330
1E
100
AcDbEntity
  8
0
100
AcDbLine
 10
442.75
 20
702.404
 30
0.0
 11
442.75
 21
703.936
 31
0.0
  0
LINE
  5
88D
330
1E
100
AcDbEntity
  8
0
100
AcDbLine
 10
442.75
 20
703.936
 30
0.0
 11
442.75
 21
702.404
 31
0.0
  0
LINE
  5
88E
330
1E
100
AcDbEntity
  8
0
100
AcDbLine
 10
443.75
 20
712.416765957447
 30
0.0
 11
443.75
 21
711.776
 31
0.0
  0
LINE
  5
88F
330
1E
100
AcDbEntity
  8
0
100
AcDbLine
 10
443.75
 20
711.776
 30
0.0
 11
443.75
 21
713.3079999999999
 31
0.0
  0
LINE
  5
890
330
1E
100
AcDbEntity
  8
0
100
AcDbLine
 10
443.75
 20
711.776
 30
0.0
 11
445.75
 21
711.776
 31
0.0
  0
LINE
  5
891
330
1E
100
AcDbEntity
  8
0
100
AcDbLine
 10
443.75
 20
711.776
 30
0.0
 11
443.75
 21
712.416765957447
 31
0.0
  0
LINE
  5
892
330
1E
100
AcDbEntity
  8
0
100
AcDbLine
 10
445.75
 20
711.776
 30
0.0
 11
445.75
 21
713.3079999999999
 31
0.0
  0
LINE
  5
893
330
1E
100
AcDbEntity
  8
0
100
AcDbLine
 10
443.75
 20
713.3079999999999
 30
0.0
 11
445.75
 21
713.3079999999999
 31
0.0
  0
LINE
  5
894
330
1E
100
AcDbEntity
  8
0
100
AcDbLine
 10
443.75
 20
713.3079999999999
 30
0.0
 11
443.75
 21
713.5414468085111
 31
0.0
  0
LINE
  5
895
330
1E
100
AcDbEntity
  8
0
100
AcDbLine
 10
443.75
 20
713.3079999999999
 30
0.0
 11
443.75
 21
711.776
 31
0.0
  0
LINE
  5
896
330
1E
100
AcDbEntity
  8
0
100
AcDbLine
 10
443.75
 20
713.5414468085111
 30
0.0
 11
443.75
 21
713.3079999999999
 31
0.0
  0
LINE
  5
897
330
1E
100
AcDbEntity
  8
0
100
AcDbLine
 10
445.75
 20
713.4620141843969
 30
0.0
 11
445.75
 21
713.3079999999999
 31
0.0
  0
LINE
  5
898
330
1E
100
AcDbEntity
  8
0
100
AcDbLine
 10
445.969
 20
676.378
 30
0.0
 11
445.969
 21
677.9099999999999
 31
0.0
  0
LINE
  5
899
330
1E
100
AcDbEntity
  8
0
100
AcDbLine
 10
445.969
 20
676.378
 30
0.0
 11
447.9689999999999
 21
676.378
 31
0.0
  0
LINE
  5
89A
330
1E
100
AcDbEntity
  8
0
100
AcDbLine
 10
445.969
 20
677.9099999999999
 30
0.0
 11
447.9689999999999
 21
677.9099999999999
 31
0.0
  0
LINE
  5
89B
330
1E
100
AcDbEntity
  8
0
100
AcDbLine
 10
445.969
 20
677.9099999999999
 30
0.0
 11
445.969
 21
676.378
 31
0.0
  0
LINE
  5
89C
330
1E
100
AcDbEntity
  8
0
100
AcDbLine
 10
445.75
 20
713.3079999999999
 30
0.0
 11
445.75
 21
711.776
 31
0.0
  0
LINE
  5
89D
330
1E
100
AcDbEntity
  8
0
100
AcDbLine
 10
445.75
 20
713.3079999999999
 30
0.0
 11
445.75
 21
713.4620141843969
 31
0.0
  0
LINE
  5
89E
330
1E
100
AcDbEntity
  8
0
100
AcDbLine
 10
442.75
 20
722.6799999999999
 30
0.0
 11
442.75
 21
721.148
 31
0.0
  0
LINE
  5
89F
330
1E
100
AcDbEntity
  8
0
100
AcDbLine
 10
442.75
 20
721.148
 30
0.0
 11
442.75
 21
722.6799999999999
 31
0.0
  0
LINE
  5
8A0
330
1E
100
AcDbEntity
  8
0
100
AcDbLine
 10
442.1919999999999
 20
739.3610000000001
 30
0.0
 11
442.1919999999999
 21
740.893
 31
0.0
  0
LINE
  5
8A1
330
1E
100
AcDbEntity
  8
0
100
AcDbLine
 10
445.969
 20
749.99
 30
0.0
 11
445.969
 21
748.4580000000001
 31
0.0
  0
LINE
  5
8A2
330
1E
100
AcDbEntity
  8
0
100
AcDbLine
 10
445.969
 20
749.99
 30
0.0
 11
447.9689999999999
 21
749.99
 31
0.0
  0
LINE
  5
8A3
330
1E
100
AcDbEntity
  8
0
100
AcDbLine
 10
445.969
 20
748.4580000000001
 30
0.0
 11
447.9689999999999
 21
748.4580000000001
 31
0.0
  0
LINE
  5
8A4
330
1E
100
AcDbEntity
  8
0
100
AcDbLine
 10
445.969
 20
748.4580000000001
 30
0.0
 11
445.969
 21
749.99
 31
0.0
  0
LINE
  5
8A5
330
1E
100
AcDbEntity
  8
0
100
AcDbLine
 10
446.45
 20
752.972
 30
0.0
 11
452.7499999999999
 21
748.682
 31
0.0
  0
LINE
  5
8A6
330
1E
100
AcDbEntity
  8
0
100
AcDbLine
 10
447.9689999999999
 20
676.378
 30
0.0
 11
447.9689999999999
 21
677.9099999999999
 31
0.0
  0
LINE
  5
8A7
330
1E
100
AcDbEntity
  8
0
100
AcDbLine
 10
447.9689999999999
 20
677.9099999999999
 30
0.0
 11
447.9689999999999
 21
676.378
 31
0.0
  0
LINE
  5
8A8
330
1E
100
AcDbEntity
  8
0
100
AcDbLine
 10
452.7499999999999
 20
678.9719999999999
 30
0.0
 11
458.3499999999999
 21
683.7979999999999
 31
0.0
  0
LINE
  5
8A9
330
1E
100
AcDbEntity
  8
0
100
AcDbLine
 10
454.95
 20
677.2869999999999
 30
0.0
 11
460.7499999999999
 21
682.4189999999999
 31
0.0
  0
LINE
  5
8AA
330
1E
100
AcDbEntity
  8
0
100
AcDbLine
 10
460.7499999999999
 20
682.4189999999999
 30
0.0
 11
465.7499999999999
 21
688.0880000000001
 31
0.0
  0
LINE
  5
8AB
330
1E
100
AcDbEntity
  8
0
100
AcDbLine
 10
455.6499999999999
 20
677.393
 30
0.0
 11
461.5499999999999
 21
682.6030000000001
 31
0.0
  0
LINE
  5
8AC
330
1E
100
AcDbEntity
  8
0
100
AcDbLine
 10
454.748
 20
683.45
 30
0.0
 11
454.748
 21
684.982
 31
0.0
  0
LINE
  5
8AD
330
1E
100
AcDbEntity
  8
0
100
AcDbLine
 10
454.748
 20
683.45
 30
0.0
 11
456.748
 21
683.45
 31
0.0
  0
LINE
  5
8AE
330
1E
100
AcDbEntity
  8
0
100
AcDbLine
 10
456.748
 20
683.45
 30
0.0
 11
456.748
 21
684.982
 31
0.0
  0
LINE
  5
8AF
330
1E
100
AcDbEntity
  8
0
100
AcDbLine
 10
454.748
 20
684.982
 30
0.0
 11
456.748
 21
684.982
 31
0.0
  0
LINE
  5
8B0
330
1E
100
AcDbEntity
  8
0
100
AcDbLine
 10
454.748
 20
684.982
 30
0.0
 11
454.748
 21
685.7461810596029
 31
0.0
  0
LINE
  5
8B1
330
1E
100
AcDbEntity
  8
0
100
AcDbLine
 10
454.748
 20
684.982
 30
0.0
 11
454.748
 21
683.45
 31
0.0
  0
LINE
  5
8B2
330
1E
100
AcDbEntity
  8
0
100
AcDbLine
 10
454.748
 20
685.7461810596029
 30
0.0
 11
454.748
 21
684.982
 31
0.0
  0
LINE
  5
8B3
330
1E
100
AcDbEntity
  8
0
100
AcDbLine
 10
456.748
 20
684.982
 30
0.0
 11
456.748
 21
683.45
 31
0.0
  0
LINE
  5
8B4
330
1E
100
AcDbEntity
  8
0
100
AcDbLine
 10
458.3499999999999
 20
683.7979999999999
 30
0.0
 11
463.1499999999999
 21
689.2369999999999
 31
0.0
  0
LINE
  5
8B5
330
1E
100
AcDbEntity
  8
0
100
AcDbLine
 10
447.527
 20
691.819
 30
0.0
 11
447.527
 21
693.351
 31
0.0
  0
LINE
  5
8B6
330
1E
100
AcDbEntity
  8
0
100
AcDbLine
 10
447.527
 20
691.819
 30
0.0
 11
449.5269999999999
 21
691.819
 31
0.0
  0
LINE
  5
8B7
330
1E
100
AcDbEntity
  8
0
100
AcDbLine
 10
449.5269999999999
 20
691.819
 30
0.0
 11
449.5269999999999
 21
693.351
 31
0.0
  0
LINE
  5
8B8
330
1E
100
AcDbEntity
  8
0
100
AcDbLine
 10
447.527
 20
693.351
 30
0.0
 11
449.5269999999999
 21
693.351
 31
0.0
  0
LINE
  5
8B9
330
1E
100
AcDbEntity
  8
0
100
AcDbLine
 10
447.527
 20
693.351
 30
0.0
 11
447.527
 21
691.819
 31
0.0
  0
LINE
  5
8BA
330
1E
100
AcDbEntity
  8
0
100
AcDbLine
 10
449.5269999999999
 20
693.351
 30
0.0
 11
449.5269999999999
 21
691.819
 31
0.0
  0
LINE
  5
8BB
330
1E
100
AcDbEntity
  8
0
100
AcDbLine
 10
463.3049999999999
 20
691.97
 30
0.0
 11
463.3049999999999
 21
693.5019999999999
 31
0.0
  0
LINE
  5
8BC
330
1E
100
AcDbEntity
  8
0
100
AcDbLine
 10
461.305
 20
691.97
 30
0.0
 11
461.305
 21
693.5019999999999
 31
0.0
  0
LINE
  5
8BD
330
1E
100
AcDbEntity
  8
0
100
AcDbLine
 10
461.305
 20
691.97
 30
0.0
 11
463.3049999999999
 21
691.97
 31
0.0
  0
LINE
  5
8BE
330
1E
100
AcDbEntity
  8
0
100
AcDbLine
 10
461.305
 20
693.5019999999999
 30
0.0
 11
463.3049999999999
 21
693.5019999999999
 31
0.0
  0
LINE
  5
8BF
330
1E
100
AcDbEntity
  8
0
100
AcDbLine
 10
461.305
 20
693.5019999999999
 30
0.0
 11
461.305
 21
691.97
 31
0.0
  0
LINE
  5
8C0
330
1E
100
AcDbEntity
  8
0
100
AcDbLine
 10
463.3049999999999
 20
693.5019999999999
 30
0.0
 11
463.3049999999999
 21
691.97
 31
0.0
  0
LINE
  5
8C1
330
1E
100
AcDbEntity
  8
0
100
AcDbLine
 10
463.1499999999999
 20
689.2369999999999
 30
0.0
 11
466.75
 21
694.983
 31
0.0
  0
LINE
  5
8C2
330
1E
100
AcDbEntity
  8
0
100
AcDbLine
 10
465.7499999999999
 20
688.0880000000001
 30
0.0
 11
469.4499999999999
 21
694.0629999999999
 31
0.0
  0
LINE
  5
8C3
330
1E
100
AcDbEntity
  8
0
100
AcDbLine
 10
461.5499999999999
 20
682.6030000000001
 30
0.0
 11
466.55
 21
688.348
 31
0.0
  0
LINE
  5
8C4
330
1E
100
AcDbEntity
  8
0
100
AcDbLine
 10
469.4499999999999
 20
694.0629999999999
 30
0.0
 11
472.35
 21
700.804
 31
0.0
  0
LINE
  5
8C5
330
1E
100
AcDbEntity
  8
0
100
AcDbLine
 10
466.55
 20
688.348
 30
0.0
 11
470.45
 21
694.3999999999999
 31
0.0
  0
LINE
  5
8C6
330
1E
100
AcDbEntity
  8
0
100
AcDbLine
 10
455.639
 20
701.9580000000001
 30
0.0
 11
455.639
 21
703.49
 31
0.0
  0
LINE
  5
8C7
330
1E
100
AcDbEntity
  8
0
100
AcDbLine
 10
453.6389999999999
 20
701.9580000000001
 30
0.0
 11
453.6389999999999
 21
703.49
 31
0.0
  0
LINE
  5
8C8
330
1E
100
AcDbEntity
  8
0
100
AcDbLine
 10
453.6389999999999
 20
701.9580000000001
 30
0.0
 11
455.639
 21
701.9580000000001
 31
0.0
  0
LINE
  5
8C9
330
1E
100
AcDbEntity
  8
0
100
AcDbLine
 10
453.6389999999999
 20
703.49
 30
0.0
 11
455.639
 21
703.49
 31
0.0
  0
LINE
  5
8CA
330
1E
100
AcDbEntity
  8
0
100
AcDbLine
 10
453.6389999999999
 20
703.49
 30
0.0
 11
453.6389999999999
 21
703.9030543715849
 31
0.0
  0
LINE
  5
8CB
330
1E
100
AcDbEntity
  8
0
100
AcDbLine
 10
453.6389999999999
 20
703.49
 30
0.0
 11
453.6389999999999
 21
701.9580000000001
 31
0.0
  0
LINE
  5
8CC
330
1E
100
AcDbEntity
  8
0
100
AcDbLine
 10
455.639
 20
703.49
 30
0.0
 11
455.639
 21
701.9580000000001
 31
0.0
  0
LINE
  5
8CD
330
1E
100
AcDbEntity
  8
0
100
AcDbLine
 10
455.639
 20
703.49
 30
0.0
 11
455.639
 21
703.6467702185789
 31
0.0
  0
LINE
  5
8CE
330
1E
100
AcDbEntity
  8
0
100
AcDbLine
 10
465.861
 20
702.336901912568
 30
0.0
 11
465.861
 21
702.1089999999999
 31
0.0
  0
LINE
  5
8CF
330
1E
100
AcDbEntity
  8
0
100
AcDbLine
 10
467.8609999999999
 20
702.1089999999999
 30
0.0
 11
467.8609999999999
 21
703.641
 31
0.0
  0
LINE
  5
8D0
330
1E
100
AcDbEntity
  8
0
100
AcDbLine
 10
465.861
 20
702.1089999999999
 30
0.0
 11
465.861
 21
703.641
 31
0.0
  0
LINE
  5
8D1
330
1E
100
AcDbEntity
  8
0
100
AcDbLine
 10
465.861
 20
702.1089999999999
 30
0.0
 11
467.8609999999999
 21
702.1089999999999
 31
0.0
  0
LINE
  5
8D2
330
1E
100
AcDbEntity
  8
0
100
AcDbLine
 10
465.861
 20
702.1089999999999
 30
0.0
 11
465.861
 21
702.336901912568
 31
0.0
  0
LINE
  5
8D3
330
1E
100
AcDbEntity
  8
0
100
AcDbLine
 10
453.6389999999999
 20
703.9030543715849
 30
0.0
 11
453.6389999999999
 21
703.49
 31
0.0
  0
LINE
  5
8D4
330
1E
100
AcDbEntity
  8
0
100
AcDbLine
 10
455.639
 20
703.6467702185789
 30
0.0
 11
455.639
 21
703.49
 31
0.0
  0
LINE
  5
8D5
330
1E
100
AcDbEntity
  8
0
100
AcDbLine
 10
465.861
 20
703.641
 30
0.0
 11
467.8609999999999
 21
703.641
 31
0.0
  0
LINE
  5
8D6
330
1E
100
AcDbEntity
  8
0
100
AcDbLine
 10
465.861
 20
703.641
 30
0.0
 11
465.861
 21
702.1089999999999
 31
0.0
  0
LINE
  5
8D7
330
1E
100
AcDbEntity
  8
0
100
AcDbLine
 10
467.8609999999999
 20
703.641
 30
0.0
 11
467.8609999999999
 21
702.1089999999999
 31
0.0
  0
LINE
  5
8D8
330
1E
100
AcDbEntity
  8
0
100
AcDbLine
 10
466.75
 20
694.983
 30
0.0
 11
469.4499999999999
 21
701.8769999999999
 31
0.0
  0
LINE
  5
8D9
330
1E
100
AcDbEntity
  8
0
100
AcDbLine
 10
469.4499999999999
 20
701.8769999999999
 30
0.0
 11
471.15
 21
707.316
 31
0.0
  0
LINE
  5
8DA
330
1E
100
AcDbEntity
  8
0
100
AcDbLine
 10
471.15
 20
707.316
 30
0.0
 11
471.75
 21
713.827
 31
0.0
  0
LINE
  5
8DB
330
1E
100
AcDbEntity
  8
0
100
AcDbLine
 10
472.35
 20
700.804
 30
0.0
 11
474.0499999999999
 21
707.1629999999999
 31
0.0
  0
LINE
  5
8DC
330
1E
100
AcDbEntity
  8
0
100
AcDbLine
 10
470.45
 20
694.3999999999999
 30
0.0
 11
473.2499999999999
 21
700.911
 31
0.0
  0
LINE
  5
8DD
330
1E
100
AcDbEntity
  8
0
100
AcDbLine
 10
474.0499999999999
 20
707.1629999999999
 30
0.0
 11
474.75
 21
713.827
 31
0.0
  0
LINE
  5
8DE
330
1E
100
AcDbEntity
  8
0
100
AcDbLine
 10
473.2499999999999
 20
700.911
 30
0.0
 11
475.05
 21
707.7289999999999
 31
0.0
  0
LINE
  5
8DF
330
1E
100
AcDbEntity
  8
0
100
AcDbLine
 10
457.7499999999999
 20
712.0969999999999
 30
0.0
 11
457.7499999999999
 21
713.6289999999998
 31
0.0
  0
LINE
  5
8E0
330
1E
100
AcDbEntity
  8
0
100
AcDbLine
 10
455.75
 20
712.0969999999999
 30
0.0
 11
455.75
 21
713.6289999999998
 31
0.0
  0
LINE
  5
8E1
330
1E
100
AcDbEntity
  8
0
100
AcDbLine
 10
455.75
 20
712.0969999999999
 30
0.0
 11
457.7499999999999
 21
712.0969999999999
 31
0.0
  0
LINE
  5
8E2
330
1E
100
AcDbEntity
  8
0
100
AcDbLine
 10
455.75
 20
713.6289999999998
 30
0.0
 11
457.7499999999999
 21
713.6289999999998
 31
0.0
  0
LINE
  5
8E3
330
1E
100
AcDbEntity
  8
0
100
AcDbLine
 10
455.75
 20
713.6289999999998
 30
0.0
 11
455.75
 21
712.0969999999999
 31
0.0
  0
LINE
  5
8E4
330
1E
100
AcDbEntity
  8
0
100
AcDbLine
 10
457.7499999999999
 20
713.6289999999998
 30
0.0
 11
457.7499999999999
 21
712.0969999999999
 31
0.0
  0
LINE
  5
8E5
330
1E
100
AcDbEntity
  8
0
100
AcDbLine
 10
467.75
 20
712.768128205128
 30
0.0
 11
467.75
 21
712.4179999999999
 31
0.0
  0
LINE
  5
8E6
330
1E
100
AcDbEntity
  8
0
100
AcDbLine
 10
467.75
 20
712.4179999999999
 30
0.0
 11
467.75
 21
713.95
 31
0.0
  0
LINE
  5
8E7
330
1E
100
AcDbEntity
  8
0
100
AcDbLine
 10
467.75
 20
712.4179999999999
 30
0.0
 11
469.7499999999999
 21
712.4179999999999
 31
0.0
  0
LINE
  5
8E8
330
1E
100
AcDbEntity
  8
0
100
AcDbLine
 10
467.75
 20
712.4179999999999
 30
0.0
 11
467.75
 21
712.768128205128
 31
0.0
  0
LINE
  5
8E9
330
1E
100
AcDbEntity
  8
0
100
AcDbLine
 10
469.7499999999999
 20
712.4179999999999
 30
0.0
 11
469.7499999999999
 21
713.95
 31
0.0
  0
LINE
  5
8EA
330
1E
100
AcDbEntity
  8
0
100
AcDbLine
 10
467.75
 20
713.95
 30
0.0
 11
469.7499999999999
 21
713.95
 31
0.0
  0
LINE
  5
8EB
330
1E
100
AcDbEntity
  8
0
100
AcDbLine
 10
467.75
 20
713.95
 30
0.0
 11
467.75
 21
714.622282051282
 31
0.0
  0
LINE
  5
8EC
330
1E
100
AcDbEntity
  8
0
100
AcDbLine
 10
467.75
 20
713.95
 30
0.0
 11
467.75
 21
712.4179999999999
 31
0.0
  0
LINE
  5
8ED
330
1E
100
AcDbEntity
  8
0
100
AcDbLine
 10
467.75
 20
714.622282051282
 30
0.0
 11
467.75
 21
713.95
 31
0.0
  0
LINE
  5
8EE
330
1E
100
AcDbEntity
  8
0
100
AcDbLine
 10
469.7499999999999
 20
714.2246410256411
 30
0.0
 11
469.7499999999999
 21
713.95
 31
0.0
  0
LINE
  5
8EF
330
1E
100
AcDbEntity
  8
0
100
AcDbLine
 10
469.7499999999999
 20
713.95
 30
0.0
 11
469.7499999999999
 21
712.4179999999999
 31
0.0
  0
LINE
  5
8F0
330
1E
100
AcDbEntity
  8
0
100
AcDbLine
 10
469.7499999999999
 20
713.95
 30
0.0
 11
469.7499999999999
 21
714.2246410256411
 31
0.0
  0
LINE
  5
8F1
330
1E
100
AcDbEntity
  8
0
100
AcDbLine
 10
471.15
 20
720.3389999999999
 30
0.0
 11
471.75
 21
713.827
 31
0.0
  0
LINE
  5
8F2
330
1E
100
AcDbEntity
  8
0
100
AcDbLine
 10
474.0499999999999
 20
720.4919999999999
 30
0.0
 11
474.75
 21
713.827
 31
0.0
  0
LINE
  5
8F3
330
1E
100
AcDbEntity
  8
0
100
AcDbLine
 10
453.6389999999999
 20
723.768
 30
0.0
 11
453.6389999999999
 21
722.2360000000001
 31
0.0
  0
LINE
  5
8F4
330
1E
100
AcDbEntity
  8
0
100
AcDbLine
 10
453.6389999999999
 20
723.768
 30
0.0
 11
455.639
 21
723.768
 31
0.0
  0
LINE
  5
8F5
330
1E
100
AcDbEntity
  8
0
100
AcDbLine
 10
455.639
 20
723.768
 30
0.0
 11
455.639
 21
722.2360000000001
 31
0.0
  0
LINE
  5
8F6
330
1E
100
AcDbEntity
  8
0
100
AcDbLine
 10
453.6389999999999
 20
722.6408556830599
 30
0.0
 11
453.6389999999999
 21
722.2360000000001
 31
0.0
  0
LINE
  5
8F7
330
1E
100
AcDbEntity
  8
0
100
AcDbLine
 10
453.6389999999999
 20
722.2360000000001
 30
0.0
 11
455.639
 21
722.2360000000001
 31
0.0
  0
LINE
  5
8F8
330
1E
100
AcDbEntity
  8
0
100
AcDbLine
 10
453.6389999999999
 20
722.2360000000001
 30
0.0
 11
453.6389999999999
 21
722.6408556830599
 31
0.0
  0
LINE
  5
8F9
330
1E
100
AcDbEntity
  8
0
100
AcDbLine
 10
453.6389999999999
 20
722.2360000000001
 30
0.0
 11
453.6389999999999
 21
723.768
 31
0.0
  0
LINE
  5
8FA
330
1E
100
AcDbEntity
  8
0
100
AcDbLine
 10
455.639
 20
722.2360000000001
 30
0.0
 11
455.639
 21
723.768
 31
0.0
  0
LINE
  5
8FB
330
1E
100
AcDbEntity
  8
0
100
AcDbLine
 10
465.861
 20
724.26
 30
0.0
 11
465.861
 21
722.728
 31
0.0
  0
LINE
  5
8FC
330
1E
100
AcDbEntity
  8
0
100
AcDbLine
 10
465.861
 20
724.26
 30
0.0
 11
467.8609999999999
 21
724.26
 31
0.0
  0
LINE
  5
8FD
330
1E
100
AcDbEntity
  8
0
100
AcDbLine
 10
465.861
 20
724.26
 30
0.0
 11
465.861
 21
725.065887486339
 31
0.0
  0
LINE
  5
8FE
330
1E
100
AcDbEntity
  8
0
100
AcDbLine
 10
465.861
 20
722.728
 30
0.0
 11
467.8609999999999
 21
722.728
 31
0.0
  0
LINE
  5
8FF
330
1E
100
AcDbEntity
  8
0
100
AcDbLine
 10
465.861
 20
722.728
 30
0.0
 11
465.861
 21
724.26
 31
0.0
  0
LINE
  5
900
330
1E
100
AcDbEntity
  8
0
100
AcDbLine
 10
447.527
 20
732.375
 30
0.0
 11
449.5269999999999
 21
732.375
 31
0.0
  0
LINE
  5
901
330
1E
100
AcDbEntity
  8
0
100
AcDbLine
 10
447.527
 20
732.375
 30
0.0
 11
447.527
 21
733.9069999999999
 31
0.0
  0
LINE
  5
902
330
1E
100
AcDbEntity
  8
0
100
AcDbLine
 10
449.5269999999999
 20
732.375
 30
0.0
 11
449.5269999999999
 21
733.9069999999999
 31
0.0
  0
LINE
  5
903
330
1E
100
AcDbEntity
  8
0
100
AcDbLine
 10
467.8609999999999
 20
725.462718087432
 30
0.0
 11
467.8609999999999
 21
724.26
 31
0.0
  0
LINE
  5
904
330
1E
100
AcDbEntity
  8
0
100
AcDbLine
 10
465.861
 20
725.065887486339
 30
0.0
 11
465.861
 21
724.26
 31
0.0
  0
LINE
  5
905
330
1E
100
AcDbEntity
  8
0
100
AcDbLine
 10
467.8609999999999
 20
724.26
 30
0.0
 11
467.8609999999999
 21
725.462718087432
 31
0.0
  0
LINE
  5
906
330
1E
100
AcDbEntity
  8
0
100
AcDbLine
 10
467.8609999999999
 20
724.26
 30
0.0
 11
467.8609999999999
 21
722.728
 31
0.0
  0
LINE
  5
907
330
1E
100
AcDbEntity
  8
0
100
AcDbLine
 10
467.8609999999999
 20
722.728
 30
0.0
 11
467.8609999999999
 21
724.26
 31
0.0
  0
LINE
  5
908
330
1E
100
AcDbEntity
  8
0
100
AcDbLine
 10
461.305
 20
732.8660000000001
 30
0.0
 11
463.3049999999999
 21
732.8660000000001
 31
0.0
  0
LINE
  5
909
330
1E
100
AcDbEntity
  8
0
100
AcDbLine
 10
461.305
 20
732.8660000000001
 30
0.0
 11
461.305
 21
734.3989999999998
 31
0.0
  0
LINE
  5
90A
330
1E
100
AcDbEntity
  8
0
100
AcDbLine
 10
463.3049999999999
 20
732.8660000000001
 30
0.0
 11
463.3049999999999
 21
734.3989999999998
 31
0.0
  0
LINE
  5
90B
330
1E
100
AcDbEntity
  8
0
100
AcDbLine
 10
466.75
 20
732.672
 30
0.0
 11
469.4499999999999
 21
725.778
 31
0.0
  0
LINE
  5
90C
330
1E
100
AcDbEntity
  8
0
100
AcDbLine
 10
469.4499999999999
 20
725.778
 30
0.0
 11
471.15
 21
720.3389999999999
 31
0.0
  0
LINE
  5
90D
330
1E
100
AcDbEntity
  8
0
100
AcDbLine
 10
449.5269999999999
 20
733.9069999999999
 30
0.0
 11
449.5269999999999
 21
732.375
 31
0.0
  0
LINE
  5
90E
330
1E
100
AcDbEntity
  8
0
100
AcDbLine
 10
447.527
 20
733.9069999999999
 30
0.0
 11
447.527
 21
732.375
 31
0.0
  0
LINE
  5
90F
330
1E
100
AcDbEntity
  8
0
100
AcDbLine
 10
447.527
 20
733.9069999999999
 30
0.0
 11
449.5269999999999
 21
733.9069999999999
 31
0.0
  0
LINE
  5
910
330
1E
100
AcDbEntity
  8
0
100
AcDbLine
 10
461.305
 20
734.3989999999998
 30
0.0
 11
461.305
 21
732.8660000000001
 31
0.0
  0
LINE
  5
911
330
1E
100
AcDbEntity
  8
0
100
AcDbLine
 10
461.305
 20
734.3989999999998
 30
0.0
 11
463.3049999999999
 21
734.3989999999998
 31
0.0
  0
LINE
  5
912
330
1E
100
AcDbEntity
  8
0
100
AcDbLine
 10
463.3049999999999
 20
734.3989999999998
 30
0.0
 11
463.3049999999999
 21
735.684
 31
0.0
  0
LINE
  5
913
330
1E
100
AcDbEntity
  8
0
100
AcDbLine
 10
463.3049999999999
 20
734.3989999999998
 30
0.0
 11
463.3049999999999
 21
732.8660000000001
 31
0.0
  0
LINE
  5
914
330
1E
100
AcDbEntity
  8
0
100
AcDbLine
 10
469.4499999999999
 20
733.591
 30
0.0
 11
472.35
 21
726.85
 31
0.0
  0
LINE
  5
915
330
1E
100
AcDbEntity
  8
0
100
AcDbLine
 10
472.35
 20
726.85
 30
0.0
 11
474.0499999999999
 21
720.4919999999999
 31
0.0
  0
LINE
  5
916
330
1E
100
AcDbEntity
  8
0
100
AcDbLine
 10
470.45
 20
734.5399999999999
 30
0.0
 11
473.2499999999999
 21
728.0289999999999
 31
0.0
  0
LINE
  5
917
330
1E
100
AcDbEntity
  8
0
100
AcDbLine
 10
473.2499999999999
 20
728.0289999999999
 30
0.0
 11
475.05
 21
721.211
 31
0.0
  0
LINE
  5
918
330
1E
100
AcDbEntity
  8
0
100
AcDbLine
 10
475.05
 20
721.211
 30
0.0
 11
475.75
 21
714.47
 31
0.0
  0
LINE
  5
919
330
1E
100
AcDbEntity
  8
0
100
AcDbLine
 10
475.75
 20
714.47
 30
0.0
 11
475.75
 21
727.9689999999999
 31
0.0
  0
LINE
  5
91A
330
1E
100
AcDbEntity
  8
0
100
AcDbLine
 10
454.748
 20
742.919
 30
0.0
 11
454.748
 21
741.3869999999999
 31
0.0
  0
LINE
  5
91B
330
1E
100
AcDbEntity
  8
0
100
AcDbLine
 10
454.748
 20
742.919
 30
0.0
 11
456.748
 21
742.919
 31
0.0
  0
LINE
  5
91C
330
1E
100
AcDbEntity
  8
0
100
AcDbLine
 10
454.748
 20
741.6012911258279
 30
0.0
 11
454.748
 21
741.3869999999999
 31
0.0
  0
LINE
  5
91D
330
1E
100
AcDbEntity
  8
0
100
AcDbLine
 10
454.748
 20
741.3869999999999
 30
0.0
 11
456.748
 21
741.3869999999999
 31
0.0
  0
LINE
  5
91E
330
1E
100
AcDbEntity
  8
0
100
AcDbLine
 10
454.748
 20
741.3869999999999
 30
0.0
 11
454.748
 21
741.6012911258279
 31
0.0
  0
LINE
  5
91F
330
1E
100
AcDbEntity
  8
0
100
AcDbLine
 10
454.748
 20
741.3869999999999
 30
0.0
 11
454.748
 21
742.919
 31
0.0
  0
LINE
  5
920
330
1E
100
AcDbEntity
  8
0
100
AcDbLine
 10
456.748
 20
743.3431913684209
 30
0.0
 11
456.748
 21
742.919
 31
0.0
  0
LINE
  5
921
330
1E
100
AcDbEntity
  8
0
100
AcDbLine
 10
456.748
 20
742.919
 30
0.0
 11
456.748
 21
743.3431913684209
 31
0.0
  0
LINE
  5
922
330
1E
100
AcDbEntity
  8
0
100
AcDbLine
 10
456.748
 20
742.919
 30
0.0
 11
456.748
 21
741.3869999999999
 31
0.0
  0
LINE
  5
923
330
1E
100
AcDbEntity
  8
0
100
AcDbLine
 10
456.748
 20
741.3869999999999
 30
0.0
 11
456.748
 21
742.919
 31
0.0
  0
LINE
  5
924
330
1E
100
AcDbEntity
  8
0
100
AcDbLine
 10
458.3499999999999
 20
743.8560000000001
 30
0.0
 11
463.1499999999999
 21
738.4169999999999
 31
0.0
  0
LINE
  5
925
330
1E
100
AcDbEntity
  8
0
100
AcDbLine
 10
463.3049999999999
 20
735.684
 30
0.0
 11
463.3049999999999
 21
734.3989999999998
 31
0.0
  0
LINE
  5
926
330
1E
100
AcDbEntity
  8
0
100
AcDbLine
 10
463.1499999999999
 20
738.4169999999999
 30
0.0
 11
466.75
 21
732.672
 31
0.0
  0
LINE
  5
927
330
1E
100
AcDbEntity
  8
0
100
AcDbLine
 10
460.7499999999999
 20
745.235
 30
0.0
 11
465.7499999999999
 21
739.566
 31
0.0
  0
LINE
  5
928
330
1E
100
AcDbEntity
  8
0
100
AcDbLine
 10
465.7499999999999
 20
739.566
 30
0.0
 11
469.4499999999999
 21
733.591
 31
0.0
  0
LINE
  5
929
330
1E
100
AcDbEntity
  8
0
100
AcDbLine
 10
461.5499999999999
 20
746.337
 30
0.0
 11
466.55
 21
740.592
 31
0.0
  0
LINE
  5
92A
330
1E
100
AcDbEntity
  8
0
100
AcDbLine
 10
466.55
 20
740.592
 30
0.0
 11
470.45
 21
734.5399999999999
 31
0.0
  0
LINE
  5
92B
330
1E
100
AcDbEntity
  8
0
100
AcDbLine
 10
447.9689999999999
 20
749.99
 30
0.0
 11
447.9689999999999
 21
751.276
 31
0.0
  0
LINE
  5
92C
330
1E
100
AcDbEntity
  8
0
100
AcDbLine
 10
447.9689999999999
 20
749.99
 30
0.0
 11
447.9689999999999
 21
748.4580000000001
 31
0.0
  0
LINE
  5
92D
330
1E
100
AcDbEntity
  8
0
100
AcDbLine
 10
447.9689999999999
 20
748.4580000000001
 30
0.0
 11
447.9689999999999
 21
749.99
 31
0.0
  0
LINE
  5
92E
330
1E
100
AcDbEntity
  8
0
100
AcDbLine
 10
452.7499999999999
 20
748.682
 30
0.0
 11
458.3499999999999
 21
743.8560000000001
 31
0.0
  0
LINE
  5
92F
330
1E
100
AcDbEntity
  8
0
100
AcDbLine
 10
447.9689999999999
 20
751.276
 30
0.0
 11
447.9689999999999
 21
749.99
 31
0.0
  0
LINE
  5
930
330
1E
100
AcDbEntity
  8
0
100
AcDbLine
 10
448.2499999999999
 20
754.811
 30
0.0
 11
454.95
 21
750.3680000000001
 31
0.0
  0
LINE
  5
931
330
1E
100
AcDbEntity
  8
0
100
AcDbLine
 10
448.85
 20
756.066
 30
0.0
 11
455.6499999999999
 21
751.547
 31
0.0
  0
LINE
  5
932
330
1E
100
AcDbEntity
  8
0
100
AcDbLine
 10
454.95
 20
750.3680000000001
 30
0.0
 11
460.7499999999999
 21
745.235
 31
0.0
  0
LINE
  5
933
330
1E
100
AcDbEntity
  8
0
100
AcDbLine
 10
455.6499999999999
 20
751.547
 30
0.0
 11
461.5499999999999
 21
746.337
 31
0.0
  0
LINE
  5
934
330
1E
100
AcDbEntity
  8
0
100
AcDbLine
 10
448.85
 20
769.565
 30
0.0
 11
455.6499999999999
 21
765.0449999999999
 31
0.0
  0
LINE
  5
935
330
1E
100
AcDbEntity
  8
0
100
AcDbLine
 10
455.6499999999999
 20
765.0449999999999
 30
0.0
 11
461.5499999999999
 21
759.836
 31
0.0
  0
LINE
  5
936
330
1E
100
AcDbEntity
  8
0
100
AcDbLine
 10
461.5499999999999
 20
759.836
 30
0.0
 11
466.55
 21
754.091
 31
0.0
  0
LINE
  5
937
330
1E
100
AcDbEntity
  8
0
100
AcDbLine
 10
466.55
 20
754.091
 30
0.0
 11
470.45
 21
748.0389999999999
 31
0.0
  0
LINE
  5
938
330
1E
100
AcDbEntity
  8
0
100
AcDbLine
 10
470.45
 20
748.0389999999999
 30
0.0
 11
473.2499999999999
 21
741.528
 31
0.0
  0
LINE
  5
939
330
1E
100
AcDbEntity
  8
0
100
AcDbLine
 10
473.2499999999999
 20
741.528
 30
0.0
 11
475.05
 21
734.71
 31
0.0
  0
LINE
  5
93A
330
1E
100
AcDbEntity
  8
0
100
AcDbLine
 10
475.05
 20
734.71
 30
0.0
 11
475.75
 21
727.9689999999999
 31
0.0
  0
LINE
  5
93B
330
1E
100
AcDbEntity
  8
0
100
AcDbLine
 10
475.75
 20
727.9689999999999
 30
0.0
 11
475.75
 21
714.47
 31
0.0
  0
LINE
  5
93C
330
1E
100
AcDbEntity
  8
0
100
AcDbLine
 10
475.05
 20
707.7289999999999
 30
0.0
 11
475.75
 21
714.47
 31
0.0
  0
LINE
  5
93D
330
1E
100
AcDbEntity
  8
0
100
AcDbLine
 10
446.45
 20
674.682
 30
0.0
 11
452.7499999999999
 21
678.9719999999999
 31
0.0
  0
LINE
  5
93E
330
1E
100
AcDbEntity
  8
0
100
AcDbLine
 10
448.85
 20
672.8739999999999
 30
0.0
 11
455.6499999999999
 21
677.393
 31
0.0
  0
LINE
  5
93F
330
1E
100
AcDbEntity
  8
0
100
AcDbLine
 10
441.3499999999999
 20
669.0439999999999
 30
0.0
 11
448.85
 21
672.8739999999999
 31
0.0
  0
LINE
  5
940
330
1E
100
AcDbEntity
  8
0
100
AcDbLine
 10
433.45
 20
666.056
 30
0.0
 11
441.3499999999999
 21
669.0439999999999
 31
0.0
  0
LINE
  5
941
330
1E
100
AcDbEntity
  8
0
100
AcDbLine
 10
424.95
 20
663.911
 30
0.0
 11
433.45
 21
666.056
 31
0.0
  0
LINE
  5
942
330
1E
100
AcDbEntity
  8
0
100
AcDbLine
 10
416.0499999999999
 20
662.5319999999999
 30
0.0
 11
424.95
 21
663.911
 31
0.0
  0
LINE
  5
943
330
1E
100
AcDbEntity
  8
0
100
AcDbLine
 10
413.243
 20
549.519
 30
0.0
 11
414.045562317468
 21
560.6148052702129
 31
0.0
  0
ENDSEC
  0
SECTION
  2
OBJECTS
  0
DICTIONARY
  5
C
330
0
100
AcDbDictionary
  3
ACAD_GROUP
350
D
  3
ACAD_LAYOUT
350
19
  3
ACAD_MLINESTYLE
350
16
  3
ACAD_PLOTSETTINGS
350
18
  3
ACAD_PLOTSTYLENAME
350
E
  3
ACDBHEADERROUNDTRIPXREC
350
94B
  3
ACDBVARIABLEDICTIONARY
350
948
  0
DICTIONARY
  5
96D
330
1E
100
AcDbDictionary
280
     1
  3
ACAD_LAYOUTSELFREF
360
96E
  0
DICTIONARY
  5
96B
330
1A
100
AcDbDictionary
280
     1
  3
ACAD_LAYOUTSELFREF
360
96C
  0
DICTIONARY
  5
D
102
{ACAD_REACTORS
330
C
102
}
330
C
100
AcDbDictionary
  0
DICTIONARY
  5
19
102
{ACAD_REACTORS
330
C
102
}
330
C
100
AcDbDictionary
  0
DICTIONARY
  5
16
102
{ACAD_REACTORS
330
C
102
}
330
C
100
AcDbDictionary
  3
STANDARD
350
17
  0
DICTIONARY
  5
18
102
{ACAD_REACTORS
330
C
102
}
330
C
100
AcDbDictionary
  0
ACDBDICTIONARYWDFLT
  5
E
102
{ACAD_REACTORS
330
C
102
}
330
C
100
AcDbDictionary
281
     1
  3
Normal
350
F
100
AcDbDictionaryWithDefault
340
F
  0
DICTIONARY
  5
94B
102
{ACAD_REACTORS
330
C
102
}
330
C
100
AcDbDictionary
  3
CEPSNTYPE
350
955
  3
FINGERPRINTGUID
350
956
  3
HYPERLINKBASE
350
94E
  3
INSUNITS
350
954
  3
LAYOUTDICT
350
950
  3
LWETCUNION
350
953
  3
PLOTSETDICT
350
951
  3
PLOTSTYLNAMDICT
350
952
  3
PSVPSCALE
350
958
  3
PUCSBASE
350
95B
  3
PUCSORGBACK
350
961
  3
PUCSORGBOTTOM
350
95D
  3
PUCSORGFRONT
350
960
  3
PUCSORGLEFT
350
95E
  3
PUCSORGRIGHT
350
95F
  3
PUCSORGTOP
350
95C
  3
PUCSORTHOREF
350
959
  3
PUCSORTHOVIEW
350
95A
  3
STYLESHEET
350
94F
  3
TSTACKALIGN
350
94C
  3
TSTACKSIZE
350
94D
  3
UCSBASE
350
964
  3
UCSORGBACK
350
96A
  3
UCSORGBOTTOM
350
966
  3
UCSORGFRONT
350
969
  3
UCSORGLEFT
350
967
  3
UCSORGRIGHT
350
968
  3
UCSORGTOP
350
965
  3
UCSORTHOREF
350
962
  3
UCSORTHOVIEW
350
963
  3
VERSIONGUID
350
957
  0
DICTIONARY
  5
948
102
{ACAD_REACTORS
330
C
102
}
330
C
100
AcDbDictionary
  3
DIMASSOC
350
949
  0
XRECORD
  5
96E
102
{ACAD_REACTORS
330
96D
102
}
330
96D
100
AcDbXrecord
340
1E
  0
XRECORD
  5
96C
102
{ACAD_REACTORS
330
96B
102
}
330
96B
100
AcDbXrecord
340
1A
  0
MLINESTYLE
  5
17
102
{ACAD_REACTORS
330
16
102
}
330
16
100
AcDbMlineStyle
  2
STANDARD
 70
     0
  3

 62
   256
 51
90.0
 52
90.0
 71
     2
 49
0.5
 62
   256
  6
BYLAYER
 49
-0.5
 62
   256
  6
BYLAYER
  0
ACDBPLACEHOLDER
  5
F
102
{ACAD_REACTORS
330
E
102
}
330
E
100
AcDbPlaceHolder
280
     0
  0
XRECORD
  5
955
102
{ACAD_REACTORS
330
94B
102
}
330
94B
100
AcDbXrecord
 90
        0
  0
XRECORD
  5
956
102
{ACAD_REACTORS
330
94B
102
}
330
94B
100
AcDbXrecord
  1
{0B3D6231-0805-4A47-8CF9-82B3D3C23859}
  0
XRECORD
  5
94E
102
{ACAD_REACTORS
330
94B
102
}
330
94B
100
AcDbXrecord
  1

  0
XRECORD
  5
954
102
{ACAD_REACTORS
330
94B
102
}
330
94B
100
AcDbXrecord
 90
        0
  0
XRECORD
  5
950
102
{ACAD_REACTORS
330
94B
102
}
330
94B
100
AcDbXrecord
340
19
  0
XRECORD
  5
953
102
{ACAD_REACTORS
330
94B
102
}
330
94B
100
AcDbXrecord
 90
    10781
  0
XRECORD
  5
951
102
{ACAD_REACTORS
330
94B
102
}
330
94B
100
AcDbXrecord
340
18
  0
XRECORD
  5
952
102
{ACAD_REACTORS
330
94B
102
}
330
94B
100
AcDbXrecord
340
E
  0
XRECORD
  5
958
102
{ACAD_REACTORS
330
94B
102
}
330
94B
100
AcDbXrecord
 40
0.0
  0
XRECORD
  5
95B
102
{ACAD_REACTORS
330
94B
102
}
330
94B
100
AcDbXrecord
340
0
  0
XRECORD
  5
961
102
{ACAD_REACTORS
330
94B
102
}
330
94B
100
AcDbXrecord
 10
0.0
 20
0.0
 30
0.0
  0
XRECORD
  5
95D
102
{ACAD_REACTORS
330
94B
102
}
330
94B
100
AcDbXrecord
 10
0.0
 20
0.0
 30
0.0
  0
XRECORD
  5
960
102
{ACAD_REACTORS
330
94B
102
}
330
94B
100
AcDbXrecord
 10
0.0
 20
0.0
 30
0.0
  0
XRECORD
  5
95E
102
{ACAD_REACTORS
330
94B
102
}
330
94B
100
AcDbXrecord
 10
0.0
 20
0.0
 30
0.0
  0
XRECORD
  5
95F
102
{ACAD_REACTORS
330
94B
102
}
330
94B
100
AcDbXrecord
 10
0.0
 20
0.0
 30
0.0
  0
XRECORD
  5
95C
102
{ACAD_REACTORS
330
94B
102
}
330
94B
100
AcDbXrecord
 10
0.0
 20
0.0
 30
0.0
  0
XRECORD
  5
959
102
{ACAD_REACTORS
330
94B
102
}
330
94B
100
AcDbXrecord
340
0
  0
XRECORD
  5
95A
102
{ACAD_REACTORS
330
94B
102
}
330
94B
100
AcDbXrecord
 70
     0
  0
XRECORD
  5
94F
102
{ACAD_REACTORS
330
94B
102
}
330
94B
100
AcDbXrecord
  1

  0
XRECORD
  5
94C
102
{ACAD_REACTORS
330
94B
102
}
330
94B
100
AcDbXrecord
 90
        1
  0
XRECORD
  5
94D
102
{ACAD_REACTORS
330
94B
102
}
330
94B
100
AcDbXrecord
 90
       70
  0
XRECORD
  5
964
102
{ACAD_REACTORS
330
94B
102
}
330
94B
100
AcDbXrecord
340
0
  0
XRECORD
  5
96A
102
{ACAD_REACTORS
330
94B
102
}
330
94B
100
AcDbXrecord
 10
0.0
 20
0.0
 30
0.0
  0
XRECORD
  5
966
102
{ACAD_REACTORS
330
94B
102
}
330
94B
100
AcDbXrecord
 10
0.0
 20
0.0
 30
0.0
  0
XRECORD
  5
969
102
{ACAD_REACTORS
330
94B
102
}
330
94B
100
AcDbXrecord
 10
0.0
 20
0.0
 30
0.0
  0
XRECORD
  5
967
102
{ACAD_REACTORS
330
94B
102
}
330
94B
100
AcDbXrecord
 10
0.0
 20
0.0
 30
0.0
  0
XRECORD
  5
968
102
{ACAD_REACTORS
330
94B
102
}
330
94B
100
AcDbXrecord
 10
0.0
 20
0.0
 30
0.0
  0
XRECORD
  5
965
102
{ACAD_REACTORS
330
94B
102
}
330
94B
100
AcDbXrecord
 10
0.0
 20
0.0
 30
0.0
  0
XRECORD
  5
962
102
{ACAD_REACTORS
330
94B
102
}
330
94B
100
AcDbXrecord
340
0
  0
XRECORD
  5
963
102
{ACAD_REACTORS
330
94B
102
}
330
94B
100
AcDbXrecord
 70
     1
  0
XRECORD
  5
957
102
{ACAD_REACTORS
330
94B
102
}
330
94B
100
AcDbXrecord
  1
{34832B70-6A66-45D7-A229-A328BE5642A1}
  0
DICTIONARYVAR
  5
949
102
{ACAD_REACTORS
330
948
102
}
330
948
100
DictionaryVariables
280
     0
  1
1
  0
ENDSEC
  0
EOF
