  0
SECTION
  2
HEADER
  9
$ACADVER
  1
AC1009
  9
$INSBASE
 10
0.0
 20
0.0
 30
0.0
  9
$EXTMIN
 10
0.0
 20
0.0
 30
0.0
  9
$EXTMAX
 10
100.0
 20
140.0
 30
17.0
  9
$LIMMIN
 10
0.0
 20
0.0
  9
$LIMMAX
 10
12.0
 20
9.0
  9
$ORTHOMODE
 70
     0
  9
$REGENMODE
 70
     1
  9
$FILLMODE
 70
     1
  9
$QTEXTMODE
 70
     0
  9
$MIRRTEXT
 70
     1
  9
$DRAGMODE
 70
     2
  9
$LTSCALE
 40
1.0
  9
$OSMODE
 70
     0
  9
$ATTMODE
 70
     1
  9
$TEXTSIZE
 40
0.2
  9
$TRACEWID
 40
0.05
  9
$TEXTSTYLE
  7
STANDARD
  9
$CLAYER
  8
0
  9
$CELTYPE
  6
BYLAYER
  9
$CECOLOR
 62
   256
  9
$DIMSCALE
 40
1.0
  9
$DIMASZ
 40
0.18
  9
$DIMEXO
 40
0.0625
  9
$DIMDLI
 40
0.38
  9
$DIMRND
 40
0.0
  9
$DIMDLE
 40
0.0
  9
$DIMEXE
 40
0.18
  9
$DIMTP
 40
0.0
  9
$DIMTM
 40
0.0
  9
$DIMTXT
 40
0.18
  9
$DIMCEN
 40
0.09
  9
$DIMTSZ
 40
0.0
  9
$DIMTOL
 70
     0
  9
$DIMLIM
 70
     0
  9
$DIMTIH
 70
     1
  9
$DIMTOH
 70
     1
  9
$DIMSE1
 70
     0
  9
$DIMSE2
 70
     0
  9
$DIMTAD
 70
     0
  9
$DIMZIN
 70
     0
  9
$DIMBLK
  1

  9
$DIMASO
 70
     1
  9
$DIMSHO
 70
     1
  9
$DIMPOST
  1

  9
$DIMAPOST
  1

  9
$DIMALT
 70
     0
  9
$DIMALTD
 70
     2
  9
$DIMALTF
 40
25.4
  9
$DIMLFAC
 40
1.0
  9
$DIMTOFL
 70
     0
  9
$DIMTVP
 40
0.0
  9
$DIMTIX
 70
     0
  9
$DIMSOXD
 70
     0
  9
$DIMSAH
 70
     0
  9
$DIMBLK1
  1

  9
$DIMBLK2
  1

  9
$DIMSTYLE
  2
STANDARD
  9
$DIMCLRD
 70
     0
  9
$DIMCLRE
 70
     0
  9
$DIMCLRT
 70
     0
  9
$DIMTFAC
 40
1.0
  9
$DIMGAP
 40
0.09
  9
$LUNITS
 70
     2
  9
$LUPREC
 70
     4
  9
$SKETCHINC
 40
0.1
  9
$FILLETRAD
 40
0.5
  9
$AUNITS
 70
     0
  9
$AUPREC
 70
     0
  9
$MENU
  1
.
  9
$ELEVATION
 40
0.0
  9
$PELEVATION
 40
0.0
  9
$THICKNESS
 40
0.0
  9
$LIMCHECK
 70
     0
  9
$BLIPMODE
 70
     0
  9
$CHAMFERA
 40
0.5
  9
$CHAMFERB
 40
0.5
  9
$SKPOLY
 70
     1
  9
$TDCREATE
 40
2451432.822028
  9
$TDUPDATE
 40
2451665.435645
  9
$TDINDWG
 40
0.39888
  9
$TDUSRTIMER
 40
0.39888
  9
$USRTIMER
 70
     1
  9
$ANGBASE
 50
0.0
  9
$ANGDIR
 70
     0
  9
$PDMODE
 70
     0
  9
$PDSIZE
 40
0.0
  9
$PLINEWID
 40
0.0
  9
$COORDS
 70
     1
  9
$SPLFRAME
 70
     0
  9
$SPLINETYPE
 70
     6
  9
$SPLINESEGS
 70
     8
  9
$ATTDIA
 70
     0
  9
$ATTREQ
 70
     1
  9
$HANDLING
 70
     1
  9
$HANDSEED
  5
328D
  9
$SURFTAB1
 70
     6
  9
$SURFTAB2
 70
     6
  9
$SURFTYPE
 70
     6
  9
$SURFU
 70
     6
  9
$SURFV
 70
     6
  9
$UCSNAME
  2

  9
$UCSORG
 10
0.0
 20
0.0
 30
0.0
  9
$UCSXDIR
 10
1.0
 20
0.0
 30
0.0
  9
$UCSYDIR
 10
0.0
 20
1.0
 30
0.0
  9
$PUCSNAME
  2

  9
$PUCSORG
 10
0.0
 20
0.0
 30
0.0
  9
$PUCSXDIR
 10
1.0
 20
0.0
 30
0.0
  9
$PUCSYDIR
 10
0.0
 20
1.0
 30
0.0
  9
$USERI1
 70
     0
  9
$USERI2
 70
     0
  9
$USERI3
 70
     0
  9
$USERI4
 70
     0
  9
$USERI5
 70
     0
  9
$USERR1
 40
0.0
  9
$USERR2
 40
0.0
  9
$USERR3
 40
0.0
  9
$USERR4
 40
0.0
  9
$USERR5
 40
0.0
  9
$WORLDVIEW
 70
     1
  9
$SHADEDGE
 70
     3
  9
$SHADEDIF
 70
    70
  9
$TILEMODE
 70
     1
  9
$MAXACTVP
 70
    48
  9
$PLIMCHECK
 70
     0
  9
$PEXTMIN
 10
1.000000E+020
 20
1.000000E+020
 30
1.000000E+020
  9
$PEXTMAX
 10
-1.000000E+020
 20
-1.000000E+020
 30
-1.000000E+020
  9
$PLIMMIN
 10
0.0
 20
0.0
  9
$PLIMMAX
 10
12.0
 20
9.0
  9
$UNITMODE
 70
     0
  9
$VISRETAIN
 70
     1
  9
$PLINEGEN
 70
     0
  9
$PSLTSCALE
 70
     1
  0
ENDSEC
  0
SECTION
  2
TABLES
  0
TABLE
  2
VPORT
 70
     9
  0
VPORT
  2
*ACTIVE
 70
     0
 10
0.0
 20
0.0
 11
1.0
 21
1.0
 12
-14.142136
 22
55.930016
 13
0.0
 23
0.0
 14
0.5
 24
0.5
 15
0.5
 25
0.5
 16
-1.0
 26
-1.0
 36
1.0
 17
0.0
 27
0.0
 37
0.0
 40
113.249597
 41
1.991701
 42
50.0
 43
0.0
 44
0.0
 50
0.0
 51
0.0
 71
     0
 72
   100
 73
     1
 74
     1
 75
     0
 76
     0
 77
     0
 78
     0
  0
ENDTAB
  0
TABLE
  2
LTYPE
 70
     1
  0
LTYPE
  2
CONTINUOUS
 70
     0
  3
Solid line
 72
    65
 73
     0
 40
0.0
  0
ENDTAB
  0
TABLE
  2
LAYER
 70
     2
  0
LAYER
  2
0
 70
     0
 62
     7
  6
CONTINUOUS
  0
LAYER
  2
ASHADE
 70
     4
 62
     7
  6
CONTINUOUS
  0
ENDTAB
  0
TABLE
  2
STYLE
 70
     2
  0
STYLE
  2
STANDARD
 70
     0
 40
0.0
 41
1.0
 50
0.0
 71
     0
 42
0.2
  3
txt
  4

  0
STYLE
  2
ASHADE
 70
     0
 40
0.2
 41
1.0
 50
0.0
 71
     0
 42
0.2
  3
simplex.shx
  4

  0
ENDTAB
  0
TABLE
  2
VIEW
 70
     0
  0
ENDTAB
  0
TABLE
  2
UCS
 70
     0
  0
ENDTAB
  0
TABLE
  2
APPID
 70
     6
  0
APPID
  2
ACAD
 70
     0
  0
APPID
  2
AVE_RENDER
 70
     0
  0
APPID
  2
AVE_ENTITY_MATERIAL
 70
     0
  0
APPID
  2
AVE_FINISH
 70
     0
  0
APPID
  2
AVE_MATERIAL
 70
     0
  0
APPID
  2
AVE_GLOBAL
 70
     0
  0
ENDTAB
  0
TABLE
  2
DIMSTYLE
 70
     1
  0
DIMSTYLE
  2
STANDARD
 70
     0
  3

  4

  5

  6

  7

 40
1.0
 41
0.18
 42
0.0625
 43
0.38
 44
0.18
 45
0.0
 46
0.0
 47
0.0
 48
0.0
140
0.18
141
0.09
142
0.0
143
25.4
144
1.0
145
0.0
146
1.0
147
0.09
 71
     0
 72
     0
 73
     1
 74
     1
 75
     0
 76
     0
 77
     0
 78
     0
170
     0
171
     2
172
     0
173
     0
174
     0
175
     0
176
     0
177
     0
178
     0
  0
ENDTAB
  0
ENDSEC
  0
SECTION
  2
BLOCKS
  0
BLOCK
  8
0
  2
$MODEL_SPACE
 70
     0
 10
0.0
 20
0.0
 30
0.0
  3
$MODEL_SPACE
  1

  0
ENDBLK
  5
1B
  8
0
  0
BLOCK
 67
     1
  8
0
  2
$PAPER_SPACE
 70
     0
 10
0.0
 20
0.0
 30
0.0
  3
$PAPER_SPACE
  1

  0
ENDBLK
  5
18
 67
     1
  8
0
  0
BLOCK
  8
ASHADE
  2
AVE_RENDER
 70
     0
 10
0.0
 20
0.0
 30
0.0
  3
AVE_RENDER
  1
AVE_RENDER
  0
ENDBLK
  5
22C
  8
0
  0
BLOCK
  8
ASHADE
  2
AVE_GLOBAL
 70
     0
 10
0.0
 20
0.0
 30
0.0
  3
AVE_GLOBAL
  1
AVE_GLOBAL
  0
ENDBLK
  5
23A
  8
0
  0
ENDSEC
  0
SECTION
  2
ENTITIES
  0
INSERT
  5
22D
  8
ASHADE
 62
     1
  2
AVE_RENDER
 10
0.0
 20
0.0
 30
0.0
1001
AVE_RENDER
1002
{
1070
     7
1000
Pref
1070
    30
1070
    20
1070
     1
1070
     0
1000

1070
    10
1070
     1
1070
    10
1040
1.0
1070
     1
1040
0.3
1040
0.7
1040
0.0
1040
10.0
1010
-1.0
1020
-1.0
1030
-1.0
1040
0.3
1070
    49
1070
     0
1070
     0
1010
1.0
1020
1.0
1030
1.0
1040
45.0
1070
     1
1070
     0
1000
WCS
1040
0.0
1070
     0
1040
10.0
1002
}
  0
INSERT
  5
22E
  8
ASHADE
 62
     3
  2
AVE_RENDER
 10
0.0
 20
0.0
 30
0.0
1001
AVE_RENDER
1002
{
1070
     0
1000
Full Opt
1070
     0
1070
     1
1070
     1
1070
     1
1070
     0
1070
     0
1070
     0
1070
     1
1070
     1
1040
0.0001
1040
0.0001
1002
}
  0
INSERT
  5
22F
  8
ASHADE
 62
     4
  2
AVE_RENDER
 10
0.0
 20
0.0
 30
0.0
1001
AVE_RENDER
1002
{
1070
     0
1000
Quick Opt
1070
     0
1070
     1
1070
     1
1070
     1
1070
     0
1070
     0
1070
     1
1002
}
  0
INSERT
  5
230
  8
ASHADE
 62
     5
  2
AVE_RENDER
 10
0.0
 20
0.0
 30
0.0
1001
AVE_RENDER
1002
{
1070
     1
1000
Scanl Opt
1070
     2
1070
     0
1070
     2
1040
2.0
1040
4.0
1070
     0
1070
     1
1070
     0
1040
0.03
1002
}
  0
INSERT
  5
231
  8
ASHADE
 62
     6
  2
AVE_RENDER
 10
0.0
 20
0.0
 30
0.0
1001
AVE_RENDER
1002
{
1070
     2
1000
Raytr Opt
1070
     2
1070
     0
1070
     2
1040
2.0
1040
4.0
1070
     0
1070
     1
1070
     1
1040
0.03
1070
     3
1040
0.03
1002
}
  0
INSERT
  5
232
  8
ASHADE
 62
     7
  2
AVE_RENDER
 10
0.0
 20
0.0
 30
0.0
1001
AVE_RENDER
1002
{
1070
     0
1000
RFile Opt
1070
     1
1070
   640
1070
   480
1070
 10000
1070
     1
1070
     8
1070
     8
1070
     0
1070
     0
1070
     0
1070
     0
1070
     0
1070
     0
1070
     0
1002
}
  0
INSERT
  5
233
  8
ASHADE
 62
     8
  2
AVE_RENDER
 10
0.0
 20
0.0
 30
0.0
1001
AVE_RENDER
1002
{
1070
     0
1000
Fog Opt
1070
     0
1070
     0
1040
0.0
1040
1.0
1040
0.0
1040
1.0
1010
0.5
1020
0.5
1030
0.5
1002
}
  0
INSERT
  5
234
  8
ASHADE
 62
     9
  2
AVE_RENDER
 10
0.0
 20
0.0
 30
0.0
1001
AVE_RENDER
1002
{
1070
     0
1000
BG Opt
1070
     0
1070
     1
1010
0.0
1020
0.0
1030
0.0
1010
1.0
1020
0.0
1030
0.0
1010
0.0
1020
1.0
1030
0.0
1010
0.0
1020
0.0
1030
1.0
1040
0.5
1040
0.33
1040
0.0
1000

1070
     1
1000

1070
     1
1070
     1
1040
1.0
1040
1.0
1040
0.0
1040
0.0
1070
     0
1002
}
  0
INSERT
  5
23B
  8
ASHADE
 62
     1
  2
AVE_GLOBAL
 10
0.0
 20
0.0
 30
0.0
1001
AVE_MATERIAL
1002
{
1000
*GLOBAL*
1000
1
1000
Global finish.
1002
{
1002
}
1002
{
1070
    63
1002
{
1002
{
1010
-1.0
1020
-1.0
1030
-1.0
1002
}
1040
0.1
1000

1040
0.0
1002
{
1002
}
1040
0.0
1002
{
1002
}
1040
0.0
1002
}
1002
{
1002
{
1010
-1.0
1020
-1.0
1030
-1.0
1002
}
1040
0.7
1000

1040
0.0
1002
{
1002
}
1040
0.0
1002
{
1002
}
1040
0.0
1002
}
1002
{
1002
{
1010
-1.0
1020
-1.0
1030
-1.0
1002
}
1040
0.2
1000

1040
0.0
1002
{
1002
}
1040
0.0
1002
{
1002
}
1040
0.0
1002
}
1002
{
1070
     0
1002
{
1070
     1
1002
{
1040
1.0
1040
1.0
1000

1040
0.0
1002
{
1002
}
1040
0.0
1002
{
1002
}
1040
0.0
1002
}
1002
}
1040
1.0
1040
0.0
1040
0.0
1002
}
1002
{
1040
1.0
1040
1.0
1000

1040
0.0
1002
{
1002
}
1040
0.0
1002
{
1002
}
1040
0.0
1002
}
1002
{
1040
0.5
1040
1.0
1000

1040
0.0
1002
{
1002
}
1040
0.0
1002
{
1002
}
1040
0.0
1002
}
1002
{
1070
     0
1040
0.0
1002
{
1002
}
1040
1.0
1002
{
1002
}
1040
0.0
1002
}
1002
{
1040
0.0
1002
{
1002
{
1010
0.0
1020
0.0
1030
0.0
1002
}
1040
1.0
1000

1040
0.0
1002
{
1002
}
1040
0.0
1002
{
1002
}
1040
0.0
1002
}
1002
}
1002
{
1002
{
1070
     1
1002
{
1040
0.0
1040
1.0
1000

1040
0.0
1002
{
1002
}
1040
0.0
1002
{
1002
}
1040
0.0
1002
}
1002
}
1040
0.0
1002
{
1002
}
1010
1.0
1020
0.0
1030
0.0
1010
0.0
1020
1.0
1030
0.0
1010
0.0
1020
0.0
1030
1.0
1070
     0
1002
}
1002
{
1002
{
1040
1.0
1040
1.0
1002
{
1070
     1
1002
{
1040
1.0
1040
1.0
1000

1040
0.0
1002
{
1002
}
1040
0.0
1002
{
1002
}
1040
0.0
1002
}
1002
}
1002
}
1070
     0
1040
0.0
1002
{
1002
}
1002
}
1002
{
1002
}
1002
}
1002
{
1071
        3
1070
     3
1070
     0
1002
{
1070
     2
1070
     0
1070
     0
1040
0.0
1002
}
1070
     0
1070
     2
1002
{
1002
}
1002
}
1002
{
1040
8030.0
1040
190.300003
1040
0.305
1040
228.0
1040
545.0
1040
14.0
1040
17.4
1040
0.456
1002
}
1002
}
  0
POLYLINE
  5
3111
  8
0
 66
     1
 10
0.0
 20
0.0
 30
0.0
 70
    16
 71
     4
 72
    10
  0
VERTEX
  5
3112
  8
0
 10
50.0
 20
50.0
 30
17.0
 70
    64
  0
VERTEX
  5
3113
  8
0
 10
50.0
 20
50.0
 30
17.0
 70
    64
  0
VERTEX
  5
3114
  8
0
 10
50.0
 20
50.0
 30
17.0
 70
    64
  0
VERTEX
  5
3115
  8
0
 10
50.0
 20
50.0
 30
17.0
 70
    64
  0
VERTEX
  5
3116
  8
0
 10
50.0
 20
50.0
 30
17.0
 70
    64
  0
VERTEX
  5
3117
  8
0
 10
50.0
 20
50.0
 30
17.0
 70
    64
  0
VERTEX
  5
3118
  8
0
 10
50.0
 20
50.0
 30
17.0
 70
    64
  0
VERTEX
  5
3119
  8
0
 10
50.0
 20
50.0
 30
17.0
 70
    64
  0
VERTEX
  5
311A
  8
0
 10
50.0
 20
50.0
 30
17.0
 70
    64
  0
VERTEX
  5
311B
  8
0
 10
50.0
 20
50.0
 30
17.0
 70
    64
  0
VERTEX
  5
311C
  8
0
 10
0.0
 20
50.0
 30
17.0
 70
    64
  0
VERTEX
  5
311D
  8
0
 10
0.8
 20
41.4
 30
17.0
 70
    64
  0
VERTEX
  5
311E
  8
0
 10
3.1
 20
32.9
 30
17.0
 70
    64
  0
VERTEX
  5
311F
  8
0
 10
6.7
 20
25.1
 30
17.0
 70
    64
  0
VERTEX
  5
3120
  8
0
 10
11.7
 20
17.9
 30
17.0
 70
    64
  0
VERTEX
  5
3121
  8
0
 10
17.9
 20
11.7
 30
17.0
 70
    64
  0
VERTEX
  5
3122
  8
0
 10
25.1
 20
6.7
 30
17.0
 70
    64
  0
VERTEX
  5
3123
  8
0
 10
32.9
 20
3.1
 30
17.0
 70
    64
  0
VERTEX
  5
3124
  8
0
 10
41.4
 20
0.8
 30
17.0
 70
    64
  0
VERTEX
  5
3125
  8
0
 10
50.0
 20
0.0
 30
17.0
 70
    64
  0
VERTEX
  5
3126
  8
0
 10
0.0
 20
50.0
 30
15.0
 70
    64
  0
VERTEX
  5
3127
  8
0
 10
0.8
 20
41.4
 30
15.0
 70
    64
  0
VERTEX
  5
3128
  8
0
 10
3.1
 20
32.9
 30
15.0
 70
    64
  0
VERTEX
  5
3129
  8
0
 10
6.7
 20
25.1
 30
15.0
 70
    64
  0
VERTEX
  5
312A
  8
0
 10
11.7
 20
17.9
 30
15.0
 70
    64
  0
VERTEX
  5
312B
  8
0
 10
17.9
 20
11.7
 30
15.0
 70
    64
  0
VERTEX
  5
312C
  8
0
 10
25.1
 20
6.7
 30
15.0
 70
    64
  0
VERTEX
  5
312D
  8
0
 10
32.9
 20
3.1
 30
15.0
 70
    64
  0
VERTEX
  5
312E
  8
0
 10
41.4
 20
0.8
 30
15.0
 70
    64
  0
VERTEX
  5
312F
  8
0
 10
50.0
 20
0.0
 30
15.0
 70
    64
  0
VERTEX
  5
3130
  8
0
 10
50.0
 20
50.0
 30
15.0
 70
    64
  0
VERTEX
  5
3131
  8
0
 10
50.0
 20
50.0
 30
15.0
 70
    64
  0
VERTEX
  5
3132
  8
0
 10
50.0
 20
50.0
 30
15.0
 70
    64
  0
VERTEX
  5
3133
  8
0
 10
50.0
 20
50.0
 30
15.0
 70
    64
  0
VERTEX
  5
3134
  8
0
 10
50.0
 20
50.0
 30
15.0
 70
    64
  0
VERTEX
  5
3135
  8
0
 10
50.0
 20
50.0
 30
15.0
 70
    64
  0
VERTEX
  5
3136
  8
0
 10
50.0
 20
50.0
 30
15.0
 70
    64
  0
VERTEX
  5
3137
  8
0
 10
50.0
 20
50.0
 30
15.0
 70
    64
  0
VERTEX
  5
3138
  8
0
 10
50.0
 20
50.0
 30
15.0
 70
    64
  0
VERTEX
  5
3139
  8
0
 10
50.0
 20
50.0
 30
15.0
 70
    64
  0
SEQEND
  5
313A
  8
0
  0
POLYLINE
  5
3165
  8
0
 66
     1
 10
0.0
 20
0.0
 30
0.0
 70
    16
 71
     4
 72
    10
  0
VERTEX
  5
3166
  8
0
 10
50.0
 20
50.0
 30
17.0
 70
    64
  0
VERTEX
  5
3167
  8
0
 10
50.0
 20
50.0
 30
17.0
 70
    64
  0
VERTEX
  5
3168
  8
0
 10
50.0
 20
50.0
 30
17.0
 70
    64
  0
VERTEX
  5
3169
  8
0
 10
50.0
 20
50.0
 30
17.0
 70
    64
  0
VERTEX
  5
316A
  8
0
 10
50.0
 20
50.0
 30
17.0
 70
    64
  0
VERTEX
  5
316B
  8
0
 10
50.0
 20
50.0
 30
17.0
 70
    64
  0
VERTEX
  5
316C
  8
0
 10
50.0
 20
50.0
 30
17.0
 70
    64
  0
VERTEX
  5
316D
  8
0
 10
50.0
 20
50.0
 30
17.0
 70
    64
  0
VERTEX
  5
316E
  8
0
 10
50.0
 20
50.0
 30
17.0
 70
    64
  0
VERTEX
  5
316F
  8
0
 10
50.0
 20
50.0
 30
17.0
 70
    64
  0
VERTEX
  5
3170
  8
0
 10
0.0
 20
50.0
 30
17.0
 70
    64
  0
VERTEX
  5
3171
  8
0
 10
0.8
 20
58.6
 30
17.0
 70
    64
  0
VERTEX
  5
3172
  8
0
 10
3.1
 20
67.1
 30
17.0
 70
    64
  0
VERTEX
  5
3173
  8
0
 10
6.7
 20
74.9
 30
17.0
 70
    64
  0
VERTEX
  5
3174
  8
0
 10
11.7
 20
82.1
 30
17.0
 70
    64
  0
VERTEX
  5
3175
  8
0
 10
17.9
 20
88.3
 30
17.0
 70
    64
  0
VERTEX
  5
3176
  8
0
 10
25.1
 20
93.3
 30
17.0
 70
    64
  0
VERTEX
  5
3177
  8
0
 10
32.9
 20
96.9
 30
17.0
 70
    64
  0
VERTEX
  5
3178
  8
0
 10
41.4
 20
99.2
 30
17.0
 70
    64
  0
VERTEX
  5
3179
  8
0
 10
50.0
 20
100.0
 30
17.0
 70
    64
  0
VERTEX
  5
317A
  8
0
 10
0.0
 20
50.0
 30
15.0
 70
    64
  0
VERTEX
  5
317B
  8
0
 10
0.8
 20
58.6
 30
15.0
 70
    64
  0
VERTEX
  5
317C
  8
0
 10
3.1
 20
67.1
 30
15.0
 70
    64
  0
VERTEX
  5
317D
  8
0
 10
6.7
 20
74.9
 30
15.0
 70
    64
  0
VERTEX
  5
317E
  8
0
 10
11.7
 20
82.1
 30
15.0
 70
    64
  0
VERTEX
  5
317F
  8
0
 10
17.9
 20
88.3
 30
15.0
 70
    64
  0
VERTEX
  5
3180
  8
0
 10
25.1
 20
93.3
 30
15.0
 70
    64
  0
VERTEX
  5
3181
  8
0
 10
32.9
 20
96.9
 30
15.0
 70
    64
  0
VERTEX
  5
3182
  8
0
 10
41.4
 20
99.2
 30
15.0
 70
    64
  0
VERTEX
  5
3183
  8
0
 10
50.0
 20
100.0
 30
15.0
 70
    64
  0
VERTEX
  5
3184
  8
0
 10
50.0
 20
50.0
 30
15.0
 70
    64
  0
VERTEX
  5
3185
  8
0
 10
50.0
 20
50.0
 30
15.0
 70
    64
  0
VERTEX
  5
3186
  8
0
 10
50.0
 20
50.0
 30
15.0
 70
    64
  0
VERTEX
  5
3187
  8
0
 10
50.0
 20
50.0
 30
15.0
 70
    64
  0
VERTEX
  5
3188
  8
0
 10
50.0
 20
50.0
 30
15.0
 70
    64
  0
VERTEX
  5
3189
  8
0
 10
50.0
 20
50.0
 30
15.0
 70
    64
  0
VERTEX
  5
318A
  8
0
 10
50.0
 20
50.0
 30
15.0
 70
    64
  0
VERTEX
  5
318B
  8
0
 10
50.0
 20
50.0
 30
15.0
 70
    64
  0
VERTEX
  5
318C
  8
0
 10
50.0
 20
50.0
 30
15.0
 70
    64
  0
VERTEX
  5
318D
  8
0
 10
50.0
 20
50.0
 30
15.0
 70
    64
  0
SEQEND
  5
318E
  8
0
  0
POLYLINE
  5
318F
  8
0
 66
     1
 10
0.0
 20
0.0
 30
0.0
 70
    16
 71
     5
 72
     7
  0
VERTEX
  5
3190
  8
0
 10
30.5
 20
120.5
 30
0.0
 70
    64
  0
VERTEX
  5
3191
  8
0
 10
31.2
 20
115.5
 30
0.0
 70
    64
  0
VERTEX
  5
3192
  8
0
 10
33.1
 20
110.8
 30
0.0
 70
    64
  0
VERTEX
  5
3193
  8
0
 10
36.2
 20
106.7
 30
0.0
 70
    64
  0
VERTEX
  5
3194
  8
0
 10
40.3
 20
103.6
 30
0.0
 70
    64
  0
VERTEX
  5
3195
  8
0
 10
45.0
 20
101.7
 30
0.0
 70
    64
  0
VERTEX
  5
3196
  8
0
 10
50.0
 20
101.0
 30
0.0
 70
    64
  0
VERTEX
  5
3197
  8
0
 10
33.5
 20
120.5
 30
0.0
 70
    64
  0
VERTEX
  5
3198
  8
0
 10
34.1
 20
116.3
 30
0.0
 70
    64
  0
VERTEX
  5
3199
  8
0
 10
35.7
 20
112.3
 30
0.0
 70
    64
  0
VERTEX
  5
319A
  8
0
 10
38.3
 20
108.8
 30
0.0
 70
    64
  0
VERTEX
  5
319B
  8
0
 10
41.8
 20
106.2
 30
0.0
 70
    64
  0
VERTEX
  5
319C
  8
0
 10
45.8
 20
104.6
 30
0.0
 70
    64
  0
VERTEX
  5
319D
  8
0
 10
50.0
 20
104.0
 30
0.0
 70
    64
  0
VERTEX
  5
319E
  8
0
 10
33.5
 20
120.5
 30
17.0
 70
    64
  0
VERTEX
  5
319F
  8
0
 10
34.1
 20
116.3
 30
17.0
 70
    64
  0
VERTEX
  5
31A0
  8
0
 10
35.7
 20
112.3
 30
17.0
 70
    64
  0
VERTEX
  5
31A1
  8
0
 10
38.3
 20
108.8
 30
17.0
 70
    64
  0
VERTEX
  5
31A2
  8
0
 10
41.8
 20
106.2
 30
17.0
 70
    64
  0
VERTEX
  5
31A3
  8
0
 10
45.8
 20
104.6
 30
17.0
 70
    64
  0
VERTEX
  5
31A4
  8
0
 10
50.0
 20
104.0
 30
17.0
 70
    64
  0
VERTEX
  5
31A5
  8
0
 10
30.5
 20
120.5
 30
17.0
 70
    64
  0
VERTEX
  5
31A6
  8
0
 10
31.2
 20
115.5
 30
17.0
 70
    64
  0
VERTEX
  5
31A7
  8
0
 10
33.1
 20
110.8
 30
17.0
 70
    64
  0
VERTEX
  5
31A8
  8
0
 10
36.2
 20
106.7
 30
17.0
 70
    64
  0
VERTEX
  5
31A9
  8
0
 10
40.3
 20
103.6
 30
17.0
 70
    64
  0
VERTEX
  5
31AA
  8
0
 10
45.0
 20
101.7
 30
17.0
 70
    64
  0
VERTEX
  5
31AB
  8
0
 10
50.0
 20
101.0
 30
17.0
 70
    64
  0
VERTEX
  5
31AC
  8
0
 10
30.5
 20
120.5
 30
0.0
 70
    64
  0
VERTEX
  5
31AD
  8
0
 10
31.2
 20
115.5
 30
0.0
 70
    64
  0
VERTEX
  5
31AE
  8
0
 10
33.1
 20
110.8
 30
0.0
 70
    64
  0
VERTEX
  5
31AF
  8
0
 10
36.2
 20
106.7
 30
0.0
 70
    64
  0
VERTEX
  5
31B0
  8
0
 10
40.3
 20
103.6
 30
0.0
 70
    64
  0
VERTEX
  5
31B1
  8
0
 10
45.0
 20
101.7
 30
0.0
 70
    64
  0
VERTEX
  5
31B2
  8
0
 10
50.0
 20
101.0
 30
0.0
 70
    64
  0
SEQEND
  5
31B3
  8
0
  0
POLYLINE
  5
31B4
  8
0
 66
     1
 10
0.0
 20
0.0
 30
0.0
 70
    16
 71
     5
 72
     7
  0
VERTEX
  5
31B5
  8
0
 10
30.5
 20
120.5
 30
0.0
 70
    64
  0
VERTEX
  5
31B6
  8
0
 10
31.2
 20
125.5
 30
0.0
 70
    64
  0
VERTEX
  5
31B7
  8
0
 10
33.1
 20
130.2
 30
0.0
 70
    64
  0
VERTEX
  5
31B8
  8
0
 10
36.2
 20
134.3
 30
0.0
 70
    64
  0
VERTEX
  5
31B9
  8
0
 10
40.3
 20
137.4
 30
0.0
 70
    64
  0
VERTEX
  5
31BA
  8
0
 10
45.0
 20
139.3
 30
0.0
 70
    64
  0
VERTEX
  5
31BB
  8
0
 10
50.0
 20
140.0
 30
0.0
 70
    64
  0
VERTEX
  5
31BC
  8
0
 10
33.5
 20
120.5
 30
0.0
 70
    64
  0
VERTEX
  5
31BD
  8
0
 10
34.1
 20
124.7
 30
0.0
 70
    64
  0
VERTEX
  5
31BE
  8
0
 10
35.7
 20
128.7
 30
0.0
 70
    64
  0
VERTEX
  5
31BF
  8
0
 10
38.3
 20
132.2
 30
0.0
 70
    64
  0
VERTEX
  5
31C0
  8
0
 10
41.8
 20
134.8
 30
0.0
 70
    64
  0
VERTEX
  5
31C1
  8
0
 10
45.8
 20
136.4
 30
0.0
 70
    64
  0
VERTEX
  5
31C2
  8
0
 10
50.0
 20
137.0
 30
0.0
 70
    64
  0
VERTEX
  5
31C3
  8
0
 10
33.5
 20
120.5
 30
17.0
 70
    64
  0
VERTEX
  5
31C4
  8
0
 10
34.1
 20
124.7
 30
17.0
 70
    64
  0
VERTEX
  5
31C5
  8
0
 10
35.7
 20
128.7
 30
17.0
 70
    64
  0
VERTEX
  5
31C6
  8
0
 10
38.3
 20
132.2
 30
17.0
 70
    64
  0
VERTEX
  5
31C7
  8
0
 10
41.8
 20
134.8
 30
17.0
 70
    64
  0
VERTEX
  5
31C8
  8
0
 10
45.8
 20
136.4
 30
17.0
 70
    64
  0
VERTEX
  5
31C9
  8
0
 10
50.0
 20
137.0
 30
17.0
 70
    64
  0
VERTEX
  5
31CA
  8
0
 10
30.5
 20
120.5
 30
17.0
 70
    64
  0
VERTEX
  5
31CB
  8
0
 10
31.2
 20
125.5
 30
17.0
 70
    64
  0
VERTEX
  5
31CC
  8
0
 10
33.1
 20
130.2
 30
17.0
 70
    64
  0
VERTEX
  5
31CD
  8
0
 10
36.2
 20
134.3
 30
17.0
 70
    64
  0
VERTEX
  5
31CE
  8
0
 10
40.3
 20
137.4
 30
17.0
 70
    64
  0
VERTEX
  5
31CF
  8
0
 10
45.0
 20
139.3
 30
17.0
 70
    64
  0
VERTEX
  5
31D0
  8
0
 10
50.0
 20
140.0
 30
17.0
 70
    64
  0
VERTEX
  5
31D1
  8
0
 10
30.5
 20
120.5
 30
0.0
 70
    64
  0
VERTEX
  5
31D2
  8
0
 10
31.2
 20
125.5
 30
0.0
 70
    64
  0
VERTEX
  5
31D3
  8
0
 10
33.1
 20
130.2
 30
0.0
 70
    64
  0
VERTEX
  5
31D4
  8
0
 10
36.2
 20
134.3
 30
0.0
 70
    64
  0
VERTEX
  5
31D5
  8
0
 10
40.3
 20
137.4
 30
0.0
 70
    64
  0
VERTEX
  5
31D6
  8
0
 10
45.0
 20
139.3
 30
0.0
 70
    64
  0
VERTEX
  5
31D7
  8
0
 10
50.0
 20
140.0
 30
0.0
 70
    64
  0
SEQEND
  5
31D8
  8
0
  0
POLYLINE
  5
31D9
  8
0
 66
     1
 10
0.0
 20
0.0
 30
0.0
 70
    16
 71
     4
 72
     2
  0
VERTEX
  5
31DA
  8
0
 10
50.0
 20
20.0
 30
15.0
 70
    64
  0
VERTEX
  5
31DB
  8
0
 10
50.0
 20
101.0
 30
15.0
 70
    64
  0
VERTEX
  5
31DC
  8
0
 10
47.0
 20
20.0
 30
15.0
 70
    64
  0
VERTEX
  5
31DD
  8
0
 10
47.0
 20
101.5
 30
15.0
 70
    64
  0
VERTEX
  5
31DE
  8
0
 10
47.0
 20
20.0
 30
15.0
 70
    64
  0
VERTEX
  5
31DF
  8
0
 10
47.0
 20
101.5
 30
0.0
 70
    64
  0
VERTEX
  5
31E0
  8
0
 10
50.0
 20
20.0
 30
15.0
 70
    64
  0
VERTEX
  5
31E1
  8
0
 10
50.0
 20
101.0
 30
0.0
 70
    64
  0
SEQEND
  5
31E2
  8
0
  0
POLYLINE
  5
31E3
  8
0
 66
     1
 10
0.0
 20
0.0
 30
0.0
 70
    16
 71
     4
 72
     2
  0
VERTEX
  5
31E4
  8
0
 10
50.0
 20
20.0
 30
15.0
 70
    64
  0
VERTEX
  5
31E5
  8
0
 10
50.0
 20
101.0
 30
15.0
 70
    64
  0
VERTEX
  5
31E6
  8
0
 10
53.0
 20
20.0
 30
15.0
 70
    64
  0
VERTEX
  5
31E7
  8
0
 10
53.0
 20
101.5
 30
15.0
 70
    64
  0
VERTEX
  5
31E8
  8
0
 10
53.0
 20
20.0
 30
15.0
 70
    64
  0
VERTEX
  5
31E9
  8
0
 10
53.0
 20
101.5
 30
0.0
 70
    64
  0
VERTEX
  5
31EA
  8
0
 10
50.0
 20
20.0
 30
15.0
 70
    64
  0
VERTEX
  5
31EB
  8
0
 10
50.0
 20
101.0
 30
0.0
 70
    64
  0
SEQEND
  5
31EC
  8
0
  0
POLYLINE
  5
31ED
  8
0
 66
     1
 10
0.0
 20
0.0
 30
0.0
 70
    16
 71
     4
 72
    10
  0
VERTEX
  5
31EE
  8
0
 10
50.0
 20
50.0
 30
17.0
 70
    64
  0
VERTEX
  5
31EF
  8
0
 10
50.0
 20
50.0
 30
17.0
 70
    64
  0
VERTEX
  5
31F0
  8
0
 10
50.0
 20
50.0
 30
17.0
 70
    64
  0
VERTEX
  5
31F1
  8
0
 10
50.0
 20
50.0
 30
17.0
 70
    64
  0
VERTEX
  5
31F2
  8
0
 10
50.0
 20
50.0
 30
17.0
 70
    64
  0
VERTEX
  5
31F3
  8
0
 10
50.0
 20
50.0
 30
17.0
 70
    64
  0
VERTEX
  5
31F4
  8
0
 10
50.0
 20
50.0
 30
17.0
 70
    64
  0
VERTEX
  5
31F5
  8
0
 10
50.0
 20
50.0
 30
17.0
 70
    64
  0
VERTEX
  5
31F6
  8
0
 10
50.0
 20
50.0
 30
17.0
 70
    64
  0
VERTEX
  5
31F7
  8
0
 10
50.0
 20
50.0
 30
17.0
 70
    64
  0
VERTEX
  5
31F8
  8
0
 10
100.0
 20
50.0
 30
17.0
 70
    64
  0
VERTEX
  5
31F9
  8
0
 10
99.2
 20
58.6
 30
17.0
 70
    64
  0
VERTEX
  5
31FA
  8
0
 10
96.9
 20
67.1
 30
17.0
 70
    64
  0
VERTEX
  5
31FB
  8
0
 10
93.3
 20
74.9
 30
17.0
 70
    64
  0
VERTEX
  5
31FC
  8
0
 10
88.3
 20
82.1
 30
17.0
 70
    64
  0
VERTEX
  5
31FD
  8
0
 10
82.1
 20
88.3
 30
17.0
 70
    64
  0
VERTEX
  5
31FE
  8
0
 10
74.9
 20
93.3
 30
17.0
 70
    64
  0
VERTEX
  5
31FF
  8
0
 10
67.1
 20
96.9
 30
17.0
 70
    64
  0
VERTEX
  5
3200
  8
0
 10
58.6
 20
99.2
 30
17.0
 70
    64
  0
VERTEX
  5
3201
  8
0
 10
50.0
 20
100.0
 30
17.0
 70
    64
  0
VERTEX
  5
3202
  8
0
 10
100.0
 20
50.0
 30
15.0
 70
    64
  0
VERTEX
  5
3203
  8
0
 10
99.2
 20
58.6
 30
15.0
 70
    64
  0
VERTEX
  5
3204
  8
0
 10
96.9
 20
67.1
 30
15.0
 70
    64
  0
VERTEX
  5
3205
  8
0
 10
93.3
 20
74.9
 30
15.0
 70
    64
  0
VERTEX
  5
3206
  8
0
 10
88.3
 20
82.1
 30
15.0
 70
    64
  0
VERTEX
  5
3207
  8
0
 10
82.1
 20
88.3
 30
15.0
 70
    64
  0
VERTEX
  5
3208
  8
0
 10
74.9
 20
93.3
 30
15.0
 70
    64
  0
VERTEX
  5
3209
  8
0
 10
67.1
 20
96.9
 30
15.0
 70
    64
  0
VERTEX
  5
320A
  8
0
 10
58.6
 20
99.2
 30
15.0
 70
    64
  0
VERTEX
  5
320B
  8
0
 10
50.0
 20
100.0
 30
15.0
 70
    64
  0
VERTEX
  5
320C
  8
0
 10
50.0
 20
50.0
 30
15.0
 70
    64
  0
VERTEX
  5
320D
  8
0
 10
50.0
 20
50.0
 30
15.0
 70
    64
  0
VERTEX
  5
320E
  8
0
 10
50.0
 20
50.0
 30
15.0
 70
    64
  0
VERTEX
  5
320F
  8
0
 10
50.0
 20
50.0
 30
15.0
 70
    64
  0
VERTEX
  5
3210
  8
0
 10
50.0
 20
50.0
 30
15.0
 70
    64
  0
VERTEX
  5
3211
  8
0
 10
50.0
 20
50.0
 30
15.0
 70
    64
  0
VERTEX
  5
3212
  8
0
 10
50.0
 20
50.0
 30
15.0
 70
    64
  0
VERTEX
  5
3213
  8
0
 10
50.0
 20
50.0
 30
15.0
 70
    64
  0
VERTEX
  5
3214
  8
0
 10
50.0
 20
50.0
 30
15.0
 70
    64
  0
VERTEX
  5
3215
  8
0
 10
50.0
 20
50.0
 30
15.0
 70
    64
  0
SEQEND
  5
3216
  8
0
  0
POLYLINE
  5
3217
  8
0
 66
     1
 10
0.0
 20
0.0
 30
0.0
 70
    16
 71
     4
 72
    10
  0
VERTEX
  5
3218
  8
0
 10
50.0
 20
50.0
 30
17.0
 70
    64
  0
VERTEX
  5
3219
  8
0
 10
50.0
 20
50.0
 30
17.0
 70
    64
  0
VERTEX
  5
321A
  8
0
 10
50.0
 20
50.0
 30
17.0
 70
    64
  0
VERTEX
  5
321B
  8
0
 10
50.0
 20
50.0
 30
17.0
 70
    64
  0
VERTEX
  5
321C
  8
0
 10
50.0
 20
50.0
 30
17.0
 70
    64
  0
VERTEX
  5
321D
  8
0
 10
50.0
 20
50.0
 30
17.0
 70
    64
  0
VERTEX
  5
321E
  8
0
 10
50.0
 20
50.0
 30
17.0
 70
    64
  0
VERTEX
  5
321F
  8
0
 10
50.0
 20
50.0
 30
17.0
 70
    64
  0
VERTEX
  5
3220
  8
0
 10
50.0
 20
50.0
 30
17.0
 70
    64
  0
VERTEX
  5
3221
  8
0
 10
50.0
 20
50.0
 30
17.0
 70
    64
  0
VERTEX
  5
3222
  8
0
 10
100.0
 20
50.0
 30
17.0
 70
    64
  0
VERTEX
  5
3223
  8
0
 10
99.2
 20
41.4
 30
17.0
 70
    64
  0
VERTEX
  5
3224
  8
0
 10
96.9
 20
32.9
 30
17.0
 70
    64
  0
VERTEX
  5
3225
  8
0
 10
93.3
 20
25.1
 30
17.0
 70
    64
  0
VERTEX
  5
3226
  8
0
 10
88.3
 20
17.9
 30
17.0
 70
    64
  0
VERTEX
  5
3227
  8
0
 10
82.1
 20
11.7
 30
17.0
 70
    64
  0
VERTEX
  5
3228
  8
0
 10
74.9
 20
6.7
 30
17.0
 70
    64
  0
VERTEX
  5
3229
  8
0
 10
67.1
 20
3.1
 30
17.0
 70
    64
  0
VERTEX
  5
322A
  8
0
 10
58.6
 20
0.8
 30
17.0
 70
    64
  0
VERTEX
  5
322B
  8
0
 10
50.0
 20
0.0
 30
17.0
 70
    64
  0
VERTEX
  5
322C
  8
0
 10
100.0
 20
50.0
 30
15.0
 70
    64
  0
VERTEX
  5
322D
  8
0
 10
99.2
 20
41.4
 30
15.0
 70
    64
  0
VERTEX
  5
322E
  8
0
 10
96.9
 20
32.9
 30
15.0
 70
    64
  0
VERTEX
  5
322F
  8
0
 10
93.3
 20
25.1
 30
15.0
 70
    64
  0
VERTEX
  5
3230
  8
0
 10
88.3
 20
17.9
 30
15.0
 70
    64
  0
VERTEX
  5
3231
  8
0
 10
82.1
 20
11.7
 30
15.0
 70
    64
  0
VERTEX
  5
3232
  8
0
 10
74.9
 20
6.7
 30
15.0
 70
    64
  0
VERTEX
  5
3233
  8
0
 10
67.1
 20
3.1
 30
15.0
 70
    64
  0
VERTEX
  5
3234
  8
0
 10
58.6
 20
0.8
 30
15.0
 70
    64
  0
VERTEX
  5
3235
  8
0
 10
50.0
 20
0.0
 30
15.0
 70
    64
  0
VERTEX
  5
3236
  8
0
 10
50.0
 20
50.0
 30
15.0
 70
    64
  0
VERTEX
  5
3237
  8
0
 10
50.0
 20
50.0
 30
15.0
 70
    64
  0
VERTEX
  5
3238
  8
0
 10
50.0
 20
50.0
 30
15.0
 70
    64
  0
VERTEX
  5
3239
  8
0
 10
50.0
 20
50.0
 30
15.0
 70
    64
  0
VERTEX
  5
323A
  8
0
 10
50.0
 20
50.0
 30
15.0
 70
    64
  0
VERTEX
  5
323B
  8
0
 10
50.0
 20
50.0
 30
15.0
 70
    64
  0
VERTEX
  5
323C
  8
0
 10
50.0
 20
50.0
 30
15.0
 70
    64
  0
VERTEX
  5
323D
  8
0
 10
50.0
 20
50.0
 30
15.0
 70
    64
  0
VERTEX
  5
323E
  8
0
 10
50.0
 20
50.0
 30
15.0
 70
    64
  0
VERTEX
  5
323F
  8
0
 10
50.0
 20
50.0
 30
15.0
 70
    64
  0
SEQEND
  5
3240
  8
0
  0
POLYLINE
  5
3241
  8
0
 66
     1
 10
0.0
 20
0.0
 30
0.0
 70
    16
 71
     5
 72
     7
  0
VERTEX
  5
3242
  8
0
 10
69.5
 20
120.5
 30
0.0
 70
    64
  0
VERTEX
  5
3243
  8
0
 10
68.8
 20
115.5
 30
0.0
 70
    64
  0
VERTEX
  5
3244
  8
0
 10
66.9
 20
110.8
 30
0.0
 70
    64
  0
VERTEX
  5
3245
  8
0
 10
63.8
 20
106.7
 30
0.0
 70
    64
  0
VERTEX
  5
3246
  8
0
 10
59.7
 20
103.6
 30
0.0
 70
    64
  0
VERTEX
  5
3247
  8
0
 10
55.0
 20
101.7
 30
0.0
 70
    64
  0
VERTEX
  5
3248
  8
0
 10
50.0
 20
101.0
 30
0.0
 70
    64
  0
VERTEX
  5
3249
  8
0
 10
66.5
 20
120.5
 30
0.0
 70
    64
  0
VERTEX
  5
324A
  8
0
 10
65.9
 20
116.3
 30
0.0
 70
    64
  0
VERTEX
  5
324B
  8
0
 10
64.3
 20
112.3
 30
0.0
 70
    64
  0
VERTEX
  5
324C
  8
0
 10
61.7
 20
108.8
 30
0.0
 70
    64
  0
VERTEX
  5
324D
  8
0
 10
58.2
 20
106.2
 30
0.0
 70
    64
  0
VERTEX
  5
324E
  8
0
 10
54.2
 20
104.6
 30
0.0
 70
    64
  0
VERTEX
  5
324F
  8
0
 10
50.0
 20
104.0
 30
0.0
 70
    64
  0
VERTEX
  5
3250
  8
0
 10
66.5
 20
120.5
 30
17.0
 70
    64
  0
VERTEX
  5
3251
  8
0
 10
65.9
 20
116.3
 30
17.0
 70
    64
  0
VERTEX
  5
3252
  8
0
 10
64.3
 20
112.3
 30
17.0
 70
    64
  0
VERTEX
  5
3253
  8
0
 10
61.7
 20
108.8
 30
17.0
 70
    64
  0
VERTEX
  5
3254
  8
0
 10
58.2
 20
106.2
 30
17.0
 70
    64
  0
VERTEX
  5
3255
  8
0
 10
54.2
 20
104.6
 30
17.0
 70
    64
  0
VERTEX
  5
3256
  8
0
 10
50.0
 20
104.0
 30
17.0
 70
    64
  0
VERTEX
  5
3257
  8
0
 10
69.5
 20
120.5
 30
17.0
 70
    64
  0
VERTEX
  5
3258
  8
0
 10
68.8
 20
115.5
 30
17.0
 70
    64
  0
VERTEX
  5
3259
  8
0
 10
66.9
 20
110.8
 30
17.0
 70
    64
  0
VERTEX
  5
325A
  8
0
 10
63.8
 20
106.7
 30
17.0
 70
    64
  0
VERTEX
  5
325B
  8
0
 10
59.7
 20
103.6
 30
17.0
 70
    64
  0
VERTEX
  5
325C
  8
0
 10
55.0
 20
101.7
 30
17.0
 70
    64
  0
VERTEX
  5
325D
  8
0
 10
50.0
 20
101.0
 30
17.0
 70
    64
  0
VERTEX
  5
325E
  8
0
 10
69.5
 20
120.5
 30
0.0
 70
    64
  0
VERTEX
  5
325F
  8
0
 10
68.8
 20
115.5
 30
0.0
 70
    64
  0
VERTEX
  5
3260
  8
0
 10
66.9
 20
110.8
 30
0.0
 70
    64
  0
VERTEX
  5
3261
  8
0
 10
63.8
 20
106.7
 30
0.0
 70
    64
  0
VERTEX
  5
3262
  8
0
 10
59.7
 20
103.6
 30
0.0
 70
    64
  0
VERTEX
  5
3263
  8
0
 10
55.0
 20
101.7
 30
0.0
 70
    64
  0
VERTEX
  5
3264
  8
0
 10
50.0
 20
101.0
 30
0.0
 70
    64
  0
SEQEND
  5
3265
  8
0
  0
POLYLINE
  5
3266
  8
0
 66
     1
 10
0.0
 20
0.0
 30
0.0
 70
    16
 71
     5
 72
     7
  0
VERTEX
  5
3267
  8
0
 10
69.5
 20
120.5
 30
0.0
 70
    64
  0
VERTEX
  5
3268
  8
0
 10
68.8
 20
125.5
 30
0.0
 70
    64
  0
VERTEX
  5
3269
  8
0
 10
66.9
 20
130.2
 30
0.0
 70
    64
  0
VERTEX
  5
326A
  8
0
 10
63.8
 20
134.3
 30
0.0
 70
    64
  0
VERTEX
  5
326B
  8
0
 10
59.7
 20
137.4
 30
0.0
 70
    64
  0
VERTEX
  5
326C
  8
0
 10
55.0
 20
139.3
 30
0.0
 70
    64
  0
VERTEX
  5
326D
  8
0
 10
50.0
 20
140.0
 30
0.0
 70
    64
  0
VERTEX
  5
326E
  8
0
 10
66.5
 20
120.5
 30
0.0
 70
    64
  0
VERTEX
  5
326F
  8
0
 10
65.9
 20
124.7
 30
0.0
 70
    64
  0
VERTEX
  5
3270
  8
0
 10
64.3
 20
128.7
 30
0.0
 70
    64
  0
VERTEX
  5
3271
  8
0
 10
61.7
 20
132.2
 30
0.0
 70
    64
  0
VERTEX
  5
3272
  8
0
 10
58.2
 20
134.8
 30
0.0
 70
    64
  0
VERTEX
  5
3273
  8
0
 10
54.2
 20
136.4
 30
0.0
 70
    64
  0
VERTEX
  5
3274
  8
0
 10
50.0
 20
137.0
 30
0.0
 70
    64
  0
VERTEX
  5
3275
  8
0
 10
66.5
 20
120.5
 30
17.0
 70
    64
  0
VERTEX
  5
3276
  8
0
 10
65.9
 20
124.7
 30
17.0
 70
    64
  0
VERTEX
  5
3277
  8
0
 10
64.3
 20
128.7
 30
17.0
 70
    64
  0
VERTEX
  5
3278
  8
0
 10
61.7
 20
132.2
 30
17.0
 70
    64
  0
VERTEX
  5
3279
  8
0
 10
58.2
 20
134.8
 30
17.0
 70
    64
  0
VERTEX
  5
327A
  8
0
 10
54.2
 20
136.4
 30
17.0
 70
    64
  0
VERTEX
  5
327B
  8
0
 10
50.0
 20
137.0
 30
17.0
 70
    64
  0
VERTEX
  5
327C
  8
0
 10
69.5
 20
120.5
 30
17.0
 70
    64
  0
VERTEX
  5
327D
  8
0
 10
68.8
 20
125.5
 30
17.0
 70
    64
  0
VERTEX
  5
327E
  8
0
 10
66.9
 20
130.2
 30
17.0
 70
    64
  0
VERTEX
  5
327F
  8
0
 10
63.8
 20
134.3
 30
17.0
 70
    64
  0
VERTEX
  5
3280
  8
0
 10
59.7
 20
137.4
 30
17.0
 70
    64
  0
VERTEX
  5
3281
  8
0
 10
55.0
 20
139.3
 30
17.0
 70
    64
  0
VERTEX
  5
3282
  8
0
 10
50.0
 20
140.0
 30
17.0
 70
    64
  0
VERTEX
  5
3283
  8
0
 10
69.5
 20
120.5
 30
0.0
 70
    64
  0
VERTEX
  5
3284
  8
0
 10
68.8
 20
125.5
 30
0.0
 70
    64
  0
VERTEX
  5
3285
  8
0
 10
66.9
 20
130.2
 30
0.0
 70
    64
  0
VERTEX
  5
3286
  8
0
 10
63.8
 20
134.3
 30
0.0
 70
    64
  0
VERTEX
  5
3287
  8
0
 10
59.7
 20
137.4
 30
0.0
 70
    64
  0
VERTEX
  5
3288
  8
0
 10
55.0
 20
139.3
 30
0.0
 70
    64
  0
VERTEX
  5
3289
  8
0
 10
50.0
 20
140.0
 30
0.0
 70
    64
  0
SEQEND
  5
328A
  8
0
  0
ENDSEC
  0
EOF
