  0
SECTION
  2
HEADER
  9
$ACADVER
  1
AC1015
  9
$ACADMAINTVER
 70
     6
  9
$DWGCODEPAGE
  3
ANSI_1252
  9
$INSBASE
 10
0.0
 20
0.0
 30
0.0
  9
$EXTMIN
 10
0.0
 20
-0.196075
 30
0.0
  9
$EXTMAX
 10
360.0
 20
169.196075
 30
0.0
  9
$LIMMIN
 10
0.0
 20
0.0
  9
$LIMMAX
 10
12.0
 20
9.0
  9
$ORTHOMODE
 70
     0
  9
$REGENMODE
 70
     1
  9
$FILLMODE
 70
     1
  9
$QTEXTMODE
 70
     0
  9
$MIRRTEXT
 70
     1
  9
$LTSCALE
 40
1.0
  9
$ATTMODE
 70
     1
  9
$TEXTSIZE
 40
0.2
  9
$TRACEWID
 40
0.05
  9
$TEXTSTYLE
  7
Standard
  9
$CLAYER
  8
0
  9
$CELTYPE
  6
Continuous
  9
$CECOLOR
 62
   256
  9
$CELTSCALE
 40
1.0
  9
$DISPSILH
 70
     0
  9
$DIMSCALE
 40
1.0
  9
$DIMASZ
 40
0.18
  9
$DIMEXO
 40
0.0625
  9
$DIMDLI
 40
0.38
  9
$DIMRND
 40
0.0
  9
$DIMDLE
 40
0.0
  9
$DIMEXE
 40
0.18
  9
$DIMTP
 40
0.0
  9
$DIMTM
 40
0.0
  9
$DIMTXT
 40
0.18
  9
$DIMCEN
 40
0.09
  9
$DIMTSZ
 40
0.0
  9
$DIMTOL
 70
     0
  9
$DIMLIM
 70
     0
  9
$DIMTIH
 70
     1
  9
$DIMTOH
 70
     1
  9
$DIMSE1
 70
     0
  9
$DIMSE2
 70
     0
  9
$DIMTAD
 70
     0
  9
$DIMZIN
 70
     0
  9
$DIMBLK
  1

  9
$DIMASO
 70
     1
  9
$DIMSHO
 70
     1
  9
$DIMPOST
  1

  9
$DIMAPOST
  1

  9
$DIMALT
 70
     0
  9
$DIMALTD
 70
     2
  9
$DIMALTF
 40
25.4
  9
$DIMLFAC
 40
1.0
  9
$DIMTOFL
 70
     0
  9
$DIMTVP
 40
0.0
  9
$DIMTIX
 70
     0
  9
$DIMSOXD
 70
     0
  9
$DIMSAH
 70
     0
  9
$DIMBLK1
  1

  9
$DIMBLK2
  1

  9
$DIMSTYLE
  2
Standard
  9
$DIMCLRD
 70
     0
  9
$DIMCLRE
 70
     0
  9
$DIMCLRT
 70
     0
  9
$DIMTFAC
 40
1.0
  9
$DIMGAP
 40
0.09
  9
$DIMJUST
 70
     0
  9
$DIMSD1
 70
     0
  9
$DIMSD2
 70
     0
  9
$DIMTOLJ
 70
     1
  9
$DIMTZIN
 70
     0
  9
$DIMALTZ
 70
     0
  9
$DIMALTTZ
 70
     0
  9
$DIMUPT
 70
     0
  9
$DIMDEC
 70
     4
  9
$DIMTDEC
 70
     4
  9
$DIMALTU
 70
     2
  9
$DIMALTTD
 70
     2
  9
$DIMTXSTY
  7
Standard
  9
$DIMAUNIT
 70
     0
  9
$DIMADEC
 70
     0
  9
$DIMALTRND
 40
0.0
  9
$DIMAZIN
 70
     0
  9
$DIMDSEP
 70
    46
  9
$DIMATFIT
 70
     3
  9
$DIMFRAC
 70
     0
  9
$DIMLDRBLK
  1

  9
$DIMLUNIT
 70
     2
  9
$DIMLWD
 70
    -2
  9
$DIMLWE
 70
    -2
  9
$DIMTMOVE
 70
     0
  9
$LUNITS
 70
     2
  9
$LUPREC
 70
     4
  9
$SKETCHINC
 40
0.1
  9
$FILLETRAD
 40
0.0
  9
$AUNITS
 70
     0
  9
$AUPREC
 70
     0
  9
$MENU
  1
.
  9
$ELEVATION
 40
0.0
  9
$PELEVATION
 40
0.0
  9
$THICKNESS
 40
0.0
  9
$LIMCHECK
 70
     0
  9
$CHAMFERA
 40
0.0
  9
$CHAMFERB
 40
0.0
  9
$CHAMFERC
 40
0.0
  9
$CHAMFERD
 40
0.0
  9
$SKPOLY
 70
     0
  9
$TDCREATE
 40
2455001.833104745
  9
$TDUCREATE
 40
2455001.749771412
  9
$TDUPDATE
 40
2456213.587341933
  9
$TDUUPDATE
 40
2456213.5040086
  9
$TDINDWG
 40
0.0047332523
  9
$TDUSRTIMER
 40
0.0047332523
  9
$USRTIMER
 70
     1
  9
$ANGBASE
 50
0.0
  9
$ANGDIR
 70
     0
  9
$PDMODE
 70
     0
  9
$PDSIZE
 40
0.0
  9
$PLINEWID
 40
0.0
  9
$SPLFRAME
 70
     0
  9
$SPLINETYPE
 70
     6
  9
$SPLINESEGS
 70
     8
  9
$HANDSEED
  5
143B
  9
$SURFTAB1
 70
     6
  9
$SURFTAB2
 70
     6
  9
$SURFTYPE
 70
     6
  9
$SURFU
 70
     6
  9
$SURFV
 70
     6
  9
$UCSBASE
  2

  9
$UCSNAME
  2

  9
$UCSORG
 10
0.0
 20
0.0
 30
0.0
  9
$UCSXDIR
 10
1.0
 20
0.0
 30
0.0
  9
$UCSYDIR
 10
0.0
 20
1.0
 30
0.0
  9
$UCSORTHOREF
  2

  9
$UCSORTHOVIEW
 70
     1
  9
$UCSORGTOP
 10
0.0
 20
0.0
 30
0.0
  9
$UCSORGBOTTOM
 10
0.0
 20
0.0
 30
0.0
  9
$UCSORGLEFT
 10
0.0
 20
0.0
 30
0.0
  9
$UCSORGRIGHT
 10
0.0
 20
0.0
 30
0.0
  9
$UCSORGFRONT
 10
0.0
 20
0.0
 30
0.0
  9
$UCSORGBACK
 10
0.0
 20
0.0
 30
0.0
  9
$PUCSBASE
  2

  9
$PUCSNAME
  2

  9
$PUCSORG
 10
0.0
 20
0.0
 30
0.0
  9
$PUCSXDIR
 10
1.0
 20
0.0
 30
0.0
  9
$PUCSYDIR
 10
0.0
 20
1.0
 30
0.0
  9
$PUCSORTHOREF
  2

  9
$PUCSORTHOVIEW
 70
     0
  9
$PUCSORGTOP
 10
0.0
 20
0.0
 30
0.0
  9
$PUCSORGBOTTOM
 10
0.0
 20
0.0
 30
0.0
  9
$PUCSORGLEFT
 10
0.0
 20
0.0
 30
0.0
  9
$PUCSORGRIGHT
 10
0.0
 20
0.0
 30
0.0
  9
$PUCSORGFRONT
 10
0.0
 20
0.0
 30
0.0
  9
$PUCSORGBACK
 10
0.0
 20
0.0
 30
0.0
  9
$USERI1
 70
     0
  9
$USERI2
 70
     0
  9
$USERI3
 70
     0
  9
$USERI4
 70
     0
  9
$USERI5
 70
     0
  9
$USERR1
 40
0.0
  9
$USERR2
 40
0.0
  9
$USERR3
 40
0.0
  9
$USERR4
 40
0.0
  9
$USERR5
 40
0.0
  9
$WORLDVIEW
 70
     1
  9
$SHADEDGE
 70
     3
  9
$SHADEDIF
 70
    70
  9
$TILEMODE
 70
     1
  9
$MAXACTVP
 70
    64
  9
$PINSBASE
 10
0.0
 20
0.0
 30
0.0
  9
$PLIMCHECK
 70
     0
  9
$PEXTMIN
 10
1.000000000000E+20
 20
1.000000000000E+20
 30
1.000000000000E+20
  9
$PEXTMAX
 10
-1.000000000000E+20
 20
-1.000000000000E+20
 30
-1.000000000000E+20
  9
$PLIMMIN
 10
0.0
 20
0.0
  9
$PLIMMAX
 10
12.0
 20
9.0
  9
$UNITMODE
 70
     0
  9
$VISRETAIN
 70
     1
  9
$PLINEGEN
 70
     0
  9
$PSLTSCALE
 70
     1
  9
$TREEDEPTH
 70
  3020
  9
$CMLSTYLE
  2
Standard
  9
$CMLJUST
 70
     0
  9
$CMLSCALE
 40
1.0
  9
$PROXYGRAPHICS
 70
     1
  9
$MEASUREMENT
 70
     0
  9
$CELWEIGHT
370
    -1
  9
$ENDCAPS
280
     0
  9
$JOINSTYLE
280
     0
  9
$LWDISPLAY
290
     0
  9
$INSUNITS
 70
     0
  9
$HYPERLINKBASE
  1

  9
$STYLESHEET
  1

  9
$XEDIT
290
     1
  9
$CEPSNTYPE
380
     0
  9
$PSTYLEMODE
290
     1
  9
$FINGERPRINTGUID
  2
{494068BF-4765-4064-A286-975771EFE4FF}
  9
$VERSIONGUID
  2
{D2CD696B-BEED-46F5-97C6-1331BCF2163C}
  9
$EXTNAMES
290
     1
  9
$PSVPSCALE
 40
0.0
  9
$OLESTARTUP
290
     0
  0
ENDSEC
  0
SECTION
  2
CLASSES
  0
CLASS
  1
ACDBDICTIONARYWDFLT
  2
AcDbDictionaryWithDefault
  3
ObjectDBX Classes
 90
        0
280
     0
281
     0
  0
CLASS
  1
ACDBPLACEHOLDER
  2
AcDbPlaceHolder
  3
ObjectDBX Classes
 90
        0
280
     0
281
     0
  0
CLASS
  1
LAYOUT
  2
AcDbLayout
  3
ObjectDBX Classes
 90
        0
280
     0
281
     0
  0
CLASS
  1
DICTIONARYVAR
  2
AcDbDictionaryVar
  3
ObjectDBX Classes
 90
        0
280
     0
281
     0
  0
CLASS
  1
SCALE
  2
AcDbScale
  3
ObjectDBX Classes
 90
     1153
280
     0
281
     0
  0
ENDSEC
  0
SECTION
  2
TABLES
  0
TABLE
  2
VPORT
  5
8
330
0
100
AcDbSymbolTable
 70
     1
  0
VPORT
  5
1412
330
8
100
AcDbSymbolTableRecord
100
AcDbViewportTableRecord
  2
*Active
 70
     0
 10
0.0
 20
0.0
 11
1.0
 21
1.0
 12
180.0
 22
84.5
 13
0.0
 23
0.0
 14
1.0
 24
1.0
 15
0.0
 25
0.0
 16
0.0
 26
0.0
 36
1.0
 17
0.0
 27
0.0
 37
0.0
 40
183.47792164047
 41
1.968387776607
 42
50.0
 43
0.0
 44
0.0
 50
0.0
 51
0.0
 71
     0
 72
   100
 73
     1
 74
     3
 75
     0
 76
     0
 77
     0
 78
     0
281
     0
 65
     1
110
0.0
120
0.0
130
0.0
111
1.0
121
0.0
131
0.0
112
0.0
122
1.0
132
0.0
 79
     1
146
0.0
  0
ENDTAB
  0
TABLE
  2
LTYPE
  5
5
330
0
100
AcDbSymbolTable
 70
     1
  0
LTYPE
  5
13
330
5
100
AcDbSymbolTableRecord
100
AcDbLinetypeTableRecord
  2
ByBlock
 70
     0
  3

 72
    65
 73
     0
 40
0.0
  0
LTYPE
  5
14
330
5
100
AcDbSymbolTableRecord
100
AcDbLinetypeTableRecord
  2
ByLayer
 70
     0
  3

 72
    65
 73
     0
 40
0.0
  0
LTYPE
  5
15
330
5
100
AcDbSymbolTableRecord
100
AcDbLinetypeTableRecord
  2
Continuous
 70
     0
  3
Solid line
 72
    65
 73
     0
 40
0.0
  0
ENDTAB
  0
TABLE
  2
LAYER
  5
2
330
0
100
AcDbSymbolTable
 70
     1
  0
LAYER
  5
10
330
2
100
AcDbSymbolTableRecord
100
AcDbLayerTableRecord
  2
0
 70
     0
 62
     7
  6
Continuous
370
    -3
390
F
  0
ENDTAB
  0
TABLE
  2
STYLE
  5
3
330
0
100
AcDbSymbolTable
 70
     1
  0
STYLE
  5
11
330
3
100
AcDbSymbolTableRecord
100
AcDbTextStyleTableRecord
  2
Standard
 70
     0
 40
0.0
 41
1.0
 50
0.0
 71
     0
 42
0.2
  3
txt
  4

  0
ENDTAB
  0
TABLE
  2
VIEW
  5
6
330
0
100
AcDbSymbolTable
 70
     0
  0
ENDTAB
  0
TABLE
  2
UCS
  5
7
330
0
100
AcDbSymbolTable
 70
     0
  0
ENDTAB
  0
TABLE
  2
APPID
  5
9
330
0
100
AcDbSymbolTable
 70
     1
  0
APPID
  5
12
330
9
100
AcDbSymbolTableRecord
100
AcDbRegAppTableRecord
  2
ACAD
 70
     0
  0
ENDTAB
  0
TABLE
  2
DIMSTYLE
  5
A
330
0
100
AcDbSymbolTable
 70
     1
100
AcDbDimStyleTable
  0
DIMSTYLE
105
10BF
330
A
100
AcDbSymbolTableRecord
100
AcDbDimStyleTableRecord
  2
Standard
 70
     0
340
11
  0
ENDTAB
  0
TABLE
  2
BLOCK_RECORD
  5
1
330
0
100
AcDbSymbolTable
 70
     0
  0
BLOCK_RECORD
  5
1E
330
1
100
AcDbSymbolTableRecord
100
AcDbBlockTableRecord
  2
*Model_Space
340
21
  0
BLOCK_RECORD
  5
1A
330
1
100
AcDbSymbolTableRecord
100
AcDbBlockTableRecord
  2
*Paper_Space
340
1D
  0
ENDTAB
  0
ENDSEC
  0
SECTION
  2
BLOCKS
  0
BLOCK
  5
1F
330
1E
100
AcDbEntity
  8
0
100
AcDbBlockBegin
  2
*Model_Space
 70
     0
 10
0.0
 20
0.0
 30
0.0
  3
*Model_Space
  1
*Model_Space
  0
ENDBLK
  5
20
330
1E
100
AcDbEntity
  8
0
100
AcDbBlockEnd
  0
BLOCK
  5
1B
330
1A
100
AcDbEntity
 67
     1
  8
0
100
AcDbBlockBegin
  2
*Paper_Space
 70
     0
 10
0.0
 20
0.0
 30
0.0
  3
*Paper_Space
  1
*Paper_Space
  0
ENDBLK
  5
1C
330
1A
100
AcDbEntity
 67
     1
  8
0
100
AcDbBlockEnd
  0
ENDSEC
  0
SECTION
  2
ENTITIES
  0
LINE
  5
22
330
1E
100
AcDbEntity
  8
0
100
AcDbLine
 10
0.0
 20
13.870375
 30
0.0
 11
0.0
 21
50.296675
 31
0.0
  0
LINE
  5
23
330
1E
100
AcDbEntity
  8
0
100
AcDbLine
 10
0.0
 20
3.598895
 30
0.0
 11
0.258167
 21
2.779862
 31
0.0
  0
LINE
  5
24
330
1E
100
AcDbEntity
  8
0
100
AcDbLine
 10
0.0
 20
3.598895
 30
0.0
 11
0.0
 21
40.025175
 31
0.0
  0
LINE
  5
25
330
1E
100
AcDbEntity
  8
0
100
AcDbLine
 10
0.0
 20
40.025175
 30
0.0
 11
0.0
 21
76.451575
 31
0.0
  0
LINE
  5
26
330
1E
100
AcDbEntity
  8
0
100
AcDbLine
 10
0.0
 20
40.025175
 30
0.0
 11
0.0
 21
3.598895
 31
0.0
  0
LINE
  5
27
330
1E
100
AcDbEntity
  8
0
100
AcDbLine
 10
11.3402
 20
-0.196075
 30
0.0
 11
180.0
 21
-0.196075
 31
0.0
  0
LINE
  5
28
330
1E
100
AcDbEntity
  8
0
100
AcDbLine
 10
0.258167
 20
2.779862
 30
0.0
 11
1.00398
 21
2.003512
 31
0.0
  0
LINE
  5
29
330
1E
100
AcDbEntity
  8
0
100
AcDbLine
 10
3.72908
 20
0.673955
 30
0.0
 11
5.73705
 21
0.248805
 31
0.0
  0
LINE
  5
2A
330
1E
100
AcDbEntity
  8
0
100
AcDbLine
 10
5.73705
 20
0.248805
 30
0.0
 11
7.83108
 21
-0.028015
 31
0.0
  0
LINE
  5
2B
330
1E
100
AcDbEntity
  8
0
100
AcDbLine
 10
7.83108
 20
-0.028015
 30
0.0
 11
9.16092
 21
-0.101415
 31
0.0
  0
LINE
  5
2C
330
1E
100
AcDbEntity
  8
0
100
AcDbLine
 10
2.15139
 20
1.259281
 30
0.0
 11
3.72908
 21
0.673955
 31
0.0
  0
LINE
  5
2D
330
1E
100
AcDbEntity
  8
0
100
AcDbLine
 10
1.00398
 20
2.003512
 30
0.0
 11
2.15139
 21
1.259281
 31
0.0
  0
LINE
  5
2E
330
1E
100
AcDbEntity
  8
0
100
AcDbLine
 10
0.258167
 20
2.779862
 30
0.0
 11
1.00398
 21
2.003512
 31
0.0
  0
LINE
  5
2F
330
1E
100
AcDbEntity
  8
0
100
AcDbLine
 10
34.7809
 20
2.112678
 30
0.0
 11
36.2869
 21
2.35188
 31
0.0
  0
LINE
  5
30
330
1E
100
AcDbEntity
  8
0
100
AcDbLine
 10
54.1434
 20
2.112678
 30
0.0
 11
55.6494
 21
2.35188
 31
0.0
  0
LINE
  5
31
330
1E
100
AcDbEntity
  8
0
100
AcDbLine
 10
73.506
 20
2.112678
 30
0.0
 11
75.012
 21
2.35188
 31
0.0
  0
LINE
  5
32
330
1E
100
AcDbEntity
  8
0
100
AcDbLine
 10
92.8685
 20
2.112678
 30
0.0
 11
94.3745
 21
2.35188
 31
0.0
  0
LINE
  5
34
330
1E
100
AcDbEntity
  8
0
100
AcDbLine
 10
36.2869
 20
2.35188
 30
0.0
 11
36.9323
 21
2.910158
 31
0.0
  0
LINE
  5
35
330
1E
100
AcDbEntity
  8
0
100
AcDbLine
 10
33.2749
 20
2.35188
 30
0.0
 11
34.7809
 21
2.112678
 31
0.0
  0
LINE
  5
36
330
1E
100
AcDbEntity
  8
0
100
AcDbLine
 10
32.6295
 20
2.910158
 30
0.0
 11
33.2749
 21
2.35188
 31
0.0
  0
LINE
  5
37
330
1E
100
AcDbEntity
  8
0
100
AcDbLine
 10
32.6295
 20
2.910158
 30
0.0
 11
33.2749
 21
3.468855
 31
0.0
  0
LINE
  5
3A
330
1E
100
AcDbEntity
  8
0
100
AcDbLine
 10
55.6494
 20
2.35188
 30
0.0
 11
56.2948
 21
2.910158
 31
0.0
  0
LINE
  5
3B
330
1E
100
AcDbEntity
  8
0
100
AcDbLine
 10
52.6375
 20
2.35188
 30
0.0
 11
54.1434
 21
2.112678
 31
0.0
  0
LINE
  5
3C
330
1E
100
AcDbEntity
  8
0
100
AcDbLine
 10
51.992
 20
2.910158
 30
0.0
 11
52.6375
 21
2.35188
 31
0.0
  0
LINE
  5
3D
330
1E
100
AcDbEntity
  8
0
100
AcDbLine
 10
51.992
 20
2.910158
 30
0.0
 11
52.6375
 21
3.468855
 31
0.0
  0
LINE
  5
40
330
1E
100
AcDbEntity
  8
0
100
AcDbLine
 10
75.012
 20
2.35188
 30
0.0
 11
75.6574
 21
2.910158
 31
0.0
  0
LINE
  5
41
330
1E
100
AcDbEntity
  8
0
100
AcDbLine
 10
72.0
 20
2.35188
 30
0.0
 11
73.506
 21
2.112678
 31
0.0
  0
LINE
  5
42
330
1E
100
AcDbEntity
  8
0
100
AcDbLine
 10
71.3546
 20
2.910158
 30
0.0
 11
72.0
 21
2.35188
 31
0.0
  0
LINE
  5
43
330
1E
100
AcDbEntity
  8
0
100
AcDbLine
 10
71.3546
 20
2.910158
 30
0.0
 11
72.0
 21
3.468855
 31
0.0
  0
LINE
  5
45
330
1E
100
AcDbEntity
  8
0
100
AcDbLine
 10
94.3745
 20
2.35188
 30
0.0
 11
95.0199
 21
2.910158
 31
0.0
  0
LINE
  5
47
330
1E
100
AcDbEntity
  8
0
100
AcDbLine
 10
91.3625
 20
2.35188
 30
0.0
 11
92.8685
 21
2.112678
 31
0.0
  0
LINE
  5
48
330
1E
100
AcDbEntity
  8
0
100
AcDbLine
 10
90.7171
 20
2.910158
 30
0.0
 11
91.3625
 21
2.35188
 31
0.0
  0
LINE
  5
49
330
1E
100
AcDbEntity
  8
0
100
AcDbLine
 10
90.7171
 20
2.910158
 30
0.0
 11
91.3625
 21
3.468855
 31
0.0
  0
LINE
  5
4C
330
1E
100
AcDbEntity
  8
0
100
AcDbLine
 10
16.9243
 20
2.35188
 30
0.0
 11
17.5697
 21
2.910158
 31
0.0
  0
LINE
  5
4D
330
1E
100
AcDbEntity
  8
0
100
AcDbLine
 10
15.4183
 20
2.112678
 30
0.0
 11
16.9243
 21
2.35188
 31
0.0
  0
LINE
  5
4E
330
1E
100
AcDbEntity
  8
0
100
AcDbLine
 10
13.9123
 20
2.35188
 30
0.0
 11
15.4183
 21
2.112678
 31
0.0
  0
LINE
  5
4F
330
1E
100
AcDbEntity
  8
0
100
AcDbLine
 10
13.2669
 20
2.910158
 30
0.0
 11
13.9123
 21
2.35188
 31
0.0
  0
LINE
  5
50
330
1E
100
AcDbEntity
  8
0
100
AcDbLine
 10
13.2669
 20
2.910158
 30
0.0
 11
13.9123
 21
3.468855
 31
0.0
  0
LINE
  5
52
330
1E
100
AcDbEntity
  8
0
100
AcDbLine
 10
110.725
 20
2.35188
 30
0.0
 11
112.231
 21
2.112678
 31
0.0
  0
LINE
  5
53
330
1E
100
AcDbEntity
  8
0
100
AcDbLine
 10
33.2749
 20
3.468855
 30
0.0
 11
34.7809
 21
3.708065
 31
0.0
  0
LINE
  5
55
330
1E
100
AcDbEntity
  8
0
100
AcDbLine
 10
36.2869
 20
3.468855
 30
0.0
 11
36.9323
 21
2.910158
 31
0.0
  0
LINE
  5
57
330
1E
100
AcDbEntity
  8
0
100
AcDbLine
 10
52.6375
 20
3.468855
 30
0.0
 11
54.1434
 21
3.708065
 31
0.0
  0
LINE
  5
59
330
1E
100
AcDbEntity
  8
0
100
AcDbLine
 10
55.6494
 20
3.468855
 30
0.0
 11
56.2948
 21
2.910158
 31
0.0
  0
LINE
  5
5B
330
1E
100
AcDbEntity
  8
0
100
AcDbLine
 10
72.0
 20
3.468855
 30
0.0
 11
73.506
 21
3.708065
 31
0.0
  0
LINE
  5
5D
330
1E
100
AcDbEntity
  8
0
100
AcDbLine
 10
75.012
 20
3.468855
 30
0.0
 11
75.6574
 21
2.910158
 31
0.0
  0
LINE
  5
5F
330
1E
100
AcDbEntity
  8
0
100
AcDbLine
 10
91.3625
 20
3.468855
 30
0.0
 11
92.8685
 21
3.708065
 31
0.0
  0
LINE
  5
61
330
1E
100
AcDbEntity
  8
0
100
AcDbLine
 10
94.3745
 20
3.468855
 30
0.0
 11
95.0199
 21
2.910158
 31
0.0
  0
LINE
  5
63
330
1E
100
AcDbEntity
  8
0
100
AcDbLine
 10
13.9123
 20
3.468855
 30
0.0
 11
15.4183
 21
3.708065
 31
0.0
  0
LINE
  5
6C
330
1E
100
AcDbEntity
  8
0
100
AcDbLine
 10
34.7809
 20
3.708065
 30
0.0
 11
36.2869
 21
3.468855
 31
0.0
  0
LINE
  5
71
330
1E
100
AcDbEntity
  8
0
100
AcDbLine
 10
54.1434
 20
3.708065
 30
0.0
 11
55.6494
 21
3.468855
 31
0.0
  0
LINE
  5
76
330
1E
100
AcDbEntity
  8
0
100
AcDbLine
 10
73.506
 20
3.708065
 30
0.0
 11
75.012
 21
3.468855
 31
0.0
  0
LINE
  5
7B
330
1E
100
AcDbEntity
  8
0
100
AcDbLine
 10
92.8685
 20
3.708065
 30
0.0
 11
94.3745
 21
3.468855
 31
0.0
  0
LINE
  5
90
330
1E
100
AcDbEntity
  8
0
100
AcDbLine
 10
15.4183
 20
3.708065
 30
0.0
 11
16.9243
 21
3.468855
 31
0.0
  0
LINE
  5
92
330
1E
100
AcDbEntity
  8
0
100
AcDbLine
 10
16.9243
 20
3.468855
 30
0.0
 11
17.5697
 21
2.910158
 31
0.0
  0
LINE
  5
96
330
1E
100
AcDbEntity
  8
0
100
AcDbLine
 10
15.4183
 20
9.823345
 30
0.0
 11
16.9243
 21
10.062555
 31
0.0
  0
LINE
  5
97
330
1E
100
AcDbEntity
  8
0
100
AcDbLine
 10
13.9123
 20
10.062555
 30
0.0
 11
15.4183
 21
9.823345
 31
0.0
  0
LINE
  5
9C
330
1E
100
AcDbEntity
  8
0
100
AcDbLine
 10
92.8685
 20
9.823345
 30
0.0
 11
94.3745
 21
10.062555
 31
0.0
  0
LINE
  5
9D
330
1E
100
AcDbEntity
  8
0
100
AcDbLine
 10
73.506
 20
9.823345
 30
0.0
 11
75.012
 21
10.062555
 31
0.0
  0
LINE
  5
9E
330
1E
100
AcDbEntity
  8
0
100
AcDbLine
 10
54.1434
 20
9.823345
 30
0.0
 11
55.6494
 21
10.062555
 31
0.0
  0
LINE
  5
9F
330
1E
100
AcDbEntity
  8
0
100
AcDbLine
 10
91.3625
 20
10.062555
 30
0.0
 11
92.8685
 21
9.823345
 31
0.0
  0
LINE
  5
A0
330
1E
100
AcDbEntity
  8
0
100
AcDbLine
 10
75.012
 20
10.062555
 30
0.0
 11
75.6574
 21
10.620825
 31
0.0
  0
LINE
  5
A1
330
1E
100
AcDbEntity
  8
0
100
AcDbLine
 10
72.0
 20
10.062555
 30
0.0
 11
73.506
 21
9.823345
 31
0.0
  0
LINE
  5
A2
330
1E
100
AcDbEntity
  8
0
100
AcDbLine
 10
55.6494
 20
10.062555
 30
0.0
 11
56.2948
 21
10.620825
 31
0.0
  0
LINE
  5
A3
330
1E
100
AcDbEntity
  8
0
100
AcDbLine
 10
52.6375
 20
10.062555
 30
0.0
 11
54.1434
 21
9.823345
 31
0.0
  0
LINE
  5
A4
330
1E
100
AcDbEntity
  8
0
100
AcDbLine
 10
36.2869
 20
10.062555
 30
0.0
 11
36.9323
 21
10.620825
 31
0.0
  0
LINE
  5
A5
330
1E
100
AcDbEntity
  8
0
100
AcDbLine
 10
34.7809
 20
9.823345
 30
0.0
 11
36.2869
 21
10.062555
 31
0.0
  0
LINE
  5
A6
330
1E
100
AcDbEntity
  8
0
100
AcDbLine
 10
33.2749
 20
10.062555
 30
0.0
 11
34.7809
 21
9.823345
 31
0.0
  0
LINE
  5
A9
330
1E
100
AcDbEntity
  8
0
100
AcDbLine
 10
94.3745
 20
10.062555
 30
0.0
 11
95.0199
 21
10.620825
 31
0.0
  0
LINE
  5
AC
330
1E
100
AcDbEntity
  8
0
100
AcDbLine
 10
16.9243
 20
10.062555
 30
0.0
 11
17.5697
 21
10.620825
 31
0.0
  0
LINE
  5
B1
330
1E
100
AcDbEntity
  8
0
100
AcDbLine
 10
110.725
 20
3.468855
 30
0.0
 11
112.231
 21
3.708065
 31
0.0
  0
LINE
  5
B3
330
1E
100
AcDbEntity
  8
0
100
AcDbLine
 10
110.08
 20
2.910158
 30
0.0
 11
110.725
 21
2.35188
 31
0.0
  0
LINE
  5
B4
330
1E
100
AcDbEntity
  8
0
100
AcDbLine
 10
110.08
 20
2.910158
 30
0.0
 11
110.725
 21
3.468855
 31
0.0
  0
LINE
  5
B8
330
1E
100
AcDbEntity
  8
0
100
AcDbLine
 10
112.231
 20
3.708065
 30
0.0
 11
113.737
 21
3.468855
 31
0.0
  0
LINE
  5
BA
330
1E
100
AcDbEntity
  8
0
100
AcDbLine
 10
133.1
 20
2.35188
 30
0.0
 11
133.745
 21
2.910158
 31
0.0
  0
LINE
  5
BB
330
1E
100
AcDbEntity
  8
0
100
AcDbLine
 10
131.594
 20
2.112678
 30
0.0
 11
133.1
 21
2.35188
 31
0.0
  0
LINE
  5
BC
330
1E
100
AcDbEntity
  8
0
100
AcDbLine
 10
130.088
 20
2.35188
 30
0.0
 11
131.594
 21
2.112678
 31
0.0
  0
LINE
  5
C0
330
1E
100
AcDbEntity
  8
0
100
AcDbLine
 10
130.088
 20
3.468855
 30
0.0
 11
131.594
 21
3.708065
 31
0.0
  0
LINE
  5
C4
330
1E
100
AcDbEntity
  8
0
100
AcDbLine
 10
131.594
 20
3.708065
 30
0.0
 11
133.1
 21
3.468855
 31
0.0
  0
LINE
  5
C7
330
1E
100
AcDbEntity
  8
0
100
AcDbLine
 10
133.1
 20
3.468855
 30
0.0
 11
133.745
 21
2.910158
 31
0.0
  0
LINE
  5
C9
330
1E
100
AcDbEntity
  8
0
100
AcDbLine
 10
129.442
 20
2.910158
 30
0.0
 11
130.088
 21
2.35188
 31
0.0
  0
LINE
  5
CA
330
1E
100
AcDbEntity
  8
0
100
AcDbLine
 10
129.442
 20
2.910158
 30
0.0
 11
130.088
 21
3.468855
 31
0.0
  0
LINE
  5
CF
330
1E
100
AcDbEntity
  8
0
100
AcDbLine
 10
131.594
 20
9.823345
 30
0.0
 11
133.1
 21
10.062555
 31
0.0
  0
LINE
  5
D2
330
1E
100
AcDbEntity
  8
0
100
AcDbLine
 10
150.956
 20
9.823345
 30
0.0
 11
152.462
 21
10.062555
 31
0.0
  0
LINE
  5
D6
330
1E
100
AcDbEntity
  8
0
100
AcDbLine
 10
113.737
 20
3.468855
 30
0.0
 11
114.382
 21
2.910158
 31
0.0
  0
LINE
  5
D8
330
1E
100
AcDbEntity
  8
0
100
AcDbLine
 10
113.737
 20
2.35188
 30
0.0
 11
114.382
 21
2.910158
 31
0.0
  0
LINE
  5
D9
330
1E
100
AcDbEntity
  8
0
100
AcDbLine
 10
112.231
 20
2.112678
 30
0.0
 11
113.737
 21
2.35188
 31
0.0
  0
LINE
  5
DA
330
1E
100
AcDbEntity
  8
0
100
AcDbLine
 10
149.45
 20
10.062555
 30
0.0
 11
150.956
 21
9.823345
 31
0.0
  0
LINE
  5
DB
330
1E
100
AcDbEntity
  8
0
100
AcDbLine
 10
133.1
 20
10.062555
 30
0.0
 11
133.745
 21
10.620825
 31
0.0
  0
LINE
  5
DC
330
1E
100
AcDbEntity
  8
0
100
AcDbLine
 10
130.088
 20
10.062555
 30
0.0
 11
131.594
 21
9.823345
 31
0.0
  0
LINE
  5
DD
330
1E
100
AcDbEntity
  8
0
100
AcDbLine
 10
113.737
 20
10.062555
 30
0.0
 11
114.382
 21
10.620825
 31
0.0
  0
LINE
  5
DE
330
1E
100
AcDbEntity
  8
0
100
AcDbLine
 10
112.231
 20
9.823345
 30
0.0
 11
113.737
 21
10.062555
 31
0.0
  0
LINE
  5
DF
330
1E
100
AcDbEntity
  8
0
100
AcDbLine
 10
110.725
 20
10.062555
 30
0.0
 11
112.231
 21
9.823345
 31
0.0
  0
LINE
  5
E2
330
1E
100
AcDbEntity
  8
0
100
AcDbLine
 10
13.2669
 20
10.620825
 30
0.0
 11
13.9123
 21
10.062555
 31
0.0
  0
LINE
  5
E3
330
1E
100
AcDbEntity
  8
0
100
AcDbLine
 10
13.2669
 20
10.620825
 30
0.0
 11
13.9123
 21
11.179525
 31
0.0
  0
LINE
  5
E7
330
1E
100
AcDbEntity
  8
0
100
AcDbLine
 10
13.2669
 20
33.752875
 30
0.0
 11
13.9123
 21
33.194575
 31
0.0
  0
LINE
  5
E8
330
1E
100
AcDbEntity
  8
0
100
AcDbLine
 10
13.2669
 20
33.752875
 30
0.0
 11
13.9123
 21
34.311575
 31
0.0
  0
LINE
  5
EC
330
1E
100
AcDbEntity
  8
0
100
AcDbLine
 10
13.2669
 20
26.042175
 30
0.0
 11
13.9123
 21
25.483875
 31
0.0
  0
LINE
  5
ED
330
1E
100
AcDbEntity
  8
0
100
AcDbLine
 10
13.2669
 20
26.042175
 30
0.0
 11
13.9123
 21
26.600875
 31
0.0
  0
LINE
  5
F1
330
1E
100
AcDbEntity
  8
0
100
AcDbLine
 10
13.2669
 20
18.331475
 30
0.0
 11
13.9123
 21
17.773175
 31
0.0
  0
LINE
  5
F2
330
1E
100
AcDbEntity
  8
0
100
AcDbLine
 10
13.2669
 20
18.331475
 30
0.0
 11
13.9123
 21
18.890175
 31
0.0
  0
LINE
  5
F8
330
1E
100
AcDbEntity
  8
0
100
AcDbLine
 10
13.9123
 20
11.179525
 30
0.0
 11
15.4183
 21
11.418735
 31
0.0
  0
LINE
  5
FC
330
1E
100
AcDbEntity
  8
0
100
AcDbLine
 10
13.9123
 20
34.311575
 30
0.0
 11
15.4183
 21
34.550775
 31
0.0
  0
LINE
  5
FE
330
1E
100
AcDbEntity
  8
0
100
AcDbLine
 10
13.9123
 20
33.194575
 30
0.0
 11
15.4183
 21
32.955375
 31
0.0
  0
LINE
  5
101
330
1E
100
AcDbEntity
  8
0
100
AcDbLine
 10
13.9123
 20
26.600875
 30
0.0
 11
15.4183
 21
26.840075
 31
0.0
  0
LINE
  5
103
330
1E
100
AcDbEntity
  8
0
100
AcDbLine
 10
13.9123
 20
25.483875
 30
0.0
 11
15.4183
 21
25.244675
 31
0.0
  0
LINE
  5
106
330
1E
100
AcDbEntity
  8
0
100
AcDbLine
 10
13.9123
 20
18.890175
 30
0.0
 11
15.4183
 21
19.129375
 31
0.0
  0
LINE
  5
10A
330
1E
100
AcDbEntity
  8
0
100
AcDbLine
 10
15.4183
 20
11.418735
 30
0.0
 11
16.9243
 21
11.179525
 31
0.0
  0
LINE
  5
10E
330
1E
100
AcDbEntity
  8
0
100
AcDbLine
 10
15.4183
 20
34.550775
 30
0.0
 11
16.9243
 21
34.311575
 31
0.0
  0
LINE
  5
110
330
1E
100
AcDbEntity
  8
0
100
AcDbLine
 10
15.4183
 20
32.955375
 30
0.0
 11
16.9243
 21
33.194575
 31
0.0
  0
LINE
  5
113
330
1E
100
AcDbEntity
  8
0
100
AcDbLine
 10
15.4183
 20
26.840075
 30
0.0
 11
16.9243
 21
26.600875
 31
0.0
  0
LINE
  5
115
330
1E
100
AcDbEntity
  8
0
100
AcDbLine
 10
15.4183
 20
25.244675
 30
0.0
 11
16.9243
 21
25.483875
 31
0.0
  0
LINE
  5
118
330
1E
100
AcDbEntity
  8
0
100
AcDbLine
 10
15.4183
 20
19.129375
 30
0.0
 11
16.9243
 21
18.890175
 31
0.0
  0
LINE
  5
11A
330
1E
100
AcDbEntity
  8
0
100
AcDbLine
 10
15.4183
 20
17.533975
 30
0.0
 11
16.9243
 21
17.773175
 31
0.0
  0
LINE
  5
11B
330
1E
100
AcDbEntity
  8
0
100
AcDbLine
 10
13.9123
 20
17.773175
 30
0.0
 11
15.4183
 21
17.533975
 31
0.0
  0
LINE
  5
11C
330
1E
100
AcDbEntity
  8
0
100
AcDbLine
 10
13.9123
 20
40.905375
 30
0.0
 11
15.4183
 21
40.666075
 31
0.0
  0
LINE
  5
11F
330
1E
100
AcDbEntity
  8
0
100
AcDbLine
 10
16.9243
 20
11.179525
 30
0.0
 11
17.5697
 21
10.620825
 31
0.0
  0
LINE
  5
123
330
1E
100
AcDbEntity
  8
0
100
AcDbLine
 10
16.9243
 20
34.311575
 30
0.0
 11
17.5697
 21
33.752875
 31
0.0
  0
LINE
  5
125
330
1E
100
AcDbEntity
  8
0
100
AcDbLine
 10
16.9243
 20
33.194575
 30
0.0
 11
17.5697
 21
33.752875
 31
0.0
  0
LINE
  5
128
330
1E
100
AcDbEntity
  8
0
100
AcDbLine
 10
16.9243
 20
26.600875
 30
0.0
 11
17.5697
 21
26.042175
 31
0.0
  0
LINE
  5
12A
330
1E
100
AcDbEntity
  8
0
100
AcDbLine
 10
16.9243
 20
25.483875
 30
0.0
 11
17.5697
 21
26.042175
 31
0.0
  0
LINE
  5
12D
330
1E
100
AcDbEntity
  8
0
100
AcDbLine
 10
16.9243
 20
18.890175
 30
0.0
 11
17.5697
 21
18.331475
 31
0.0
  0
LINE
  5
12F
330
1E
100
AcDbEntity
  8
0
100
AcDbLine
 10
16.9243
 20
17.773175
 30
0.0
 11
17.5697
 21
18.331475
 31
0.0
  0
LINE
  5
130
330
1E
100
AcDbEntity
  8
0
100
AcDbLine
 10
15.4183
 20
40.666075
 30
0.0
 11
16.9243
 21
40.905375
 31
0.0
  0
LINE
  5
131
330
1E
100
AcDbEntity
  8
0
100
AcDbLine
 10
16.9243
 20
40.905375
 30
0.0
 11
17.5697
 21
41.463675
 31
0.0
  0
LINE
  5
13B
330
1E
100
AcDbEntity
  8
0
100
AcDbLine
 10
32.6295
 20
10.620825
 30
0.0
 11
33.2749
 21
10.062555
 31
0.0
  0
LINE
  5
13C
330
1E
100
AcDbEntity
  8
0
100
AcDbLine
 10
32.6295
 20
10.620825
 30
0.0
 11
33.2749
 21
11.179525
 31
0.0
  0
LINE
  5
140
330
1E
100
AcDbEntity
  8
0
100
AcDbLine
 10
32.6295
 20
33.752875
 30
0.0
 11
33.2749
 21
33.194575
 31
0.0
  0
LINE
  5
141
330
1E
100
AcDbEntity
  8
0
100
AcDbLine
 10
32.6295
 20
33.752875
 30
0.0
 11
33.2749
 21
34.311575
 31
0.0
  0
LINE
  5
145
330
1E
100
AcDbEntity
  8
0
100
AcDbLine
 10
32.6295
 20
26.042175
 30
0.0
 11
33.2749
 21
25.483875
 31
0.0
  0
LINE
  5
146
330
1E
100
AcDbEntity
  8
0
100
AcDbLine
 10
32.6295
 20
26.042175
 30
0.0
 11
33.2749
 21
26.600875
 31
0.0
  0
LINE
  5
14A
330
1E
100
AcDbEntity
  8
0
100
AcDbLine
 10
32.6295
 20
18.331475
 30
0.0
 11
33.2749
 21
17.773175
 31
0.0
  0
LINE
  5
14B
330
1E
100
AcDbEntity
  8
0
100
AcDbLine
 10
32.6295
 20
18.331475
 30
0.0
 11
33.2749
 21
18.890175
 31
0.0
  0
LINE
  5
14F
330
1E
100
AcDbEntity
  8
0
100
AcDbLine
 10
16.9243
 20
42.022075
 30
0.0
 11
17.5697
 21
41.463675
 31
0.0
  0
LINE
  5
152
330
1E
100
AcDbEntity
  8
0
100
AcDbLine
 10
15.4183
 20
42.261375
 30
0.0
 11
16.9243
 21
42.022075
 31
0.0
  0
LINE
  5
154
330
1E
100
AcDbEntity
  8
0
100
AcDbLine
 10
13.9123
 20
42.022075
 30
0.0
 11
15.4183
 21
42.261375
 31
0.0
  0
LINE
  5
156
330
1E
100
AcDbEntity
  8
0
100
AcDbLine
 10
13.2669
 20
41.463675
 30
0.0
 11
13.9123
 21
42.022075
 31
0.0
  0
LINE
  5
157
330
1E
100
AcDbEntity
  8
0
100
AcDbLine
 10
13.2669
 20
41.463675
 30
0.0
 11
13.9123
 21
40.905375
 31
0.0
  0
LINE
  5
15D
330
1E
100
AcDbEntity
  8
0
100
AcDbLine
 10
33.2749
 20
11.179525
 30
0.0
 11
34.7809
 21
11.418735
 31
0.0
  0
LINE
  5
161
330
1E
100
AcDbEntity
  8
0
100
AcDbLine
 10
33.2749
 20
34.311575
 30
0.0
 11
34.7809
 21
34.550775
 31
0.0
  0
LINE
  5
163
330
1E
100
AcDbEntity
  8
0
100
AcDbLine
 10
33.2749
 20
33.194575
 30
0.0
 11
34.7809
 21
32.955375
 31
0.0
  0
LINE
  5
166
330
1E
100
AcDbEntity
  8
0
100
AcDbLine
 10
33.2749
 20
26.600875
 30
0.0
 11
34.7809
 21
26.840075
 31
0.0
  0
LINE
  5
168
330
1E
100
AcDbEntity
  8
0
100
AcDbLine
 10
33.2749
 20
25.483875
 30
0.0
 11
34.7809
 21
25.244675
 31
0.0
  0
LINE
  5
16B
330
1E
100
AcDbEntity
  8
0
100
AcDbLine
 10
33.2749
 20
18.890175
 30
0.0
 11
34.7809
 21
19.129375
 31
0.0
  0
LINE
  5
16F
330
1E
100
AcDbEntity
  8
0
100
AcDbLine
 10
34.7809
 20
11.418735
 30
0.0
 11
36.2869
 21
11.179525
 31
0.0
  0
LINE
  5
173
330
1E
100
AcDbEntity
  8
0
100
AcDbLine
 10
34.7809
 20
34.550775
 30
0.0
 11
36.2869
 21
34.311575
 31
0.0
  0
LINE
  5
175
330
1E
100
AcDbEntity
  8
0
100
AcDbLine
 10
34.7809
 20
32.955375
 30
0.0
 11
36.2869
 21
33.194575
 31
0.0
  0
LINE
  5
178
330
1E
100
AcDbEntity
  8
0
100
AcDbLine
 10
34.7809
 20
26.840075
 30
0.0
 11
36.2869
 21
26.600875
 31
0.0
  0
LINE
  5
17A
330
1E
100
AcDbEntity
  8
0
100
AcDbLine
 10
34.7809
 20
25.244675
 30
0.0
 11
36.2869
 21
25.483875
 31
0.0
  0
LINE
  5
17D
330
1E
100
AcDbEntity
  8
0
100
AcDbLine
 10
34.7809
 20
19.129375
 30
0.0
 11
36.2869
 21
18.890175
 31
0.0
  0
LINE
  5
17F
330
1E
100
AcDbEntity
  8
0
100
AcDbLine
 10
34.7809
 20
17.533975
 30
0.0
 11
36.2869
 21
17.773175
 31
0.0
  0
LINE
  5
180
330
1E
100
AcDbEntity
  8
0
100
AcDbLine
 10
33.2749
 20
17.773175
 30
0.0
 11
34.7809
 21
17.533975
 31
0.0
  0
LINE
  5
181
330
1E
100
AcDbEntity
  8
0
100
AcDbLine
 10
33.2749
 20
40.905375
 30
0.0
 11
34.7809
 21
40.666075
 31
0.0
  0
LINE
  5
184
330
1E
100
AcDbEntity
  8
0
100
AcDbLine
 10
36.2869
 20
11.179525
 30
0.0
 11
36.9323
 21
10.620825
 31
0.0
  0
LINE
  5
188
330
1E
100
AcDbEntity
  8
0
100
AcDbLine
 10
36.2869
 20
34.311575
 30
0.0
 11
36.9323
 21
33.752875
 31
0.0
  0
LINE
  5
18A
330
1E
100
AcDbEntity
  8
0
100
AcDbLine
 10
36.2869
 20
33.194575
 30
0.0
 11
36.9323
 21
33.752875
 31
0.0
  0
LINE
  5
18D
330
1E
100
AcDbEntity
  8
0
100
AcDbLine
 10
36.2869
 20
26.600875
 30
0.0
 11
36.9323
 21
26.042175
 31
0.0
  0
LINE
  5
18F
330
1E
100
AcDbEntity
  8
0
100
AcDbLine
 10
36.2869
 20
25.483875
 30
0.0
 11
36.9323
 21
26.042175
 31
0.0
  0
LINE
  5
192
330
1E
100
AcDbEntity
  8
0
100
AcDbLine
 10
36.2869
 20
18.890175
 30
0.0
 11
36.9323
 21
18.331475
 31
0.0
  0
LINE
  5
194
330
1E
100
AcDbEntity
  8
0
100
AcDbLine
 10
36.2869
 20
17.773175
 30
0.0
 11
36.9323
 21
18.331475
 31
0.0
  0
LINE
  5
195
330
1E
100
AcDbEntity
  8
0
100
AcDbLine
 10
34.7809
 20
40.666075
 30
0.0
 11
36.2869
 21
40.905375
 31
0.0
  0
LINE
  5
196
330
1E
100
AcDbEntity
  8
0
100
AcDbLine
 10
36.2869
 20
40.905375
 30
0.0
 11
36.9323
 21
41.463675
 31
0.0
  0
LINE
  5
19B
330
1E
100
AcDbEntity
  8
0
100
AcDbLine
 10
51.992
 20
10.620825
 30
0.0
 11
52.6375
 21
10.062555
 31
0.0
  0
LINE
  5
19C
330
1E
100
AcDbEntity
  8
0
100
AcDbLine
 10
51.992
 20
10.620825
 30
0.0
 11
52.6375
 21
11.179525
 31
0.0
  0
LINE
  5
1A4
330
1E
100
AcDbEntity
  8
0
100
AcDbLine
 10
51.992
 20
33.752875
 30
0.0
 11
52.6375
 21
33.194575
 31
0.0
  0
LINE
  5
1A5
330
1E
100
AcDbEntity
  8
0
100
AcDbLine
 10
51.992
 20
33.752875
 30
0.0
 11
52.6375
 21
34.311575
 31
0.0
  0
LINE
  5
1A9
330
1E
100
AcDbEntity
  8
0
100
AcDbLine
 10
51.992
 20
26.042175
 30
0.0
 11
52.6375
 21
25.483875
 31
0.0
  0
LINE
  5
1AA
330
1E
100
AcDbEntity
  8
0
100
AcDbLine
 10
51.992
 20
26.042175
 30
0.0
 11
52.6375
 21
26.600875
 31
0.0
  0
LINE
  5
1B0
330
1E
100
AcDbEntity
  8
0
100
AcDbLine
 10
51.992
 20
18.331475
 30
0.0
 11
52.6375
 21
17.773175
 31
0.0
  0
LINE
  5
1B1
330
1E
100
AcDbEntity
  8
0
100
AcDbLine
 10
51.992
 20
18.331475
 30
0.0
 11
52.6375
 21
18.890175
 31
0.0
  0
LINE
  5
1B5
330
1E
100
AcDbEntity
  8
0
100
AcDbLine
 10
52.6375
 20
11.179525
 30
0.0
 11
54.1434
 21
11.418735
 31
0.0
  0
LINE
  5
1B9
330
1E
100
AcDbEntity
  8
0
100
AcDbLine
 10
52.6375
 20
34.311575
 30
0.0
 11
54.1434
 21
34.550775
 31
0.0
  0
LINE
  5
1BB
330
1E
100
AcDbEntity
  8
0
100
AcDbLine
 10
52.6375
 20
33.194575
 30
0.0
 11
54.1434
 21
32.955375
 31
0.0
  0
LINE
  5
1BE
330
1E
100
AcDbEntity
  8
0
100
AcDbLine
 10
52.6375
 20
26.600875
 30
0.0
 11
54.1434
 21
26.840075
 31
0.0
  0
LINE
  5
1C0
330
1E
100
AcDbEntity
  8
0
100
AcDbLine
 10
52.6375
 20
25.483875
 30
0.0
 11
54.1434
 21
25.244675
 31
0.0
  0
LINE
  5
1C3
330
1E
100
AcDbEntity
  8
0
100
AcDbLine
 10
52.6375
 20
18.890175
 30
0.0
 11
54.1434
 21
19.129375
 31
0.0
  0
LINE
  5
1C7
330
1E
100
AcDbEntity
  8
0
100
AcDbLine
 10
54.1434
 20
11.418735
 30
0.0
 11
55.6494
 21
11.179525
 31
0.0
  0
LINE
  5
1CB
330
1E
100
AcDbEntity
  8
0
100
AcDbLine
 10
54.1434
 20
34.550775
 30
0.0
 11
55.6494
 21
34.311575
 31
0.0
  0
LINE
  5
1CD
330
1E
100
AcDbEntity
  8
0
100
AcDbLine
 10
54.1434
 20
32.955375
 30
0.0
 11
55.6494
 21
33.194575
 31
0.0
  0
LINE
  5
1D0
330
1E
100
AcDbEntity
  8
0
100
AcDbLine
 10
54.1434
 20
26.840075
 30
0.0
 11
55.6494
 21
26.600875
 31
0.0
  0
LINE
  5
1D2
330
1E
100
AcDbEntity
  8
0
100
AcDbLine
 10
54.1434
 20
25.244675
 30
0.0
 11
55.6494
 21
25.483875
 31
0.0
  0
LINE
  5
1D5
330
1E
100
AcDbEntity
  8
0
100
AcDbLine
 10
54.1434
 20
19.129375
 30
0.0
 11
55.6494
 21
18.890175
 31
0.0
  0
LINE
  5
1D7
330
1E
100
AcDbEntity
  8
0
100
AcDbLine
 10
54.1434
 20
17.533975
 30
0.0
 11
55.6494
 21
17.773175
 31
0.0
  0
LINE
  5
1D8
330
1E
100
AcDbEntity
  8
0
100
AcDbLine
 10
52.6375
 20
17.773175
 30
0.0
 11
54.1434
 21
17.533975
 31
0.0
  0
LINE
  5
1D9
330
1E
100
AcDbEntity
  8
0
100
AcDbLine
 10
52.6375
 20
40.905375
 30
0.0
 11
54.1434
 21
40.666075
 31
0.0
  0
LINE
  5
1DC
330
1E
100
AcDbEntity
  8
0
100
AcDbLine
 10
55.6494
 20
11.179525
 30
0.0
 11
56.2948
 21
10.620825
 31
0.0
  0
LINE
  5
1E0
330
1E
100
AcDbEntity
  8
0
100
AcDbLine
 10
55.6494
 20
34.311575
 30
0.0
 11
56.2948
 21
33.752875
 31
0.0
  0
LINE
  5
1E2
330
1E
100
AcDbEntity
  8
0
100
AcDbLine
 10
55.6494
 20
33.194575
 30
0.0
 11
56.2948
 21
33.752875
 31
0.0
  0
LINE
  5
1E5
330
1E
100
AcDbEntity
  8
0
100
AcDbLine
 10
55.6494
 20
26.600875
 30
0.0
 11
56.2948
 21
26.042175
 31
0.0
  0
LINE
  5
1E7
330
1E
100
AcDbEntity
  8
0
100
AcDbLine
 10
55.6494
 20
25.483875
 30
0.0
 11
56.2948
 21
26.042175
 31
0.0
  0
LINE
  5
1EA
330
1E
100
AcDbEntity
  8
0
100
AcDbLine
 10
55.6494
 20
18.890175
 30
0.0
 11
56.2948
 21
18.331475
 31
0.0
  0
LINE
  5
1F2
330
1E
100
AcDbEntity
  8
0
100
AcDbLine
 10
72.0
 20
11.179525
 30
0.0
 11
73.506
 21
11.418735
 31
0.0
  0
LINE
  5
1F4
330
1E
100
AcDbEntity
  8
0
100
AcDbLine
 10
71.3546
 20
10.620825
 30
0.0
 11
72.0
 21
10.062555
 31
0.0
  0
LINE
  5
1F5
330
1E
100
AcDbEntity
  8
0
100
AcDbLine
 10
71.3546
 20
10.620825
 30
0.0
 11
72.0
 21
11.179525
 31
0.0
  0
LINE
  5
1F9
330
1E
100
AcDbEntity
  8
0
100
AcDbLine
 10
73.506
 20
11.418735
 30
0.0
 11
75.012
 21
11.179525
 31
0.0
  0
LINE
  5
1FB
330
1E
100
AcDbEntity
  8
0
100
AcDbLine
 10
73.506
 20
17.533975
 30
0.0
 11
75.012
 21
17.773175
 31
0.0
  0
LINE
  5
1FC
330
1E
100
AcDbEntity
  8
0
100
AcDbLine
 10
72.0
 20
17.773175
 30
0.0
 11
73.506
 21
17.533975
 31
0.0
  0
LINE
  5
1FF
330
1E
100
AcDbEntity
  8
0
100
AcDbLine
 10
72.0
 20
18.890175
 30
0.0
 11
73.506
 21
19.129375
 31
0.0
  0
LINE
  5
201
330
1E
100
AcDbEntity
  8
0
100
AcDbLine
 10
73.506
 20
19.129375
 30
0.0
 11
75.012
 21
18.890175
 31
0.0
  0
LINE
  5
203
330
1E
100
AcDbEntity
  8
0
100
AcDbLine
 10
71.3546
 20
18.331475
 30
0.0
 11
72.0
 21
17.773175
 31
0.0
  0
LINE
  5
204
330
1E
100
AcDbEntity
  8
0
100
AcDbLine
 10
71.3546
 20
18.331475
 30
0.0
 11
72.0
 21
18.890175
 31
0.0
  0
LINE
  5
20E
330
1E
100
AcDbEntity
  8
0
100
AcDbLine
 10
71.3546
 20
33.752875
 30
0.0
 11
72.0
 21
33.194575
 31
0.0
  0
LINE
  5
20F
330
1E
100
AcDbEntity
  8
0
100
AcDbLine
 10
71.3546
 20
33.752875
 30
0.0
 11
72.0
 21
34.311575
 31
0.0
  0
LINE
  5
213
330
1E
100
AcDbEntity
  8
0
100
AcDbLine
 10
73.506
 20
25.244675
 30
0.0
 11
75.012
 21
25.483875
 31
0.0
  0
LINE
  5
216
330
1E
100
AcDbEntity
  8
0
100
AcDbLine
 10
72.0
 20
34.311575
 30
0.0
 11
73.506
 21
34.550775
 31
0.0
  0
LINE
  5
21A
330
1E
100
AcDbEntity
  8
0
100
AcDbLine
 10
73.506
 20
34.550775
 30
0.0
 11
75.012
 21
34.311575
 31
0.0
  0
LINE
  5
21C
330
1E
100
AcDbEntity
  8
0
100
AcDbLine
 10
73.506
 20
32.955375
 30
0.0
 11
75.012
 21
33.194575
 31
0.0
  0
LINE
  5
21D
330
1E
100
AcDbEntity
  8
0
100
AcDbLine
 10
72.0
 20
33.194575
 30
0.0
 11
73.506
 21
32.955375
 31
0.0
  0
LINE
  5
222
330
1E
100
AcDbEntity
  8
0
100
AcDbLine
 10
72.0
 20
26.600875
 30
0.0
 11
73.506
 21
26.840075
 31
0.0
  0
LINE
  5
224
330
1E
100
AcDbEntity
  8
0
100
AcDbLine
 10
73.506
 20
26.840075
 30
0.0
 11
75.012
 21
26.600875
 31
0.0
  0
LINE
  5
226
330
1E
100
AcDbEntity
  8
0
100
AcDbLine
 10
72.0
 20
25.483875
 30
0.0
 11
73.506
 21
25.244675
 31
0.0
  0
LINE
  5
227
330
1E
100
AcDbEntity
  8
0
100
AcDbLine
 10
71.3546
 20
26.042175
 30
0.0
 11
72.0
 21
25.483875
 31
0.0
  0
LINE
  5
228
330
1E
100
AcDbEntity
  8
0
100
AcDbLine
 10
71.3546
 20
26.042175
 30
0.0
 11
72.0
 21
26.600875
 31
0.0
  0
LINE
  5
22E
330
1E
100
AcDbEntity
  8
0
100
AcDbLine
 10
55.6494
 20
17.773175
 30
0.0
 11
56.2948
 21
18.331475
 31
0.0
  0
LINE
  5
22F
330
1E
100
AcDbEntity
  8
0
100
AcDbLine
 10
72.0
 20
40.905375
 30
0.0
 11
73.506
 21
40.666075
 31
0.0
  0
LINE
  5
232
330
1E
100
AcDbEntity
  8
0
100
AcDbLine
 10
75.012
 20
11.179525
 30
0.0
 11
75.6574
 21
10.620825
 31
0.0
  0
LINE
  5
234
330
1E
100
AcDbEntity
  8
0
100
AcDbLine
 10
75.012
 20
18.890175
 30
0.0
 11
75.6574
 21
18.331475
 31
0.0
  0
LINE
  5
23A
330
1E
100
AcDbEntity
  8
0
100
AcDbLine
 10
90.7171
 20
10.620825
 30
0.0
 11
91.3625
 21
10.062555
 31
0.0
  0
LINE
  5
23B
330
1E
100
AcDbEntity
  8
0
100
AcDbLine
 10
90.7171
 20
10.620825
 30
0.0
 11
91.3625
 21
11.179525
 31
0.0
  0
LINE
  5
23F
330
1E
100
AcDbEntity
  8
0
100
AcDbLine
 10
75.012
 20
17.773175
 30
0.0
 11
75.6574
 21
18.331475
 31
0.0
  0
LINE
  5
242
330
1E
100
AcDbEntity
  8
0
100
AcDbLine
 10
75.012
 20
34.311575
 30
0.0
 11
75.6574
 21
33.752875
 31
0.0
  0
LINE
  5
244
330
1E
100
AcDbEntity
  8
0
100
AcDbLine
 10
75.012
 20
33.194575
 30
0.0
 11
75.6574
 21
33.752875
 31
0.0
  0
LINE
  5
247
330
1E
100
AcDbEntity
  8
0
100
AcDbLine
 10
75.012
 20
26.600875
 30
0.0
 11
75.6574
 21
26.042175
 31
0.0
  0
LINE
  5
249
330
1E
100
AcDbEntity
  8
0
100
AcDbLine
 10
75.012
 20
25.483875
 30
0.0
 11
75.6574
 21
26.042175
 31
0.0
  0
LINE
  5
24C
330
1E
100
AcDbEntity
  8
0
100
AcDbLine
 10
90.7171
 20
26.042175
 30
0.0
 11
91.3625
 21
25.483875
 31
0.0
  0
LINE
  5
24D
330
1E
100
AcDbEntity
  8
0
100
AcDbLine
 10
90.7171
 20
26.042175
 30
0.0
 11
91.3625
 21
26.600875
 31
0.0
  0
LINE
  5
253
330
1E
100
AcDbEntity
  8
0
100
AcDbLine
 10
90.7171
 20
33.752875
 30
0.0
 11
91.3625
 21
33.194575
 31
0.0
  0
LINE
  5
254
330
1E
100
AcDbEntity
  8
0
100
AcDbLine
 10
90.7171
 20
33.752875
 30
0.0
 11
91.3625
 21
34.311575
 31
0.0
  0
LINE
  5
25C
330
1E
100
AcDbEntity
  8
0
100
AcDbLine
 10
91.3625
 20
11.179525
 30
0.0
 11
92.8685
 21
11.418735
 31
0.0
  0
LINE
  5
262
330
1E
100
AcDbEntity
  8
0
100
AcDbLine
 10
92.8685
 20
11.418735
 30
0.0
 11
94.3745
 21
11.179525
 31
0.0
  0
LINE
  5
264
330
1E
100
AcDbEntity
  8
0
100
AcDbLine
 10
92.8685
 20
17.533975
 30
0.0
 11
94.3745
 21
17.773175
 31
0.0
  0
LINE
  5
267
330
1E
100
AcDbEntity
  8
0
100
AcDbLine
 10
91.3625
 20
34.311575
 30
0.0
 11
92.8685
 21
34.550775
 31
0.0
  0
LINE
  5
269
330
1E
100
AcDbEntity
  8
0
100
AcDbLine
 10
91.3625
 20
33.194575
 30
0.0
 11
92.8685
 21
32.955375
 31
0.0
  0
LINE
  5
26C
330
1E
100
AcDbEntity
  8
0
100
AcDbLine
 10
91.3625
 20
26.600875
 30
0.0
 11
92.8685
 21
26.840075
 31
0.0
  0
LINE
  5
270
330
1E
100
AcDbEntity
  8
0
100
AcDbLine
 10
92.8685
 20
34.550775
 30
0.0
 11
94.3745
 21
34.311575
 31
0.0
  0
LINE
  5
272
330
1E
100
AcDbEntity
  8
0
100
AcDbLine
 10
92.8685
 20
32.955375
 30
0.0
 11
94.3745
 21
33.194575
 31
0.0
  0
LINE
  5
275
330
1E
100
AcDbEntity
  8
0
100
AcDbLine
 10
92.8685
 20
26.840075
 30
0.0
 11
94.3745
 21
26.600875
 31
0.0
  0
LINE
  5
277
330
1E
100
AcDbEntity
  8
0
100
AcDbLine
 10
92.8685
 20
25.244675
 30
0.0
 11
94.3745
 21
25.483875
 31
0.0
  0
LINE
  5
278
330
1E
100
AcDbEntity
  8
0
100
AcDbLine
 10
91.3625
 20
25.483875
 30
0.0
 11
92.8685
 21
25.244675
 31
0.0
  0
LINE
  5
27D
330
1E
100
AcDbEntity
  8
0
100
AcDbLine
 10
91.3625
 20
18.890175
 30
0.0
 11
92.8685
 21
19.129375
 31
0.0
  0
LINE
  5
27F
330
1E
100
AcDbEntity
  8
0
100
AcDbLine
 10
92.8685
 20
19.129375
 30
0.0
 11
94.3745
 21
18.890175
 31
0.0
  0
LINE
  5
281
330
1E
100
AcDbEntity
  8
0
100
AcDbLine
 10
91.3625
 20
17.773175
 30
0.0
 11
92.8685
 21
17.533975
 31
0.0
  0
LINE
  5
282
330
1E
100
AcDbEntity
  8
0
100
AcDbLine
 10
90.7171
 20
18.331475
 30
0.0
 11
91.3625
 21
17.773175
 31
0.0
  0
LINE
  5
283
330
1E
100
AcDbEntity
  8
0
100
AcDbLine
 10
90.7171
 20
18.331475
 30
0.0
 11
91.3625
 21
18.890175
 31
0.0
  0
LINE
  5
285
330
1E
100
AcDbEntity
  8
0
100
AcDbLine
 10
91.3625
 20
40.905375
 30
0.0
 11
92.8685
 21
40.666075
 31
0.0
  0
LINE
  5
288
330
1E
100
AcDbEntity
  8
0
100
AcDbLine
 10
94.3745
 20
11.179525
 30
0.0
 11
95.0199
 21
10.620825
 31
0.0
  0
LINE
  5
28C
330
1E
100
AcDbEntity
  8
0
100
AcDbLine
 10
94.3745
 20
18.890175
 30
0.0
 11
95.0199
 21
18.331475
 31
0.0
  0
LINE
  5
290
330
1E
100
AcDbEntity
  8
0
100
AcDbLine
 10
94.3745
 20
17.773175
 30
0.0
 11
95.0199
 21
18.331475
 31
0.0
  0
LINE
  5
293
330
1E
100
AcDbEntity
  8
0
100
AcDbLine
 10
110.08
 20
10.620825
 30
0.0
 11
110.725
 21
10.062555
 31
0.0
  0
LINE
  5
294
330
1E
100
AcDbEntity
  8
0
100
AcDbLine
 10
110.08
 20
10.620825
 30
0.0
 11
110.725
 21
11.179525
 31
0.0
  0
LINE
  5
296
330
1E
100
AcDbEntity
  8
0
100
AcDbLine
 10
94.3745
 20
25.483875
 30
0.0
 11
95.0199
 21
26.042175
 31
0.0
  0
LINE
  5
29C
330
1E
100
AcDbEntity
  8
0
100
AcDbLine
 10
110.08
 20
18.331475
 30
0.0
 11
110.725
 21
17.773175
 31
0.0
  0
LINE
  5
29D
330
1E
100
AcDbEntity
  8
0
100
AcDbLine
 10
110.08
 20
18.331475
 30
0.0
 11
110.725
 21
18.890175
 31
0.0
  0
LINE
  5
2A1
330
1E
100
AcDbEntity
  8
0
100
AcDbLine
 10
94.3745
 20
34.311575
 30
0.0
 11
95.0199
 21
33.752875
 31
0.0
  0
LINE
  5
2A5
330
1E
100
AcDbEntity
  8
0
100
AcDbLine
 10
94.3745
 20
33.194575
 30
0.0
 11
95.0199
 21
33.752875
 31
0.0
  0
LINE
  5
2AA
330
1E
100
AcDbEntity
  8
0
100
AcDbLine
 10
110.08
 20
33.752875
 30
0.0
 11
110.725
 21
33.194575
 31
0.0
  0
LINE
  5
2AB
330
1E
100
AcDbEntity
  8
0
100
AcDbLine
 10
110.08
 20
33.752875
 30
0.0
 11
110.725
 21
34.311575
 31
0.0
  0
LINE
  5
2AE
330
1E
100
AcDbEntity
  8
0
100
AcDbLine
 10
94.3745
 20
26.600875
 30
0.0
 11
95.0199
 21
26.042175
 31
0.0
  0
LINE
  5
2B2
330
1E
100
AcDbEntity
  8
0
100
AcDbLine
 10
110.08
 20
26.042175
 30
0.0
 11
110.725
 21
25.483875
 31
0.0
  0
LINE
  5
2B3
330
1E
100
AcDbEntity
  8
0
100
AcDbLine
 10
110.08
 20
26.042175
 30
0.0
 11
110.725
 21
26.600875
 31
0.0
  0
LINE
  5
2B5
330
1E
100
AcDbEntity
  8
0
100
AcDbLine
 10
92.8685
 20
40.666075
 30
0.0
 11
94.3745
 21
40.905375
 31
0.0
  0
LINE
  5
2B6
330
1E
100
AcDbEntity
  8
0
100
AcDbLine
 10
94.3745
 20
40.905375
 30
0.0
 11
95.0199
 21
41.463675
 31
0.0
  0
LINE
  5
2B7
330
1E
100
AcDbEntity
  8
0
100
AcDbLine
 10
73.506
 20
40.666075
 30
0.0
 11
75.012
 21
40.905375
 31
0.0
  0
LINE
  5
2B8
330
1E
100
AcDbEntity
  8
0
100
AcDbLine
 10
75.012
 20
40.905375
 30
0.0
 11
75.6574
 21
41.463675
 31
0.0
  0
LINE
  5
2B9
330
1E
100
AcDbEntity
  8
0
100
AcDbLine
 10
54.1434
 20
40.666075
 30
0.0
 11
55.6494
 21
40.905375
 31
0.0
  0
LINE
  5
2BB
330
1E
100
AcDbEntity
  8
0
100
AcDbLine
 10
90.7171
 20
41.463675
 30
0.0
 11
91.3625
 21
42.022075
 31
0.0
  0
LINE
  5
2BC
330
1E
100
AcDbEntity
  8
0
100
AcDbLine
 10
90.7171
 20
41.463675
 30
0.0
 11
91.3625
 21
40.905375
 31
0.0
  0
LINE
  5
2BF
330
1E
100
AcDbEntity
  8
0
100
AcDbLine
 10
71.3546
 20
41.463675
 30
0.0
 11
72.0
 21
42.022075
 31
0.0
  0
LINE
  5
2C0
330
1E
100
AcDbEntity
  8
0
100
AcDbLine
 10
71.3546
 20
41.463675
 30
0.0
 11
72.0
 21
40.905375
 31
0.0
  0
LINE
  5
2C3
330
1E
100
AcDbEntity
  8
0
100
AcDbLine
 10
55.6494
 20
40.905375
 30
0.0
 11
56.2948
 21
41.463675
 31
0.0
  0
LINE
  5
2C4
330
1E
100
AcDbEntity
  8
0
100
AcDbLine
 10
51.992
 20
41.463675
 30
0.0
 11
52.6375
 21
42.022075
 31
0.0
  0
LINE
  5
2C5
330
1E
100
AcDbEntity
  8
0
100
AcDbLine
 10
51.992
 20
41.463675
 30
0.0
 11
52.6375
 21
40.905375
 31
0.0
  0
LINE
  5
2C7
330
1E
100
AcDbEntity
  8
0
100
AcDbLine
 10
94.3745
 20
42.022075
 30
0.0
 11
95.0199
 21
41.463675
 31
0.0
  0
LINE
  5
2C9
330
1E
100
AcDbEntity
  8
0
100
AcDbLine
 10
91.3625
 20
42.022075
 30
0.0
 11
92.8685
 21
42.261375
 31
0.0
  0
LINE
  5
2CB
330
1E
100
AcDbEntity
  8
0
100
AcDbLine
 10
75.012
 20
42.022075
 30
0.0
 11
75.6574
 21
41.463675
 31
0.0
  0
LINE
  5
2CD
330
1E
100
AcDbEntity
  8
0
100
AcDbLine
 10
72.0
 20
42.022075
 30
0.0
 11
73.506
 21
42.261375
 31
0.0
  0
LINE
  5
2CF
330
1E
100
AcDbEntity
  8
0
100
AcDbLine
 10
55.6494
 20
42.022075
 30
0.0
 11
56.2948
 21
41.463675
 31
0.0
  0
LINE
  5
2D1
330
1E
100
AcDbEntity
  8
0
100
AcDbLine
 10
52.6375
 20
42.022075
 30
0.0
 11
54.1434
 21
42.261375
 31
0.0
  0
LINE
  5
2D4
330
1E
100
AcDbEntity
  8
0
100
AcDbLine
 10
36.2869
 20
42.022075
 30
0.0
 11
36.9323
 21
41.463675
 31
0.0
  0
LINE
  5
2DD
330
1E
100
AcDbEntity
  8
0
100
AcDbLine
 10
92.8685
 20
42.261375
 30
0.0
 11
94.3745
 21
42.022075
 31
0.0
  0
LINE
  5
2E0
330
1E
100
AcDbEntity
  8
0
100
AcDbLine
 10
73.506
 20
42.261375
 30
0.0
 11
75.012
 21
42.022075
 31
0.0
  0
LINE
  5
2E3
330
1E
100
AcDbEntity
  8
0
100
AcDbLine
 10
54.1434
 20
42.261375
 30
0.0
 11
55.6494
 21
42.022075
 31
0.0
  0
LINE
  5
2E6
330
1E
100
AcDbEntity
  8
0
100
AcDbLine
 10
34.7809
 20
42.261375
 30
0.0
 11
36.2869
 21
42.022075
 31
0.0
  0
LINE
  5
2E8
330
1E
100
AcDbEntity
  8
0
100
AcDbLine
 10
33.2749
 20
42.022075
 30
0.0
 11
34.7809
 21
42.261375
 31
0.0
  0
LINE
  5
2EA
330
1E
100
AcDbEntity
  8
0
100
AcDbLine
 10
32.6295
 20
41.463675
 30
0.0
 11
33.2749
 21
42.022075
 31
0.0
  0
LINE
  5
2EB
330
1E
100
AcDbEntity
  8
0
100
AcDbLine
 10
32.6295
 20
41.463675
 30
0.0
 11
33.2749
 21
40.905375
 31
0.0
  0
LINE
  5
2F1
330
1E
100
AcDbEntity
  8
0
100
AcDbLine
 10
110.725
 20
11.179525
 30
0.0
 11
112.231
 21
11.418735
 31
0.0
  0
LINE
  5
2F5
330
1E
100
AcDbEntity
  8
0
100
AcDbLine
 10
110.725
 20
18.890175
 30
0.0
 11
112.231
 21
19.129375
 31
0.0
  0
LINE
  5
2F7
330
1E
100
AcDbEntity
  8
0
100
AcDbLine
 10
110.725
 20
17.773175
 30
0.0
 11
112.231
 21
17.533975
 31
0.0
  0
LINE
  5
2FA
330
1E
100
AcDbEntity
  8
0
100
AcDbLine
 10
110.725
 20
34.311575
 30
0.0
 11
112.231
 21
34.550775
 31
0.0
  0
LINE
  5
2FC
330
1E
100
AcDbEntity
  8
0
100
AcDbLine
 10
110.725
 20
33.194575
 30
0.0
 11
112.231
 21
32.955375
 31
0.0
  0
LINE
  5
2FF
330
1E
100
AcDbEntity
  8
0
100
AcDbLine
 10
110.725
 20
26.600875
 30
0.0
 11
112.231
 21
26.840075
 31
0.0
  0
LINE
  5
303
330
1E
100
AcDbEntity
  8
0
100
AcDbLine
 10
112.231
 20
11.418735
 30
0.0
 11
113.737
 21
11.179525
 31
0.0
  0
LINE
  5
307
330
1E
100
AcDbEntity
  8
0
100
AcDbLine
 10
112.231
 20
19.129375
 30
0.0
 11
113.737
 21
18.890175
 31
0.0
  0
LINE
  5
309
330
1E
100
AcDbEntity
  8
0
100
AcDbLine
 10
112.231
 20
17.533975
 30
0.0
 11
113.737
 21
17.773175
 31
0.0
  0
LINE
  5
30C
330
1E
100
AcDbEntity
  8
0
100
AcDbLine
 10
112.231
 20
34.550775
 30
0.0
 11
113.737
 21
34.311575
 31
0.0
  0
LINE
  5
30E
330
1E
100
AcDbEntity
  8
0
100
AcDbLine
 10
112.231
 20
32.955375
 30
0.0
 11
113.737
 21
33.194575
 31
0.0
  0
LINE
  5
311
330
1E
100
AcDbEntity
  8
0
100
AcDbLine
 10
112.231
 20
26.840075
 30
0.0
 11
113.737
 21
26.600875
 31
0.0
  0
LINE
  5
313
330
1E
100
AcDbEntity
  8
0
100
AcDbLine
 10
112.231
 20
25.244675
 30
0.0
 11
113.737
 21
25.483875
 31
0.0
  0
LINE
  5
314
330
1E
100
AcDbEntity
  8
0
100
AcDbLine
 10
110.725
 20
25.483875
 30
0.0
 11
112.231
 21
25.244675
 31
0.0
  0
LINE
  5
315
330
1E
100
AcDbEntity
  8
0
100
AcDbLine
 10
110.725
 20
40.905375
 30
0.0
 11
112.231
 21
40.666075
 31
0.0
  0
LINE
  5
318
330
1E
100
AcDbEntity
  8
0
100
AcDbLine
 10
113.737
 20
11.179525
 30
0.0
 11
114.382
 21
10.620825
 31
0.0
  0
LINE
  5
31C
330
1E
100
AcDbEntity
  8
0
100
AcDbLine
 10
113.737
 20
18.890175
 30
0.0
 11
114.382
 21
18.331475
 31
0.0
  0
LINE
  5
31E
330
1E
100
AcDbEntity
  8
0
100
AcDbLine
 10
113.737
 20
17.773175
 30
0.0
 11
114.382
 21
18.331475
 31
0.0
  0
LINE
  5
321
330
1E
100
AcDbEntity
  8
0
100
AcDbLine
 10
113.737
 20
34.311575
 30
0.0
 11
114.382
 21
33.752875
 31
0.0
  0
LINE
  5
323
330
1E
100
AcDbEntity
  8
0
100
AcDbLine
 10
113.737
 20
33.194575
 30
0.0
 11
114.382
 21
33.752875
 31
0.0
  0
LINE
  5
326
330
1E
100
AcDbEntity
  8
0
100
AcDbLine
 10
113.737
 20
26.600875
 30
0.0
 11
114.382
 21
26.042175
 31
0.0
  0
LINE
  5
328
330
1E
100
AcDbEntity
  8
0
100
AcDbLine
 10
113.737
 20
25.483875
 30
0.0
 11
114.382
 21
26.042175
 31
0.0
  0
LINE
  5
329
330
1E
100
AcDbEntity
  8
0
100
AcDbLine
 10
112.231
 20
40.666075
 30
0.0
 11
113.737
 21
40.905375
 31
0.0
  0
LINE
  5
32A
330
1E
100
AcDbEntity
  8
0
100
AcDbLine
 10
113.737
 20
40.905375
 30
0.0
 11
114.382
 21
41.463675
 31
0.0
  0
LINE
  5
331
330
1E
100
AcDbEntity
  8
0
100
AcDbLine
 10
129.442
 20
10.620825
 30
0.0
 11
130.088
 21
10.062555
 31
0.0
  0
LINE
  5
332
330
1E
100
AcDbEntity
  8
0
100
AcDbLine
 10
129.442
 20
10.620825
 30
0.0
 11
130.088
 21
11.179525
 31
0.0
  0
LINE
  5
336
330
1E
100
AcDbEntity
  8
0
100
AcDbLine
 10
129.442
 20
26.042175
 30
0.0
 11
130.088
 21
25.483875
 31
0.0
  0
LINE
  5
337
330
1E
100
AcDbEntity
  8
0
100
AcDbLine
 10
129.442
 20
26.042175
 30
0.0
 11
130.088
 21
26.600875
 31
0.0
  0
LINE
  5
33B
330
1E
100
AcDbEntity
  8
0
100
AcDbLine
 10
129.442
 20
18.331475
 30
0.0
 11
130.088
 21
17.773175
 31
0.0
  0
LINE
  5
33C
330
1E
100
AcDbEntity
  8
0
100
AcDbLine
 10
129.442
 20
18.331475
 30
0.0
 11
130.088
 21
18.890175
 31
0.0
  0
LINE
  5
342
330
1E
100
AcDbEntity
  8
0
100
AcDbLine
 10
129.442
 20
33.752875
 30
0.0
 11
130.088
 21
33.194575
 31
0.0
  0
LINE
  5
343
330
1E
100
AcDbEntity
  8
0
100
AcDbLine
 10
129.442
 20
33.752875
 30
0.0
 11
130.088
 21
34.311575
 31
0.0
  0
LINE
  5
349
330
1E
100
AcDbEntity
  8
0
100
AcDbLine
 10
130.088
 20
11.179525
 30
0.0
 11
131.594
 21
11.418735
 31
0.0
  0
LINE
  5
34D
330
1E
100
AcDbEntity
  8
0
100
AcDbLine
 10
130.088
 20
34.311575
 30
0.0
 11
131.594
 21
34.550775
 31
0.0
  0
LINE
  5
34F
330
1E
100
AcDbEntity
  8
0
100
AcDbLine
 10
130.088
 20
33.194575
 30
0.0
 11
131.594
 21
32.955375
 31
0.0
  0
LINE
  5
352
330
1E
100
AcDbEntity
  8
0
100
AcDbLine
 10
130.088
 20
26.600875
 30
0.0
 11
131.594
 21
26.840075
 31
0.0
  0
LINE
  5
354
330
1E
100
AcDbEntity
  8
0
100
AcDbLine
 10
130.088
 20
25.483875
 30
0.0
 11
131.594
 21
25.244675
 31
0.0
  0
LINE
  5
357
330
1E
100
AcDbEntity
  8
0
100
AcDbLine
 10
130.088
 20
18.890175
 30
0.0
 11
131.594
 21
19.129375
 31
0.0
  0
LINE
  5
35B
330
1E
100
AcDbEntity
  8
0
100
AcDbLine
 10
131.594
 20
11.418735
 30
0.0
 11
133.1
 21
11.179525
 31
0.0
  0
LINE
  5
35F
330
1E
100
AcDbEntity
  8
0
100
AcDbLine
 10
131.594
 20
34.550775
 30
0.0
 11
133.1
 21
34.311575
 31
0.0
  0
LINE
  5
361
330
1E
100
AcDbEntity
  8
0
100
AcDbLine
 10
131.594
 20
32.955375
 30
0.0
 11
133.1
 21
33.194575
 31
0.0
  0
LINE
  5
364
330
1E
100
AcDbEntity
  8
0
100
AcDbLine
 10
131.594
 20
26.840075
 30
0.0
 11
133.1
 21
26.600875
 31
0.0
  0
LINE
  5
366
330
1E
100
AcDbEntity
  8
0
100
AcDbLine
 10
131.594
 20
25.244675
 30
0.0
 11
133.1
 21
25.483875
 31
0.0
  0
LINE
  5
369
330
1E
100
AcDbEntity
  8
0
100
AcDbLine
 10
131.594
 20
19.129375
 30
0.0
 11
133.1
 21
18.890175
 31
0.0
  0
LINE
  5
36B
330
1E
100
AcDbEntity
  8
0
100
AcDbLine
 10
131.594
 20
17.533975
 30
0.0
 11
133.1
 21
17.773175
 31
0.0
  0
LINE
  5
36C
330
1E
100
AcDbEntity
  8
0
100
AcDbLine
 10
130.088
 20
17.773175
 30
0.0
 11
131.594
 21
17.533975
 31
0.0
  0
LINE
  5
36D
330
1E
100
AcDbEntity
  8
0
100
AcDbLine
 10
130.088
 20
40.905375
 30
0.0
 11
131.594
 21
40.666075
 31
0.0
  0
LINE
  5
370
330
1E
100
AcDbEntity
  8
0
100
AcDbLine
 10
133.1
 20
11.179525
 30
0.0
 11
133.745
 21
10.620825
 31
0.0
  0
LINE
  5
375
330
1E
100
AcDbEntity
  8
0
100
AcDbLine
 10
148.805
 20
10.620825
 30
0.0
 11
149.45
 21
10.062555
 31
0.0
  0
LINE
  5
376
330
1E
100
AcDbEntity
  8
0
100
AcDbLine
 10
148.805
 20
10.620825
 30
0.0
 11
149.45
 21
11.179525
 31
0.0
  0
LINE
  5
37A
330
1E
100
AcDbEntity
  8
0
100
AcDbLine
 10
133.1
 20
17.773175
 30
0.0
 11
133.745
 21
18.331475
 31
0.0
  0
LINE
  5
37D
330
1E
100
AcDbEntity
  8
0
100
AcDbLine
 10
133.1
 20
34.311575
 30
0.0
 11
133.745
 21
33.752875
 31
0.0
  0
LINE
  5
37F
330
1E
100
AcDbEntity
  8
0
100
AcDbLine
 10
133.1
 20
33.194575
 30
0.0
 11
133.745
 21
33.752875
 31
0.0
  0
LINE
  5
382
330
1E
100
AcDbEntity
  8
0
100
AcDbLine
 10
133.1
 20
26.600875
 30
0.0
 11
133.745
 21
26.042175
 31
0.0
  0
LINE
  5
388
330
1E
100
AcDbEntity
  8
0
100
AcDbLine
 10
133.1
 20
25.483875
 30
0.0
 11
133.745
 21
26.042175
 31
0.0
  0
LINE
  5
38D
330
1E
100
AcDbEntity
  8
0
100
AcDbLine
 10
148.805
 20
33.752875
 30
0.0
 11
149.45
 21
33.194575
 31
0.0
  0
LINE
  5
38E
330
1E
100
AcDbEntity
  8
0
100
AcDbLine
 10
148.805
 20
33.752875
 30
0.0
 11
149.45
 21
34.311575
 31
0.0
  0
LINE
  5
392
330
1E
100
AcDbEntity
  8
0
100
AcDbLine
 10
148.805
 20
26.042175
 30
0.0
 11
149.45
 21
25.483875
 31
0.0
  0
LINE
  5
393
330
1E
100
AcDbEntity
  8
0
100
AcDbLine
 10
148.805
 20
26.042175
 30
0.0
 11
149.45
 21
26.600875
 31
0.0
  0
LINE
  5
396
330
1E
100
AcDbEntity
  8
0
100
AcDbLine
 10
133.1
 20
18.890175
 30
0.0
 11
133.745
 21
18.331475
 31
0.0
  0
LINE
  5
39A
330
1E
100
AcDbEntity
  8
0
100
AcDbLine
 10
148.805
 20
18.331475
 30
0.0
 11
149.45
 21
17.773175
 31
0.0
  0
LINE
  5
39B
330
1E
100
AcDbEntity
  8
0
100
AcDbLine
 10
148.805
 20
18.331475
 30
0.0
 11
149.45
 21
18.890175
 31
0.0
  0
LINE
  5
39D
330
1E
100
AcDbEntity
  8
0
100
AcDbLine
 10
131.594
 20
40.666075
 30
0.0
 11
133.1
 21
40.905375
 31
0.0
  0
LINE
  5
39F
330
1E
100
AcDbEntity
  8
0
100
AcDbLine
 10
133.1
 20
40.905375
 30
0.0
 11
133.745
 21
41.463675
 31
0.0
  0
LINE
  5
3A0
330
1E
100
AcDbEntity
  8
0
100
AcDbLine
 10
129.442
 20
41.463675
 30
0.0
 11
130.088
 21
42.022075
 31
0.0
  0
LINE
  5
3A1
330
1E
100
AcDbEntity
  8
0
100
AcDbLine
 10
129.442
 20
41.463675
 30
0.0
 11
130.088
 21
40.905375
 31
0.0
  0
LINE
  5
3A3
330
1E
100
AcDbEntity
  8
0
100
AcDbLine
 10
133.1
 20
42.022075
 30
0.0
 11
133.745
 21
41.463675
 31
0.0
  0
LINE
  5
3A5
330
1E
100
AcDbEntity
  8
0
100
AcDbLine
 10
130.088
 20
42.022075
 30
0.0
 11
131.594
 21
42.261375
 31
0.0
  0
LINE
  5
3A8
330
1E
100
AcDbEntity
  8
0
100
AcDbLine
 10
113.737
 20
42.022075
 30
0.0
 11
114.382
 21
41.463675
 31
0.0
  0
LINE
  5
3AD
330
1E
100
AcDbEntity
  8
0
100
AcDbLine
 10
131.594
 20
42.261375
 30
0.0
 11
133.1
 21
42.022075
 31
0.0
  0
LINE
  5
3B0
330
1E
100
AcDbEntity
  8
0
100
AcDbLine
 10
112.231
 20
42.261375
 30
0.0
 11
113.737
 21
42.022075
 31
0.0
  0
LINE
  5
3B2
330
1E
100
AcDbEntity
  8
0
100
AcDbLine
 10
110.725
 20
42.022075
 30
0.0
 11
112.231
 21
42.261375
 31
0.0
  0
LINE
  5
3B4
330
1E
100
AcDbEntity
  8
0
100
AcDbLine
 10
110.08
 20
41.463675
 30
0.0
 11
110.725
 21
42.022075
 31
0.0
  0
LINE
  5
3B5
330
1E
100
AcDbEntity
  8
0
100
AcDbLine
 10
110.08
 20
41.463675
 30
0.0
 11
110.725
 21
40.905375
 31
0.0
  0
LINE
  5
3BD
330
1E
100
AcDbEntity
  8
0
100
AcDbLine
 10
13.9123
 20
48.616075
 30
0.0
 11
15.4183
 21
48.376775
 31
0.0
  0
LINE
  5
3BE
330
1E
100
AcDbEntity
  8
0
100
AcDbLine
 10
15.4183
 20
48.376775
 30
0.0
 11
16.9243
 21
48.616075
 31
0.0
  0
LINE
  5
3C0
330
1E
100
AcDbEntity
  8
0
100
AcDbLine
 10
16.9243
 20
48.616075
 30
0.0
 11
17.5697
 21
49.174375
 31
0.0
  0
LINE
  5
3C1
330
1E
100
AcDbEntity
  8
0
100
AcDbLine
 10
13.2669
 20
49.174375
 30
0.0
 11
13.9123
 21
49.732775
 31
0.0
  0
LINE
  5
3C2
330
1E
100
AcDbEntity
  8
0
100
AcDbLine
 10
13.2669
 20
49.174375
 30
0.0
 11
13.9123
 21
48.616075
 31
0.0
  0
LINE
  5
3C4
330
1E
100
AcDbEntity
  8
0
100
AcDbLine
 10
33.2749
 20
48.616075
 30
0.0
 11
34.7809
 21
48.376775
 31
0.0
  0
LINE
  5
3C7
330
1E
100
AcDbEntity
  8
0
100
AcDbLine
 10
16.9243
 20
49.732775
 30
0.0
 11
17.5697
 21
49.174375
 31
0.0
  0
LINE
  5
3CA
330
1E
100
AcDbEntity
  8
0
100
AcDbLine
 10
15.4183
 20
49.972075
 30
0.0
 11
16.9243
 21
49.732775
 31
0.0
  0
LINE
  5
3CC
330
1E
100
AcDbEntity
  8
0
100
AcDbLine
 10
13.9123
 20
49.732775
 30
0.0
 11
15.4183
 21
49.972075
 31
0.0
  0
LINE
  5
3D0
330
1E
100
AcDbEntity
  8
0
100
AcDbLine
 10
33.2749
 20
49.732775
 30
0.0
 11
34.7809
 21
49.972075
 31
0.0
  0
LINE
  5
3D2
330
1E
100
AcDbEntity
  8
0
100
AcDbLine
 10
32.6295
 20
49.174375
 30
0.0
 11
33.2749
 21
49.732775
 31
0.0
  0
LINE
  5
3D3
330
1E
100
AcDbEntity
  8
0
100
AcDbLine
 10
32.6295
 20
49.174375
 30
0.0
 11
33.2749
 21
48.616075
 31
0.0
  0
LINE
  5
3E9
330
1E
100
AcDbEntity
  8
0
100
AcDbLine
 10
34.7809
 20
48.376775
 30
0.0
 11
36.2869
 21
48.616075
 31
0.0
  0
LINE
  5
3EA
330
1E
100
AcDbEntity
  8
0
100
AcDbLine
 10
52.6375
 20
48.616075
 30
0.0
 11
54.1434
 21
48.376775
 31
0.0
  0
LINE
  5
3EB
330
1E
100
AcDbEntity
  8
0
100
AcDbLine
 10
72.0
 20
48.616075
 30
0.0
 11
73.506
 21
48.376775
 31
0.0
  0
LINE
  5
3EC
330
1E
100
AcDbEntity
  8
0
100
AcDbLine
 10
91.3625
 20
48.616075
 30
0.0
 11
92.8685
 21
48.376775
 31
0.0
  0
LINE
  5
3ED
330
1E
100
AcDbEntity
  8
0
100
AcDbLine
 10
92.8685
 20
48.376775
 30
0.0
 11
94.3745
 21
48.616075
 31
0.0
  0
LINE
  5
3EE
330
1E
100
AcDbEntity
  8
0
100
AcDbLine
 10
94.3745
 20
48.616075
 30
0.0
 11
95.0199
 21
49.174375
 31
0.0
  0
LINE
  5
3EF
330
1E
100
AcDbEntity
  8
0
100
AcDbLine
 10
73.506
 20
48.376775
 30
0.0
 11
75.012
 21
48.616075
 31
0.0
  0
LINE
  5
3F0
330
1E
100
AcDbEntity
  8
0
100
AcDbLine
 10
75.012
 20
48.616075
 30
0.0
 11
75.6574
 21
49.174375
 31
0.0
  0
LINE
  5
3F1
330
1E
100
AcDbEntity
  8
0
100
AcDbLine
 10
54.1434
 20
48.376775
 30
0.0
 11
55.6494
 21
48.616075
 31
0.0
  0
LINE
  5
3F3
330
1E
100
AcDbEntity
  8
0
100
AcDbLine
 10
90.7171
 20
49.174375
 30
0.0
 11
91.3625
 21
49.732775
 31
0.0
  0
LINE
  5
3F4
330
1E
100
AcDbEntity
  8
0
100
AcDbLine
 10
90.7171
 20
49.174375
 30
0.0
 11
91.3625
 21
48.616075
 31
0.0
  0
LINE
  5
3F7
330
1E
100
AcDbEntity
  8
0
100
AcDbLine
 10
71.3546
 20
49.174375
 30
0.0
 11
72.0
 21
49.732775
 31
0.0
  0
LINE
  5
3F8
330
1E
100
AcDbEntity
  8
0
100
AcDbLine
 10
71.3546
 20
49.174375
 30
0.0
 11
72.0
 21
48.616075
 31
0.0
  0
LINE
  5
3FB
330
1E
100
AcDbEntity
  8
0
100
AcDbLine
 10
55.6494
 20
48.616075
 30
0.0
 11
56.2948
 21
49.174375
 31
0.0
  0
LINE
  5
3FC
330
1E
100
AcDbEntity
  8
0
100
AcDbLine
 10
51.992
 20
49.174375
 30
0.0
 11
52.6375
 21
49.732775
 31
0.0
  0
LINE
  5
3FD
330
1E
100
AcDbEntity
  8
0
100
AcDbLine
 10
51.992
 20
49.174375
 30
0.0
 11
52.6375
 21
48.616075
 31
0.0
  0
LINE
  5
3FF
330
1E
100
AcDbEntity
  8
0
100
AcDbLine
 10
94.3745
 20
49.732775
 30
0.0
 11
95.0199
 21
49.174375
 31
0.0
  0
LINE
  5
401
330
1E
100
AcDbEntity
  8
0
100
AcDbLine
 10
91.3625
 20
49.732775
 30
0.0
 11
92.8685
 21
49.972075
 31
0.0
  0
LINE
  5
403
330
1E
100
AcDbEntity
  8
0
100
AcDbLine
 10
75.012
 20
49.732775
 30
0.0
 11
75.6574
 21
49.174375
 31
0.0
  0
LINE
  5
405
330
1E
100
AcDbEntity
  8
0
100
AcDbLine
 10
72.0
 20
49.732775
 30
0.0
 11
73.506
 21
49.972075
 31
0.0
  0
LINE
  5
407
330
1E
100
AcDbEntity
  8
0
100
AcDbLine
 10
55.6494
 20
49.732775
 30
0.0
 11
56.2948
 21
49.174375
 31
0.0
  0
LINE
  5
409
330
1E
100
AcDbEntity
  8
0
100
AcDbLine
 10
52.6375
 20
49.732775
 30
0.0
 11
54.1434
 21
49.972075
 31
0.0
  0
LINE
  5
40C
330
1E
100
AcDbEntity
  8
0
100
AcDbLine
 10
36.2869
 20
48.616075
 30
0.0
 11
36.9323
 21
49.174375
 31
0.0
  0
LINE
  5
40D
330
1E
100
AcDbEntity
  8
0
100
AcDbLine
 10
92.8685
 20
49.972075
 30
0.0
 11
94.3745
 21
49.732775
 31
0.0
  0
LINE
  5
40F
330
1E
100
AcDbEntity
  8
0
100
AcDbLine
 10
73.506
 20
49.972075
 30
0.0
 11
75.012
 21
49.732775
 31
0.0
  0
LINE
  5
41A
330
1E
100
AcDbEntity
  8
0
100
AcDbLine
 10
54.1434
 20
49.972075
 30
0.0
 11
55.6494
 21
49.732775
 31
0.0
  0
LINE
  5
41D
330
1E
100
AcDbEntity
  8
0
100
AcDbLine
 10
36.2869
 20
49.732775
 30
0.0
 11
36.9323
 21
49.174375
 31
0.0
  0
LINE
  5
41F
330
1E
100
AcDbEntity
  8
0
100
AcDbLine
 10
34.7809
 20
49.972075
 30
0.0
 11
36.2869
 21
49.732775
 31
0.0
  0
LINE
  5
42B
330
1E
100
AcDbEntity
  8
0
100
AcDbLine
 10
110.725
 20
48.616075
 30
0.0
 11
112.231
 21
48.376775
 31
0.0
  0
LINE
  5
42E
330
1E
100
AcDbEntity
  8
0
100
AcDbLine
 10
112.231
 20
48.376775
 30
0.0
 11
113.737
 21
48.616075
 31
0.0
  0
LINE
  5
42F
330
1E
100
AcDbEntity
  8
0
100
AcDbLine
 10
113.737
 20
48.616075
 30
0.0
 11
114.382
 21
49.174375
 31
0.0
  0
LINE
  5
434
330
1E
100
AcDbEntity
  8
0
100
AcDbLine
 10
130.088
 20
48.616075
 30
0.0
 11
131.594
 21
48.376775
 31
0.0
  0
LINE
  5
437
330
1E
100
AcDbEntity
  8
0
100
AcDbLine
 10
131.594
 20
48.376775
 30
0.0
 11
133.1
 21
48.616075
 31
0.0
  0
LINE
  5
439
330
1E
100
AcDbEntity
  8
0
100
AcDbLine
 10
133.1
 20
48.616075
 30
0.0
 11
133.745
 21
49.174375
 31
0.0
  0
LINE
  5
43A
330
1E
100
AcDbEntity
  8
0
100
AcDbLine
 10
129.442
 20
49.174375
 30
0.0
 11
130.088
 21
49.732775
 31
0.0
  0
LINE
  5
43B
330
1E
100
AcDbEntity
  8
0
100
AcDbLine
 10
129.442
 20
49.174375
 30
0.0
 11
130.088
 21
48.616075
 31
0.0
  0
LINE
  5
43D
330
1E
100
AcDbEntity
  8
0
100
AcDbLine
 10
133.1
 20
49.732775
 30
0.0
 11
133.745
 21
49.174375
 31
0.0
  0
LINE
  5
43F
330
1E
100
AcDbEntity
  8
0
100
AcDbLine
 10
130.088
 20
49.732775
 30
0.0
 11
131.594
 21
49.972075
 31
0.0
  0
LINE
  5
442
330
1E
100
AcDbEntity
  8
0
100
AcDbLine
 10
113.737
 20
49.732775
 30
0.0
 11
114.382
 21
49.174375
 31
0.0
  0
LINE
  5
447
330
1E
100
AcDbEntity
  8
0
100
AcDbLine
 10
131.594
 20
49.972075
 30
0.0
 11
133.1
 21
49.732775
 31
0.0
  0
LINE
  5
44A
330
1E
100
AcDbEntity
  8
0
100
AcDbLine
 10
112.231
 20
49.972075
 30
0.0
 11
113.737
 21
49.732775
 31
0.0
  0
LINE
  5
44C
330
1E
100
AcDbEntity
  8
0
100
AcDbLine
 10
110.725
 20
49.732775
 30
0.0
 11
112.231
 21
49.972075
 31
0.0
  0
LINE
  5
44E
330
1E
100
AcDbEntity
  8
0
100
AcDbLine
 10
110.08
 20
49.174375
 30
0.0
 11
110.725
 21
49.732775
 31
0.0
  0
LINE
  5
44F
330
1E
100
AcDbEntity
  8
0
100
AcDbLine
 10
110.08
 20
49.174375
 30
0.0
 11
110.725
 21
48.616075
 31
0.0
  0
LINE
  5
453
330
1E
100
AcDbEntity
  8
0
100
AcDbLine
 10
148.805
 20
41.463675
 30
0.0
 11
149.45
 21
42.022075
 31
0.0
  0
LINE
  5
454
330
1E
100
AcDbEntity
  8
0
100
AcDbLine
 10
148.805
 20
41.463675
 30
0.0
 11
149.45
 21
40.905375
 31
0.0
  0
LINE
  5
45C
330
1E
100
AcDbEntity
  8
0
100
AcDbLine
 10
13.9123
 20
56.326775
 30
0.0
 11
15.4183
 21
56.087475
 31
0.0
  0
LINE
  5
45D
330
1E
100
AcDbEntity
  8
0
100
AcDbLine
 10
15.4183
 20
56.087475
 30
0.0
 11
16.9243
 21
56.326775
 31
0.0
  0
LINE
  5
45F
330
1E
100
AcDbEntity
  8
0
100
AcDbLine
 10
16.9243
 20
56.326775
 30
0.0
 11
17.5697
 21
56.885075
 31
0.0
  0
LINE
  5
460
330
1E
100
AcDbEntity
  8
0
100
AcDbLine
 10
13.2669
 20
56.885075
 30
0.0
 11
13.9123
 21
57.443475
 31
0.0
  0
LINE
  5
461
330
1E
100
AcDbEntity
  8
0
100
AcDbLine
 10
13.2669
 20
56.885075
 30
0.0
 11
13.9123
 21
56.326775
 31
0.0
  0
LINE
  5
463
330
1E
100
AcDbEntity
  8
0
100
AcDbLine
 10
33.2749
 20
56.326775
 30
0.0
 11
34.7809
 21
56.087475
 31
0.0
  0
LINE
  5
466
330
1E
100
AcDbEntity
  8
0
100
AcDbLine
 10
16.9243
 20
57.443475
 30
0.0
 11
17.5697
 21
56.885075
 31
0.0
  0
LINE
  5
469
330
1E
100
AcDbEntity
  8
0
100
AcDbLine
 10
15.4183
 20
57.682775
 30
0.0
 11
16.9243
 21
57.443475
 31
0.0
  0
LINE
  5
46B
330
1E
100
AcDbEntity
  8
0
100
AcDbLine
 10
13.9123
 20
57.443475
 30
0.0
 11
15.4183
 21
57.682775
 31
0.0
  0
LINE
  5
46F
330
1E
100
AcDbEntity
  8
0
100
AcDbLine
 10
33.2749
 20
57.443475
 30
0.0
 11
34.7809
 21
57.682775
 31
0.0
  0
LINE
  5
471
330
1E
100
AcDbEntity
  8
0
100
AcDbLine
 10
32.6295
 20
56.885075
 30
0.0
 11
33.2749
 21
57.443475
 31
0.0
  0
LINE
  5
472
330
1E
100
AcDbEntity
  8
0
100
AcDbLine
 10
32.6295
 20
56.885075
 30
0.0
 11
33.2749
 21
56.326775
 31
0.0
  0
LINE
  5
488
330
1E
100
AcDbEntity
  8
0
100
AcDbLine
 10
34.7809
 20
56.087475
 30
0.0
 11
36.2869
 21
56.326775
 31
0.0
  0
LINE
  5
489
330
1E
100
AcDbEntity
  8
0
100
AcDbLine
 10
52.6375
 20
56.326775
 30
0.0
 11
54.1434
 21
56.087475
 31
0.0
  0
LINE
  5
48A
330
1E
100
AcDbEntity
  8
0
100
AcDbLine
 10
72.0
 20
56.326775
 30
0.0
 11
73.506
 21
56.087475
 31
0.0
  0
LINE
  5
48B
330
1E
100
AcDbEntity
  8
0
100
AcDbLine
 10
91.3625
 20
56.326775
 30
0.0
 11
92.8685
 21
56.087475
 31
0.0
  0
LINE
  5
48C
330
1E
100
AcDbEntity
  8
0
100
AcDbLine
 10
92.8685
 20
56.087475
 30
0.0
 11
94.3745
 21
56.326775
 31
0.0
  0
LINE
  5
48D
330
1E
100
AcDbEntity
  8
0
100
AcDbLine
 10
94.3745
 20
56.326775
 30
0.0
 11
95.0199
 21
56.885075
 31
0.0
  0
LINE
  5
48E
330
1E
100
AcDbEntity
  8
0
100
AcDbLine
 10
73.506
 20
56.087475
 30
0.0
 11
75.012
 21
56.326775
 31
0.0
  0
LINE
  5
48F
330
1E
100
AcDbEntity
  8
0
100
AcDbLine
 10
75.012
 20
56.326775
 30
0.0
 11
75.6574
 21
56.885075
 31
0.0
  0
LINE
  5
490
330
1E
100
AcDbEntity
  8
0
100
AcDbLine
 10
54.1434
 20
56.087475
 30
0.0
 11
55.6494
 21
56.326775
 31
0.0
  0
LINE
  5
492
330
1E
100
AcDbEntity
  8
0
100
AcDbLine
 10
90.7171
 20
56.885075
 30
0.0
 11
91.3625
 21
57.443475
 31
0.0
  0
LINE
  5
493
330
1E
100
AcDbEntity
  8
0
100
AcDbLine
 10
90.7171
 20
56.885075
 30
0.0
 11
91.3625
 21
56.326775
 31
0.0
  0
LINE
  5
496
330
1E
100
AcDbEntity
  8
0
100
AcDbLine
 10
71.3546
 20
56.885075
 30
0.0
 11
72.0
 21
57.443475
 31
0.0
  0
LINE
  5
497
330
1E
100
AcDbEntity
  8
0
100
AcDbLine
 10
71.3546
 20
56.885075
 30
0.0
 11
72.0
 21
56.326775
 31
0.0
  0
LINE
  5
49A
330
1E
100
AcDbEntity
  8
0
100
AcDbLine
 10
55.6494
 20
56.326775
 30
0.0
 11
56.2948
 21
56.885075
 31
0.0
  0
LINE
  5
49B
330
1E
100
AcDbEntity
  8
0
100
AcDbLine
 10
51.992
 20
56.885075
 30
0.0
 11
52.6375
 21
57.443475
 31
0.0
  0
LINE
  5
49C
330
1E
100
AcDbEntity
  8
0
100
AcDbLine
 10
51.992
 20
56.885075
 30
0.0
 11
52.6375
 21
56.326775
 31
0.0
  0
LINE
  5
49E
330
1E
100
AcDbEntity
  8
0
100
AcDbLine
 10
94.3745
 20
57.443475
 30
0.0
 11
95.0199
 21
56.885075
 31
0.0
  0
LINE
  5
4A0
330
1E
100
AcDbEntity
  8
0
100
AcDbLine
 10
91.3625
 20
57.443475
 30
0.0
 11
92.8685
 21
57.682775
 31
0.0
  0
LINE
  5
4A2
330
1E
100
AcDbEntity
  8
0
100
AcDbLine
 10
75.012
 20
57.443475
 30
0.0
 11
75.6574
 21
56.885075
 31
0.0
  0
LINE
  5
4A4
330
1E
100
AcDbEntity
  8
0
100
AcDbLine
 10
72.0
 20
57.443475
 30
0.0
 11
73.506
 21
57.682775
 31
0.0
  0
LINE
  5
4A6
330
1E
100
AcDbEntity
  8
0
100
AcDbLine
 10
55.6494
 20
57.443475
 30
0.0
 11
56.2948
 21
56.885075
 31
0.0
  0
LINE
  5
4A8
330
1E
100
AcDbEntity
  8
0
100
AcDbLine
 10
52.6375
 20
57.443475
 30
0.0
 11
54.1434
 21
57.682775
 31
0.0
  0
LINE
  5
4AB
330
1E
100
AcDbEntity
  8
0
100
AcDbLine
 10
36.2869
 20
56.326775
 30
0.0
 11
36.9323
 21
56.885075
 31
0.0
  0
LINE
  5
4AC
330
1E
100
AcDbEntity
  8
0
100
AcDbLine
 10
92.8685
 20
57.682775
 30
0.0
 11
94.3745
 21
57.443475
 31
0.0
  0
LINE
  5
4AE
330
1E
100
AcDbEntity
  8
0
100
AcDbLine
 10
73.506
 20
57.682775
 30
0.0
 11
75.012
 21
57.443475
 31
0.0
  0
LINE
  5
4B9
330
1E
100
AcDbEntity
  8
0
100
AcDbLine
 10
54.1434
 20
57.682775
 30
0.0
 11
55.6494
 21
57.443475
 31
0.0
  0
LINE
  5
4BC
330
1E
100
AcDbEntity
  8
0
100
AcDbLine
 10
36.2869
 20
57.443475
 30
0.0
 11
36.9323
 21
56.885075
 31
0.0
  0
LINE
  5
4BE
330
1E
100
AcDbEntity
  8
0
100
AcDbLine
 10
34.7809
 20
57.682775
 30
0.0
 11
36.2869
 21
57.443475
 31
0.0
  0
LINE
  5
4CA
330
1E
100
AcDbEntity
  8
0
100
AcDbLine
 10
110.725
 20
56.326775
 30
0.0
 11
112.231
 21
56.087475
 31
0.0
  0
LINE
  5
4CD
330
1E
100
AcDbEntity
  8
0
100
AcDbLine
 10
112.231
 20
56.087475
 30
0.0
 11
113.737
 21
56.326775
 31
0.0
  0
LINE
  5
4CE
330
1E
100
AcDbEntity
  8
0
100
AcDbLine
 10
113.737
 20
56.326775
 30
0.0
 11
114.382
 21
56.885075
 31
0.0
  0
LINE
  5
4D3
330
1E
100
AcDbEntity
  8
0
100
AcDbLine
 10
130.088
 20
56.326775
 30
0.0
 11
131.594
 21
56.087475
 31
0.0
  0
LINE
  5
4D6
330
1E
100
AcDbEntity
  8
0
100
AcDbLine
 10
131.594
 20
56.087475
 30
0.0
 11
133.1
 21
56.326775
 31
0.0
  0
LINE
  5
4D8
330
1E
100
AcDbEntity
  8
0
100
AcDbLine
 10
133.1
 20
56.326775
 30
0.0
 11
133.745
 21
56.885075
 31
0.0
  0
LINE
  5
4D9
330
1E
100
AcDbEntity
  8
0
100
AcDbLine
 10
129.442
 20
56.885075
 30
0.0
 11
130.088
 21
57.443475
 31
0.0
  0
LINE
  5
4DA
330
1E
100
AcDbEntity
  8
0
100
AcDbLine
 10
129.442
 20
56.885075
 30
0.0
 11
130.088
 21
56.326775
 31
0.0
  0
LINE
  5
4DC
330
1E
100
AcDbEntity
  8
0
100
AcDbLine
 10
133.1
 20
57.443475
 30
0.0
 11
133.745
 21
56.885075
 31
0.0
  0
LINE
  5
4DE
330
1E
100
AcDbEntity
  8
0
100
AcDbLine
 10
130.088
 20
57.443475
 30
0.0
 11
131.594
 21
57.682775
 31
0.0
  0
LINE
  5
4E1
330
1E
100
AcDbEntity
  8
0
100
AcDbLine
 10
113.737
 20
57.443475
 30
0.0
 11
114.382
 21
56.885075
 31
0.0
  0
LINE
  5
4E6
330
1E
100
AcDbEntity
  8
0
100
AcDbLine
 10
131.594
 20
57.682775
 30
0.0
 11
133.1
 21
57.443475
 31
0.0
  0
LINE
  5
4E9
330
1E
100
AcDbEntity
  8
0
100
AcDbLine
 10
112.231
 20
57.682775
 30
0.0
 11
113.737
 21
57.443475
 31
0.0
  0
LINE
  5
4EB
330
1E
100
AcDbEntity
  8
0
100
AcDbLine
 10
110.725
 20
57.443475
 30
0.0
 11
112.231
 21
57.682775
 31
0.0
  0
LINE
  5
4ED
330
1E
100
AcDbEntity
  8
0
100
AcDbLine
 10
110.08
 20
56.885075
 30
0.0
 11
110.725
 21
57.443475
 31
0.0
  0
LINE
  5
4EE
330
1E
100
AcDbEntity
  8
0
100
AcDbLine
 10
110.08
 20
56.885075
 30
0.0
 11
110.725
 21
56.326775
 31
0.0
  0
LINE
  5
4F2
330
1E
100
AcDbEntity
  8
0
100
AcDbLine
 10
148.805
 20
49.174375
 30
0.0
 11
149.45
 21
49.732775
 31
0.0
  0
LINE
  5
4F3
330
1E
100
AcDbEntity
  8
0
100
AcDbLine
 10
148.805
 20
49.174375
 30
0.0
 11
149.45
 21
48.616075
 31
0.0
  0
LINE
  5
4FB
330
1E
100
AcDbEntity
  8
0
100
AcDbLine
 10
13.9123
 20
64.037375
 30
0.0
 11
15.4183
 21
63.798175
 31
0.0
  0
LINE
  5
4FC
330
1E
100
AcDbEntity
  8
0
100
AcDbLine
 10
15.4183
 20
63.798175
 30
0.0
 11
16.9243
 21
64.037375
 31
0.0
  0
LINE
  5
4FE
330
1E
100
AcDbEntity
  8
0
100
AcDbLine
 10
16.9243
 20
64.037375
 30
0.0
 11
17.5697
 21
64.595775
 31
0.0
  0
LINE
  5
4FF
330
1E
100
AcDbEntity
  8
0
100
AcDbLine
 10
13.2669
 20
64.595775
 30
0.0
 11
13.9123
 21
65.154175
 31
0.0
  0
LINE
  5
500
330
1E
100
AcDbEntity
  8
0
100
AcDbLine
 10
13.2669
 20
64.595775
 30
0.0
 11
13.9123
 21
64.037375
 31
0.0
  0
LINE
  5
502
330
1E
100
AcDbEntity
  8
0
100
AcDbLine
 10
33.2749
 20
64.037375
 30
0.0
 11
34.7809
 21
63.798175
 31
0.0
  0
LINE
  5
505
330
1E
100
AcDbEntity
  8
0
100
AcDbLine
 10
16.9243
 20
65.154175
 30
0.0
 11
17.5697
 21
64.595775
 31
0.0
  0
LINE
  5
508
330
1E
100
AcDbEntity
  8
0
100
AcDbLine
 10
15.4183
 20
65.393375
 30
0.0
 11
16.9243
 21
65.154175
 31
0.0
  0
LINE
  5
50A
330
1E
100
AcDbEntity
  8
0
100
AcDbLine
 10
13.9123
 20
65.154175
 30
0.0
 11
15.4183
 21
65.393375
 31
0.0
  0
LINE
  5
50E
330
1E
100
AcDbEntity
  8
0
100
AcDbLine
 10
33.2749
 20
65.154175
 30
0.0
 11
34.7809
 21
65.393375
 31
0.0
  0
LINE
  5
510
330
1E
100
AcDbEntity
  8
0
100
AcDbLine
 10
32.6295
 20
64.595775
 30
0.0
 11
33.2749
 21
65.154175
 31
0.0
  0
LINE
  5
511
330
1E
100
AcDbEntity
  8
0
100
AcDbLine
 10
32.6295
 20
64.595775
 30
0.0
 11
33.2749
 21
64.037375
 31
0.0
  0
LINE
  5
527
330
1E
100
AcDbEntity
  8
0
100
AcDbLine
 10
34.7809
 20
63.798175
 30
0.0
 11
36.2869
 21
64.037375
 31
0.0
  0
LINE
  5
528
330
1E
100
AcDbEntity
  8
0
100
AcDbLine
 10
52.6375
 20
64.037375
 30
0.0
 11
54.1434
 21
63.798175
 31
0.0
  0
LINE
  5
529
330
1E
100
AcDbEntity
  8
0
100
AcDbLine
 10
72.0
 20
64.037375
 30
0.0
 11
73.506
 21
63.798175
 31
0.0
  0
LINE
  5
52A
330
1E
100
AcDbEntity
  8
0
100
AcDbLine
 10
91.3625
 20
64.037375
 30
0.0
 11
92.8685
 21
63.798175
 31
0.0
  0
LINE
  5
52B
330
1E
100
AcDbEntity
  8
0
100
AcDbLine
 10
92.8685
 20
63.798175
 30
0.0
 11
94.3745
 21
64.037375
 31
0.0
  0
LINE
  5
52C
330
1E
100
AcDbEntity
  8
0
100
AcDbLine
 10
94.3745
 20
64.037375
 30
0.0
 11
95.0199
 21
64.595775
 31
0.0
  0
LINE
  5
52D
330
1E
100
AcDbEntity
  8
0
100
AcDbLine
 10
73.506
 20
63.798175
 30
0.0
 11
75.012
 21
64.037375
 31
0.0
  0
LINE
  5
52E
330
1E
100
AcDbEntity
  8
0
100
AcDbLine
 10
75.012
 20
64.037375
 30
0.0
 11
75.6574
 21
64.595775
 31
0.0
  0
LINE
  5
52F
330
1E
100
AcDbEntity
  8
0
100
AcDbLine
 10
54.1434
 20
63.798175
 30
0.0
 11
55.6494
 21
64.037375
 31
0.0
  0
LINE
  5
531
330
1E
100
AcDbEntity
  8
0
100
AcDbLine
 10
90.7171
 20
64.595775
 30
0.0
 11
91.3625
 21
65.154175
 31
0.0
  0
LINE
  5
532
330
1E
100
AcDbEntity
  8
0
100
AcDbLine
 10
90.7171
 20
64.595775
 30
0.0
 11
91.3625
 21
64.037375
 31
0.0
  0
LINE
  5
535
330
1E
100
AcDbEntity
  8
0
100
AcDbLine
 10
71.3546
 20
64.595775
 30
0.0
 11
72.0
 21
65.154175
 31
0.0
  0
LINE
  5
536
330
1E
100
AcDbEntity
  8
0
100
AcDbLine
 10
71.3546
 20
64.595775
 30
0.0
 11
72.0
 21
64.037375
 31
0.0
  0
LINE
  5
539
330
1E
100
AcDbEntity
  8
0
100
AcDbLine
 10
55.6494
 20
64.037375
 30
0.0
 11
56.2948
 21
64.595775
 31
0.0
  0
LINE
  5
53A
330
1E
100
AcDbEntity
  8
0
100
AcDbLine
 10
51.992
 20
64.595775
 30
0.0
 11
52.6375
 21
65.154175
 31
0.0
  0
LINE
  5
53B
330
1E
100
AcDbEntity
  8
0
100
AcDbLine
 10
51.992
 20
64.595775
 30
0.0
 11
52.6375
 21
64.037375
 31
0.0
  0
LINE
  5
53D
330
1E
100
AcDbEntity
  8
0
100
AcDbLine
 10
94.3745
 20
65.154175
 30
0.0
 11
95.0199
 21
64.595775
 31
0.0
  0
LINE
  5
53F
330
1E
100
AcDbEntity
  8
0
100
AcDbLine
 10
91.3625
 20
65.154175
 30
0.0
 11
92.8685
 21
65.393375
 31
0.0
  0
LINE
  5
541
330
1E
100
AcDbEntity
  8
0
100
AcDbLine
 10
75.012
 20
65.154175
 30
0.0
 11
75.6574
 21
64.595775
 31
0.0
  0
LINE
  5
543
330
1E
100
AcDbEntity
  8
0
100
AcDbLine
 10
72.0
 20
65.154175
 30
0.0
 11
73.506
 21
65.393375
 31
0.0
  0
LINE
  5
545
330
1E
100
AcDbEntity
  8
0
100
AcDbLine
 10
55.6494
 20
65.154175
 30
0.0
 11
56.2948
 21
64.595775
 31
0.0
  0
LINE
  5
547
330
1E
100
AcDbEntity
  8
0
100
AcDbLine
 10
52.6375
 20
65.154175
 30
0.0
 11
54.1434
 21
65.393375
 31
0.0
  0
LINE
  5
54A
330
1E
100
AcDbEntity
  8
0
100
AcDbLine
 10
36.2869
 20
64.037375
 30
0.0
 11
36.9323
 21
64.595775
 31
0.0
  0
LINE
  5
54B
330
1E
100
AcDbEntity
  8
0
100
AcDbLine
 10
92.8685
 20
65.393375
 30
0.0
 11
94.3745
 21
65.154175
 31
0.0
  0
LINE
  5
54D
330
1E
100
AcDbEntity
  8
0
100
AcDbLine
 10
73.506
 20
65.393375
 30
0.0
 11
75.012
 21
65.154175
 31
0.0
  0
LINE
  5
558
330
1E
100
AcDbEntity
  8
0
100
AcDbLine
 10
54.1434
 20
65.393375
 30
0.0
 11
55.6494
 21
65.154175
 31
0.0
  0
LINE
  5
55B
330
1E
100
AcDbEntity
  8
0
100
AcDbLine
 10
36.2869
 20
65.154175
 30
0.0
 11
36.9323
 21
64.595775
 31
0.0
  0
LINE
  5
55D
330
1E
100
AcDbEntity
  8
0
100
AcDbLine
 10
34.7809
 20
65.393375
 30
0.0
 11
36.2869
 21
65.154175
 31
0.0
  0
LINE
  5
569
330
1E
100
AcDbEntity
  8
0
100
AcDbLine
 10
110.725
 20
64.037375
 30
0.0
 11
112.231
 21
63.798175
 31
0.0
  0
LINE
  5
56C
330
1E
100
AcDbEntity
  8
0
100
AcDbLine
 10
112.231
 20
63.798175
 30
0.0
 11
113.737
 21
64.037375
 31
0.0
  0
LINE
  5
56D
330
1E
100
AcDbEntity
  8
0
100
AcDbLine
 10
113.737
 20
64.037375
 30
0.0
 11
114.382
 21
64.595775
 31
0.0
  0
LINE
  5
572
330
1E
100
AcDbEntity
  8
0
100
AcDbLine
 10
130.088
 20
64.037375
 30
0.0
 11
131.594
 21
63.798175
 31
0.0
  0
LINE
  5
575
330
1E
100
AcDbEntity
  8
0
100
AcDbLine
 10
131.594
 20
63.798175
 30
0.0
 11
133.1
 21
64.037375
 31
0.0
  0
LINE
  5
577
330
1E
100
AcDbEntity
  8
0
100
AcDbLine
 10
133.1
 20
64.037375
 30
0.0
 11
133.745
 21
64.595775
 31
0.0
  0
LINE
  5
578
330
1E
100
AcDbEntity
  8
0
100
AcDbLine
 10
129.442
 20
64.595775
 30
0.0
 11
130.088
 21
65.154175
 31
0.0
  0
LINE
  5
579
330
1E
100
AcDbEntity
  8
0
100
AcDbLine
 10
129.442
 20
64.595775
 30
0.0
 11
130.088
 21
64.037375
 31
0.0
  0
LINE
  5
57B
330
1E
100
AcDbEntity
  8
0
100
AcDbLine
 10
133.1
 20
65.154175
 30
0.0
 11
133.745
 21
64.595775
 31
0.0
  0
LINE
  5
57D
330
1E
100
AcDbEntity
  8
0
100
AcDbLine
 10
130.088
 20
65.154175
 30
0.0
 11
131.594
 21
65.393375
 31
0.0
  0
LINE
  5
580
330
1E
100
AcDbEntity
  8
0
100
AcDbLine
 10
113.737
 20
65.154175
 30
0.0
 11
114.382
 21
64.595775
 31
0.0
  0
LINE
  5
585
330
1E
100
AcDbEntity
  8
0
100
AcDbLine
 10
131.594
 20
65.393375
 30
0.0
 11
133.1
 21
65.154175
 31
0.0
  0
LINE
  5
588
330
1E
100
AcDbEntity
  8
0
100
AcDbLine
 10
112.231
 20
65.393375
 30
0.0
 11
113.737
 21
65.154175
 31
0.0
  0
LINE
  5
58A
330
1E
100
AcDbEntity
  8
0
100
AcDbLine
 10
110.725
 20
65.154175
 30
0.0
 11
112.231
 21
65.393375
 31
0.0
  0
LINE
  5
58C
330
1E
100
AcDbEntity
  8
0
100
AcDbLine
 10
110.08
 20
64.595775
 30
0.0
 11
110.725
 21
65.154175
 31
0.0
  0
LINE
  5
58D
330
1E
100
AcDbEntity
  8
0
100
AcDbLine
 10
110.08
 20
64.595775
 30
0.0
 11
110.725
 21
64.037375
 31
0.0
  0
LINE
  5
591
330
1E
100
AcDbEntity
  8
0
100
AcDbLine
 10
148.805
 20
56.885075
 30
0.0
 11
149.45
 21
57.443475
 31
0.0
  0
LINE
  5
592
330
1E
100
AcDbEntity
  8
0
100
AcDbLine
 10
148.805
 20
56.885075
 30
0.0
 11
149.45
 21
56.326775
 31
0.0
  0
LINE
  5
59A
330
1E
100
AcDbEntity
  8
0
100
AcDbLine
 10
13.9123
 20
71.748075
 30
0.0
 11
15.4183
 21
71.508775
 31
0.0
  0
LINE
  5
59B
330
1E
100
AcDbEntity
  8
0
100
AcDbLine
 10
15.4183
 20
71.508775
 30
0.0
 11
16.9243
 21
71.748075
 31
0.0
  0
LINE
  5
59D
330
1E
100
AcDbEntity
  8
0
100
AcDbLine
 10
16.9243
 20
71.748075
 30
0.0
 11
17.5697
 21
72.306475
 31
0.0
  0
LINE
  5
59E
330
1E
100
AcDbEntity
  8
0
100
AcDbLine
 10
13.2669
 20
72.306475
 30
0.0
 11
13.9123
 21
72.864775
 31
0.0
  0
LINE
  5
59F
330
1E
100
AcDbEntity
  8
0
100
AcDbLine
 10
13.2669
 20
72.306475
 30
0.0
 11
13.9123
 21
71.748075
 31
0.0
  0
LINE
  5
5A1
330
1E
100
AcDbEntity
  8
0
100
AcDbLine
 10
33.2749
 20
71.748075
 30
0.0
 11
34.7809
 21
71.508775
 31
0.0
  0
LINE
  5
5A4
330
1E
100
AcDbEntity
  8
0
100
AcDbLine
 10
16.9243
 20
72.864775
 30
0.0
 11
17.5697
 21
72.306475
 31
0.0
  0
LINE
  5
5A7
330
1E
100
AcDbEntity
  8
0
100
AcDbLine
 10
15.4183
 20
73.104175
 30
0.0
 11
16.9243
 21
72.864775
 31
0.0
  0
LINE
  5
5A9
330
1E
100
AcDbEntity
  8
0
100
AcDbLine
 10
13.9123
 20
72.864775
 30
0.0
 11
15.4183
 21
73.104175
 31
0.0
  0
LINE
  5
5AD
330
1E
100
AcDbEntity
  8
0
100
AcDbLine
 10
33.2749
 20
72.864775
 30
0.0
 11
34.7809
 21
73.104175
 31
0.0
  0
LINE
  5
5AF
330
1E
100
AcDbEntity
  8
0
100
AcDbLine
 10
32.6295
 20
72.306475
 30
0.0
 11
33.2749
 21
72.864775
 31
0.0
  0
LINE
  5
5B0
330
1E
100
AcDbEntity
  8
0
100
AcDbLine
 10
32.6295
 20
72.306475
 30
0.0
 11
33.2749
 21
71.748075
 31
0.0
  0
LINE
  5
5C6
330
1E
100
AcDbEntity
  8
0
100
AcDbLine
 10
34.7809
 20
71.508775
 30
0.0
 11
36.2869
 21
71.748075
 31
0.0
  0
LINE
  5
5C7
330
1E
100
AcDbEntity
  8
0
100
AcDbLine
 10
52.6375
 20
71.748075
 30
0.0
 11
54.1434
 21
71.508775
 31
0.0
  0
LINE
  5
5C8
330
1E
100
AcDbEntity
  8
0
100
AcDbLine
 10
72.0
 20
71.748075
 30
0.0
 11
73.506
 21
71.508775
 31
0.0
  0
LINE
  5
5C9
330
1E
100
AcDbEntity
  8
0
100
AcDbLine
 10
91.3625
 20
71.748075
 30
0.0
 11
92.8685
 21
71.508775
 31
0.0
  0
LINE
  5
5CA
330
1E
100
AcDbEntity
  8
0
100
AcDbLine
 10
92.8685
 20
71.508775
 30
0.0
 11
94.3745
 21
71.748075
 31
0.0
  0
LINE
  5
5CB
330
1E
100
AcDbEntity
  8
0
100
AcDbLine
 10
94.3745
 20
71.748075
 30
0.0
 11
95.0199
 21
72.306475
 31
0.0
  0
LINE
  5
5CC
330
1E
100
AcDbEntity
  8
0
100
AcDbLine
 10
73.506
 20
71.508775
 30
0.0
 11
75.012
 21
71.748075
 31
0.0
  0
LINE
  5
5CD
330
1E
100
AcDbEntity
  8
0
100
AcDbLine
 10
75.012
 20
71.748075
 30
0.0
 11
75.6574
 21
72.306475
 31
0.0
  0
LINE
  5
5CE
330
1E
100
AcDbEntity
  8
0
100
AcDbLine
 10
54.1434
 20
71.508775
 30
0.0
 11
55.6494
 21
71.748075
 31
0.0
  0
LINE
  5
5D0
330
1E
100
AcDbEntity
  8
0
100
AcDbLine
 10
90.7171
 20
72.306475
 30
0.0
 11
91.3625
 21
72.864775
 31
0.0
  0
LINE
  5
5D1
330
1E
100
AcDbEntity
  8
0
100
AcDbLine
 10
90.7171
 20
72.306475
 30
0.0
 11
91.3625
 21
71.748075
 31
0.0
  0
LINE
  5
5D4
330
1E
100
AcDbEntity
  8
0
100
AcDbLine
 10
71.3546
 20
72.306475
 30
0.0
 11
72.0
 21
72.864775
 31
0.0
  0
LINE
  5
5D5
330
1E
100
AcDbEntity
  8
0
100
AcDbLine
 10
71.3546
 20
72.306475
 30
0.0
 11
72.0
 21
71.748075
 31
0.0
  0
LINE
  5
5D8
330
1E
100
AcDbEntity
  8
0
100
AcDbLine
 10
55.6494
 20
71.748075
 30
0.0
 11
56.2948
 21
72.306475
 31
0.0
  0
LINE
  5
5D9
330
1E
100
AcDbEntity
  8
0
100
AcDbLine
 10
51.992
 20
72.306475
 30
0.0
 11
52.6375
 21
72.864775
 31
0.0
  0
LINE
  5
5DA
330
1E
100
AcDbEntity
  8
0
100
AcDbLine
 10
51.992
 20
72.306475
 30
0.0
 11
52.6375
 21
71.748075
 31
0.0
  0
LINE
  5
5DC
330
1E
100
AcDbEntity
  8
0
100
AcDbLine
 10
94.3745
 20
72.864775
 30
0.0
 11
95.0199
 21
72.306475
 31
0.0
  0
LINE
  5
5DE
330
1E
100
AcDbEntity
  8
0
100
AcDbLine
 10
91.3625
 20
72.864775
 30
0.0
 11
92.8685
 21
73.104175
 31
0.0
  0
LINE
  5
5E0
330
1E
100
AcDbEntity
  8
0
100
AcDbLine
 10
75.012
 20
72.864775
 30
0.0
 11
75.6574
 21
72.306475
 31
0.0
  0
LINE
  5
5E2
330
1E
100
AcDbEntity
  8
0
100
AcDbLine
 10
72.0
 20
72.864775
 30
0.0
 11
73.506
 21
73.104175
 31
0.0
  0
LINE
  5
5E4
330
1E
100
AcDbEntity
  8
0
100
AcDbLine
 10
55.6494
 20
72.864775
 30
0.0
 11
56.2948
 21
72.306475
 31
0.0
  0
LINE
  5
5E6
330
1E
100
AcDbEntity
  8
0
100
AcDbLine
 10
52.6375
 20
72.864775
 30
0.0
 11
54.1434
 21
73.104175
 31
0.0
  0
LINE
  5
5E9
330
1E
100
AcDbEntity
  8
0
100
AcDbLine
 10
36.2869
 20
71.748075
 30
0.0
 11
36.9323
 21
72.306475
 31
0.0
  0
LINE
  5
5EA
330
1E
100
AcDbEntity
  8
0
100
AcDbLine
 10
92.8685
 20
73.104175
 30
0.0
 11
94.3745
 21
72.864775
 31
0.0
  0
LINE
  5
5EC
330
1E
100
AcDbEntity
  8
0
100
AcDbLine
 10
73.506
 20
73.104175
 30
0.0
 11
75.012
 21
72.864775
 31
0.0
  0
LINE
  5
5F7
330
1E
100
AcDbEntity
  8
0
100
AcDbLine
 10
54.1434
 20
73.104175
 30
0.0
 11
55.6494
 21
72.864775
 31
0.0
  0
LINE
  5
5FA
330
1E
100
AcDbEntity
  8
0
100
AcDbLine
 10
36.2869
 20
72.864775
 30
0.0
 11
36.9323
 21
72.306475
 31
0.0
  0
LINE
  5
5FC
330
1E
100
AcDbEntity
  8
0
100
AcDbLine
 10
34.7809
 20
73.104175
 30
0.0
 11
36.2869
 21
72.864775
 31
0.0
  0
LINE
  5
608
330
1E
100
AcDbEntity
  8
0
100
AcDbLine
 10
110.725
 20
71.748075
 30
0.0
 11
112.231
 21
71.508775
 31
0.0
  0
LINE
  5
60B
330
1E
100
AcDbEntity
  8
0
100
AcDbLine
 10
112.231
 20
71.508775
 30
0.0
 11
113.737
 21
71.748075
 31
0.0
  0
LINE
  5
60C
330
1E
100
AcDbEntity
  8
0
100
AcDbLine
 10
113.737
 20
71.748075
 30
0.0
 11
114.382
 21
72.306475
 31
0.0
  0
LINE
  5
611
330
1E
100
AcDbEntity
  8
0
100
AcDbLine
 10
130.088
 20
71.748075
 30
0.0
 11
131.594
 21
71.508775
 31
0.0
  0
LINE
  5
614
330
1E
100
AcDbEntity
  8
0
100
AcDbLine
 10
131.594
 20
71.508775
 30
0.0
 11
133.1
 21
71.748075
 31
0.0
  0
LINE
  5
616
330
1E
100
AcDbEntity
  8
0
100
AcDbLine
 10
133.1
 20
71.748075
 30
0.0
 11
133.745
 21
72.306475
 31
0.0
  0
LINE
  5
617
330
1E
100
AcDbEntity
  8
0
100
AcDbLine
 10
129.442
 20
72.306475
 30
0.0
 11
130.088
 21
72.864775
 31
0.0
  0
LINE
  5
618
330
1E
100
AcDbEntity
  8
0
100
AcDbLine
 10
129.442
 20
72.306475
 30
0.0
 11
130.088
 21
71.748075
 31
0.0
  0
LINE
  5
61A
330
1E
100
AcDbEntity
  8
0
100
AcDbLine
 10
133.1
 20
72.864775
 30
0.0
 11
133.745
 21
72.306475
 31
0.0
  0
LINE
  5
61C
330
1E
100
AcDbEntity
  8
0
100
AcDbLine
 10
130.088
 20
72.864775
 30
0.0
 11
131.594
 21
73.104175
 31
0.0
  0
LINE
  5
61F
330
1E
100
AcDbEntity
  8
0
100
AcDbLine
 10
113.737
 20
72.864775
 30
0.0
 11
114.382
 21
72.306475
 31
0.0
  0
LINE
  5
624
330
1E
100
AcDbEntity
  8
0
100
AcDbLine
 10
131.594
 20
73.104175
 30
0.0
 11
133.1
 21
72.864775
 31
0.0
  0
LINE
  5
627
330
1E
100
AcDbEntity
  8
0
100
AcDbLine
 10
112.231
 20
73.104175
 30
0.0
 11
113.737
 21
72.864775
 31
0.0
  0
LINE
  5
629
330
1E
100
AcDbEntity
  8
0
100
AcDbLine
 10
110.725
 20
72.864775
 30
0.0
 11
112.231
 21
73.104175
 31
0.0
  0
LINE
  5
62B
330
1E
100
AcDbEntity
  8
0
100
AcDbLine
 10
110.08
 20
72.306475
 30
0.0
 11
110.725
 21
72.864775
 31
0.0
  0
LINE
  5
62C
330
1E
100
AcDbEntity
  8
0
100
AcDbLine
 10
110.08
 20
72.306475
 30
0.0
 11
110.725
 21
71.748075
 31
0.0
  0
LINE
  5
630
330
1E
100
AcDbEntity
  8
0
100
AcDbLine
 10
148.805
 20
64.595775
 30
0.0
 11
149.45
 21
65.154175
 31
0.0
  0
LINE
  5
631
330
1E
100
AcDbEntity
  8
0
100
AcDbLine
 10
148.805
 20
64.595775
 30
0.0
 11
149.45
 21
64.037375
 31
0.0
  0
LINE
  5
661
330
1E
100
AcDbEntity
  8
0
100
AcDbLine
 10
149.45
 20
11.179525
 30
0.0
 11
150.956
 21
11.418735
 31
0.0
  0
LINE
  5
665
330
1E
100
AcDbEntity
  8
0
100
AcDbLine
 10
149.45
 20
34.311575
 30
0.0
 11
150.956
 21
34.550775
 31
0.0
  0
LINE
  5
667
330
1E
100
AcDbEntity
  8
0
100
AcDbLine
 10
149.45
 20
33.194575
 30
0.0
 11
150.956
 21
32.955375
 31
0.0
  0
LINE
  5
66A
330
1E
100
AcDbEntity
  8
0
100
AcDbLine
 10
149.45
 20
26.600875
 30
0.0
 11
150.956
 21
26.840075
 31
0.0
  0
LINE
  5
66C
330
1E
100
AcDbEntity
  8
0
100
AcDbLine
 10
149.45
 20
25.483875
 30
0.0
 11
150.956
 21
25.244675
 31
0.0
  0
LINE
  5
66F
330
1E
100
AcDbEntity
  8
0
100
AcDbLine
 10
149.45
 20
18.890175
 30
0.0
 11
150.956
 21
19.129375
 31
0.0
  0
LINE
  5
671
330
1E
100
AcDbEntity
  8
0
100
AcDbLine
 10
149.45
 20
17.773175
 30
0.0
 11
150.956
 21
17.533975
 31
0.0
  0
LINE
  5
674
330
1E
100
AcDbEntity
  8
0
100
AcDbLine
 10
149.45
 20
40.905375
 30
0.0
 11
150.956
 21
40.666075
 31
0.0
  0
LINE
  5
675
330
1E
100
AcDbEntity
  8
0
100
AcDbLine
 10
149.45
 20
42.022075
 30
0.0
 11
150.956
 21
42.261375
 31
0.0
  0
LINE
  5
679
330
1E
100
AcDbEntity
  8
0
100
AcDbLine
 10
149.45
 20
48.616075
 30
0.0
 11
150.956
 21
48.376775
 31
0.0
  0
LINE
  5
67A
330
1E
100
AcDbEntity
  8
0
100
AcDbLine
 10
149.45
 20
49.732775
 30
0.0
 11
150.956
 21
49.972075
 31
0.0
  0
LINE
  5
67E
330
1E
100
AcDbEntity
  8
0
100
AcDbLine
 10
149.45
 20
56.326775
 30
0.0
 11
150.956
 21
56.087475
 31
0.0
  0
LINE
  5
67F
330
1E
100
AcDbEntity
  8
0
100
AcDbLine
 10
149.45
 20
57.443475
 30
0.0
 11
150.956
 21
57.682775
 31
0.0
  0
LINE
  5
683
330
1E
100
AcDbEntity
  8
0
100
AcDbLine
 10
149.45
 20
64.037375
 30
0.0
 11
150.956
 21
63.798175
 31
0.0
  0
LINE
  5
686
330
1E
100
AcDbEntity
  8
0
100
AcDbLine
 10
150.956
 20
11.418735
 30
0.0
 11
152.462
 21
11.179525
 31
0.0
  0
LINE
  5
68A
330
1E
100
AcDbEntity
  8
0
100
AcDbLine
 10
150.956
 20
34.550775
 30
0.0
 11
152.462
 21
34.311575
 31
0.0
  0
LINE
  5
68C
330
1E
100
AcDbEntity
  8
0
100
AcDbLine
 10
150.956
 20
32.955375
 30
0.0
 11
152.462
 21
33.194575
 31
0.0
  0
LINE
  5
68F
330
1E
100
AcDbEntity
  8
0
100
AcDbLine
 10
150.956
 20
26.840075
 30
0.0
 11
152.462
 21
26.600875
 31
0.0
  0
LINE
  5
691
330
1E
100
AcDbEntity
  8
0
100
AcDbLine
 10
150.956
 20
25.244675
 30
0.0
 11
152.462
 21
25.483875
 31
0.0
  0
LINE
  5
694
330
1E
100
AcDbEntity
  8
0
100
AcDbLine
 10
150.956
 20
19.129375
 30
0.0
 11
152.462
 21
18.890175
 31
0.0
  0
LINE
  5
696
330
1E
100
AcDbEntity
  8
0
100
AcDbLine
 10
150.956
 20
17.533975
 30
0.0
 11
152.462
 21
17.773175
 31
0.0
  0
LINE
  5
697
330
1E
100
AcDbEntity
  8
0
100
AcDbLine
 10
150.956
 20
40.666075
 30
0.0
 11
152.462
 21
40.905375
 31
0.0
  0
LINE
  5
69A
330
1E
100
AcDbEntity
  8
0
100
AcDbLine
 10
150.956
 20
42.261375
 30
0.0
 11
152.462
 21
42.022075
 31
0.0
  0
LINE
  5
69C
330
1E
100
AcDbEntity
  8
0
100
AcDbLine
 10
150.956
 20
48.376775
 30
0.0
 11
152.462
 21
48.616075
 31
0.0
  0
LINE
  5
69F
330
1E
100
AcDbEntity
  8
0
100
AcDbLine
 10
150.956
 20
49.972075
 30
0.0
 11
152.462
 21
49.732775
 31
0.0
  0
LINE
  5
6A1
330
1E
100
AcDbEntity
  8
0
100
AcDbLine
 10
150.956
 20
56.087475
 30
0.0
 11
152.462
 21
56.326775
 31
0.0
  0
LINE
  5
6A4
330
1E
100
AcDbEntity
  8
0
100
AcDbLine
 10
150.956
 20
57.682775
 30
0.0
 11
152.462
 21
57.443475
 31
0.0
  0
LINE
  5
6A6
330
1E
100
AcDbEntity
  8
0
100
AcDbLine
 10
150.956
 20
63.798175
 30
0.0
 11
152.462
 21
64.037375
 31
0.0
  0
LINE
  5
6A9
330
1E
100
AcDbEntity
  8
0
100
AcDbLine
 10
150.956
 20
65.393375
 30
0.0
 11
152.462
 21
65.154175
 31
0.0
  0
LINE
  5
6AB
330
1E
100
AcDbEntity
  8
0
100
AcDbLine
 10
149.45
 20
65.154175
 30
0.0
 11
150.956
 21
65.393375
 31
0.0
  0
LINE
  5
6AD
330
1E
100
AcDbEntity
  8
0
100
AcDbLine
 10
149.45
 20
71.748075
 30
0.0
 11
150.956
 21
71.508775
 31
0.0
  0
LINE
  5
6AE
330
1E
100
AcDbEntity
  8
0
100
AcDbLine
 10
150.956
 20
71.508775
 30
0.0
 11
152.462
 21
71.748075
 31
0.0
  0
LINE
  5
6B3
330
1E
100
AcDbEntity
  8
0
100
AcDbLine
 10
150.956
 20
73.104175
 30
0.0
 11
152.462
 21
72.864775
 31
0.0
  0
LINE
  5
6B5
330
1E
100
AcDbEntity
  8
0
100
AcDbLine
 10
149.45
 20
72.864775
 30
0.0
 11
150.956
 21
73.104175
 31
0.0
  0
LINE
  5
6B7
330
1E
100
AcDbEntity
  8
0
100
AcDbLine
 10
148.805
 20
72.306475
 30
0.0
 11
149.45
 21
72.864775
 31
0.0
  0
LINE
  5
6B8
330
1E
100
AcDbEntity
  8
0
100
AcDbLine
 10
148.805
 20
72.306475
 30
0.0
 11
149.45
 21
71.748075
 31
0.0
  0
LINE
  5
6BA
330
1E
100
AcDbEntity
  8
0
100
AcDbLine
 10
9.16092
 20
-0.101415
 30
0.0
 11
11.3402
 21
-0.196075
 31
0.0
  0
LINE
  5
6BB
330
1E
100
AcDbEntity
  8
0
100
AcDbLine
 10
11.3402
 20
-0.196075
 30
0.0
 11
180.0
 21
-0.196075
 31
0.0
  0
LINE
  5
6BC
330
1E
100
AcDbEntity
  8
0
100
AcDbLine
 10
0.0
 20
50.296675
 30
0.0
 11
0.0
 21
86.723075
 31
0.0
  0
LINE
  5
6BD
330
1E
100
AcDbEntity
  8
0
100
AcDbLine
 10
0.0
 20
50.296675
 30
0.0
 11
0.0
 21
13.870375
 31
0.0
  0
LINE
  5
6BE
330
1E
100
AcDbEntity
  8
0
100
AcDbLine
 10
0.258167
 20
87.541975
 30
0.0
 11
1.00398
 21
88.318375
 31
0.0
  0
LINE
  5
6BF
330
1E
100
AcDbEntity
  8
0
100
AcDbLine
 10
0.0
 20
86.723075
 30
0.0
 11
0.258167
 21
87.541975
 31
0.0
  0
LINE
  5
6C0
330
1E
100
AcDbEntity
  8
0
100
AcDbLine
 10
0.0
 20
86.723075
 30
0.0
 11
0.0
 21
50.296675
 31
0.0
  0
LINE
  5
6C1
330
1E
100
AcDbEntity
  8
0
100
AcDbLine
 10
0.0
 20
86.723075
 30
0.0
 11
0.0
 21
76.451575
 31
0.0
  0
LINE
  5
6C2
330
1E
100
AcDbEntity
  8
0
100
AcDbLine
 10
0.258167
 20
77.270475
 30
0.0
 11
1.00398
 21
78.046875
 31
0.0
  0
LINE
  5
6C3
330
1E
100
AcDbEntity
  8
0
100
AcDbLine
 10
2.15139
 20
89.062875
 30
0.0
 11
2.83984
 21
89.419575
 31
0.0
  0
LINE
  5
6C4
330
1E
100
AcDbEntity
  8
0
100
AcDbLine
 10
2.15139
 20
89.062875
 30
0.0
 11
3.72908
 21
89.647775
 31
0.0
  0
LINE
  5
6C5
330
1E
100
AcDbEntity
  8
0
100
AcDbLine
 10
1.00398
 20
88.318375
 30
0.0
 11
2.15139
 21
89.062875
 31
0.0
  0
LINE
  5
6C6
330
1E
100
AcDbEntity
  8
0
100
AcDbLine
 10
0.258167
 20
87.541975
 30
0.0
 11
1.00398
 21
88.318375
 31
0.0
  0
LINE
  5
6C7
330
1E
100
AcDbEntity
  8
0
100
AcDbLine
 10
3.72908
 20
79.376275
 30
0.0
 11
5.73705
 21
79.801675
 31
0.0
  0
LINE
  5
6C8
330
1E
100
AcDbEntity
  8
0
100
AcDbLine
 10
5.73705
 20
79.801675
 30
0.0
 11
7.83108
 21
80.078175
 31
0.0
  0
LINE
  5
6C9
330
1E
100
AcDbEntity
  8
0
100
AcDbLine
 10
10.0398
 20
80.173975
 30
0.0
 11
180.0
 21
80.173975
 31
0.0
  0
LINE
  5
6CA
330
1E
100
AcDbEntity
  8
0
100
AcDbLine
 10
7.83108
 20
80.078175
 30
0.0
 11
10.0398
 21
80.173975
 31
0.0
  0
LINE
  5
6CB
330
1E
100
AcDbEntity
  8
0
100
AcDbLine
 10
4.39649
 20
89.996775
 30
0.0
 11
6.37769
 21
90.416475
 31
0.0
  0
LINE
  5
6CC
330
1E
100
AcDbEntity
  8
0
100
AcDbLine
 10
3.72908
 20
89.647775
 30
0.0
 11
5.73705
 21
90.073175
 31
0.0
  0
LINE
  5
6CD
330
1E
100
AcDbEntity
  8
0
100
AcDbLine
 10
6.37769
 20
90.416475
 30
0.0
 11
8.44379
 21
90.689375
 31
0.0
  0
LINE
  5
6CE
330
1E
100
AcDbEntity
  8
0
100
AcDbLine
 10
5.73705
 20
90.073175
 30
0.0
 11
7.83108
 21
90.349675
 31
0.0
  0
LINE
  5
6CF
330
1E
100
AcDbEntity
  8
0
100
AcDbLine
 10
10.0398
 20
90.445475
 30
0.0
 11
180.0
 21
90.445475
 31
0.0
  0
LINE
  5
6D0
330
1E
100
AcDbEntity
  8
0
100
AcDbLine
 10
7.83108
 20
90.349675
 30
0.0
 11
10.0398
 21
90.445475
 31
0.0
  0
LINE
  5
6D1
330
1E
100
AcDbEntity
  8
0
100
AcDbLine
 10
10.6231
 20
90.783775
 30
0.0
 11
180.0
 21
90.783775
 31
0.0
  0
LINE
  5
6D2
330
1E
100
AcDbEntity
  8
0
100
AcDbLine
 10
8.44379
 20
90.689375
 30
0.0
 11
10.6231
 21
90.783775
 31
0.0
  0
LINE
  5
6D3
330
1E
100
AcDbEntity
  8
0
100
AcDbLine
 10
10.6231
 20
90.783775
 30
0.0
 11
180.0
 21
90.783775
 31
0.0
  0
LINE
  5
6D4
330
1E
100
AcDbEntity
  8
0
100
AcDbLine
 10
10.0398
 20
90.445475
 30
0.0
 11
180.0
 21
90.445475
 31
0.0
  0
LINE
  5
6D5
330
1E
100
AcDbEntity
  8
0
100
AcDbLine
 10
2.83984
 20
89.419575
 30
0.0
 11
4.39649
 21
89.996775
 31
0.0
  0
LINE
  5
6D6
330
1E
100
AcDbEntity
  8
0
100
AcDbLine
 10
10.0398
 20
80.173975
 30
0.0
 11
180.0
 21
80.173975
 31
0.0
  0
LINE
  5
6D7
330
1E
100
AcDbEntity
  8
0
100
AcDbLine
 10
2.15139
 20
78.791375
 30
0.0
 11
3.72908
 21
79.376275
 31
0.0
  0
LINE
  5
6D8
330
1E
100
AcDbEntity
  8
0
100
AcDbLine
 10
1.00398
 20
78.046875
 30
0.0
 11
2.15139
 21
78.791375
 31
0.0
  0
LINE
  5
6D9
330
1E
100
AcDbEntity
  8
0
100
AcDbLine
 10
0.258167
 20
77.270475
 30
0.0
 11
1.00398
 21
78.046875
 31
0.0
  0
LINE
  5
6DA
330
1E
100
AcDbEntity
  8
0
100
AcDbLine
 10
0.0
 20
76.451575
 30
0.0
 11
0.0
 21
40.025175
 31
0.0
  0
LINE
  5
6DB
330
1E
100
AcDbEntity
  8
0
100
AcDbLine
 10
0.0
 20
76.451575
 30
0.0
 11
0.258167
 21
77.270475
 31
0.0
  0
LINE
  5
6DC
330
1E
100
AcDbEntity
  8
0
100
AcDbLine
 10
0.0
 20
76.451575
 30
0.0
 11
0.0
 21
86.723075
 31
0.0
  0
LINE
  5
6DF
330
1E
100
AcDbEntity
  8
0
100
AcDbLine
 10
152.462
 20
11.179525
 30
0.0
 11
153.108
 21
10.620825
 31
0.0
  0
LINE
  5
6E3
330
1E
100
AcDbEntity
  8
0
100
AcDbLine
 10
152.462
 20
10.062555
 30
0.0
 11
153.108
 21
10.620825
 31
0.0
  0
LINE
  5
6E6
330
1E
100
AcDbEntity
  8
0
100
AcDbLine
 10
152.462
 20
34.311575
 30
0.0
 11
153.108
 21
33.752875
 31
0.0
  0
LINE
  5
6E8
330
1E
100
AcDbEntity
  8
0
100
AcDbLine
 10
152.462
 20
33.194575
 30
0.0
 11
153.108
 21
33.752875
 31
0.0
  0
LINE
  5
6EB
330
1E
100
AcDbEntity
  8
0
100
AcDbLine
 10
152.462
 20
26.600875
 30
0.0
 11
153.108
 21
26.042175
 31
0.0
  0
LINE
  5
6ED
330
1E
100
AcDbEntity
  8
0
100
AcDbLine
 10
152.462
 20
25.483875
 30
0.0
 11
153.108
 21
26.042175
 31
0.0
  0
LINE
  5
6F6
330
1E
100
AcDbEntity
  8
0
100
AcDbLine
 10
152.462
 20
18.890175
 30
0.0
 11
153.108
 21
18.331475
 31
0.0
  0
LINE
  5
6F8
330
1E
100
AcDbEntity
  8
0
100
AcDbLine
 10
152.462
 20
17.773175
 30
0.0
 11
153.108
 21
18.331475
 31
0.0
  0
LINE
  5
6FB
330
1E
100
AcDbEntity
  8
0
100
AcDbLine
 10
168.167
 20
10.620825
 30
0.0
 11
168.813
 21
10.062555
 31
0.0
  0
LINE
  5
6FC
330
1E
100
AcDbEntity
  8
0
100
AcDbLine
 10
168.167
 20
10.620825
 30
0.0
 11
168.813
 21
11.179525
 31
0.0
  0
LINE
  5
700
330
1E
100
AcDbEntity
  8
0
100
AcDbLine
 10
168.167
 20
26.042175
 30
0.0
 11
168.813
 21
25.483875
 31
0.0
  0
LINE
  5
701
330
1E
100
AcDbEntity
  8
0
100
AcDbLine
 10
168.167
 20
26.042175
 30
0.0
 11
168.813
 21
26.600875
 31
0.0
  0
LINE
  5
707
330
1E
100
AcDbEntity
  8
0
100
AcDbLine
 10
168.813
 20
11.179525
 30
0.0
 11
170.319
 21
11.418735
 31
0.0
  0
LINE
  5
709
330
1E
100
AcDbEntity
  8
0
100
AcDbLine
 10
168.813
 20
10.062555
 30
0.0
 11
170.319
 21
9.823345
 31
0.0
  0
LINE
  5
70C
330
1E
100
AcDbEntity
  8
0
100
AcDbLine
 10
168.813
 20
26.600875
 30
0.0
 11
170.319
 21
26.840075
 31
0.0
  0
LINE
  5
70E
330
1E
100
AcDbEntity
  8
0
100
AcDbLine
 10
168.813
 20
25.483875
 30
0.0
 11
170.319
 21
25.244675
 31
0.0
  0
LINE
  5
711
330
1E
100
AcDbEntity
  8
0
100
AcDbLine
 10
168.813
 20
18.890175
 30
0.0
 11
170.319
 21
19.129375
 31
0.0
  0
LINE
  5
713
330
1E
100
AcDbEntity
  8
0
100
AcDbLine
 10
168.813
 20
17.773175
 30
0.0
 11
170.319
 21
17.533975
 31
0.0
  0
LINE
  5
714
330
1E
100
AcDbEntity
  8
0
100
AcDbLine
 10
168.167
 20
18.331475
 30
0.0
 11
168.813
 21
17.773175
 31
0.0
  0
LINE
  5
715
330
1E
100
AcDbEntity
  8
0
100
AcDbLine
 10
168.167
 20
18.331475
 30
0.0
 11
168.813
 21
18.890175
 31
0.0
  0
LINE
  5
717
330
1E
100
AcDbEntity
  8
0
100
AcDbLine
 10
167.551
 20
34.970775
 30
0.0
 11
169.845
 21
33.843275
 31
0.0
  0
LINE
  5
718
330
1E
100
AcDbEntity
  8
0
100
AcDbLine
 10
166.174
 20
36.247075
 30
0.0
 11
167.551
 21
34.970775
 31
0.0
  0
LINE
  5
719
330
1E
100
AcDbEntity
  8
0
100
AcDbLine
 10
152.462
 20
40.905375
 30
0.0
 11
153.108
 21
41.463675
 31
0.0
  0
LINE
  5
71C
330
1E
100
AcDbEntity
  8
0
100
AcDbLine
 10
152.462
 20
42.022075
 30
0.0
 11
153.108
 21
41.463675
 31
0.0
  0
LINE
  5
71E
330
1E
100
AcDbEntity
  8
0
100
AcDbLine
 10
152.462
 20
48.616075
 30
0.0
 11
153.108
 21
49.174375
 31
0.0
  0
LINE
  5
721
330
1E
100
AcDbEntity
  8
0
100
AcDbLine
 10
152.462
 20
49.732775
 30
0.0
 11
153.108
 21
49.174375
 31
0.0
  0
LINE
  5
723
330
1E
100
AcDbEntity
  8
0
100
AcDbLine
 10
152.462
 20
56.326775
 30
0.0
 11
153.108
 21
56.885075
 31
0.0
  0
LINE
  5
726
330
1E
100
AcDbEntity
  8
0
100
AcDbLine
 10
152.462
 20
57.443475
 30
0.0
 11
153.108
 21
56.885075
 31
0.0
  0
LINE
  5
728
330
1E
100
AcDbEntity
  8
0
100
AcDbLine
 10
152.462
 20
64.037375
 30
0.0
 11
153.108
 21
64.595775
 31
0.0
  0
LINE
  5
72B
330
1E
100
AcDbEntity
  8
0
100
AcDbLine
 10
152.462
 20
65.154175
 30
0.0
 11
153.108
 21
64.595775
 31
0.0
  0
LINE
  5
736
330
1E
100
AcDbEntity
  8
0
100
AcDbLine
 10
152.462
 20
71.748075
 30
0.0
 11
153.108
 21
72.306475
 31
0.0
  0
LINE
  5
73A
330
1E
100
AcDbEntity
  8
0
100
AcDbLine
 10
152.462
 20
72.864775
 30
0.0
 11
153.108
 21
72.306475
 31
0.0
  0
LINE
  5
73C
330
1E
100
AcDbEntity
  8
0
100
AcDbLine
 10
166.174
 20
40.782375
 30
0.0
 11
167.551
 21
42.058575
 31
0.0
  0
LINE
  5
73D
330
1E
100
AcDbEntity
  8
0
100
AcDbLine
 10
165.657
 20
39.420975
 30
0.0
 11
165.657
 21
37.608375
 31
0.0
  0
LINE
  5
73E
330
1E
100
AcDbEntity
  8
0
100
AcDbLine
 10
165.657
 20
39.420975
 30
0.0
 11
166.174
 21
40.782375
 31
0.0
  0
LINE
  5
73F
330
1E
100
AcDbEntity
  8
0
100
AcDbLine
 10
168.813
 20
48.616075
 30
0.0
 11
170.319
 21
48.376775
 31
0.0
  0
LINE
  5
744
330
1E
100
AcDbEntity
  8
0
100
AcDbLine
 10
168.167
 20
56.885075
 30
0.0
 11
168.813
 21
57.443475
 31
0.0
  0
LINE
  5
745
330
1E
100
AcDbEntity
  8
0
100
AcDbLine
 10
168.167
 20
56.885075
 30
0.0
 11
168.813
 21
56.326775
 31
0.0
  0
LINE
  5
749
330
1E
100
AcDbEntity
  8
0
100
AcDbLine
 10
168.167
 20
72.306475
 30
0.0
 11
168.813
 21
72.864775
 31
0.0
  0
LINE
  5
74A
330
1E
100
AcDbEntity
  8
0
100
AcDbLine
 10
168.167
 20
72.306475
 30
0.0
 11
168.813
 21
71.748075
 31
0.0
  0
LINE
  5
74E
330
1E
100
AcDbEntity
  8
0
100
AcDbLine
 10
168.813
 20
56.326775
 30
0.0
 11
170.319
 21
56.087475
 31
0.0
  0
LINE
  5
751
330
1E
100
AcDbEntity
  8
0
100
AcDbLine
 10
168.813
 20
57.443475
 30
0.0
 11
170.319
 21
57.682775
 31
0.0
  0
LINE
  5
753
330
1E
100
AcDbEntity
  8
0
100
AcDbLine
 10
168.813
 20
64.037375
 30
0.0
 11
170.319
 21
63.798175
 31
0.0
  0
LINE
  5
754
330
1E
100
AcDbEntity
  8
0
100
AcDbLine
 10
168.813
 20
71.748075
 30
0.0
 11
170.319
 21
71.508775
 31
0.0
  0
LINE
  5
757
330
1E
100
AcDbEntity
  8
0
100
AcDbLine
 10
168.813
 20
72.864775
 30
0.0
 11
170.319
 21
73.104175
 31
0.0
  0
LINE
  5
75B
330
1E
100
AcDbEntity
  8
0
100
AcDbLine
 10
168.813
 20
65.154175
 30
0.0
 11
170.319
 21
65.393375
 31
0.0
  0
LINE
  5
75D
330
1E
100
AcDbEntity
  8
0
100
AcDbLine
 10
168.167
 20
64.595775
 30
0.0
 11
168.813
 21
65.154175
 31
0.0
  0
LINE
  5
75E
330
1E
100
AcDbEntity
  8
0
100
AcDbLine
 10
168.167
 20
64.595775
 30
0.0
 11
168.813
 21
64.037375
 31
0.0
  0
LINE
  5
762
330
1E
100
AcDbEntity
  8
0
100
AcDbLine
 10
168.813
 20
49.732775
 30
0.0
 11
170.319
 21
49.972075
 31
0.0
  0
LINE
  5
764
330
1E
100
AcDbEntity
  8
0
100
AcDbLine
 10
168.167
 20
49.174375
 30
0.0
 11
168.813
 21
49.732775
 31
0.0
  0
LINE
  5
765
330
1E
100
AcDbEntity
  8
0
100
AcDbLine
 10
168.167
 20
49.174375
 30
0.0
 11
168.813
 21
48.616075
 31
0.0
  0
LINE
  5
767
330
1E
100
AcDbEntity
  8
0
100
AcDbLine
 10
167.551
 20
42.058575
 30
0.0
 11
169.845
 21
43.185975
 31
0.0
  0
LINE
  5
768
330
1E
100
AcDbEntity
  8
0
100
AcDbLine
 10
167.551
 20
40.245975
 30
0.0
 11
169.845
 21
41.373275
 31
0.0
  0
LINE
  5
769
330
1E
100
AcDbEntity
  8
0
100
AcDbLine
 10
166.174
 20
38.969675
 30
0.0
 11
167.551
 21
40.245975
 31
0.0
  0
LINE
  5
76A
330
1E
100
AcDbEntity
  8
0
100
AcDbLine
 10
165.657
 20
37.608375
 30
0.0
 11
166.174
 21
38.969675
 31
0.0
  0
LINE
  5
76B
330
1E
100
AcDbEntity
  8
0
100
AcDbLine
 10
165.657
 20
37.608375
 30
0.0
 11
166.174
 21
36.247075
 31
0.0
  0
LINE
  5
76C
330
1E
100
AcDbEntity
  8
0
100
AcDbLine
 10
165.657
 20
37.608375
 30
0.0
 11
165.657
 21
39.420975
 31
0.0
  0
LINE
  5
76D
330
1E
100
AcDbEntity
  8
0
100
AcDbLine
 10
152.035
 20
91.076075
 30
0.0
 11
154.488624190624
 21
90.783775
 31
0.0
  0
LINE
  5
76E
330
1E
100
AcDbEntity
  8
0
100
AcDbLine
 10
150.282
 20
91.399675
 30
0.0
 11
152.035
 21
91.076075
 31
0.0
  0
LINE
  5
76F
330
1E
100
AcDbEntity
  8
0
100
AcDbLine
 10
148.838
 20
91.754275
 30
0.0
 11
150.282
 21
91.399675
 31
0.0
  0
LINE
  5
776
330
1E
100
AcDbEntity
  8
0
100
AcDbLine
 10
169.845
 20
33.843275
 30
0.0
 11
172.886
 21
32.992575
 31
0.0
  0
LINE
  5
777
330
1E
100
AcDbEntity
  8
0
100
AcDbLine
 10
169.845
 20
43.185975
 30
0.0
 11
172.886
 21
44.036775
 31
0.0
  0
LINE
  5
778
330
1E
100
AcDbEntity
  8
0
100
AcDbLine
 10
169.845
 20
41.373275
 30
0.0
 11
172.886
 21
42.224175
 31
0.0
  0
LINE
  5
77B
330
1E
100
AcDbEntity
  8
0
100
AcDbLine
 10
170.319
 20
11.418735
 30
0.0
 11
171.825
 21
11.179525
 31
0.0
  0
LINE
  5
781
330
1E
100
AcDbEntity
  8
0
100
AcDbLine
 10
171.825
 20
11.179525
 30
0.0
 11
172.47
 21
10.620825
 31
0.0
  0
LINE
  5
783
330
1E
100
AcDbEntity
  8
0
100
AcDbLine
 10
171.825
 20
10.062555
 30
0.0
 11
172.47
 21
10.620825
 31
0.0
  0
LINE
  5
784
330
1E
100
AcDbEntity
  8
0
100
AcDbLine
 10
170.319
 20
9.823345
 30
0.0
 11
171.825
 21
10.062555
 31
0.0
  0
LINE
  5
787
330
1E
100
AcDbEntity
  8
0
100
AcDbLine
 10
170.319
 20
26.840075
 30
0.0
 11
171.825
 21
26.600875
 31
0.0
  0
LINE
  5
789
330
1E
100
AcDbEntity
  8
0
100
AcDbLine
 10
170.319
 20
25.244675
 30
0.0
 11
171.825
 21
25.483875
 31
0.0
  0
LINE
  5
78E
330
1E
100
AcDbEntity
  8
0
100
AcDbLine
 10
171.825
 20
26.600875
 30
0.0
 11
172.47
 21
26.042175
 31
0.0
  0
LINE
  5
790
330
1E
100
AcDbEntity
  8
0
100
AcDbLine
 10
171.825
 20
25.483875
 30
0.0
 11
172.47
 21
26.042175
 31
0.0
  0
LINE
  5
793
330
1E
100
AcDbEntity
  8
0
100
AcDbLine
 10
170.319
 20
19.129375
 30
0.0
 11
171.825
 21
18.890175
 31
0.0
  0
LINE
  5
795
330
1E
100
AcDbEntity
  8
0
100
AcDbLine
 10
171.825
 20
18.890175
 30
0.0
 11
172.47
 21
18.331475
 31
0.0
  0
LINE
  5
79B
330
1E
100
AcDbEntity
  8
0
100
AcDbLine
 10
171.825
 20
17.773175
 30
0.0
 11
172.47
 21
18.331475
 31
0.0
  0
LINE
  5
79C
330
1E
100
AcDbEntity
  8
0
100
AcDbLine
 10
170.319
 20
17.533975
 30
0.0
 11
171.825
 21
17.773175
 31
0.0
  0
LINE
  5
79D
330
1E
100
AcDbEntity
  8
0
100
AcDbLine
 10
172.886
 20
32.992575
 30
0.0
 11
176.328
 21
32.482075
 31
0.0
  0
LINE
  5
79E
330
1E
100
AcDbEntity
  8
0
100
AcDbLine
 10
170.319
 20
48.376775
 30
0.0
 11
171.825
 21
48.616075
 31
0.0
  0
LINE
  5
79F
330
1E
100
AcDbEntity
  8
0
100
AcDbLine
 10
171.825
 20
48.616075
 30
0.0
 11
172.47
 21
49.174375
 31
0.0
  0
LINE
  5
7A1
330
1E
100
AcDbEntity
  8
0
100
AcDbLine
 10
171.825
 20
49.732775
 30
0.0
 11
172.47
 21
49.174375
 31
0.0
  0
LINE
  5
7A3
330
1E
100
AcDbEntity
  8
0
100
AcDbLine
 10
170.319
 20
56.087475
 30
0.0
 11
171.825
 21
56.326775
 31
0.0
  0
LINE
  5
7A6
330
1E
100
AcDbEntity
  8
0
100
AcDbLine
 10
170.319
 20
57.682775
 30
0.0
 11
171.825
 21
57.443475
 31
0.0
  0
LINE
  5
7A8
330
1E
100
AcDbEntity
  8
0
100
AcDbLine
 10
170.319
 20
63.798175
 30
0.0
 11
171.825
 21
64.037375
 31
0.0
  0
LINE
  5
7A9
330
1E
100
AcDbEntity
  8
0
100
AcDbLine
 10
170.319
 20
71.508775
 30
0.0
 11
171.825
 21
71.748075
 31
0.0
  0
LINE
  5
7AC
330
1E
100
AcDbEntity
  8
0
100
AcDbLine
 10
170.319
 20
73.104175
 30
0.0
 11
171.825
 21
72.864775
 31
0.0
  0
LINE
  5
7B0
330
1E
100
AcDbEntity
  8
0
100
AcDbLine
 10
170.319
 20
65.393375
 30
0.0
 11
171.825
 21
65.154175
 31
0.0
  0
LINE
  5
7B5
330
1E
100
AcDbEntity
  8
0
100
AcDbLine
 10
171.825
 20
56.326775
 30
0.0
 11
172.47
 21
56.885075
 31
0.0
  0
LINE
  5
7B6
330
1E
100
AcDbEntity
  8
0
100
AcDbLine
 10
171.825
 20
57.443475
 30
0.0
 11
172.47
 21
56.885075
 31
0.0
  0
LINE
  5
7B8
330
1E
100
AcDbEntity
  8
0
100
AcDbLine
 10
171.825
 20
71.748075
 30
0.0
 11
172.47
 21
72.306475
 31
0.0
  0
LINE
  5
7BB
330
1E
100
AcDbEntity
  8
0
100
AcDbLine
 10
171.825
 20
72.864775
 30
0.0
 11
172.47
 21
72.306475
 31
0.0
  0
LINE
  5
7BF
330
1E
100
AcDbEntity
  8
0
100
AcDbLine
 10
171.825
 20
64.037375
 30
0.0
 11
172.47
 21
64.595775
 31
0.0
  0
LINE
  5
7C6
330
1E
100
AcDbEntity
  8
0
100
AcDbLine
 10
171.825
 20
65.154175
 30
0.0
 11
172.47
 21
64.595775
 31
0.0
  0
LINE
  5
7CC
330
1E
100
AcDbEntity
  8
0
100
AcDbLine
 10
170.319
 20
49.972075
 30
0.0
 11
171.825
 21
49.732775
 31
0.0
  0
LINE
  5
7CE
330
1E
100
AcDbEntity
  8
0
100
AcDbLine
 10
172.886
 20
44.036775
 30
0.0
 11
176.328
 21
44.547275
 31
0.0
  0
LINE
  5
7CF
330
1E
100
AcDbEntity
  8
0
100
AcDbLine
 10
172.886
 20
42.224175
 30
0.0
 11
176.328
 21
42.734675
 31
0.0
  0
LINE
  5
7D0
330
1E
100
AcDbEntity
  8
0
100
AcDbLine
 10
170.081866513234
 20
90.783775
 30
0.0
 11
172.982
 21
91.720975
 31
0.0
  0
LINE
  5
7D1
330
1E
100
AcDbEntity
  8
0
100
AcDbLine
 10
170.622587923297
 20
90.783775
 30
0.0
 11
172.808
 21
91.480775
 31
0.0
  0
LINE
  5
7D2
330
1E
100
AcDbEntity
  8
0
100
AcDbLine
 10
169.465942934783
 20
90.783775
 30
0.0
 11
169.606
 21
91.198175
 31
0.0
  0
LINE
  5
7D3
330
1E
100
AcDbEntity
  8
0
100
AcDbLine
 10
172.982
 20
91.720975
 30
0.0
 11
176.346
 21
92.309275
 31
0.0
  0
LINE
  5
7D4
330
1E
100
AcDbEntity
  8
0
100
AcDbLine
 10
172.808
 20
91.480775
 30
0.0
 11
176.288
 21
92.069075
 31
0.0
  0
LINE
  5
7D5
330
1E
100
AcDbEntity
  8
0
100
AcDbLine
 10
169.606
 20
91.198175
 30
0.0
 11
170.667
 21
92.282375
 31
0.0
  0
LINE
  5
7D6
330
1E
100
AcDbEntity
  8
0
100
AcDbLine
 10
168.942
 20
90.783775
 30
0.0
 11
168.942
 21
100.037575
 31
0.0
  0
LINE
  5
7D7
330
1E
100
AcDbEntity
  8
0
100
AcDbLine
 10
147.594
 20
92.255775
 30
0.0
 11
148.838
 21
91.754275
 31
0.0
  0
LINE
  5
7DA
330
1E
100
AcDbEntity
  8
0
100
AcDbLine
 10
176.328
 20
32.482075
 30
0.0
 11
180.0
 21
32.290575
 31
0.0
  0
LINE
  5
7DB
330
1E
100
AcDbEntity
  8
0
100
AcDbLine
 10
176.328
 20
44.547275
 30
0.0
 11
180.0
 21
44.738675
 31
0.0
  0
LINE
  5
7DC
330
1E
100
AcDbEntity
  8
0
100
AcDbLine
 10
176.328
 20
42.734675
 30
0.0
 11
180.0
 21
42.926075
 31
0.0
  0
LINE
  5
7DD
330
1E
100
AcDbEntity
  8
0
100
AcDbLine
 10
176.288
 20
92.069075
 30
0.0
 11
180.0
 21
92.289675
 31
0.0
  0
LINE
  5
7E0
330
1E
100
AcDbEntity
  8
0
100
AcDbLine
 10
176.346
 20
92.309275
 30
0.0
 11
180.0
 21
92.529875
 31
0.0
  0
LINE
  5
7E1
330
1E
100
AcDbEntity
  8
0
100
AcDbLine
 10
170.667
 20
92.282375
 30
0.0
 11
172.392
 21
93.235675
 31
0.0
  0
LINE
  5
7F2
330
1E
100
AcDbEntity
  8
0
100
AcDbLine
 10
146.703
 20
92.765975
 30
0.0
 11
147.594
 21
92.255775
 31
0.0
  0
LINE
  5
7F5
330
1E
100
AcDbEntity
  8
0
100
AcDbLine
 10
142.204
 20
99.477675
 30
0.0
 11
142.558
 21
98.034275
 31
0.0
  0
LINE
  5
7F6
330
1E
100
AcDbEntity
  8
0
100
AcDbLine
 10
143.06
 20
96.789775
 30
0.0
 11
143.57
 21
95.899575
 31
0.0
  0
LINE
  5
7F7
330
1E
100
AcDbEntity
  8
0
100
AcDbLine
 10
142.558
 20
98.034275
 30
0.0
 11
143.06
 21
96.789775
 31
0.0
  0
LINE
  5
7F8
330
1E
100
AcDbEntity
  8
0
100
AcDbLine
 10
144.201
 20
94.948875
 30
0.0
 11
144.929
 21
94.125075
 31
0.0
  0
LINE
  5
7F9
330
1E
100
AcDbEntity
  8
0
100
AcDbLine
 10
143.57
 20
95.899575
 30
0.0
 11
144.201
 21
94.948875
 31
0.0
  0
LINE
  5
7FA
330
1E
100
AcDbEntity
  8
0
100
AcDbLine
 10
144.929
 20
94.125075
 30
0.0
 11
145.753
 21
93.397275
 31
0.0
  0
LINE
  5
7FB
330
1E
100
AcDbEntity
  8
0
100
AcDbLine
 10
145.753
 20
93.397275
 30
0.0
 11
146.703
 21
92.765975
 31
0.0
  0
LINE
  5
809
330
1E
100
AcDbEntity
  8
0
100
AcDbLine
 10
141.88
 20
101.230575
 30
0.0
 11
142.204
 21
99.477675
 31
0.0
  0
LINE
  5
80A
330
1E
100
AcDbEntity
  8
0
100
AcDbLine
 10
169.0
 20
100.211924748744
 30
0.0
 11
169.0
 21
104.996075
 31
0.0
  0
LINE
  5
80B
330
1E
100
AcDbEntity
  8
0
100
AcDbLine
 10
168.942
 20
100.037575
 30
0.0
 11
168.942
 21
90.783775
 31
0.0
  0
LINE
  5
80C
330
1E
100
AcDbEntity
  8
0
100
AcDbLine
 10
168.942
 20
100.037575
 30
0.0
 11
169.34
 21
101.233975
 31
0.0
  0
LINE
  5
80F
330
1E
100
AcDbEntity
  8
0
100
AcDbLine
 10
169.34
 20
101.233975
 30
0.0
 11
170.402
 21
102.355075
 31
0.0
  0
LINE
  5
810
330
1E
100
AcDbEntity
  8
0
100
AcDbLine
 10
172.392
 20
93.235675
 30
0.0
 11
174.648
 21
93.964675
 31
0.0
  0
LINE
  5
811
330
1E
100
AcDbEntity
  8
0
100
AcDbLine
 10
170.402
 20
102.355075
 30
0.0
 11
172.171
 21
103.346075
 31
0.0
  0
LINE
  5
812
330
1E
100
AcDbEntity
  8
0
100
AcDbLine
 10
141.494
 20
104.472075
 30
0.0
 11
141.88
 21
101.230575
 31
0.0
  0
LINE
  5
813
330
1E
100
AcDbEntity
  8
0
100
AcDbLine
 10
172.171
 20
103.346075
 30
0.0
 11
174.515
 21
104.094075
 31
0.0
  0
LINE
  5
814
330
1E
100
AcDbEntity
  8
0
100
AcDbLine
 10
174.648
 20
93.964675
 30
0.0
 11
177.213
 21
94.413275
 31
0.0
  0
LINE
  5
815
330
1E
100
AcDbEntity
  8
0
100
AcDbLine
 10
177.213
 20
94.413275
 30
0.0
 11
180.0
 21
94.581575
 31
0.0
  0
LINE
  5
816
330
1E
100
AcDbEntity
  8
0
100
AcDbLine
 10
174.515
 20
104.094075
 30
0.0
 11
177.169
 21
104.542075
 31
0.0
  0
LINE
  5
817
330
1E
100
AcDbEntity
  8
0
100
AcDbLine
 10
140.053
 20
125.785075
 30
0.0
 11
140.226
 21
120.727075
 31
0.0
  0
LINE
  5
818
330
1E
100
AcDbEntity
  8
0
100
AcDbLine
 10
140.053
 20
132.607075
 30
0.0
 11
140.226
 21
137.665075
 31
0.0
  0
LINE
  5
819
330
1E
100
AcDbEntity
  8
0
100
AcDbLine
 10
140.0
 20
129.196075
 30
0.0
 11
140.053
 21
132.607075
 31
0.0
  0
LINE
  5
81A
330
1E
100
AcDbEntity
  8
0
100
AcDbLine
 10
140.0
 20
129.196075
 30
0.0
 11
140.053
 21
125.785075
 31
0.0
  0
LINE
  5
81B
330
1E
100
AcDbEntity
  8
0
100
AcDbLine
 10
140.226
 20
120.727075
 30
0.0
 11
140.587
 21
114.176075
 31
0.0
  0
LINE
  5
81C
330
1E
100
AcDbEntity
  8
0
100
AcDbLine
 10
140.587
 20
114.176075
 30
0.0
 11
141.021
 21
108.434075
 31
0.0
  0
LINE
  5
81D
330
1E
100
AcDbEntity
  8
0
100
AcDbLine
 10
141.021
 20
108.434075
 30
0.0
 11
141.494
 21
104.472075
 31
0.0
  0
LINE
  5
81E
330
1E
100
AcDbEntity
  8
0
100
AcDbLine
 10
169.0
 20
110.239075
 30
0.0
 11
169.0
 21
115.018075
 31
0.0
  0
LINE
  5
81F
330
1E
100
AcDbEntity
  8
0
100
AcDbLine
 10
169.0
 20
110.239075
 30
0.0
 11
169.0
 21
104.996075
 31
0.0
  0
LINE
  5
820
330
1E
100
AcDbEntity
  8
0
100
AcDbLine
 10
169.0
 20
104.996075
 30
0.0
 11
169.0
 21
100.211924748744
 31
0.0
  0
LINE
  5
821
330
1E
100
AcDbEntity
  8
0
100
AcDbLine
 10
169.0
 20
104.996075
 30
0.0
 11
169.0
 21
110.239075
 31
0.0
  0
LINE
  5
824
330
1E
100
AcDbEntity
  8
0
100
AcDbLine
 10
169.0
 20
125.470075
 30
0.0
 11
169.0
 21
122.688075
 31
0.0
  0
LINE
  5
825
330
1E
100
AcDbEntity
  8
0
100
AcDbLine
 10
169.0
 20
125.470075
 30
0.0
 11
169.0
 21
127.493075
 31
0.0
  0
LINE
  5
826
330
1E
100
AcDbEntity
  8
0
100
AcDbLine
 10
169.0
 20
122.688075
 30
0.0
 11
169.0
 21
125.470075
 31
0.0
  0
LINE
  5
827
330
1E
100
AcDbEntity
  8
0
100
AcDbLine
 10
169.0
 20
122.688075
 30
0.0
 11
169.0
 21
119.192075
 31
0.0
  0
LINE
  5
828
330
1E
100
AcDbEntity
  8
0
100
AcDbLine
 10
169.0
 20
119.192075
 30
0.0
 11
169.0
 21
115.018075
 31
0.0
  0
LINE
  5
829
330
1E
100
AcDbEntity
  8
0
100
AcDbLine
 10
169.0
 20
119.192075
 30
0.0
 11
169.0
 21
122.688075
 31
0.0
  0
LINE
  5
82A
330
1E
100
AcDbEntity
  8
0
100
AcDbLine
 10
169.0
 20
115.018075
 30
0.0
 11
169.0
 21
119.192075
 31
0.0
  0
LINE
  5
82B
330
1E
100
AcDbEntity
  8
0
100
AcDbLine
 10
169.0
 20
115.018075
 30
0.0
 11
169.0
 21
110.239075
 31
0.0
  0
LINE
  5
830
330
1E
100
AcDbEntity
  8
0
100
AcDbLine
 10
140.226
 20
137.665075
 30
0.0
 11
140.587
 21
144.216075
 31
0.0
  0
LINE
  5
833
330
1E
100
AcDbEntity
  8
0
100
AcDbLine
 10
141.021
 20
149.958075
 30
0.0
 11
141.494
 21
153.920075
 31
0.0
  0
LINE
  5
834
330
1E
100
AcDbEntity
  8
0
100
AcDbLine
 10
140.587
 20
144.216075
 30
0.0
 11
141.021
 21
149.958075
 31
0.0
  0
LINE
  5
835
330
1E
100
AcDbEntity
  8
0
100
AcDbLine
 10
141.88
 20
157.161075
 30
0.0
 11
142.204
 21
158.914075
 31
0.0
  0
LINE
  5
836
330
1E
100
AcDbEntity
  8
0
100
AcDbLine
 10
141.494
 20
153.920075
 30
0.0
 11
141.88
 21
157.161075
 31
0.0
  0
LINE
  5
838
330
1E
100
AcDbEntity
  8
0
100
AcDbLine
 10
142.204
 20
158.914075
 30
0.0
 11
142.558
 21
160.358075
 31
0.0
  0
LINE
  5
839
330
1E
100
AcDbEntity
  8
0
100
AcDbLine
 10
142.558
 20
160.358075
 30
0.0
 11
143.06
 21
161.602075
 31
0.0
  0
LINE
  5
83C
330
1E
100
AcDbEntity
  8
0
100
AcDbLine
 10
143.06
 20
161.602075
 30
0.0
 11
143.57
 21
162.492075
 31
0.0
  0
LINE
  5
83D
330
1E
100
AcDbEntity
  8
0
100
AcDbLine
 10
143.57
 20
162.492075
 30
0.0
 11
144.201
 21
163.443075
 31
0.0
  0
LINE
  5
841
330
1E
100
AcDbEntity
  8
0
100
AcDbLine
 10
144.201
 20
163.443075
 30
0.0
 11
144.929
 21
164.267075
 31
0.0
  0
LINE
  5
84D
330
1E
100
AcDbEntity
  8
0
100
AcDbLine
 10
144.929
 20
164.267075
 30
0.0
 11
145.753
 21
164.995075
 31
0.0
  0
LINE
  5
850
330
1E
100
AcDbEntity
  8
0
100
AcDbLine
 10
145.753
 20
164.995075
 30
0.0
 11
146.703
 21
165.626075
 31
0.0
  0
LINE
  5
853
330
1E
100
AcDbEntity
  8
0
100
AcDbLine
 10
146.703
 20
165.626075
 30
0.0
 11
147.594
 21
166.136075
 31
0.0
  0
LINE
  5
855
330
1E
100
AcDbEntity
  8
0
100
AcDbLine
 10
147.594
 20
166.136075
 30
0.0
 11
148.838
 21
166.638075
 31
0.0
  0
LINE
  5
858
330
1E
100
AcDbEntity
  8
0
100
AcDbLine
 10
148.838
 20
166.638075
 30
0.0
 11
150.282
 21
166.992075
 31
0.0
  0
LINE
  5
85B
330
1E
100
AcDbEntity
  8
0
100
AcDbLine
 10
150.282
 20
166.992075
 30
0.0
 11
152.035
 21
167.316075
 31
0.0
  0
LINE
  5
85E
330
1E
100
AcDbEntity
  8
0
100
AcDbLine
 10
152.035
 20
167.316075
 30
0.0
 11
155.276
 21
167.702075
 31
0.0
  0
LINE
  5
862
330
1E
100
AcDbEntity
  8
0
100
AcDbLine
 10
155.276
 20
167.702075
 30
0.0
 11
159.238
 21
168.175075
 31
0.0
  0
LINE
  5
864
330
1E
100
AcDbEntity
  8
0
100
AcDbLine
 10
159.238
 20
168.175075
 30
0.0
 11
164.98
 21
168.609075
 31
0.0
  0
LINE
  5
865
330
1E
100
AcDbEntity
  8
0
100
AcDbLine
 10
164.98
 20
168.609075
 30
0.0
 11
171.531
 21
168.970075
 31
0.0
  0
LINE
  5
866
330
1E
100
AcDbEntity
  8
0
100
AcDbLine
 10
169.0
 20
128.720075
 30
0.0
 11
169.0
 21
127.493075
 31
0.0
  0
LINE
  5
867
330
1E
100
AcDbEntity
  8
0
100
AcDbLine
 10
169.0
 20
128.720075
 30
0.0
 11
169.0
 21
129.132075
 31
0.0
  0
LINE
  5
868
330
1E
100
AcDbEntity
  8
0
100
AcDbLine
 10
169.0
 20
127.493075
 30
0.0
 11
169.0
 21
125.470075
 31
0.0
  0
LINE
  5
869
330
1E
100
AcDbEntity
  8
0
100
AcDbLine
 10
169.0
 20
127.493075
 30
0.0
 11
169.0
 21
128.720075
 31
0.0
  0
LINE
  5
86A
330
1E
100
AcDbEntity
  8
0
100
AcDbLine
 10
170.452
 20
134.599075
 30
0.0
 11
172.212
 21
136.936075
 31
0.0
  0
LINE
  5
86B
330
1E
100
AcDbEntity
  8
0
100
AcDbLine
 10
169.396
 20
131.954075
 30
0.0
 11
170.452
 21
134.599075
 31
0.0
  0
LINE
  5
86C
330
1E
100
AcDbEntity
  8
0
100
AcDbLine
 10
169.0
 20
129.132075
 30
0.0
 11
169.029030604982
 21
128.925195284698
 31
0.0
  0
LINE
  5
86D
330
1E
100
AcDbEntity
  8
0
100
AcDbLine
 10
169.0
 20
129.132075
 30
0.0
 11
169.396
 21
131.954075
 31
0.0
  0
LINE
  5
86E
330
1E
100
AcDbEntity
  8
0
100
AcDbLine
 10
169.0
 20
129.132075
 30
0.0
 11
169.0
 21
128.720075
 31
0.0
  0
LINE
  5
871
330
1E
100
AcDbEntity
  8
0
100
AcDbLine
 10
171.531
 20
168.970075
 30
0.0
 11
176.589
 21
169.143075
 31
0.0
  0
LINE
  5
872
330
1E
100
AcDbEntity
  8
0
100
AcDbLine
 10
174.544
 20
138.699075
 30
0.0
 11
177.184
 21
139.758075
 31
0.0
  0
LINE
  5
873
330
1E
100
AcDbEntity
  8
0
100
AcDbLine
 10
172.212
 20
136.936075
 30
0.0
 11
174.544
 21
138.699075
 31
0.0
  0
LINE
  5
876
330
1E
100
AcDbEntity
  8
0
100
AcDbLine
 10
176.589
 20
169.143075
 30
0.0
 11
180.0
 21
169.196075
 31
0.0
  0
LINE
  5
877
330
1E
100
AcDbEntity
  8
0
100
AcDbLine
 10
177.184
 20
139.758075
 30
0.0
 11
180.0
 21
140.154075
 31
0.0
  0
LINE
  5
880
330
1E
100
AcDbEntity
  8
0
100
AcDbLine
 10
177.169
 20
104.542075
 30
0.0
 11
180.0
 21
104.711075
 31
0.0
  0
LINE
  5
10C3
330
1E
100
AcDbEntity
  8
0
100
AcDbLine
 10
360.0
 20
76.451575
 30
0.0
 11
360.0
 21
86.723075
 31
0.0
  0
LINE
  5
10C4
330
1E
100
AcDbEntity
  8
0
100
AcDbLine
 10
360.0
 20
86.723075
 30
0.0
 11
360.0
 21
76.451575
 31
0.0
  0
LINE
  5
10C5
330
1E
100
AcDbEntity
  8
0
100
AcDbLine
 10
360.0
 20
86.723075
 30
0.0
 11
360.0
 21
50.296675
 31
0.0
  0
LINE
  5
10C6
330
1E
100
AcDbEntity
  8
0
100
AcDbLine
 10
360.0
 20
50.296675
 30
0.0
 11
360.0
 21
86.723075
 31
0.0
  0
LINE
  5
10C7
330
1E
100
AcDbEntity
  8
0
100
AcDbLine
 10
349.9602
 20
80.173975
 30
0.0
 11
180.0
 21
80.173975
 31
0.0
  0
LINE
  5
10C8
330
1E
100
AcDbEntity
  8
0
100
AcDbLine
 10
349.9602
 20
80.173975
 30
0.0
 11
180.0
 21
80.173975
 31
0.0
  0
LINE
  5
10C9
330
1E
100
AcDbEntity
  8
0
100
AcDbLine
 10
348.6598
 20
-0.196075
 30
0.0
 11
180.0
 21
-0.196075
 31
0.0
  0
LINE
  5
10CA
330
1E
100
AcDbEntity
  8
0
100
AcDbLine
 10
348.6598
 20
-0.196075
 30
0.0
 11
180.0
 21
-0.196075
 31
0.0
  0
LINE
  5
10CB
330
1E
100
AcDbEntity
  8
0
100
AcDbLine
 10
360.0
 20
50.296675
 30
0.0
 11
360.0
 21
13.870375
 31
0.0
  0
LINE
  5
10CC
330
1E
100
AcDbEntity
  8
0
100
AcDbLine
 10
360.0
 20
40.025175
 30
0.0
 11
360.0
 21
3.598895
 31
0.0
  0
LINE
  5
10CD
330
1E
100
AcDbEntity
  8
0
100
AcDbLine
 10
360.0
 20
3.598895
 30
0.0
 11
360.0
 21
40.025175
 31
0.0
  0
LINE
  5
10CE
330
1E
100
AcDbEntity
  8
0
100
AcDbLine
 10
360.0
 20
13.870375
 30
0.0
 11
360.0
 21
50.296675
 31
0.0
  0
LINE
  5
10CF
330
1E
100
AcDbEntity
  8
0
100
AcDbLine
 10
350.83908
 20
-0.101415
 30
0.0
 11
348.6598
 21
-0.196075
 31
0.0
  0
LINE
  5
10D0
330
1E
100
AcDbEntity
  8
0
100
AcDbLine
 10
356.27092
 20
0.673955
 30
0.0
 11
354.26295
 21
0.248805
 31
0.0
  0
LINE
  5
10D1
330
1E
100
AcDbEntity
  8
0
100
AcDbLine
 10
358.99602
 20
2.003512
 30
0.0
 11
357.84861
 21
1.259281
 31
0.0
  0
LINE
  5
10D2
330
1E
100
AcDbEntity
  8
0
100
AcDbLine
 10
357.84861
 20
1.259281
 30
0.0
 11
356.27092
 21
0.673955
 31
0.0
  0
LINE
  5
10D3
330
1E
100
AcDbEntity
  8
0
100
AcDbLine
 10
359.741833
 20
2.779862
 30
0.0
 11
358.99602
 21
2.003512
 31
0.0
  0
LINE
  5
10D4
330
1E
100
AcDbEntity
  8
0
100
AcDbLine
 10
359.741833
 20
2.779862
 30
0.0
 11
358.99602
 21
2.003512
 31
0.0
  0
LINE
  5
10D5
330
1E
100
AcDbEntity
  8
0
100
AcDbLine
 10
360.0
 20
3.598895
 30
0.0
 11
359.741833
 21
2.779862
 31
0.0
  0
LINE
  5
10D6
330
1E
100
AcDbEntity
  8
0
100
AcDbLine
 10
354.26295
 20
0.248805
 30
0.0
 11
352.16892
 21
-0.028015
 31
0.0
  0
LINE
  5
10D7
330
1E
100
AcDbEntity
  8
0
100
AcDbLine
 10
352.16892
 20
-0.028015
 30
0.0
 11
350.83908
 21
-0.101415
 31
0.0
  0
LINE
  5
10D8
330
1E
100
AcDbEntity
  8
0
100
AcDbLine
 10
346.0877
 20
3.468855
 30
0.0
 11
344.5817
 21
3.708065
 31
0.0
  0
LINE
  5
10D9
330
1E
100
AcDbEntity
  8
0
100
AcDbLine
 10
346.0877
 20
2.35188
 30
0.0
 11
344.5817
 21
2.112678
 31
0.0
  0
LINE
  5
10DA
330
1E
100
AcDbEntity
  8
0
100
AcDbLine
 10
346.7331
 20
2.910158
 30
0.0
 11
346.0877
 21
3.468855
 31
0.0
  0
LINE
  5
10DB
330
1E
100
AcDbEntity
  8
0
100
AcDbLine
 10
346.7331
 20
2.910158
 30
0.0
 11
346.0877
 21
2.35188
 31
0.0
  0
LINE
  5
10DC
330
1E
100
AcDbEntity
  8
0
100
AcDbLine
 10
344.5817
 20
3.708065
 30
0.0
 11
343.0757
 21
3.468855
 31
0.0
  0
LINE
  5
10DD
330
1E
100
AcDbEntity
  8
0
100
AcDbLine
 10
344.5817
 20
2.112678
 30
0.0
 11
343.0757
 21
2.35188
 31
0.0
  0
LINE
  5
10DE
330
1E
100
AcDbEntity
  8
0
100
AcDbLine
 10
343.0757
 20
3.468855
 30
0.0
 11
342.4303
 21
2.910158
 31
0.0
  0
LINE
  5
10DF
330
1E
100
AcDbEntity
  8
0
100
AcDbLine
 10
343.0757
 20
2.35188
 30
0.0
 11
342.4303
 21
2.910158
 31
0.0
  0
LINE
  5
10E0
330
1E
100
AcDbEntity
  8
0
100
AcDbLine
 10
325.2191
 20
3.708065
 30
0.0
 11
323.7131
 21
3.468855
 31
0.0
  0
LINE
  5
10E1
330
1E
100
AcDbEntity
  8
0
100
AcDbLine
 10
325.2191
 20
2.112678
 30
0.0
 11
323.7131
 21
2.35188
 31
0.0
  0
LINE
  5
10E2
330
1E
100
AcDbEntity
  8
0
100
AcDbLine
 10
327.3705
 20
2.910158
 30
0.0
 11
326.7251
 21
2.35188
 31
0.0
  0
LINE
  5
10E3
330
1E
100
AcDbEntity
  8
0
100
AcDbLine
 10
327.3705
 20
2.910158
 30
0.0
 11
326.7251
 21
3.468855
 31
0.0
  0
LINE
  5
10E4
330
1E
100
AcDbEntity
  8
0
100
AcDbLine
 10
326.7251
 20
3.468855
 30
0.0
 11
325.2191
 21
3.708065
 31
0.0
  0
LINE
  5
10E5
330
1E
100
AcDbEntity
  8
0
100
AcDbLine
 10
326.7251
 20
2.35188
 30
0.0
 11
325.2191
 21
2.112678
 31
0.0
  0
LINE
  5
10E6
330
1E
100
AcDbEntity
  8
0
100
AcDbLine
 10
323.7131
 20
3.468855
 30
0.0
 11
323.0677
 21
2.910158
 31
0.0
  0
LINE
  5
10E7
330
1E
100
AcDbEntity
  8
0
100
AcDbLine
 10
323.7131
 20
2.35188
 30
0.0
 11
323.0677
 21
2.910158
 31
0.0
  0
LINE
  5
10E8
330
1E
100
AcDbEntity
  8
0
100
AcDbLine
 10
307.3625
 20
3.468855
 30
0.0
 11
305.8566
 21
3.708065
 31
0.0
  0
LINE
  5
10E9
330
1E
100
AcDbEntity
  8
0
100
AcDbLine
 10
307.3625
 20
2.35188
 30
0.0
 11
305.8566
 21
2.112678
 31
0.0
  0
LINE
  5
10EA
330
1E
100
AcDbEntity
  8
0
100
AcDbLine
 10
308.008
 20
2.910158
 30
0.0
 11
307.3625
 21
3.468855
 31
0.0
  0
LINE
  5
10EB
330
1E
100
AcDbEntity
  8
0
100
AcDbLine
 10
308.008
 20
2.910158
 30
0.0
 11
307.3625
 21
2.35188
 31
0.0
  0
LINE
  5
10EC
330
1E
100
AcDbEntity
  8
0
100
AcDbLine
 10
305.8566
 20
3.708065
 30
0.0
 11
304.3506
 21
3.468855
 31
0.0
  0
LINE
  5
10ED
330
1E
100
AcDbEntity
  8
0
100
AcDbLine
 10
304.3506
 20
3.468855
 30
0.0
 11
303.7052
 21
2.910158
 31
0.0
  0
LINE
  5
10EE
330
1E
100
AcDbEntity
  8
0
100
AcDbLine
 10
304.3506
 20
2.35188
 30
0.0
 11
303.7052
 21
2.910158
 31
0.0
  0
LINE
  5
10EF
330
1E
100
AcDbEntity
  8
0
100
AcDbLine
 10
305.8566
 20
2.112678
 30
0.0
 11
304.3506
 21
2.35188
 31
0.0
  0
LINE
  5
10F0
330
1E
100
AcDbEntity
  8
0
100
AcDbLine
 10
327.3705
 20
18.331475
 30
0.0
 11
326.7251
 21
17.773175
 31
0.0
  0
LINE
  5
10F1
330
1E
100
AcDbEntity
  8
0
100
AcDbLine
 10
343.0757
 20
17.773175
 30
0.0
 11
342.4303
 21
18.331475
 31
0.0
  0
LINE
  5
10F2
330
1E
100
AcDbEntity
  8
0
100
AcDbLine
 10
346.7331
 20
18.331475
 30
0.0
 11
346.0877
 21
17.773175
 31
0.0
  0
LINE
  5
10F3
330
1E
100
AcDbEntity
  8
0
100
AcDbLine
 10
323.7131
 20
17.773175
 30
0.0
 11
323.0677
 21
18.331475
 31
0.0
  0
LINE
  5
10F4
330
1E
100
AcDbEntity
  8
0
100
AcDbLine
 10
346.0877
 20
11.179525
 30
0.0
 11
344.5817
 21
11.418735
 31
0.0
  0
LINE
  5
10F5
330
1E
100
AcDbEntity
  8
0
100
AcDbLine
 10
346.0877
 20
10.062555
 30
0.0
 11
344.5817
 21
9.823345
 31
0.0
  0
LINE
  5
10F6
330
1E
100
AcDbEntity
  8
0
100
AcDbLine
 10
346.7331
 20
10.620825
 30
0.0
 11
346.0877
 21
11.179525
 31
0.0
  0
LINE
  5
10F7
330
1E
100
AcDbEntity
  8
0
100
AcDbLine
 10
346.7331
 20
10.620825
 30
0.0
 11
346.0877
 21
10.062555
 31
0.0
  0
LINE
  5
10F8
330
1E
100
AcDbEntity
  8
0
100
AcDbLine
 10
344.5817
 20
11.418735
 30
0.0
 11
343.0757
 21
11.179525
 31
0.0
  0
LINE
  5
10F9
330
1E
100
AcDbEntity
  8
0
100
AcDbLine
 10
343.0757
 20
11.179525
 30
0.0
 11
342.4303
 21
10.620825
 31
0.0
  0
LINE
  5
10FA
330
1E
100
AcDbEntity
  8
0
100
AcDbLine
 10
344.5817
 20
9.823345
 30
0.0
 11
343.0757
 21
10.062555
 31
0.0
  0
LINE
  5
10FB
330
1E
100
AcDbEntity
  8
0
100
AcDbLine
 10
343.0757
 20
10.062555
 30
0.0
 11
342.4303
 21
10.620825
 31
0.0
  0
LINE
  5
10FC
330
1E
100
AcDbEntity
  8
0
100
AcDbLine
 10
346.0877
 20
17.773175
 30
0.0
 11
344.5817
 21
17.533975
 31
0.0
  0
LINE
  5
10FD
330
1E
100
AcDbEntity
  8
0
100
AcDbLine
 10
344.5817
 20
17.533975
 30
0.0
 11
343.0757
 21
17.773175
 31
0.0
  0
LINE
  5
10FE
330
1E
100
AcDbEntity
  8
0
100
AcDbLine
 10
325.2191
 20
11.418735
 30
0.0
 11
323.7131
 21
11.179525
 31
0.0
  0
LINE
  5
10FF
330
1E
100
AcDbEntity
  8
0
100
AcDbLine
 10
325.2191
 20
9.823345
 30
0.0
 11
323.7131
 21
10.062555
 31
0.0
  0
LINE
  5
1100
330
1E
100
AcDbEntity
  8
0
100
AcDbLine
 10
327.3705
 20
10.620825
 30
0.0
 11
326.7251
 21
11.179525
 31
0.0
  0
LINE
  5
1101
330
1E
100
AcDbEntity
  8
0
100
AcDbLine
 10
326.7251
 20
11.179525
 30
0.0
 11
325.2191
 21
11.418735
 31
0.0
  0
LINE
  5
1102
330
1E
100
AcDbEntity
  8
0
100
AcDbLine
 10
326.7251
 20
10.062555
 30
0.0
 11
325.2191
 21
9.823345
 31
0.0
  0
LINE
  5
1103
330
1E
100
AcDbEntity
  8
0
100
AcDbLine
 10
327.3705
 20
10.620825
 30
0.0
 11
326.7251
 21
10.062555
 31
0.0
  0
LINE
  5
1104
330
1E
100
AcDbEntity
  8
0
100
AcDbLine
 10
323.7131
 20
11.179525
 30
0.0
 11
323.0677
 21
10.620825
 31
0.0
  0
LINE
  5
1105
330
1E
100
AcDbEntity
  8
0
100
AcDbLine
 10
323.7131
 20
10.062555
 30
0.0
 11
323.0677
 21
10.620825
 31
0.0
  0
LINE
  5
1106
330
1E
100
AcDbEntity
  8
0
100
AcDbLine
 10
325.2191
 20
17.533975
 30
0.0
 11
323.7131
 21
17.773175
 31
0.0
  0
LINE
  5
1107
330
1E
100
AcDbEntity
  8
0
100
AcDbLine
 10
326.7251
 20
17.773175
 30
0.0
 11
325.2191
 21
17.533975
 31
0.0
  0
LINE
  5
1108
330
1E
100
AcDbEntity
  8
0
100
AcDbLine
 10
346.0877
 20
18.890175
 30
0.0
 11
344.5817
 21
19.129375
 31
0.0
  0
LINE
  5
1109
330
1E
100
AcDbEntity
  8
0
100
AcDbLine
 10
346.7331
 20
18.331475
 30
0.0
 11
346.0877
 21
18.890175
 31
0.0
  0
LINE
  5
110A
330
1E
100
AcDbEntity
  8
0
100
AcDbLine
 10
344.5817
 20
19.129375
 30
0.0
 11
343.0757
 21
18.890175
 31
0.0
  0
LINE
  5
110B
330
1E
100
AcDbEntity
  8
0
100
AcDbLine
 10
343.0757
 20
18.890175
 30
0.0
 11
342.4303
 21
18.331475
 31
0.0
  0
LINE
  5
110C
330
1E
100
AcDbEntity
  8
0
100
AcDbLine
 10
346.0877
 20
25.483875
 30
0.0
 11
344.5817
 21
25.244675
 31
0.0
  0
LINE
  5
110D
330
1E
100
AcDbEntity
  8
0
100
AcDbLine
 10
346.0877
 20
26.600875
 30
0.0
 11
344.5817
 21
26.840075
 31
0.0
  0
LINE
  5
110E
330
1E
100
AcDbEntity
  8
0
100
AcDbLine
 10
346.7331
 20
26.042175
 30
0.0
 11
346.0877
 21
26.600875
 31
0.0
  0
LINE
  5
110F
330
1E
100
AcDbEntity
  8
0
100
AcDbLine
 10
346.7331
 20
26.042175
 30
0.0
 11
346.0877
 21
25.483875
 31
0.0
  0
LINE
  5
1110
330
1E
100
AcDbEntity
  8
0
100
AcDbLine
 10
344.5817
 20
26.840075
 30
0.0
 11
343.0757
 21
26.600875
 31
0.0
  0
LINE
  5
1111
330
1E
100
AcDbEntity
  8
0
100
AcDbLine
 10
344.5817
 20
25.244675
 30
0.0
 11
343.0757
 21
25.483875
 31
0.0
  0
LINE
  5
1112
330
1E
100
AcDbEntity
  8
0
100
AcDbLine
 10
343.0757
 20
25.483875
 30
0.0
 11
342.4303
 21
26.042175
 31
0.0
  0
LINE
  5
1113
330
1E
100
AcDbEntity
  8
0
100
AcDbLine
 10
343.0757
 20
26.600875
 30
0.0
 11
342.4303
 21
26.042175
 31
0.0
  0
LINE
  5
1114
330
1E
100
AcDbEntity
  8
0
100
AcDbLine
 10
325.2191
 20
19.129375
 30
0.0
 11
323.7131
 21
18.890175
 31
0.0
  0
LINE
  5
1115
330
1E
100
AcDbEntity
  8
0
100
AcDbLine
 10
326.7251
 20
18.890175
 30
0.0
 11
325.2191
 21
19.129375
 31
0.0
  0
LINE
  5
1116
330
1E
100
AcDbEntity
  8
0
100
AcDbLine
 10
327.3705
 20
18.331475
 30
0.0
 11
326.7251
 21
18.890175
 31
0.0
  0
LINE
  5
1117
330
1E
100
AcDbEntity
  8
0
100
AcDbLine
 10
323.7131
 20
18.890175
 30
0.0
 11
323.0677
 21
18.331475
 31
0.0
  0
LINE
  5
1118
330
1E
100
AcDbEntity
  8
0
100
AcDbLine
 10
325.2191
 20
25.244675
 30
0.0
 11
323.7131
 21
25.483875
 31
0.0
  0
LINE
  5
1119
330
1E
100
AcDbEntity
  8
0
100
AcDbLine
 10
325.2191
 20
26.840075
 30
0.0
 11
323.7131
 21
26.600875
 31
0.0
  0
LINE
  5
111A
330
1E
100
AcDbEntity
  8
0
100
AcDbLine
 10
327.3705
 20
26.042175
 30
0.0
 11
326.7251
 21
26.600875
 31
0.0
  0
LINE
  5
111B
330
1E
100
AcDbEntity
  8
0
100
AcDbLine
 10
327.3705
 20
26.042175
 30
0.0
 11
326.7251
 21
25.483875
 31
0.0
  0
LINE
  5
111C
330
1E
100
AcDbEntity
  8
0
100
AcDbLine
 10
326.7251
 20
25.483875
 30
0.0
 11
325.2191
 21
25.244675
 31
0.0
  0
LINE
  5
111D
330
1E
100
AcDbEntity
  8
0
100
AcDbLine
 10
326.7251
 20
26.600875
 30
0.0
 11
325.2191
 21
26.840075
 31
0.0
  0
LINE
  5
111E
330
1E
100
AcDbEntity
  8
0
100
AcDbLine
 10
323.7131
 20
25.483875
 30
0.0
 11
323.0677
 21
26.042175
 31
0.0
  0
LINE
  5
111F
330
1E
100
AcDbEntity
  8
0
100
AcDbLine
 10
323.7131
 20
26.600875
 30
0.0
 11
323.0677
 21
26.042175
 31
0.0
  0
LINE
  5
1120
330
1E
100
AcDbEntity
  8
0
100
AcDbLine
 10
304.3506
 20
17.773175
 30
0.0
 11
303.7052
 21
18.331475
 31
0.0
  0
LINE
  5
1121
330
1E
100
AcDbEntity
  8
0
100
AcDbLine
 10
308.008
 20
18.331475
 30
0.0
 11
307.3625
 21
17.773175
 31
0.0
  0
LINE
  5
1122
330
1E
100
AcDbEntity
  8
0
100
AcDbLine
 10
307.3625
 20
17.773175
 30
0.0
 11
305.8566
 21
17.533975
 31
0.0
  0
LINE
  5
1123
330
1E
100
AcDbEntity
  8
0
100
AcDbLine
 10
307.3625
 20
11.179525
 30
0.0
 11
305.8566
 21
11.418735
 31
0.0
  0
LINE
  5
1124
330
1E
100
AcDbEntity
  8
0
100
AcDbLine
 10
307.3625
 20
10.062555
 30
0.0
 11
305.8566
 21
9.823345
 31
0.0
  0
LINE
  5
1125
330
1E
100
AcDbEntity
  8
0
100
AcDbLine
 10
308.008
 20
10.620825
 30
0.0
 11
307.3625
 21
11.179525
 31
0.0
  0
LINE
  5
1126
330
1E
100
AcDbEntity
  8
0
100
AcDbLine
 10
308.008
 20
10.620825
 30
0.0
 11
307.3625
 21
10.062555
 31
0.0
  0
LINE
  5
1127
330
1E
100
AcDbEntity
  8
0
100
AcDbLine
 10
304.3506
 20
11.179525
 30
0.0
 11
303.7052
 21
10.620825
 31
0.0
  0
LINE
  5
1128
330
1E
100
AcDbEntity
  8
0
100
AcDbLine
 10
305.8566
 20
11.418735
 30
0.0
 11
304.3506
 21
11.179525
 31
0.0
  0
LINE
  5
1129
330
1E
100
AcDbEntity
  8
0
100
AcDbLine
 10
304.3506
 20
10.062555
 30
0.0
 11
303.7052
 21
10.620825
 31
0.0
  0
LINE
  5
112A
330
1E
100
AcDbEntity
  8
0
100
AcDbLine
 10
305.8566
 20
9.823345
 30
0.0
 11
304.3506
 21
10.062555
 31
0.0
  0
LINE
  5
112B
330
1E
100
AcDbEntity
  8
0
100
AcDbLine
 10
305.8566
 20
17.533975
 30
0.0
 11
304.3506
 21
17.773175
 31
0.0
  0
LINE
  5
112C
330
1E
100
AcDbEntity
  8
0
100
AcDbLine
 10
307.3625
 20
18.890175
 30
0.0
 11
305.8566
 21
19.129375
 31
0.0
  0
LINE
  5
112D
330
1E
100
AcDbEntity
  8
0
100
AcDbLine
 10
307.3625
 20
25.483875
 30
0.0
 11
305.8566
 21
25.244675
 31
0.0
  0
LINE
  5
112E
330
1E
100
AcDbEntity
  8
0
100
AcDbLine
 10
307.3625
 20
26.600875
 30
0.0
 11
305.8566
 21
26.840075
 31
0.0
  0
LINE
  5
112F
330
1E
100
AcDbEntity
  8
0
100
AcDbLine
 10
308.008
 20
18.331475
 30
0.0
 11
307.3625
 21
18.890175
 31
0.0
  0
LINE
  5
1130
330
1E
100
AcDbEntity
  8
0
100
AcDbLine
 10
308.008
 20
26.042175
 30
0.0
 11
307.3625
 21
26.600875
 31
0.0
  0
LINE
  5
1131
330
1E
100
AcDbEntity
  8
0
100
AcDbLine
 10
308.008
 20
26.042175
 30
0.0
 11
307.3625
 21
25.483875
 31
0.0
  0
LINE
  5
1132
330
1E
100
AcDbEntity
  8
0
100
AcDbLine
 10
304.3506
 20
18.890175
 30
0.0
 11
303.7052
 21
18.331475
 31
0.0
  0
LINE
  5
1133
330
1E
100
AcDbEntity
  8
0
100
AcDbLine
 10
305.8566
 20
19.129375
 30
0.0
 11
304.3506
 21
18.890175
 31
0.0
  0
LINE
  5
1134
330
1E
100
AcDbEntity
  8
0
100
AcDbLine
 10
304.3506
 20
25.483875
 30
0.0
 11
303.7052
 21
26.042175
 31
0.0
  0
LINE
  5
1135
330
1E
100
AcDbEntity
  8
0
100
AcDbLine
 10
304.3506
 20
26.600875
 30
0.0
 11
303.7052
 21
26.042175
 31
0.0
  0
LINE
  5
1136
330
1E
100
AcDbEntity
  8
0
100
AcDbLine
 10
305.8566
 20
25.244675
 30
0.0
 11
304.3506
 21
25.483875
 31
0.0
  0
LINE
  5
1137
330
1E
100
AcDbEntity
  8
0
100
AcDbLine
 10
305.8566
 20
26.840075
 30
0.0
 11
304.3506
 21
26.600875
 31
0.0
  0
LINE
  5
1138
330
1E
100
AcDbEntity
  8
0
100
AcDbLine
 10
360.0
 20
76.451575
 30
0.0
 11
360.0
 21
40.025175
 31
0.0
  0
LINE
  5
1139
330
1E
100
AcDbEntity
  8
0
100
AcDbLine
 10
360.0
 20
40.025175
 30
0.0
 11
360.0
 21
76.451575
 31
0.0
  0
LINE
  5
113A
330
1E
100
AcDbEntity
  8
0
100
AcDbLine
 10
359.741833
 20
77.270475
 30
0.0
 11
358.99602
 21
78.046875
 31
0.0
  0
LINE
  5
113B
330
1E
100
AcDbEntity
  8
0
100
AcDbLine
 10
359.741833
 20
77.270475
 30
0.0
 11
358.99602
 21
78.046875
 31
0.0
  0
LINE
  5
113C
330
1E
100
AcDbEntity
  8
0
100
AcDbLine
 10
360.0
 20
76.451575
 30
0.0
 11
359.741833
 21
77.270475
 31
0.0
  0
LINE
  5
113D
330
1E
100
AcDbEntity
  8
0
100
AcDbLine
 10
356.27092
 20
79.376275
 30
0.0
 11
354.26295
 21
79.801675
 31
0.0
  0
LINE
  5
113E
330
1E
100
AcDbEntity
  8
0
100
AcDbLine
 10
358.99602
 20
78.046875
 30
0.0
 11
357.84861
 21
78.791375
 31
0.0
  0
LINE
  5
113F
330
1E
100
AcDbEntity
  8
0
100
AcDbLine
 10
357.84861
 20
78.791375
 30
0.0
 11
356.27092
 21
79.376275
 31
0.0
  0
LINE
  5
1140
330
1E
100
AcDbEntity
  8
0
100
AcDbLine
 10
354.26295
 20
79.801675
 30
0.0
 11
352.16892
 21
80.078175
 31
0.0
  0
LINE
  5
1141
330
1E
100
AcDbEntity
  8
0
100
AcDbLine
 10
352.16892
 20
80.078175
 30
0.0
 11
349.9602
 21
80.173975
 31
0.0
  0
LINE
  5
1142
330
1E
100
AcDbEntity
  8
0
100
AcDbLine
 10
346.0877
 20
33.194575
 30
0.0
 11
344.5817
 21
32.955375
 31
0.0
  0
LINE
  5
1143
330
1E
100
AcDbEntity
  8
0
100
AcDbLine
 10
346.0877
 20
34.311575
 30
0.0
 11
344.5817
 21
34.550775
 31
0.0
  0
LINE
  5
1144
330
1E
100
AcDbEntity
  8
0
100
AcDbLine
 10
346.7331
 20
33.752875
 30
0.0
 11
346.0877
 21
34.311575
 31
0.0
  0
LINE
  5
1145
330
1E
100
AcDbEntity
  8
0
100
AcDbLine
 10
346.7331
 20
33.752875
 30
0.0
 11
346.0877
 21
33.194575
 31
0.0
  0
LINE
  5
1146
330
1E
100
AcDbEntity
  8
0
100
AcDbLine
 10
343.0757
 20
33.194575
 30
0.0
 11
342.4303
 21
33.752875
 31
0.0
  0
LINE
  5
1147
330
1E
100
AcDbEntity
  8
0
100
AcDbLine
 10
343.0757
 20
34.311575
 30
0.0
 11
342.4303
 21
33.752875
 31
0.0
  0
LINE
  5
1148
330
1E
100
AcDbEntity
  8
0
100
AcDbLine
 10
344.5817
 20
32.955375
 30
0.0
 11
343.0757
 21
33.194575
 31
0.0
  0
LINE
  5
1149
330
1E
100
AcDbEntity
  8
0
100
AcDbLine
 10
344.5817
 20
34.550775
 30
0.0
 11
343.0757
 21
34.311575
 31
0.0
  0
LINE
  5
114A
330
1E
100
AcDbEntity
  8
0
100
AcDbLine
 10
346.7331
 20
41.463675
 30
0.0
 11
346.0877
 21
42.022075
 31
0.0
  0
LINE
  5
114B
330
1E
100
AcDbEntity
  8
0
100
AcDbLine
 10
343.0757
 20
42.022075
 30
0.0
 11
342.4303
 21
41.463675
 31
0.0
  0
LINE
  5
114C
330
1E
100
AcDbEntity
  8
0
100
AcDbLine
 10
346.0877
 20
40.905375
 30
0.0
 11
344.5817
 21
40.666075
 31
0.0
  0
LINE
  5
114D
330
1E
100
AcDbEntity
  8
0
100
AcDbLine
 10
346.7331
 20
41.463675
 30
0.0
 11
346.0877
 21
40.905375
 31
0.0
  0
LINE
  5
114E
330
1E
100
AcDbEntity
  8
0
100
AcDbLine
 10
343.0757
 20
40.905375
 30
0.0
 11
342.4303
 21
41.463675
 31
0.0
  0
LINE
  5
114F
330
1E
100
AcDbEntity
  8
0
100
AcDbLine
 10
344.5817
 20
40.666075
 30
0.0
 11
343.0757
 21
40.905375
 31
0.0
  0
LINE
  5
1150
330
1E
100
AcDbEntity
  8
0
100
AcDbLine
 10
346.0877
 20
42.022075
 30
0.0
 11
344.5817
 21
42.261375
 31
0.0
  0
LINE
  5
1151
330
1E
100
AcDbEntity
  8
0
100
AcDbLine
 10
344.5817
 20
42.261375
 30
0.0
 11
343.0757
 21
42.022075
 31
0.0
  0
LINE
  5
1152
330
1E
100
AcDbEntity
  8
0
100
AcDbLine
 10
325.2191
 20
32.955375
 30
0.0
 11
323.7131
 21
33.194575
 31
0.0
  0
LINE
  5
1153
330
1E
100
AcDbEntity
  8
0
100
AcDbLine
 10
325.2191
 20
34.550775
 30
0.0
 11
323.7131
 21
34.311575
 31
0.0
  0
LINE
  5
1154
330
1E
100
AcDbEntity
  8
0
100
AcDbLine
 10
326.7251
 20
33.194575
 30
0.0
 11
325.2191
 21
32.955375
 31
0.0
  0
LINE
  5
1155
330
1E
100
AcDbEntity
  8
0
100
AcDbLine
 10
326.7251
 20
34.311575
 30
0.0
 11
325.2191
 21
34.550775
 31
0.0
  0
LINE
  5
1156
330
1E
100
AcDbEntity
  8
0
100
AcDbLine
 10
327.3705
 20
33.752875
 30
0.0
 11
326.7251
 21
34.311575
 31
0.0
  0
LINE
  5
1157
330
1E
100
AcDbEntity
  8
0
100
AcDbLine
 10
327.3705
 20
33.752875
 30
0.0
 11
326.7251
 21
33.194575
 31
0.0
  0
LINE
  5
1158
330
1E
100
AcDbEntity
  8
0
100
AcDbLine
 10
323.7131
 20
33.194575
 30
0.0
 11
323.0677
 21
33.752875
 31
0.0
  0
LINE
  5
1159
330
1E
100
AcDbEntity
  8
0
100
AcDbLine
 10
323.7131
 20
34.311575
 30
0.0
 11
323.0677
 21
33.752875
 31
0.0
  0
LINE
  5
115A
330
1E
100
AcDbEntity
  8
0
100
AcDbLine
 10
327.3705
 20
41.463675
 30
0.0
 11
326.7251
 21
42.022075
 31
0.0
  0
LINE
  5
115B
330
1E
100
AcDbEntity
  8
0
100
AcDbLine
 10
323.7131
 20
42.022075
 30
0.0
 11
323.0677
 21
41.463675
 31
0.0
  0
LINE
  5
115C
330
1E
100
AcDbEntity
  8
0
100
AcDbLine
 10
325.2191
 20
40.666075
 30
0.0
 11
323.7131
 21
40.905375
 31
0.0
  0
LINE
  5
115D
330
1E
100
AcDbEntity
  8
0
100
AcDbLine
 10
327.3705
 20
41.463675
 30
0.0
 11
326.7251
 21
40.905375
 31
0.0
  0
LINE
  5
115E
330
1E
100
AcDbEntity
  8
0
100
AcDbLine
 10
326.7251
 20
40.905375
 30
0.0
 11
325.2191
 21
40.666075
 31
0.0
  0
LINE
  5
115F
330
1E
100
AcDbEntity
  8
0
100
AcDbLine
 10
323.7131
 20
40.905375
 30
0.0
 11
323.0677
 21
41.463675
 31
0.0
  0
LINE
  5
1160
330
1E
100
AcDbEntity
  8
0
100
AcDbLine
 10
325.2191
 20
42.261375
 30
0.0
 11
323.7131
 21
42.022075
 31
0.0
  0
LINE
  5
1161
330
1E
100
AcDbEntity
  8
0
100
AcDbLine
 10
326.7251
 20
42.022075
 30
0.0
 11
325.2191
 21
42.261375
 31
0.0
  0
LINE
  5
1162
330
1E
100
AcDbEntity
  8
0
100
AcDbLine
 10
346.0877
 20
49.732775
 30
0.0
 11
344.5817
 21
49.972075
 31
0.0
  0
LINE
  5
1163
330
1E
100
AcDbEntity
  8
0
100
AcDbLine
 10
346.0877
 20
48.616075
 30
0.0
 11
344.5817
 21
48.376775
 31
0.0
  0
LINE
  5
1164
330
1E
100
AcDbEntity
  8
0
100
AcDbLine
 10
346.7331
 20
49.174375
 30
0.0
 11
346.0877
 21
48.616075
 31
0.0
  0
LINE
  5
1165
330
1E
100
AcDbEntity
  8
0
100
AcDbLine
 10
346.7331
 20
49.174375
 30
0.0
 11
346.0877
 21
49.732775
 31
0.0
  0
LINE
  5
1166
330
1E
100
AcDbEntity
  8
0
100
AcDbLine
 10
344.5817
 20
49.972075
 30
0.0
 11
343.0757
 21
49.732775
 31
0.0
  0
LINE
  5
1167
330
1E
100
AcDbEntity
  8
0
100
AcDbLine
 10
343.0757
 20
49.732775
 30
0.0
 11
342.4303
 21
49.174375
 31
0.0
  0
LINE
  5
1168
330
1E
100
AcDbEntity
  8
0
100
AcDbLine
 10
343.0757
 20
48.616075
 30
0.0
 11
342.4303
 21
49.174375
 31
0.0
  0
LINE
  5
1169
330
1E
100
AcDbEntity
  8
0
100
AcDbLine
 10
344.5817
 20
48.376775
 30
0.0
 11
343.0757
 21
48.616075
 31
0.0
  0
LINE
  5
116A
330
1E
100
AcDbEntity
  8
0
100
AcDbLine
 10
346.0877
 20
57.443475
 30
0.0
 11
344.5817
 21
57.682775
 31
0.0
  0
LINE
  5
116B
330
1E
100
AcDbEntity
  8
0
100
AcDbLine
 10
346.0877
 20
56.326775
 30
0.0
 11
344.5817
 21
56.087475
 31
0.0
  0
LINE
  5
116C
330
1E
100
AcDbEntity
  8
0
100
AcDbLine
 10
346.7331
 20
56.885075
 30
0.0
 11
346.0877
 21
56.326775
 31
0.0
  0
LINE
  5
116D
330
1E
100
AcDbEntity
  8
0
100
AcDbLine
 10
346.7331
 20
56.885075
 30
0.0
 11
346.0877
 21
57.443475
 31
0.0
  0
LINE
  5
116E
330
1E
100
AcDbEntity
  8
0
100
AcDbLine
 10
344.5817
 20
57.682775
 30
0.0
 11
343.0757
 21
57.443475
 31
0.0
  0
LINE
  5
116F
330
1E
100
AcDbEntity
  8
0
100
AcDbLine
 10
343.0757
 20
57.443475
 30
0.0
 11
342.4303
 21
56.885075
 31
0.0
  0
LINE
  5
1170
330
1E
100
AcDbEntity
  8
0
100
AcDbLine
 10
343.0757
 20
56.326775
 30
0.0
 11
342.4303
 21
56.885075
 31
0.0
  0
LINE
  5
1171
330
1E
100
AcDbEntity
  8
0
100
AcDbLine
 10
344.5817
 20
56.087475
 30
0.0
 11
343.0757
 21
56.326775
 31
0.0
  0
LINE
  5
1172
330
1E
100
AcDbEntity
  8
0
100
AcDbLine
 10
325.2191
 20
49.972075
 30
0.0
 11
323.7131
 21
49.732775
 31
0.0
  0
LINE
  5
1173
330
1E
100
AcDbEntity
  8
0
100
AcDbLine
 10
325.2191
 20
48.376775
 30
0.0
 11
323.7131
 21
48.616075
 31
0.0
  0
LINE
  5
1174
330
1E
100
AcDbEntity
  8
0
100
AcDbLine
 10
327.3705
 20
49.174375
 30
0.0
 11
326.7251
 21
48.616075
 31
0.0
  0
LINE
  5
1175
330
1E
100
AcDbEntity
  8
0
100
AcDbLine
 10
327.3705
 20
49.174375
 30
0.0
 11
326.7251
 21
49.732775
 31
0.0
  0
LINE
  5
1176
330
1E
100
AcDbEntity
  8
0
100
AcDbLine
 10
326.7251
 20
49.732775
 30
0.0
 11
325.2191
 21
49.972075
 31
0.0
  0
LINE
  5
1177
330
1E
100
AcDbEntity
  8
0
100
AcDbLine
 10
326.7251
 20
48.616075
 30
0.0
 11
325.2191
 21
48.376775
 31
0.0
  0
LINE
  5
1178
330
1E
100
AcDbEntity
  8
0
100
AcDbLine
 10
323.7131
 20
49.732775
 30
0.0
 11
323.0677
 21
49.174375
 31
0.0
  0
LINE
  5
1179
330
1E
100
AcDbEntity
  8
0
100
AcDbLine
 10
323.7131
 20
48.616075
 30
0.0
 11
323.0677
 21
49.174375
 31
0.0
  0
LINE
  5
117A
330
1E
100
AcDbEntity
  8
0
100
AcDbLine
 10
325.2191
 20
57.682775
 30
0.0
 11
323.7131
 21
57.443475
 31
0.0
  0
LINE
  5
117B
330
1E
100
AcDbEntity
  8
0
100
AcDbLine
 10
325.2191
 20
56.087475
 30
0.0
 11
323.7131
 21
56.326775
 31
0.0
  0
LINE
  5
117C
330
1E
100
AcDbEntity
  8
0
100
AcDbLine
 10
327.3705
 20
56.885075
 30
0.0
 11
326.7251
 21
56.326775
 31
0.0
  0
LINE
  5
117D
330
1E
100
AcDbEntity
  8
0
100
AcDbLine
 10
327.3705
 20
56.885075
 30
0.0
 11
326.7251
 21
57.443475
 31
0.0
  0
LINE
  5
117E
330
1E
100
AcDbEntity
  8
0
100
AcDbLine
 10
326.7251
 20
57.443475
 30
0.0
 11
325.2191
 21
57.682775
 31
0.0
  0
LINE
  5
117F
330
1E
100
AcDbEntity
  8
0
100
AcDbLine
 10
326.7251
 20
56.326775
 30
0.0
 11
325.2191
 21
56.087475
 31
0.0
  0
LINE
  5
1180
330
1E
100
AcDbEntity
  8
0
100
AcDbLine
 10
323.7131
 20
57.443475
 30
0.0
 11
323.0677
 21
56.885075
 31
0.0
  0
LINE
  5
1181
330
1E
100
AcDbEntity
  8
0
100
AcDbLine
 10
323.7131
 20
56.326775
 30
0.0
 11
323.0677
 21
56.885075
 31
0.0
  0
LINE
  5
1182
330
1E
100
AcDbEntity
  8
0
100
AcDbLine
 10
307.3625
 20
42.022075
 30
0.0
 11
305.8566
 21
42.261375
 31
0.0
  0
LINE
  5
1183
330
1E
100
AcDbEntity
  8
0
100
AcDbLine
 10
307.3625
 20
40.905375
 30
0.0
 11
305.8566
 21
40.666075
 31
0.0
  0
LINE
  5
1184
330
1E
100
AcDbEntity
  8
0
100
AcDbLine
 10
307.3625
 20
33.194575
 30
0.0
 11
305.8566
 21
32.955375
 31
0.0
  0
LINE
  5
1185
330
1E
100
AcDbEntity
  8
0
100
AcDbLine
 10
307.3625
 20
34.311575
 30
0.0
 11
305.8566
 21
34.550775
 31
0.0
  0
LINE
  5
1186
330
1E
100
AcDbEntity
  8
0
100
AcDbLine
 10
308.008
 20
33.752875
 30
0.0
 11
307.3625
 21
34.311575
 31
0.0
  0
LINE
  5
1187
330
1E
100
AcDbEntity
  8
0
100
AcDbLine
 10
308.008
 20
33.752875
 30
0.0
 11
307.3625
 21
33.194575
 31
0.0
  0
LINE
  5
1188
330
1E
100
AcDbEntity
  8
0
100
AcDbLine
 10
308.008
 20
41.463675
 30
0.0
 11
307.3625
 21
42.022075
 31
0.0
  0
LINE
  5
1189
330
1E
100
AcDbEntity
  8
0
100
AcDbLine
 10
308.008
 20
41.463675
 30
0.0
 11
307.3625
 21
40.905375
 31
0.0
  0
LINE
  5
118A
330
1E
100
AcDbEntity
  8
0
100
AcDbLine
 10
304.3506
 20
33.194575
 30
0.0
 11
303.7052
 21
33.752875
 31
0.0
  0
LINE
  5
118B
330
1E
100
AcDbEntity
  8
0
100
AcDbLine
 10
304.3506
 20
34.311575
 30
0.0
 11
303.7052
 21
33.752875
 31
0.0
  0
LINE
  5
118C
330
1E
100
AcDbEntity
  8
0
100
AcDbLine
 10
305.8566
 20
32.955375
 30
0.0
 11
304.3506
 21
33.194575
 31
0.0
  0
LINE
  5
118D
330
1E
100
AcDbEntity
  8
0
100
AcDbLine
 10
305.8566
 20
34.550775
 30
0.0
 11
304.3506
 21
34.311575
 31
0.0
  0
LINE
  5
118E
330
1E
100
AcDbEntity
  8
0
100
AcDbLine
 10
304.3506
 20
42.022075
 30
0.0
 11
303.7052
 21
41.463675
 31
0.0
  0
LINE
  5
118F
330
1E
100
AcDbEntity
  8
0
100
AcDbLine
 10
304.3506
 20
40.905375
 30
0.0
 11
303.7052
 21
41.463675
 31
0.0
  0
LINE
  5
1190
330
1E
100
AcDbEntity
  8
0
100
AcDbLine
 10
305.8566
 20
40.666075
 30
0.0
 11
304.3506
 21
40.905375
 31
0.0
  0
LINE
  5
1191
330
1E
100
AcDbEntity
  8
0
100
AcDbLine
 10
305.8566
 20
42.261375
 30
0.0
 11
304.3506
 21
42.022075
 31
0.0
  0
LINE
  5
1192
330
1E
100
AcDbEntity
  8
0
100
AcDbLine
 10
307.3625
 20
57.443475
 30
0.0
 11
305.8566
 21
57.682775
 31
0.0
  0
LINE
  5
1193
330
1E
100
AcDbEntity
  8
0
100
AcDbLine
 10
307.3625
 20
56.326775
 30
0.0
 11
305.8566
 21
56.087475
 31
0.0
  0
LINE
  5
1194
330
1E
100
AcDbEntity
  8
0
100
AcDbLine
 10
307.3625
 20
49.732775
 30
0.0
 11
305.8566
 21
49.972075
 31
0.0
  0
LINE
  5
1195
330
1E
100
AcDbEntity
  8
0
100
AcDbLine
 10
307.3625
 20
48.616075
 30
0.0
 11
305.8566
 21
48.376775
 31
0.0
  0
LINE
  5
1196
330
1E
100
AcDbEntity
  8
0
100
AcDbLine
 10
308.008
 20
49.174375
 30
0.0
 11
307.3625
 21
48.616075
 31
0.0
  0
LINE
  5
1197
330
1E
100
AcDbEntity
  8
0
100
AcDbLine
 10
308.008
 20
49.174375
 30
0.0
 11
307.3625
 21
49.732775
 31
0.0
  0
LINE
  5
1198
330
1E
100
AcDbEntity
  8
0
100
AcDbLine
 10
308.008
 20
56.885075
 30
0.0
 11
307.3625
 21
56.326775
 31
0.0
  0
LINE
  5
1199
330
1E
100
AcDbEntity
  8
0
100
AcDbLine
 10
308.008
 20
56.885075
 30
0.0
 11
307.3625
 21
57.443475
 31
0.0
  0
LINE
  5
119A
330
1E
100
AcDbEntity
  8
0
100
AcDbLine
 10
305.8566
 20
49.972075
 30
0.0
 11
304.3506
 21
49.732775
 31
0.0
  0
LINE
  5
119B
330
1E
100
AcDbEntity
  8
0
100
AcDbLine
 10
304.3506
 20
49.732775
 30
0.0
 11
303.7052
 21
49.174375
 31
0.0
  0
LINE
  5
119C
330
1E
100
AcDbEntity
  8
0
100
AcDbLine
 10
304.3506
 20
48.616075
 30
0.0
 11
303.7052
 21
49.174375
 31
0.0
  0
LINE
  5
119D
330
1E
100
AcDbEntity
  8
0
100
AcDbLine
 10
305.8566
 20
48.376775
 30
0.0
 11
304.3506
 21
48.616075
 31
0.0
  0
LINE
  5
119E
330
1E
100
AcDbEntity
  8
0
100
AcDbLine
 10
305.8566
 20
57.682775
 30
0.0
 11
304.3506
 21
57.443475
 31
0.0
  0
LINE
  5
119F
330
1E
100
AcDbEntity
  8
0
100
AcDbLine
 10
304.3506
 20
57.443475
 30
0.0
 11
303.7052
 21
56.885075
 31
0.0
  0
LINE
  5
11A0
330
1E
100
AcDbEntity
  8
0
100
AcDbLine
 10
304.3506
 20
56.326775
 30
0.0
 11
303.7052
 21
56.885075
 31
0.0
  0
LINE
  5
11A1
330
1E
100
AcDbEntity
  8
0
100
AcDbLine
 10
305.8566
 20
56.087475
 30
0.0
 11
304.3506
 21
56.326775
 31
0.0
  0
LINE
  5
11A2
330
1E
100
AcDbEntity
  8
0
100
AcDbLine
 10
343.0757
 20
65.154175
 30
0.0
 11
342.4303
 21
64.595775
 31
0.0
  0
LINE
  5
11A3
330
1E
100
AcDbEntity
  8
0
100
AcDbLine
 10
346.7331
 20
64.595775
 30
0.0
 11
346.0877
 21
65.154175
 31
0.0
  0
LINE
  5
11A4
330
1E
100
AcDbEntity
  8
0
100
AcDbLine
 10
346.0877
 20
64.037375
 30
0.0
 11
344.5817
 21
63.798175
 31
0.0
  0
LINE
  5
11A5
330
1E
100
AcDbEntity
  8
0
100
AcDbLine
 10
346.7331
 20
64.595775
 30
0.0
 11
346.0877
 21
64.037375
 31
0.0
  0
LINE
  5
11A6
330
1E
100
AcDbEntity
  8
0
100
AcDbLine
 10
343.0757
 20
64.037375
 30
0.0
 11
342.4303
 21
64.595775
 31
0.0
  0
LINE
  5
11A7
330
1E
100
AcDbEntity
  8
0
100
AcDbLine
 10
344.5817
 20
63.798175
 30
0.0
 11
343.0757
 21
64.037375
 31
0.0
  0
LINE
  5
11A8
330
1E
100
AcDbEntity
  8
0
100
AcDbLine
 10
346.0877
 20
65.154175
 30
0.0
 11
344.5817
 21
65.393375
 31
0.0
  0
LINE
  5
11A9
330
1E
100
AcDbEntity
  8
0
100
AcDbLine
 10
344.5817
 20
65.393375
 30
0.0
 11
343.0757
 21
65.154175
 31
0.0
  0
LINE
  5
11AA
330
1E
100
AcDbEntity
  8
0
100
AcDbLine
 10
323.7131
 20
65.154175
 30
0.0
 11
323.0677
 21
64.595775
 31
0.0
  0
LINE
  5
11AB
330
1E
100
AcDbEntity
  8
0
100
AcDbLine
 10
327.3705
 20
64.595775
 30
0.0
 11
326.7251
 21
65.154175
 31
0.0
  0
LINE
  5
11AC
330
1E
100
AcDbEntity
  8
0
100
AcDbLine
 10
325.2191
 20
63.798175
 30
0.0
 11
323.7131
 21
64.037375
 31
0.0
  0
LINE
  5
11AD
330
1E
100
AcDbEntity
  8
0
100
AcDbLine
 10
327.3705
 20
64.595775
 30
0.0
 11
326.7251
 21
64.037375
 31
0.0
  0
LINE
  5
11AE
330
1E
100
AcDbEntity
  8
0
100
AcDbLine
 10
326.7251
 20
64.037375
 30
0.0
 11
325.2191
 21
63.798175
 31
0.0
  0
LINE
  5
11AF
330
1E
100
AcDbEntity
  8
0
100
AcDbLine
 10
323.7131
 20
64.037375
 30
0.0
 11
323.0677
 21
64.595775
 31
0.0
  0
LINE
  5
11B0
330
1E
100
AcDbEntity
  8
0
100
AcDbLine
 10
325.2191
 20
65.393375
 30
0.0
 11
323.7131
 21
65.154175
 31
0.0
  0
LINE
  5
11B1
330
1E
100
AcDbEntity
  8
0
100
AcDbLine
 10
326.7251
 20
65.154175
 30
0.0
 11
325.2191
 21
65.393375
 31
0.0
  0
LINE
  5
11B2
330
1E
100
AcDbEntity
  8
0
100
AcDbLine
 10
346.0877
 20
72.864775
 30
0.0
 11
344.5817
 21
73.104175
 31
0.0
  0
LINE
  5
11B3
330
1E
100
AcDbEntity
  8
0
100
AcDbLine
 10
346.0877
 20
71.748075
 30
0.0
 11
344.5817
 21
71.508775
 31
0.0
  0
LINE
  5
11B4
330
1E
100
AcDbEntity
  8
0
100
AcDbLine
 10
346.7331
 20
72.306475
 30
0.0
 11
346.0877
 21
71.748075
 31
0.0
  0
LINE
  5
11B5
330
1E
100
AcDbEntity
  8
0
100
AcDbLine
 10
346.7331
 20
72.306475
 30
0.0
 11
346.0877
 21
72.864775
 31
0.0
  0
LINE
  5
11B6
330
1E
100
AcDbEntity
  8
0
100
AcDbLine
 10
344.5817
 20
73.104175
 30
0.0
 11
343.0757
 21
72.864775
 31
0.0
  0
LINE
  5
11B7
330
1E
100
AcDbEntity
  8
0
100
AcDbLine
 10
343.0757
 20
72.864775
 30
0.0
 11
342.4303
 21
72.306475
 31
0.0
  0
LINE
  5
11B8
330
1E
100
AcDbEntity
  8
0
100
AcDbLine
 10
343.0757
 20
71.748075
 30
0.0
 11
342.4303
 21
72.306475
 31
0.0
  0
LINE
  5
11B9
330
1E
100
AcDbEntity
  8
0
100
AcDbLine
 10
344.5817
 20
71.508775
 30
0.0
 11
343.0757
 21
71.748075
 31
0.0
  0
LINE
  5
11BA
330
1E
100
AcDbEntity
  8
0
100
AcDbLine
 10
325.2191
 20
73.104175
 30
0.0
 11
323.7131
 21
72.864775
 31
0.0
  0
LINE
  5
11BB
330
1E
100
AcDbEntity
  8
0
100
AcDbLine
 10
325.2191
 20
71.508775
 30
0.0
 11
323.7131
 21
71.748075
 31
0.0
  0
LINE
  5
11BC
330
1E
100
AcDbEntity
  8
0
100
AcDbLine
 10
327.3705
 20
72.306475
 30
0.0
 11
326.7251
 21
71.748075
 31
0.0
  0
LINE
  5
11BD
330
1E
100
AcDbEntity
  8
0
100
AcDbLine
 10
327.3705
 20
72.306475
 30
0.0
 11
326.7251
 21
72.864775
 31
0.0
  0
LINE
  5
11BE
330
1E
100
AcDbEntity
  8
0
100
AcDbLine
 10
326.7251
 20
72.864775
 30
0.0
 11
325.2191
 21
73.104175
 31
0.0
  0
LINE
  5
11BF
330
1E
100
AcDbEntity
  8
0
100
AcDbLine
 10
326.7251
 20
71.748075
 30
0.0
 11
325.2191
 21
71.508775
 31
0.0
  0
LINE
  5
11C0
330
1E
100
AcDbEntity
  8
0
100
AcDbLine
 10
323.7131
 20
72.864775
 30
0.0
 11
323.0677
 21
72.306475
 31
0.0
  0
LINE
  5
11C1
330
1E
100
AcDbEntity
  8
0
100
AcDbLine
 10
323.7131
 20
71.748075
 30
0.0
 11
323.0677
 21
72.306475
 31
0.0
  0
LINE
  5
11C2
330
1E
100
AcDbEntity
  8
0
100
AcDbLine
 10
307.3625
 20
65.154175
 30
0.0
 11
305.8566
 21
65.393375
 31
0.0
  0
LINE
  5
11C3
330
1E
100
AcDbEntity
  8
0
100
AcDbLine
 10
307.3625
 20
64.037375
 30
0.0
 11
305.8566
 21
63.798175
 31
0.0
  0
LINE
  5
11C4
330
1E
100
AcDbEntity
  8
0
100
AcDbLine
 10
308.008
 20
64.595775
 30
0.0
 11
307.3625
 21
65.154175
 31
0.0
  0
LINE
  5
11C5
330
1E
100
AcDbEntity
  8
0
100
AcDbLine
 10
308.008
 20
64.595775
 30
0.0
 11
307.3625
 21
64.037375
 31
0.0
  0
LINE
  5
11C6
330
1E
100
AcDbEntity
  8
0
100
AcDbLine
 10
304.3506
 20
65.154175
 30
0.0
 11
303.7052
 21
64.595775
 31
0.0
  0
LINE
  5
11C7
330
1E
100
AcDbEntity
  8
0
100
AcDbLine
 10
304.3506
 20
64.037375
 30
0.0
 11
303.7052
 21
64.595775
 31
0.0
  0
LINE
  5
11C8
330
1E
100
AcDbEntity
  8
0
100
AcDbLine
 10
305.8566
 20
63.798175
 30
0.0
 11
304.3506
 21
64.037375
 31
0.0
  0
LINE
  5
11C9
330
1E
100
AcDbEntity
  8
0
100
AcDbLine
 10
305.8566
 20
65.393375
 30
0.0
 11
304.3506
 21
65.154175
 31
0.0
  0
LINE
  5
11CA
330
1E
100
AcDbEntity
  8
0
100
AcDbLine
 10
307.3625
 20
72.864775
 30
0.0
 11
305.8566
 21
73.104175
 31
0.0
  0
LINE
  5
11CB
330
1E
100
AcDbEntity
  8
0
100
AcDbLine
 10
307.3625
 20
71.748075
 30
0.0
 11
305.8566
 21
71.508775
 31
0.0
  0
LINE
  5
11CC
330
1E
100
AcDbEntity
  8
0
100
AcDbLine
 10
308.008
 20
72.306475
 30
0.0
 11
307.3625
 21
71.748075
 31
0.0
  0
LINE
  5
11CD
330
1E
100
AcDbEntity
  8
0
100
AcDbLine
 10
308.008
 20
72.306475
 30
0.0
 11
307.3625
 21
72.864775
 31
0.0
  0
LINE
  5
11CE
330
1E
100
AcDbEntity
  8
0
100
AcDbLine
 10
305.8566
 20
73.104175
 30
0.0
 11
304.3506
 21
72.864775
 31
0.0
  0
LINE
  5
11CF
330
1E
100
AcDbEntity
  8
0
100
AcDbLine
 10
304.3506
 20
72.864775
 30
0.0
 11
303.7052
 21
72.306475
 31
0.0
  0
LINE
  5
11D0
330
1E
100
AcDbEntity
  8
0
100
AcDbLine
 10
304.3506
 20
71.748075
 30
0.0
 11
303.7052
 21
72.306475
 31
0.0
  0
LINE
  5
11D1
330
1E
100
AcDbEntity
  8
0
100
AcDbLine
 10
305.8566
 20
71.508775
 30
0.0
 11
304.3506
 21
71.748075
 31
0.0
  0
LINE
  5
11D2
330
1E
100
AcDbEntity
  8
0
100
AcDbLine
 10
286.494
 20
3.708065
 30
0.0
 11
284.988
 21
3.468855
 31
0.0
  0
LINE
  5
11D3
330
1E
100
AcDbEntity
  8
0
100
AcDbLine
 10
286.494
 20
2.112678
 30
0.0
 11
284.988
 21
2.35188
 31
0.0
  0
LINE
  5
11D4
330
1E
100
AcDbEntity
  8
0
100
AcDbLine
 10
288.0
 20
3.468855
 30
0.0
 11
286.494
 21
3.708065
 31
0.0
  0
LINE
  5
11D5
330
1E
100
AcDbEntity
  8
0
100
AcDbLine
 10
288.6454
 20
2.910158
 30
0.0
 11
288.0
 21
3.468855
 31
0.0
  0
LINE
  5
11D6
330
1E
100
AcDbEntity
  8
0
100
AcDbLine
 10
288.6454
 20
2.910158
 30
0.0
 11
288.0
 21
2.35188
 31
0.0
  0
LINE
  5
11D7
330
1E
100
AcDbEntity
  8
0
100
AcDbLine
 10
288.0
 20
2.35188
 30
0.0
 11
286.494
 21
2.112678
 31
0.0
  0
LINE
  5
11D8
330
1E
100
AcDbEntity
  8
0
100
AcDbLine
 10
284.988
 20
3.468855
 30
0.0
 11
284.3426
 21
2.910158
 31
0.0
  0
LINE
  5
11D9
330
1E
100
AcDbEntity
  8
0
100
AcDbLine
 10
284.988
 20
2.35188
 30
0.0
 11
284.3426
 21
2.910158
 31
0.0
  0
LINE
  5
11DA
330
1E
100
AcDbEntity
  8
0
100
AcDbLine
 10
268.6375
 20
3.468855
 30
0.0
 11
267.1315
 21
3.708065
 31
0.0
  0
LINE
  5
11DB
330
1E
100
AcDbEntity
  8
0
100
AcDbLine
 10
268.6375
 20
2.35188
 30
0.0
 11
267.1315
 21
2.112678
 31
0.0
  0
LINE
  5
11DC
330
1E
100
AcDbEntity
  8
0
100
AcDbLine
 10
269.2829
 20
2.910158
 30
0.0
 11
268.6375
 21
3.468855
 31
0.0
  0
LINE
  5
11DD
330
1E
100
AcDbEntity
  8
0
100
AcDbLine
 10
269.2829
 20
2.910158
 30
0.0
 11
268.6375
 21
2.35188
 31
0.0
  0
LINE
  5
11DE
330
1E
100
AcDbEntity
  8
0
100
AcDbLine
 10
267.1315
 20
3.708065
 30
0.0
 11
265.6255
 21
3.468855
 31
0.0
  0
LINE
  5
11DF
330
1E
100
AcDbEntity
  8
0
100
AcDbLine
 10
265.6255
 20
3.468855
 30
0.0
 11
264.9801
 21
2.910158
 31
0.0
  0
LINE
  5
11E0
330
1E
100
AcDbEntity
  8
0
100
AcDbLine
 10
265.6255
 20
2.35188
 30
0.0
 11
264.9801
 21
2.910158
 31
0.0
  0
LINE
  5
11E1
330
1E
100
AcDbEntity
  8
0
100
AcDbLine
 10
267.1315
 20
2.112678
 30
0.0
 11
265.6255
 21
2.35188
 31
0.0
  0
LINE
  5
11E2
330
1E
100
AcDbEntity
  8
0
100
AcDbLine
 10
247.769
 20
2.112678
 30
0.0
 11
246.263
 21
2.35188
 31
0.0
  0
LINE
  5
11E3
330
1E
100
AcDbEntity
  8
0
100
AcDbLine
 10
247.769
 20
3.708065
 30
0.0
 11
246.263
 21
3.468855
 31
0.0
  0
LINE
  5
11E4
330
1E
100
AcDbEntity
  8
0
100
AcDbLine
 10
249.92
 20
2.910158
 30
0.0
 11
249.275
 21
3.468855
 31
0.0
  0
LINE
  5
11E5
330
1E
100
AcDbEntity
  8
0
100
AcDbLine
 10
249.92
 20
2.910158
 30
0.0
 11
249.275
 21
2.35188
 31
0.0
  0
LINE
  5
11E6
330
1E
100
AcDbEntity
  8
0
100
AcDbLine
 10
249.275
 20
3.468855
 30
0.0
 11
247.769
 21
3.708065
 31
0.0
  0
LINE
  5
11E7
330
1E
100
AcDbEntity
  8
0
100
AcDbLine
 10
249.275
 20
2.35188
 30
0.0
 11
247.769
 21
2.112678
 31
0.0
  0
LINE
  5
11E8
330
1E
100
AcDbEntity
  8
0
100
AcDbLine
 10
246.263
 20
2.35188
 30
0.0
 11
245.618
 21
2.910158
 31
0.0
  0
LINE
  5
11E9
330
1E
100
AcDbEntity
  8
0
100
AcDbLine
 10
246.263
 20
3.468855
 30
0.0
 11
245.618
 21
2.910158
 31
0.0
  0
LINE
  5
11EA
330
1E
100
AcDbEntity
  8
0
100
AcDbLine
 10
265.6255
 20
17.773175
 30
0.0
 11
264.9801
 21
18.331475
 31
0.0
  0
LINE
  5
11EB
330
1E
100
AcDbEntity
  8
0
100
AcDbLine
 10
269.2829
 20
18.331475
 30
0.0
 11
268.6375
 21
17.773175
 31
0.0
  0
LINE
  5
11EC
330
1E
100
AcDbEntity
  8
0
100
AcDbLine
 10
284.988
 20
17.773175
 30
0.0
 11
284.3426
 21
18.331475
 31
0.0
  0
LINE
  5
11ED
330
1E
100
AcDbEntity
  8
0
100
AcDbLine
 10
288.6454
 20
18.331475
 30
0.0
 11
288.0
 21
17.773175
 31
0.0
  0
LINE
  5
11EE
330
1E
100
AcDbEntity
  8
0
100
AcDbLine
 10
286.494
 20
11.418735
 30
0.0
 11
284.988
 21
11.179525
 31
0.0
  0
LINE
  5
11EF
330
1E
100
AcDbEntity
  8
0
100
AcDbLine
 10
286.494
 20
9.823345
 30
0.0
 11
284.988
 21
10.062555
 31
0.0
  0
LINE
  5
11F0
330
1E
100
AcDbEntity
  8
0
100
AcDbLine
 10
288.6454
 20
10.620825
 30
0.0
 11
288.0
 21
11.179525
 31
0.0
  0
LINE
  5
11F1
330
1E
100
AcDbEntity
  8
0
100
AcDbLine
 10
288.6454
 20
10.620825
 30
0.0
 11
288.0
 21
10.062555
 31
0.0
  0
LINE
  5
11F2
330
1E
100
AcDbEntity
  8
0
100
AcDbLine
 10
288.0
 20
11.179525
 30
0.0
 11
286.494
 21
11.418735
 31
0.0
  0
LINE
  5
11F3
330
1E
100
AcDbEntity
  8
0
100
AcDbLine
 10
288.0
 20
10.062555
 30
0.0
 11
286.494
 21
9.823345
 31
0.0
  0
LINE
  5
11F4
330
1E
100
AcDbEntity
  8
0
100
AcDbLine
 10
284.988
 20
11.179525
 30
0.0
 11
284.3426
 21
10.620825
 31
0.0
  0
LINE
  5
11F5
330
1E
100
AcDbEntity
  8
0
100
AcDbLine
 10
284.988
 20
10.062555
 30
0.0
 11
284.3426
 21
10.620825
 31
0.0
  0
LINE
  5
11F6
330
1E
100
AcDbEntity
  8
0
100
AcDbLine
 10
286.494
 20
17.533975
 30
0.0
 11
284.988
 21
17.773175
 31
0.0
  0
LINE
  5
11F7
330
1E
100
AcDbEntity
  8
0
100
AcDbLine
 10
288.0
 20
17.773175
 30
0.0
 11
286.494
 21
17.533975
 31
0.0
  0
LINE
  5
11F8
330
1E
100
AcDbEntity
  8
0
100
AcDbLine
 10
268.6375
 20
11.179525
 30
0.0
 11
267.1315
 21
11.418735
 31
0.0
  0
LINE
  5
11F9
330
1E
100
AcDbEntity
  8
0
100
AcDbLine
 10
268.6375
 20
10.062555
 30
0.0
 11
267.1315
 21
9.823345
 31
0.0
  0
LINE
  5
11FA
330
1E
100
AcDbEntity
  8
0
100
AcDbLine
 10
269.2829
 20
10.620825
 30
0.0
 11
268.6375
 21
11.179525
 31
0.0
  0
LINE
  5
11FB
330
1E
100
AcDbEntity
  8
0
100
AcDbLine
 10
269.2829
 20
10.620825
 30
0.0
 11
268.6375
 21
10.062555
 31
0.0
  0
LINE
  5
11FC
330
1E
100
AcDbEntity
  8
0
100
AcDbLine
 10
265.6255
 20
11.179525
 30
0.0
 11
264.9801
 21
10.620825
 31
0.0
  0
LINE
  5
11FD
330
1E
100
AcDbEntity
  8
0
100
AcDbLine
 10
267.1315
 20
11.418735
 30
0.0
 11
265.6255
 21
11.179525
 31
0.0
  0
LINE
  5
11FE
330
1E
100
AcDbEntity
  8
0
100
AcDbLine
 10
265.6255
 20
10.062555
 30
0.0
 11
264.9801
 21
10.620825
 31
0.0
  0
LINE
  5
11FF
330
1E
100
AcDbEntity
  8
0
100
AcDbLine
 10
267.1315
 20
9.823345
 30
0.0
 11
265.6255
 21
10.062555
 31
0.0
  0
LINE
  5
1200
330
1E
100
AcDbEntity
  8
0
100
AcDbLine
 10
268.6375
 20
17.773175
 30
0.0
 11
267.1315
 21
17.533975
 31
0.0
  0
LINE
  5
1201
330
1E
100
AcDbEntity
  8
0
100
AcDbLine
 10
267.1315
 20
17.533975
 30
0.0
 11
265.6255
 21
17.773175
 31
0.0
  0
LINE
  5
1202
330
1E
100
AcDbEntity
  8
0
100
AcDbLine
 10
286.494
 20
19.129375
 30
0.0
 11
284.988
 21
18.890175
 31
0.0
  0
LINE
  5
1203
330
1E
100
AcDbEntity
  8
0
100
AcDbLine
 10
288.6454
 20
18.331475
 30
0.0
 11
288.0
 21
18.890175
 31
0.0
  0
LINE
  5
1204
330
1E
100
AcDbEntity
  8
0
100
AcDbLine
 10
288.0
 20
18.890175
 30
0.0
 11
286.494
 21
19.129375
 31
0.0
  0
LINE
  5
1205
330
1E
100
AcDbEntity
  8
0
100
AcDbLine
 10
284.988
 20
18.890175
 30
0.0
 11
284.3426
 21
18.331475
 31
0.0
  0
LINE
  5
1206
330
1E
100
AcDbEntity
  8
0
100
AcDbLine
 10
286.494
 20
26.840075
 30
0.0
 11
284.988
 21
26.600875
 31
0.0
  0
LINE
  5
1207
330
1E
100
AcDbEntity
  8
0
100
AcDbLine
 10
286.494
 20
25.244675
 30
0.0
 11
284.988
 21
25.483875
 31
0.0
  0
LINE
  5
1208
330
1E
100
AcDbEntity
  8
0
100
AcDbLine
 10
288.6454
 20
26.042175
 30
0.0
 11
288.0
 21
26.600875
 31
0.0
  0
LINE
  5
1209
330
1E
100
AcDbEntity
  8
0
100
AcDbLine
 10
288.6454
 20
26.042175
 30
0.0
 11
288.0
 21
25.483875
 31
0.0
  0
LINE
  5
120A
330
1E
100
AcDbEntity
  8
0
100
AcDbLine
 10
288.0
 20
25.483875
 30
0.0
 11
286.494
 21
25.244675
 31
0.0
  0
LINE
  5
120B
330
1E
100
AcDbEntity
  8
0
100
AcDbLine
 10
288.0
 20
26.600875
 30
0.0
 11
286.494
 21
26.840075
 31
0.0
  0
LINE
  5
120C
330
1E
100
AcDbEntity
  8
0
100
AcDbLine
 10
284.988
 20
25.483875
 30
0.0
 11
284.3426
 21
26.042175
 31
0.0
  0
LINE
  5
120D
330
1E
100
AcDbEntity
  8
0
100
AcDbLine
 10
284.988
 20
26.600875
 30
0.0
 11
284.3426
 21
26.042175
 31
0.0
  0
LINE
  5
120E
330
1E
100
AcDbEntity
  8
0
100
AcDbLine
 10
268.6375
 20
18.890175
 30
0.0
 11
267.1315
 21
19.129375
 31
0.0
  0
LINE
  5
120F
330
1E
100
AcDbEntity
  8
0
100
AcDbLine
 10
269.2829
 20
18.331475
 30
0.0
 11
268.6375
 21
18.890175
 31
0.0
  0
LINE
  5
1210
330
1E
100
AcDbEntity
  8
0
100
AcDbLine
 10
265.6255
 20
18.890175
 30
0.0
 11
264.9801
 21
18.331475
 31
0.0
  0
LINE
  5
1211
330
1E
100
AcDbEntity
  8
0
100
AcDbLine
 10
267.1315
 20
19.129375
 30
0.0
 11
265.6255
 21
18.890175
 31
0.0
  0
LINE
  5
1212
330
1E
100
AcDbEntity
  8
0
100
AcDbLine
 10
268.6375
 20
25.483875
 30
0.0
 11
267.1315
 21
25.244675
 31
0.0
  0
LINE
  5
1213
330
1E
100
AcDbEntity
  8
0
100
AcDbLine
 10
268.6375
 20
26.600875
 30
0.0
 11
267.1315
 21
26.840075
 31
0.0
  0
LINE
  5
1214
330
1E
100
AcDbEntity
  8
0
100
AcDbLine
 10
269.2829
 20
26.042175
 30
0.0
 11
268.6375
 21
26.600875
 31
0.0
  0
LINE
  5
1215
330
1E
100
AcDbEntity
  8
0
100
AcDbLine
 10
269.2829
 20
26.042175
 30
0.0
 11
268.6375
 21
25.483875
 31
0.0
  0
LINE
  5
1216
330
1E
100
AcDbEntity
  8
0
100
AcDbLine
 10
265.6255
 20
26.600875
 30
0.0
 11
264.9801
 21
26.042175
 31
0.0
  0
LINE
  5
1217
330
1E
100
AcDbEntity
  8
0
100
AcDbLine
 10
265.6255
 20
25.483875
 30
0.0
 11
264.9801
 21
26.042175
 31
0.0
  0
LINE
  5
1218
330
1E
100
AcDbEntity
  8
0
100
AcDbLine
 10
267.1315
 20
25.244675
 30
0.0
 11
265.6255
 21
25.483875
 31
0.0
  0
LINE
  5
1219
330
1E
100
AcDbEntity
  8
0
100
AcDbLine
 10
267.1315
 20
26.840075
 30
0.0
 11
265.6255
 21
26.600875
 31
0.0
  0
LINE
  5
121A
330
1E
100
AcDbEntity
  8
0
100
AcDbLine
 10
246.263
 20
17.773175
 30
0.0
 11
245.618
 21
18.331475
 31
0.0
  0
LINE
  5
121B
330
1E
100
AcDbEntity
  8
0
100
AcDbLine
 10
249.92
 20
18.331475
 30
0.0
 11
249.275
 21
17.773175
 31
0.0
  0
LINE
  5
121C
330
1E
100
AcDbEntity
  8
0
100
AcDbLine
 10
247.769
 20
11.418735
 30
0.0
 11
246.263
 21
11.179525
 31
0.0
  0
LINE
  5
121D
330
1E
100
AcDbEntity
  8
0
100
AcDbLine
 10
247.769
 20
9.823345
 30
0.0
 11
246.263
 21
10.062555
 31
0.0
  0
LINE
  5
121E
330
1E
100
AcDbEntity
  8
0
100
AcDbLine
 10
249.275
 20
11.179525
 30
0.0
 11
247.769
 21
11.418735
 31
0.0
  0
LINE
  5
121F
330
1E
100
AcDbEntity
  8
0
100
AcDbLine
 10
249.92
 20
10.620825
 30
0.0
 11
249.275
 21
11.179525
 31
0.0
  0
LINE
  5
1220
330
1E
100
AcDbEntity
  8
0
100
AcDbLine
 10
249.92
 20
10.620825
 30
0.0
 11
249.275
 21
10.062555
 31
0.0
  0
LINE
  5
1221
330
1E
100
AcDbEntity
  8
0
100
AcDbLine
 10
249.275
 20
10.062555
 30
0.0
 11
247.769
 21
9.823345
 31
0.0
  0
LINE
  5
1222
330
1E
100
AcDbEntity
  8
0
100
AcDbLine
 10
246.263
 20
11.179525
 30
0.0
 11
245.618
 21
10.620825
 31
0.0
  0
LINE
  5
1223
330
1E
100
AcDbEntity
  8
0
100
AcDbLine
 10
246.263
 20
10.062555
 30
0.0
 11
245.618
 21
10.620825
 31
0.0
  0
LINE
  5
1224
330
1E
100
AcDbEntity
  8
0
100
AcDbLine
 10
247.769
 20
17.533975
 30
0.0
 11
246.263
 21
17.773175
 31
0.0
  0
LINE
  5
1225
330
1E
100
AcDbEntity
  8
0
100
AcDbLine
 10
249.275
 20
17.773175
 30
0.0
 11
247.769
 21
17.533975
 31
0.0
  0
LINE
  5
1226
330
1E
100
AcDbEntity
  8
0
100
AcDbLine
 10
247.769
 20
19.129375
 30
0.0
 11
246.263
 21
18.890175
 31
0.0
  0
LINE
  5
1227
330
1E
100
AcDbEntity
  8
0
100
AcDbLine
 10
249.275
 20
18.890175
 30
0.0
 11
247.769
 21
19.129375
 31
0.0
  0
LINE
  5
1228
330
1E
100
AcDbEntity
  8
0
100
AcDbLine
 10
249.92
 20
18.331475
 30
0.0
 11
249.275
 21
18.890175
 31
0.0
  0
LINE
  5
1229
330
1E
100
AcDbEntity
  8
0
100
AcDbLine
 10
246.263
 20
18.890175
 30
0.0
 11
245.618
 21
18.331475
 31
0.0
  0
LINE
  5
122A
330
1E
100
AcDbEntity
  8
0
100
AcDbLine
 10
247.769
 20
25.244675
 30
0.0
 11
246.263
 21
25.483875
 31
0.0
  0
LINE
  5
122B
330
1E
100
AcDbEntity
  8
0
100
AcDbLine
 10
247.769
 20
26.840075
 30
0.0
 11
246.263
 21
26.600875
 31
0.0
  0
LINE
  5
122C
330
1E
100
AcDbEntity
  8
0
100
AcDbLine
 10
249.275
 20
25.483875
 30
0.0
 11
247.769
 21
25.244675
 31
0.0
  0
LINE
  5
122D
330
1E
100
AcDbEntity
  8
0
100
AcDbLine
 10
249.275
 20
26.600875
 30
0.0
 11
247.769
 21
26.840075
 31
0.0
  0
LINE
  5
122E
330
1E
100
AcDbEntity
  8
0
100
AcDbLine
 10
249.92
 20
26.042175
 30
0.0
 11
249.275
 21
26.600875
 31
0.0
  0
LINE
  5
122F
330
1E
100
AcDbEntity
  8
0
100
AcDbLine
 10
249.92
 20
26.042175
 30
0.0
 11
249.275
 21
25.483875
 31
0.0
  0
LINE
  5
1230
330
1E
100
AcDbEntity
  8
0
100
AcDbLine
 10
246.263
 20
25.483875
 30
0.0
 11
245.618
 21
26.042175
 31
0.0
  0
LINE
  5
1231
330
1E
100
AcDbEntity
  8
0
100
AcDbLine
 10
246.263
 20
26.600875
 30
0.0
 11
245.618
 21
26.042175
 31
0.0
  0
LINE
  5
1232
330
1E
100
AcDbEntity
  8
0
100
AcDbLine
 10
229.912
 20
3.468855
 30
0.0
 11
228.406
 21
3.708065
 31
0.0
  0
LINE
  5
1233
330
1E
100
AcDbEntity
  8
0
100
AcDbLine
 10
229.912
 20
2.35188
 30
0.0
 11
228.406
 21
2.112678
 31
0.0
  0
LINE
  5
1234
330
1E
100
AcDbEntity
  8
0
100
AcDbLine
 10
230.558
 20
2.910158
 30
0.0
 11
229.912
 21
3.468855
 31
0.0
  0
LINE
  5
1235
330
1E
100
AcDbEntity
  8
0
100
AcDbLine
 10
230.558
 20
2.910158
 30
0.0
 11
229.912
 21
2.35188
 31
0.0
  0
LINE
  5
1236
330
1E
100
AcDbEntity
  8
0
100
AcDbLine
 10
226.9
 20
3.468855
 30
0.0
 11
226.255
 21
2.910158
 31
0.0
  0
LINE
  5
1237
330
1E
100
AcDbEntity
  8
0
100
AcDbLine
 10
228.406
 20
3.708065
 30
0.0
 11
226.9
 21
3.468855
 31
0.0
  0
LINE
  5
1238
330
1E
100
AcDbEntity
  8
0
100
AcDbLine
 10
228.406
 20
2.112678
 30
0.0
 11
226.9
 21
2.35188
 31
0.0
  0
LINE
  5
1239
330
1E
100
AcDbEntity
  8
0
100
AcDbLine
 10
226.9
 20
2.35188
 30
0.0
 11
226.255
 21
2.910158
 31
0.0
  0
LINE
  5
123A
330
1E
100
AcDbEntity
  8
0
100
AcDbLine
 10
209.044
 20
17.533975
 30
0.0
 11
207.538
 21
17.773175
 31
0.0
  0
LINE
  5
123B
330
1E
100
AcDbEntity
  8
0
100
AcDbLine
 10
209.044
 20
19.129375
 30
0.0
 11
207.538
 21
18.890175
 31
0.0
  0
LINE
  5
123C
330
1E
100
AcDbEntity
  8
0
100
AcDbLine
 10
209.044
 20
25.244675
 30
0.0
 11
207.538
 21
25.483875
 31
0.0
  0
LINE
  5
123D
330
1E
100
AcDbEntity
  8
0
100
AcDbLine
 10
209.044
 20
26.840075
 30
0.0
 11
207.538
 21
26.600875
 31
0.0
  0
LINE
  5
123E
330
1E
100
AcDbEntity
  8
0
100
AcDbLine
 10
209.044
 20
11.418735
 30
0.0
 11
207.538
 21
11.179525
 31
0.0
  0
LINE
  5
123F
330
1E
100
AcDbEntity
  8
0
100
AcDbLine
 10
209.044
 20
9.823345
 30
0.0
 11
207.538
 21
10.062555
 31
0.0
  0
LINE
  5
1240
330
1E
100
AcDbEntity
  8
0
100
AcDbLine
 10
211.195
 20
18.331475
 30
0.0
 11
210.55
 21
17.773175
 31
0.0
  0
LINE
  5
1241
330
1E
100
AcDbEntity
  8
0
100
AcDbLine
 10
226.9
 20
17.773175
 30
0.0
 11
226.255
 21
18.331475
 31
0.0
  0
LINE
  5
1242
330
1E
100
AcDbEntity
  8
0
100
AcDbLine
 10
230.558
 20
18.331475
 30
0.0
 11
229.912
 21
17.773175
 31
0.0
  0
LINE
  5
1243
330
1E
100
AcDbEntity
  8
0
100
AcDbLine
 10
229.912
 20
11.179525
 30
0.0
 11
228.406
 21
11.418735
 31
0.0
  0
LINE
  5
1244
330
1E
100
AcDbEntity
  8
0
100
AcDbLine
 10
229.912
 20
10.062555
 30
0.0
 11
228.406
 21
9.823345
 31
0.0
  0
LINE
  5
1245
330
1E
100
AcDbEntity
  8
0
100
AcDbLine
 10
230.558
 20
10.620825
 30
0.0
 11
229.912
 21
11.179525
 31
0.0
  0
LINE
  5
1246
330
1E
100
AcDbEntity
  8
0
100
AcDbLine
 10
230.558
 20
10.620825
 30
0.0
 11
229.912
 21
10.062555
 31
0.0
  0
LINE
  5
1247
330
1E
100
AcDbEntity
  8
0
100
AcDbLine
 10
226.9
 20
11.179525
 30
0.0
 11
226.255
 21
10.620825
 31
0.0
  0
LINE
  5
1248
330
1E
100
AcDbEntity
  8
0
100
AcDbLine
 10
228.406
 20
11.418735
 30
0.0
 11
226.9
 21
11.179525
 31
0.0
  0
LINE
  5
1249
330
1E
100
AcDbEntity
  8
0
100
AcDbLine
 10
226.9
 20
10.062555
 30
0.0
 11
226.255
 21
10.620825
 31
0.0
  0
LINE
  5
124A
330
1E
100
AcDbEntity
  8
0
100
AcDbLine
 10
228.406
 20
9.823345
 30
0.0
 11
226.9
 21
10.062555
 31
0.0
  0
LINE
  5
124B
330
1E
100
AcDbEntity
  8
0
100
AcDbLine
 10
229.912
 20
17.773175
 30
0.0
 11
228.406
 21
17.533975
 31
0.0
  0
LINE
  5
124C
330
1E
100
AcDbEntity
  8
0
100
AcDbLine
 10
228.406
 20
17.533975
 30
0.0
 11
226.9
 21
17.773175
 31
0.0
  0
LINE
  5
124D
330
1E
100
AcDbEntity
  8
0
100
AcDbLine
 10
210.55
 20
11.179525
 30
0.0
 11
209.044
 21
11.418735
 31
0.0
  0
LINE
  5
124E
330
1E
100
AcDbEntity
  8
0
100
AcDbLine
 10
211.195
 20
10.620825
 30
0.0
 11
210.55
 21
11.179525
 31
0.0
  0
LINE
  5
124F
330
1E
100
AcDbEntity
  8
0
100
AcDbLine
 10
211.195
 20
10.620825
 30
0.0
 11
210.55
 21
10.062555
 31
0.0
  0
LINE
  5
1250
330
1E
100
AcDbEntity
  8
0
100
AcDbLine
 10
210.55
 20
10.062555
 30
0.0
 11
209.044
 21
9.823345
 31
0.0
  0
LINE
  5
1251
330
1E
100
AcDbEntity
  8
0
100
AcDbLine
 10
210.55
 20
17.773175
 30
0.0
 11
209.044
 21
17.533975
 31
0.0
  0
LINE
  5
1252
330
1E
100
AcDbEntity
  8
0
100
AcDbLine
 10
229.912
 20
18.890175
 30
0.0
 11
228.406
 21
19.129375
 31
0.0
  0
LINE
  5
1253
330
1E
100
AcDbEntity
  8
0
100
AcDbLine
 10
230.558
 20
18.331475
 30
0.0
 11
229.912
 21
18.890175
 31
0.0
  0
LINE
  5
1254
330
1E
100
AcDbEntity
  8
0
100
AcDbLine
 10
226.9
 20
18.890175
 30
0.0
 11
226.255
 21
18.331475
 31
0.0
  0
LINE
  5
1255
330
1E
100
AcDbEntity
  8
0
100
AcDbLine
 10
228.406
 20
19.129375
 30
0.0
 11
226.9
 21
18.890175
 31
0.0
  0
LINE
  5
1256
330
1E
100
AcDbEntity
  8
0
100
AcDbLine
 10
229.912
 20
25.483875
 30
0.0
 11
228.406
 21
25.244675
 31
0.0
  0
LINE
  5
1257
330
1E
100
AcDbEntity
  8
0
100
AcDbLine
 10
229.912
 20
26.600875
 30
0.0
 11
228.406
 21
26.840075
 31
0.0
  0
LINE
  5
1258
330
1E
100
AcDbEntity
  8
0
100
AcDbLine
 10
230.558
 20
26.042175
 30
0.0
 11
229.912
 21
26.600875
 31
0.0
  0
LINE
  5
1259
330
1E
100
AcDbEntity
  8
0
100
AcDbLine
 10
230.558
 20
26.042175
 30
0.0
 11
229.912
 21
25.483875
 31
0.0
  0
LINE
  5
125A
330
1E
100
AcDbEntity
  8
0
100
AcDbLine
 10
226.9
 20
25.483875
 30
0.0
 11
226.255
 21
26.042175
 31
0.0
  0
LINE
  5
125B
330
1E
100
AcDbEntity
  8
0
100
AcDbLine
 10
226.9
 20
26.600875
 30
0.0
 11
226.255
 21
26.042175
 31
0.0
  0
LINE
  5
125C
330
1E
100
AcDbEntity
  8
0
100
AcDbLine
 10
228.406
 20
25.244675
 30
0.0
 11
226.9
 21
25.483875
 31
0.0
  0
LINE
  5
125D
330
1E
100
AcDbEntity
  8
0
100
AcDbLine
 10
228.406
 20
26.840075
 30
0.0
 11
226.9
 21
26.600875
 31
0.0
  0
LINE
  5
125E
330
1E
100
AcDbEntity
  8
0
100
AcDbLine
 10
210.55
 20
18.890175
 30
0.0
 11
209.044
 21
19.129375
 31
0.0
  0
LINE
  5
125F
330
1E
100
AcDbEntity
  8
0
100
AcDbLine
 10
211.195
 20
18.331475
 30
0.0
 11
210.55
 21
18.890175
 31
0.0
  0
LINE
  5
1260
330
1E
100
AcDbEntity
  8
0
100
AcDbLine
 10
210.55
 20
25.483875
 30
0.0
 11
209.044
 21
25.244675
 31
0.0
  0
LINE
  5
1261
330
1E
100
AcDbEntity
  8
0
100
AcDbLine
 10
210.55
 20
26.600875
 30
0.0
 11
209.044
 21
26.840075
 31
0.0
  0
LINE
  5
1262
330
1E
100
AcDbEntity
  8
0
100
AcDbLine
 10
211.195
 20
26.042175
 30
0.0
 11
210.55
 21
26.600875
 31
0.0
  0
LINE
  5
1263
330
1E
100
AcDbEntity
  8
0
100
AcDbLine
 10
211.195
 20
26.042175
 30
0.0
 11
210.55
 21
25.483875
 31
0.0
  0
LINE
  5
1264
330
1E
100
AcDbEntity
  8
0
100
AcDbLine
 10
188.175
 20
17.773175
 30
0.0
 11
187.53
 21
18.331475
 31
0.0
  0
LINE
  5
1265
330
1E
100
AcDbEntity
  8
0
100
AcDbLine
 10
191.833
 20
18.331475
 30
0.0
 11
191.187
 21
17.773175
 31
0.0
  0
LINE
  5
1266
330
1E
100
AcDbEntity
  8
0
100
AcDbLine
 10
207.538
 20
17.773175
 30
0.0
 11
206.892
 21
18.331475
 31
0.0
  0
LINE
  5
1267
330
1E
100
AcDbEntity
  8
0
100
AcDbLine
 10
207.538
 20
10.062555
 30
0.0
 11
206.892
 21
10.620825
 31
0.0
  0
LINE
  5
1268
330
1E
100
AcDbEntity
  8
0
100
AcDbLine
 10
207.538
 20
11.179525
 30
0.0
 11
206.892
 21
10.620825
 31
0.0
  0
LINE
  5
1269
330
1E
100
AcDbEntity
  8
0
100
AcDbLine
 10
191.187
 20
10.062555
 30
0.0
 11
189.681
 21
9.823345
 31
0.0
  0
LINE
  5
126A
330
1E
100
AcDbEntity
  8
0
100
AcDbLine
 10
191.187
 20
11.179525
 30
0.0
 11
189.681
 21
11.418735
 31
0.0
  0
LINE
  5
126B
330
1E
100
AcDbEntity
  8
0
100
AcDbLine
 10
191.833
 20
10.620825
 30
0.0
 11
191.187
 21
11.179525
 31
0.0
  0
LINE
  5
126C
330
1E
100
AcDbEntity
  8
0
100
AcDbLine
 10
191.833
 20
10.620825
 30
0.0
 11
191.187
 21
10.062555
 31
0.0
  0
LINE
  5
126D
330
1E
100
AcDbEntity
  8
0
100
AcDbLine
 10
189.681
 20
9.823345
 30
0.0
 11
188.175
 21
10.062555
 31
0.0
  0
LINE
  5
126E
330
1E
100
AcDbEntity
  8
0
100
AcDbLine
 10
188.175
 20
10.062555
 30
0.0
 11
187.53
 21
10.620825
 31
0.0
  0
LINE
  5
126F
330
1E
100
AcDbEntity
  8
0
100
AcDbLine
 10
188.175
 20
11.179525
 30
0.0
 11
187.53
 21
10.620825
 31
0.0
  0
LINE
  5
1270
330
1E
100
AcDbEntity
  8
0
100
AcDbLine
 10
189.681
 20
11.418735
 30
0.0
 11
188.175
 21
11.179525
 31
0.0
  0
LINE
  5
1271
330
1E
100
AcDbEntity
  8
0
100
AcDbLine
 10
191.187
 20
17.773175
 30
0.0
 11
189.681
 21
17.533975
 31
0.0
  0
LINE
  5
1272
330
1E
100
AcDbEntity
  8
0
100
AcDbLine
 10
189.681
 20
17.533975
 30
0.0
 11
188.175
 21
17.773175
 31
0.0
  0
LINE
  5
1273
330
1E
100
AcDbEntity
  8
0
100
AcDbLine
 10
207.538
 20
18.890175
 30
0.0
 11
206.892
 21
18.331475
 31
0.0
  0
LINE
  5
1274
330
1E
100
AcDbEntity
  8
0
100
AcDbLine
 10
207.538
 20
25.483875
 30
0.0
 11
206.892
 21
26.042175
 31
0.0
  0
LINE
  5
1275
330
1E
100
AcDbEntity
  8
0
100
AcDbLine
 10
207.538
 20
26.600875
 30
0.0
 11
206.892
 21
26.042175
 31
0.0
  0
LINE
  5
1276
330
1E
100
AcDbEntity
  8
0
100
AcDbLine
 10
191.187
 20
18.890175
 30
0.0
 11
189.681
 21
19.129375
 31
0.0
  0
LINE
  5
1277
330
1E
100
AcDbEntity
  8
0
100
AcDbLine
 10
191.833
 20
18.331475
 30
0.0
 11
191.187
 21
18.890175
 31
0.0
  0
LINE
  5
1278
330
1E
100
AcDbEntity
  8
0
100
AcDbLine
 10
188.175
 20
18.890175
 30
0.0
 11
187.53
 21
18.331475
 31
0.0
  0
LINE
  5
1279
330
1E
100
AcDbEntity
  8
0
100
AcDbLine
 10
189.681
 20
19.129375
 30
0.0
 11
188.175
 21
18.890175
 31
0.0
  0
LINE
  5
127A
330
1E
100
AcDbEntity
  8
0
100
AcDbLine
 10
191.187
 20
25.483875
 30
0.0
 11
189.681
 21
25.244675
 31
0.0
  0
LINE
  5
127B
330
1E
100
AcDbEntity
  8
0
100
AcDbLine
 10
191.187
 20
26.600875
 30
0.0
 11
189.681
 21
26.840075
 31
0.0
  0
LINE
  5
127C
330
1E
100
AcDbEntity
  8
0
100
AcDbLine
 10
191.833
 20
26.042175
 30
0.0
 11
191.187
 21
26.600875
 31
0.0
  0
LINE
  5
127D
330
1E
100
AcDbEntity
  8
0
100
AcDbLine
 10
191.833
 20
26.042175
 30
0.0
 11
191.187
 21
25.483875
 31
0.0
  0
LINE
  5
127E
330
1E
100
AcDbEntity
  8
0
100
AcDbLine
 10
188.175
 20
25.483875
 30
0.0
 11
187.53
 21
26.042175
 31
0.0
  0
LINE
  5
127F
330
1E
100
AcDbEntity
  8
0
100
AcDbLine
 10
188.175
 20
26.600875
 30
0.0
 11
187.53
 21
26.042175
 31
0.0
  0
LINE
  5
1280
330
1E
100
AcDbEntity
  8
0
100
AcDbLine
 10
189.681
 20
25.244675
 30
0.0
 11
188.175
 21
25.483875
 31
0.0
  0
LINE
  5
1281
330
1E
100
AcDbEntity
  8
0
100
AcDbLine
 10
189.681
 20
26.840075
 30
0.0
 11
188.175
 21
26.600875
 31
0.0
  0
LINE
  5
1282
330
1E
100
AcDbEntity
  8
0
100
AcDbLine
 10
286.494
 20
32.955375
 30
0.0
 11
284.988
 21
33.194575
 31
0.0
  0
LINE
  5
1283
330
1E
100
AcDbEntity
  8
0
100
AcDbLine
 10
286.494
 20
34.550775
 30
0.0
 11
284.988
 21
34.311575
 31
0.0
  0
LINE
  5
1284
330
1E
100
AcDbEntity
  8
0
100
AcDbLine
 10
288.0
 20
33.194575
 30
0.0
 11
286.494
 21
32.955375
 31
0.0
  0
LINE
  5
1285
330
1E
100
AcDbEntity
  8
0
100
AcDbLine
 10
288.0
 20
34.311575
 30
0.0
 11
286.494
 21
34.550775
 31
0.0
  0
LINE
  5
1286
330
1E
100
AcDbEntity
  8
0
100
AcDbLine
 10
288.6454
 20
33.752875
 30
0.0
 11
288.0
 21
34.311575
 31
0.0
  0
LINE
  5
1287
330
1E
100
AcDbEntity
  8
0
100
AcDbLine
 10
288.6454
 20
33.752875
 30
0.0
 11
288.0
 21
33.194575
 31
0.0
  0
LINE
  5
1288
330
1E
100
AcDbEntity
  8
0
100
AcDbLine
 10
284.988
 20
33.194575
 30
0.0
 11
284.3426
 21
33.752875
 31
0.0
  0
LINE
  5
1289
330
1E
100
AcDbEntity
  8
0
100
AcDbLine
 10
284.988
 20
34.311575
 30
0.0
 11
284.3426
 21
33.752875
 31
0.0
  0
LINE
  5
128A
330
1E
100
AcDbEntity
  8
0
100
AcDbLine
 10
286.494
 20
42.261375
 30
0.0
 11
284.988
 21
42.022075
 31
0.0
  0
LINE
  5
128B
330
1E
100
AcDbEntity
  8
0
100
AcDbLine
 10
286.494
 20
40.666075
 30
0.0
 11
284.988
 21
40.905375
 31
0.0
  0
LINE
  5
128C
330
1E
100
AcDbEntity
  8
0
100
AcDbLine
 10
288.6454
 20
41.463675
 30
0.0
 11
288.0
 21
42.022075
 31
0.0
  0
LINE
  5
128D
330
1E
100
AcDbEntity
  8
0
100
AcDbLine
 10
288.6454
 20
41.463675
 30
0.0
 11
288.0
 21
40.905375
 31
0.0
  0
LINE
  5
128E
330
1E
100
AcDbEntity
  8
0
100
AcDbLine
 10
288.0
 20
40.905375
 30
0.0
 11
286.494
 21
40.666075
 31
0.0
  0
LINE
  5
128F
330
1E
100
AcDbEntity
  8
0
100
AcDbLine
 10
288.0
 20
42.022075
 30
0.0
 11
286.494
 21
42.261375
 31
0.0
  0
LINE
  5
1290
330
1E
100
AcDbEntity
  8
0
100
AcDbLine
 10
284.988
 20
42.022075
 30
0.0
 11
284.3426
 21
41.463675
 31
0.0
  0
LINE
  5
1291
330
1E
100
AcDbEntity
  8
0
100
AcDbLine
 10
284.988
 20
40.905375
 30
0.0
 11
284.3426
 21
41.463675
 31
0.0
  0
LINE
  5
1292
330
1E
100
AcDbEntity
  8
0
100
AcDbLine
 10
268.6375
 20
33.194575
 30
0.0
 11
267.1315
 21
32.955375
 31
0.0
  0
LINE
  5
1293
330
1E
100
AcDbEntity
  8
0
100
AcDbLine
 10
268.6375
 20
34.311575
 30
0.0
 11
267.1315
 21
34.550775
 31
0.0
  0
LINE
  5
1294
330
1E
100
AcDbEntity
  8
0
100
AcDbLine
 10
269.2829
 20
33.752875
 30
0.0
 11
268.6375
 21
34.311575
 31
0.0
  0
LINE
  5
1295
330
1E
100
AcDbEntity
  8
0
100
AcDbLine
 10
269.2829
 20
33.752875
 30
0.0
 11
268.6375
 21
33.194575
 31
0.0
  0
LINE
  5
1296
330
1E
100
AcDbEntity
  8
0
100
AcDbLine
 10
265.6255
 20
33.194575
 30
0.0
 11
264.9801
 21
33.752875
 31
0.0
  0
LINE
  5
1297
330
1E
100
AcDbEntity
  8
0
100
AcDbLine
 10
265.6255
 20
34.311575
 30
0.0
 11
264.9801
 21
33.752875
 31
0.0
  0
LINE
  5
1298
330
1E
100
AcDbEntity
  8
0
100
AcDbLine
 10
267.1315
 20
32.955375
 30
0.0
 11
265.6255
 21
33.194575
 31
0.0
  0
LINE
  5
1299
330
1E
100
AcDbEntity
  8
0
100
AcDbLine
 10
267.1315
 20
34.550775
 30
0.0
 11
265.6255
 21
34.311575
 31
0.0
  0
LINE
  5
129A
330
1E
100
AcDbEntity
  8
0
100
AcDbLine
 10
265.6255
 20
42.022075
 30
0.0
 11
264.9801
 21
41.463675
 31
0.0
  0
LINE
  5
129B
330
1E
100
AcDbEntity
  8
0
100
AcDbLine
 10
269.2829
 20
41.463675
 30
0.0
 11
268.6375
 21
42.022075
 31
0.0
  0
LINE
  5
129C
330
1E
100
AcDbEntity
  8
0
100
AcDbLine
 10
268.6375
 20
40.905375
 30
0.0
 11
267.1315
 21
40.666075
 31
0.0
  0
LINE
  5
129D
330
1E
100
AcDbEntity
  8
0
100
AcDbLine
 10
269.2829
 20
41.463675
 30
0.0
 11
268.6375
 21
40.905375
 31
0.0
  0
LINE
  5
129E
330
1E
100
AcDbEntity
  8
0
100
AcDbLine
 10
265.6255
 20
40.905375
 30
0.0
 11
264.9801
 21
41.463675
 31
0.0
  0
LINE
  5
129F
330
1E
100
AcDbEntity
  8
0
100
AcDbLine
 10
267.1315
 20
40.666075
 30
0.0
 11
265.6255
 21
40.905375
 31
0.0
  0
LINE
  5
12A0
330
1E
100
AcDbEntity
  8
0
100
AcDbLine
 10
268.6375
 20
42.022075
 30
0.0
 11
267.1315
 21
42.261375
 31
0.0
  0
LINE
  5
12A1
330
1E
100
AcDbEntity
  8
0
100
AcDbLine
 10
267.1315
 20
42.261375
 30
0.0
 11
265.6255
 21
42.022075
 31
0.0
  0
LINE
  5
12A2
330
1E
100
AcDbEntity
  8
0
100
AcDbLine
 10
286.494
 20
49.972075
 30
0.0
 11
284.988
 21
49.732775
 31
0.0
  0
LINE
  5
12A3
330
1E
100
AcDbEntity
  8
0
100
AcDbLine
 10
286.494
 20
48.376775
 30
0.0
 11
284.988
 21
48.616075
 31
0.0
  0
LINE
  5
12A4
330
1E
100
AcDbEntity
  8
0
100
AcDbLine
 10
288.0
 20
49.732775
 30
0.0
 11
286.494
 21
49.972075
 31
0.0
  0
LINE
  5
12A5
330
1E
100
AcDbEntity
  8
0
100
AcDbLine
 10
288.6454
 20
49.174375
 30
0.0
 11
288.0
 21
48.616075
 31
0.0
  0
LINE
  5
12A6
330
1E
100
AcDbEntity
  8
0
100
AcDbLine
 10
288.6454
 20
49.174375
 30
0.0
 11
288.0
 21
49.732775
 31
0.0
  0
LINE
  5
12A7
330
1E
100
AcDbEntity
  8
0
100
AcDbLine
 10
288.0
 20
48.616075
 30
0.0
 11
286.494
 21
48.376775
 31
0.0
  0
LINE
  5
12A8
330
1E
100
AcDbEntity
  8
0
100
AcDbLine
 10
284.988
 20
49.732775
 30
0.0
 11
284.3426
 21
49.174375
 31
0.0
  0
LINE
  5
12A9
330
1E
100
AcDbEntity
  8
0
100
AcDbLine
 10
284.988
 20
48.616075
 30
0.0
 11
284.3426
 21
49.174375
 31
0.0
  0
LINE
  5
12AA
330
1E
100
AcDbEntity
  8
0
100
AcDbLine
 10
286.494
 20
57.682775
 30
0.0
 11
284.988
 21
57.443475
 31
0.0
  0
LINE
  5
12AB
330
1E
100
AcDbEntity
  8
0
100
AcDbLine
 10
286.494
 20
56.087475
 30
0.0
 11
284.988
 21
56.326775
 31
0.0
  0
LINE
  5
12AC
330
1E
100
AcDbEntity
  8
0
100
AcDbLine
 10
288.0
 20
57.443475
 30
0.0
 11
286.494
 21
57.682775
 31
0.0
  0
LINE
  5
12AD
330
1E
100
AcDbEntity
  8
0
100
AcDbLine
 10
288.6454
 20
56.885075
 30
0.0
 11
288.0
 21
56.326775
 31
0.0
  0
LINE
  5
12AE
330
1E
100
AcDbEntity
  8
0
100
AcDbLine
 10
288.6454
 20
56.885075
 30
0.0
 11
288.0
 21
57.443475
 31
0.0
  0
LINE
  5
12AF
330
1E
100
AcDbEntity
  8
0
100
AcDbLine
 10
288.0
 20
56.326775
 30
0.0
 11
286.494
 21
56.087475
 31
0.0
  0
LINE
  5
12B0
330
1E
100
AcDbEntity
  8
0
100
AcDbLine
 10
284.988
 20
57.443475
 30
0.0
 11
284.3426
 21
56.885075
 31
0.0
  0
LINE
  5
12B1
330
1E
100
AcDbEntity
  8
0
100
AcDbLine
 10
284.988
 20
56.326775
 30
0.0
 11
284.3426
 21
56.885075
 31
0.0
  0
LINE
  5
12B2
330
1E
100
AcDbEntity
  8
0
100
AcDbLine
 10
268.6375
 20
49.732775
 30
0.0
 11
267.1315
 21
49.972075
 31
0.0
  0
LINE
  5
12B3
330
1E
100
AcDbEntity
  8
0
100
AcDbLine
 10
268.6375
 20
48.616075
 30
0.0
 11
267.1315
 21
48.376775
 31
0.0
  0
LINE
  5
12B4
330
1E
100
AcDbEntity
  8
0
100
AcDbLine
 10
269.2829
 20
49.174375
 30
0.0
 11
268.6375
 21
48.616075
 31
0.0
  0
LINE
  5
12B5
330
1E
100
AcDbEntity
  8
0
100
AcDbLine
 10
269.2829
 20
49.174375
 30
0.0
 11
268.6375
 21
49.732775
 31
0.0
  0
LINE
  5
12B6
330
1E
100
AcDbEntity
  8
0
100
AcDbLine
 10
267.1315
 20
49.972075
 30
0.0
 11
265.6255
 21
49.732775
 31
0.0
  0
LINE
  5
12B7
330
1E
100
AcDbEntity
  8
0
100
AcDbLine
 10
265.6255
 20
49.732775
 30
0.0
 11
264.9801
 21
49.174375
 31
0.0
  0
LINE
  5
12B8
330
1E
100
AcDbEntity
  8
0
100
AcDbLine
 10
265.6255
 20
48.616075
 30
0.0
 11
264.9801
 21
49.174375
 31
0.0
  0
LINE
  5
12B9
330
1E
100
AcDbEntity
  8
0
100
AcDbLine
 10
267.1315
 20
48.376775
 30
0.0
 11
265.6255
 21
48.616075
 31
0.0
  0
LINE
  5
12BA
330
1E
100
AcDbEntity
  8
0
100
AcDbLine
 10
268.6375
 20
57.443475
 30
0.0
 11
267.1315
 21
57.682775
 31
0.0
  0
LINE
  5
12BB
330
1E
100
AcDbEntity
  8
0
100
AcDbLine
 10
268.6375
 20
56.326775
 30
0.0
 11
267.1315
 21
56.087475
 31
0.0
  0
LINE
  5
12BC
330
1E
100
AcDbEntity
  8
0
100
AcDbLine
 10
269.2829
 20
56.885075
 30
0.0
 11
268.6375
 21
56.326775
 31
0.0
  0
LINE
  5
12BD
330
1E
100
AcDbEntity
  8
0
100
AcDbLine
 10
269.2829
 20
56.885075
 30
0.0
 11
268.6375
 21
57.443475
 31
0.0
  0
LINE
  5
12BE
330
1E
100
AcDbEntity
  8
0
100
AcDbLine
 10
267.1315
 20
57.682775
 30
0.0
 11
265.6255
 21
57.443475
 31
0.0
  0
LINE
  5
12BF
330
1E
100
AcDbEntity
  8
0
100
AcDbLine
 10
265.6255
 20
57.443475
 30
0.0
 11
264.9801
 21
56.885075
 31
0.0
  0
LINE
  5
12C0
330
1E
100
AcDbEntity
  8
0
100
AcDbLine
 10
265.6255
 20
56.326775
 30
0.0
 11
264.9801
 21
56.885075
 31
0.0
  0
LINE
  5
12C1
330
1E
100
AcDbEntity
  8
0
100
AcDbLine
 10
267.1315
 20
56.087475
 30
0.0
 11
265.6255
 21
56.326775
 31
0.0
  0
LINE
  5
12C2
330
1E
100
AcDbEntity
  8
0
100
AcDbLine
 10
247.769
 20
32.955375
 30
0.0
 11
246.263
 21
33.194575
 31
0.0
  0
LINE
  5
12C3
330
1E
100
AcDbEntity
  8
0
100
AcDbLine
 10
247.769
 20
34.550775
 30
0.0
 11
246.263
 21
34.311575
 31
0.0
  0
LINE
  5
12C4
330
1E
100
AcDbEntity
  8
0
100
AcDbLine
 10
249.275
 20
33.194575
 30
0.0
 11
247.769
 21
32.955375
 31
0.0
  0
LINE
  5
12C5
330
1E
100
AcDbEntity
  8
0
100
AcDbLine
 10
249.275
 20
34.311575
 30
0.0
 11
247.769
 21
34.550775
 31
0.0
  0
LINE
  5
12C6
330
1E
100
AcDbEntity
  8
0
100
AcDbLine
 10
249.92
 20
33.752875
 30
0.0
 11
249.275
 21
34.311575
 31
0.0
  0
LINE
  5
12C7
330
1E
100
AcDbEntity
  8
0
100
AcDbLine
 10
249.92
 20
33.752875
 30
0.0
 11
249.275
 21
33.194575
 31
0.0
  0
LINE
  5
12C8
330
1E
100
AcDbEntity
  8
0
100
AcDbLine
 10
246.263
 20
33.194575
 30
0.0
 11
245.618
 21
33.752875
 31
0.0
  0
LINE
  5
12C9
330
1E
100
AcDbEntity
  8
0
100
AcDbLine
 10
246.263
 20
34.311575
 30
0.0
 11
245.618
 21
33.752875
 31
0.0
  0
LINE
  5
12CA
330
1E
100
AcDbEntity
  8
0
100
AcDbLine
 10
249.92
 20
41.463675
 30
0.0
 11
249.275
 21
42.022075
 31
0.0
  0
LINE
  5
12CB
330
1E
100
AcDbEntity
  8
0
100
AcDbLine
 10
246.263
 20
42.022075
 30
0.0
 11
245.618
 21
41.463675
 31
0.0
  0
LINE
  5
12CC
330
1E
100
AcDbEntity
  8
0
100
AcDbLine
 10
247.769
 20
40.666075
 30
0.0
 11
246.263
 21
40.905375
 31
0.0
  0
LINE
  5
12CD
330
1E
100
AcDbEntity
  8
0
100
AcDbLine
 10
249.92
 20
41.463675
 30
0.0
 11
249.275
 21
40.905375
 31
0.0
  0
LINE
  5
12CE
330
1E
100
AcDbEntity
  8
0
100
AcDbLine
 10
249.275
 20
40.905375
 30
0.0
 11
247.769
 21
40.666075
 31
0.0
  0
LINE
  5
12CF
330
1E
100
AcDbEntity
  8
0
100
AcDbLine
 10
246.263
 20
40.905375
 30
0.0
 11
245.618
 21
41.463675
 31
0.0
  0
LINE
  5
12D0
330
1E
100
AcDbEntity
  8
0
100
AcDbLine
 10
247.769
 20
42.261375
 30
0.0
 11
246.263
 21
42.022075
 31
0.0
  0
LINE
  5
12D1
330
1E
100
AcDbEntity
  8
0
100
AcDbLine
 10
249.275
 20
42.022075
 30
0.0
 11
247.769
 21
42.261375
 31
0.0
  0
LINE
  5
12D2
330
1E
100
AcDbEntity
  8
0
100
AcDbLine
 10
247.769
 20
49.972075
 30
0.0
 11
246.263
 21
49.732775
 31
0.0
  0
LINE
  5
12D3
330
1E
100
AcDbEntity
  8
0
100
AcDbLine
 10
247.769
 20
48.376775
 30
0.0
 11
246.263
 21
48.616075
 31
0.0
  0
LINE
  5
12D4
330
1E
100
AcDbEntity
  8
0
100
AcDbLine
 10
249.92
 20
49.174375
 30
0.0
 11
249.275
 21
48.616075
 31
0.0
  0
LINE
  5
12D5
330
1E
100
AcDbEntity
  8
0
100
AcDbLine
 10
249.92
 20
49.174375
 30
0.0
 11
249.275
 21
49.732775
 31
0.0
  0
LINE
  5
12D6
330
1E
100
AcDbEntity
  8
0
100
AcDbLine
 10
249.275
 20
49.732775
 30
0.0
 11
247.769
 21
49.972075
 31
0.0
  0
LINE
  5
12D7
330
1E
100
AcDbEntity
  8
0
100
AcDbLine
 10
249.275
 20
48.616075
 30
0.0
 11
247.769
 21
48.376775
 31
0.0
  0
LINE
  5
12D8
330
1E
100
AcDbEntity
  8
0
100
AcDbLine
 10
246.263
 20
49.732775
 30
0.0
 11
245.618
 21
49.174375
 31
0.0
  0
LINE
  5
12D9
330
1E
100
AcDbEntity
  8
0
100
AcDbLine
 10
246.263
 20
48.616075
 30
0.0
 11
245.618
 21
49.174375
 31
0.0
  0
LINE
  5
12DA
330
1E
100
AcDbEntity
  8
0
100
AcDbLine
 10
247.769
 20
57.682775
 30
0.0
 11
246.263
 21
57.443475
 31
0.0
  0
LINE
  5
12DB
330
1E
100
AcDbEntity
  8
0
100
AcDbLine
 10
247.769
 20
56.087475
 30
0.0
 11
246.263
 21
56.326775
 31
0.0
  0
LINE
  5
12DC
330
1E
100
AcDbEntity
  8
0
100
AcDbLine
 10
249.92
 20
56.885075
 30
0.0
 11
249.275
 21
56.326775
 31
0.0
  0
LINE
  5
12DD
330
1E
100
AcDbEntity
  8
0
100
AcDbLine
 10
249.92
 20
56.885075
 30
0.0
 11
249.275
 21
57.443475
 31
0.0
  0
LINE
  5
12DE
330
1E
100
AcDbEntity
  8
0
100
AcDbLine
 10
249.275
 20
57.443475
 30
0.0
 11
247.769
 21
57.682775
 31
0.0
  0
LINE
  5
12DF
330
1E
100
AcDbEntity
  8
0
100
AcDbLine
 10
249.275
 20
56.326775
 30
0.0
 11
247.769
 21
56.087475
 31
0.0
  0
LINE
  5
12E0
330
1E
100
AcDbEntity
  8
0
100
AcDbLine
 10
246.263
 20
57.443475
 30
0.0
 11
245.618
 21
56.885075
 31
0.0
  0
LINE
  5
12E1
330
1E
100
AcDbEntity
  8
0
100
AcDbLine
 10
246.263
 20
56.326775
 30
0.0
 11
245.618
 21
56.885075
 31
0.0
  0
LINE
  5
12E2
330
1E
100
AcDbEntity
  8
0
100
AcDbLine
 10
284.988
 20
65.154175
 30
0.0
 11
284.3426
 21
64.595775
 31
0.0
  0
LINE
  5
12E3
330
1E
100
AcDbEntity
  8
0
100
AcDbLine
 10
288.6454
 20
64.595775
 30
0.0
 11
288.0
 21
65.154175
 31
0.0
  0
LINE
  5
12E4
330
1E
100
AcDbEntity
  8
0
100
AcDbLine
 10
286.494
 20
63.798175
 30
0.0
 11
284.988
 21
64.037375
 31
0.0
  0
LINE
  5
12E5
330
1E
100
AcDbEntity
  8
0
100
AcDbLine
 10
288.6454
 20
64.595775
 30
0.0
 11
288.0
 21
64.037375
 31
0.0
  0
LINE
  5
12E6
330
1E
100
AcDbEntity
  8
0
100
AcDbLine
 10
288.0
 20
64.037375
 30
0.0
 11
286.494
 21
63.798175
 31
0.0
  0
LINE
  5
12E7
330
1E
100
AcDbEntity
  8
0
100
AcDbLine
 10
284.988
 20
64.037375
 30
0.0
 11
284.3426
 21
64.595775
 31
0.0
  0
LINE
  5
12E8
330
1E
100
AcDbEntity
  8
0
100
AcDbLine
 10
286.494
 20
65.393375
 30
0.0
 11
284.988
 21
65.154175
 31
0.0
  0
LINE
  5
12E9
330
1E
100
AcDbEntity
  8
0
100
AcDbLine
 10
288.0
 20
65.154175
 30
0.0
 11
286.494
 21
65.393375
 31
0.0
  0
LINE
  5
12EA
330
1E
100
AcDbEntity
  8
0
100
AcDbLine
 10
265.6255
 20
65.154175
 30
0.0
 11
264.9801
 21
64.595775
 31
0.0
  0
LINE
  5
12EB
330
1E
100
AcDbEntity
  8
0
100
AcDbLine
 10
269.2829
 20
64.595775
 30
0.0
 11
268.6375
 21
65.154175
 31
0.0
  0
LINE
  5
12EC
330
1E
100
AcDbEntity
  8
0
100
AcDbLine
 10
268.6375
 20
64.037375
 30
0.0
 11
267.1315
 21
63.798175
 31
0.0
  0
LINE
  5
12ED
330
1E
100
AcDbEntity
  8
0
100
AcDbLine
 10
269.2829
 20
64.595775
 30
0.0
 11
268.6375
 21
64.037375
 31
0.0
  0
LINE
  5
12EE
330
1E
100
AcDbEntity
  8
0
100
AcDbLine
 10
265.6255
 20
64.037375
 30
0.0
 11
264.9801
 21
64.595775
 31
0.0
  0
LINE
  5
12EF
330
1E
100
AcDbEntity
  8
0
100
AcDbLine
 10
267.1315
 20
63.798175
 30
0.0
 11
265.6255
 21
64.037375
 31
0.0
  0
LINE
  5
12F0
330
1E
100
AcDbEntity
  8
0
100
AcDbLine
 10
268.6375
 20
65.154175
 30
0.0
 11
267.1315
 21
65.393375
 31
0.0
  0
LINE
  5
12F1
330
1E
100
AcDbEntity
  8
0
100
AcDbLine
 10
267.1315
 20
65.393375
 30
0.0
 11
265.6255
 21
65.154175
 31
0.0
  0
LINE
  5
12F2
330
1E
100
AcDbEntity
  8
0
100
AcDbLine
 10
286.494
 20
73.104175
 30
0.0
 11
284.988
 21
72.864775
 31
0.0
  0
LINE
  5
12F3
330
1E
100
AcDbEntity
  8
0
100
AcDbLine
 10
286.494
 20
71.508775
 30
0.0
 11
284.988
 21
71.748075
 31
0.0
  0
LINE
  5
12F4
330
1E
100
AcDbEntity
  8
0
100
AcDbLine
 10
288.0
 20
72.864775
 30
0.0
 11
286.494
 21
73.104175
 31
0.0
  0
LINE
  5
12F5
330
1E
100
AcDbEntity
  8
0
100
AcDbLine
 10
288.6454
 20
72.306475
 30
0.0
 11
288.0
 21
71.748075
 31
0.0
  0
LINE
  5
12F6
330
1E
100
AcDbEntity
  8
0
100
AcDbLine
 10
288.6454
 20
72.306475
 30
0.0
 11
288.0
 21
72.864775
 31
0.0
  0
LINE
  5
12F7
330
1E
100
AcDbEntity
  8
0
100
AcDbLine
 10
288.0
 20
71.748075
 30
0.0
 11
286.494
 21
71.508775
 31
0.0
  0
LINE
  5
12F8
330
1E
100
AcDbEntity
  8
0
100
AcDbLine
 10
284.988
 20
72.864775
 30
0.0
 11
284.3426
 21
72.306475
 31
0.0
  0
LINE
  5
12F9
330
1E
100
AcDbEntity
  8
0
100
AcDbLine
 10
284.988
 20
71.748075
 30
0.0
 11
284.3426
 21
72.306475
 31
0.0
  0
LINE
  5
12FA
330
1E
100
AcDbEntity
  8
0
100
AcDbLine
 10
268.6375
 20
72.864775
 30
0.0
 11
267.1315
 21
73.104175
 31
0.0
  0
LINE
  5
12FB
330
1E
100
AcDbEntity
  8
0
100
AcDbLine
 10
268.6375
 20
71.748075
 30
0.0
 11
267.1315
 21
71.508775
 31
0.0
  0
LINE
  5
12FC
330
1E
100
AcDbEntity
  8
0
100
AcDbLine
 10
269.2829
 20
72.306475
 30
0.0
 11
268.6375
 21
71.748075
 31
0.0
  0
LINE
  5
12FD
330
1E
100
AcDbEntity
  8
0
100
AcDbLine
 10
269.2829
 20
72.306475
 30
0.0
 11
268.6375
 21
72.864775
 31
0.0
  0
LINE
  5
12FE
330
1E
100
AcDbEntity
  8
0
100
AcDbLine
 10
267.1315
 20
73.104175
 30
0.0
 11
265.6255
 21
72.864775
 31
0.0
  0
LINE
  5
12FF
330
1E
100
AcDbEntity
  8
0
100
AcDbLine
 10
265.6255
 20
72.864775
 30
0.0
 11
264.9801
 21
72.306475
 31
0.0
  0
LINE
  5
1300
330
1E
100
AcDbEntity
  8
0
100
AcDbLine
 10
265.6255
 20
71.748075
 30
0.0
 11
264.9801
 21
72.306475
 31
0.0
  0
LINE
  5
1301
330
1E
100
AcDbEntity
  8
0
100
AcDbLine
 10
267.1315
 20
71.508775
 30
0.0
 11
265.6255
 21
71.748075
 31
0.0
  0
LINE
  5
1302
330
1E
100
AcDbEntity
  8
0
100
AcDbLine
 10
249.92
 20
64.595775
 30
0.0
 11
249.275
 21
65.154175
 31
0.0
  0
LINE
  5
1303
330
1E
100
AcDbEntity
  8
0
100
AcDbLine
 10
246.263
 20
65.154175
 30
0.0
 11
245.618
 21
64.595775
 31
0.0
  0
LINE
  5
1304
330
1E
100
AcDbEntity
  8
0
100
AcDbLine
 10
247.769
 20
63.798175
 30
0.0
 11
246.263
 21
64.037375
 31
0.0
  0
LINE
  5
1305
330
1E
100
AcDbEntity
  8
0
100
AcDbLine
 10
249.92
 20
64.595775
 30
0.0
 11
249.275
 21
64.037375
 31
0.0
  0
LINE
  5
1306
330
1E
100
AcDbEntity
  8
0
100
AcDbLine
 10
249.275
 20
64.037375
 30
0.0
 11
247.769
 21
63.798175
 31
0.0
  0
LINE
  5
1307
330
1E
100
AcDbEntity
  8
0
100
AcDbLine
 10
246.263
 20
64.037375
 30
0.0
 11
245.618
 21
64.595775
 31
0.0
  0
LINE
  5
1308
330
1E
100
AcDbEntity
  8
0
100
AcDbLine
 10
247.769
 20
65.393375
 30
0.0
 11
246.263
 21
65.154175
 31
0.0
  0
LINE
  5
1309
330
1E
100
AcDbEntity
  8
0
100
AcDbLine
 10
249.275
 20
65.154175
 30
0.0
 11
247.769
 21
65.393375
 31
0.0
  0
LINE
  5
130A
330
1E
100
AcDbEntity
  8
0
100
AcDbLine
 10
247.769
 20
73.104175
 30
0.0
 11
246.263
 21
72.864775
 31
0.0
  0
LINE
  5
130B
330
1E
100
AcDbEntity
  8
0
100
AcDbLine
 10
247.769
 20
71.508775
 30
0.0
 11
246.263
 21
71.748075
 31
0.0
  0
LINE
  5
130C
330
1E
100
AcDbEntity
  8
0
100
AcDbLine
 10
249.92
 20
72.306475
 30
0.0
 11
249.275
 21
71.748075
 31
0.0
  0
LINE
  5
130D
330
1E
100
AcDbEntity
  8
0
100
AcDbLine
 10
249.92
 20
72.306475
 30
0.0
 11
249.275
 21
72.864775
 31
0.0
  0
LINE
  5
130E
330
1E
100
AcDbEntity
  8
0
100
AcDbLine
 10
249.275
 20
72.864775
 30
0.0
 11
247.769
 21
73.104175
 31
0.0
  0
LINE
  5
130F
330
1E
100
AcDbEntity
  8
0
100
AcDbLine
 10
249.275
 20
71.748075
 30
0.0
 11
247.769
 21
71.508775
 31
0.0
  0
LINE
  5
1310
330
1E
100
AcDbEntity
  8
0
100
AcDbLine
 10
246.263
 20
72.864775
 30
0.0
 11
245.618
 21
72.306475
 31
0.0
  0
LINE
  5
1311
330
1E
100
AcDbEntity
  8
0
100
AcDbLine
 10
246.263
 20
71.748075
 30
0.0
 11
245.618
 21
72.306475
 31
0.0
  0
LINE
  5
1312
330
1E
100
AcDbEntity
  8
0
100
AcDbLine
 10
209.044
 20
57.682775
 30
0.0
 11
207.538
 21
57.443475
 31
0.0
  0
LINE
  5
1313
330
1E
100
AcDbEntity
  8
0
100
AcDbLine
 10
209.044
 20
56.087475
 30
0.0
 11
207.538
 21
56.326775
 31
0.0
  0
LINE
  5
1314
330
1E
100
AcDbEntity
  8
0
100
AcDbLine
 10
209.044
 20
49.972075
 30
0.0
 11
207.538
 21
49.732775
 31
0.0
  0
LINE
  5
1315
330
1E
100
AcDbEntity
  8
0
100
AcDbLine
 10
209.044
 20
48.376775
 30
0.0
 11
207.538
 21
48.616075
 31
0.0
  0
LINE
  5
1316
330
1E
100
AcDbEntity
  8
0
100
AcDbLine
 10
209.044
 20
42.261375
 30
0.0
 11
207.538
 21
42.022075
 31
0.0
  0
LINE
  5
1317
330
1E
100
AcDbEntity
  8
0
100
AcDbLine
 10
209.044
 20
40.666075
 30
0.0
 11
207.538
 21
40.905375
 31
0.0
  0
LINE
  5
1318
330
1E
100
AcDbEntity
  8
0
100
AcDbLine
 10
209.044
 20
32.955375
 30
0.0
 11
207.538
 21
33.194575
 31
0.0
  0
LINE
  5
1319
330
1E
100
AcDbEntity
  8
0
100
AcDbLine
 10
209.044
 20
34.550775
 30
0.0
 11
207.538
 21
34.311575
 31
0.0
  0
LINE
  5
131A
330
1E
100
AcDbEntity
  8
0
100
AcDbLine
 10
229.912
 20
33.194575
 30
0.0
 11
228.406
 21
32.955375
 31
0.0
  0
LINE
  5
131B
330
1E
100
AcDbEntity
  8
0
100
AcDbLine
 10
229.912
 20
34.311575
 30
0.0
 11
228.406
 21
34.550775
 31
0.0
  0
LINE
  5
131C
330
1E
100
AcDbEntity
  8
0
100
AcDbLine
 10
230.558
 20
33.752875
 30
0.0
 11
229.912
 21
34.311575
 31
0.0
  0
LINE
  5
131D
330
1E
100
AcDbEntity
  8
0
100
AcDbLine
 10
230.558
 20
33.752875
 30
0.0
 11
229.912
 21
33.194575
 31
0.0
  0
LINE
  5
131E
330
1E
100
AcDbEntity
  8
0
100
AcDbLine
 10
226.9
 20
33.194575
 30
0.0
 11
226.255
 21
33.752875
 31
0.0
  0
LINE
  5
131F
330
1E
100
AcDbEntity
  8
0
100
AcDbLine
 10
226.9
 20
34.311575
 30
0.0
 11
226.255
 21
33.752875
 31
0.0
  0
LINE
  5
1320
330
1E
100
AcDbEntity
  8
0
100
AcDbLine
 10
228.406
 20
32.955375
 30
0.0
 11
226.9
 21
33.194575
 31
0.0
  0
LINE
  5
1321
330
1E
100
AcDbEntity
  8
0
100
AcDbLine
 10
228.406
 20
34.550775
 30
0.0
 11
226.9
 21
34.311575
 31
0.0
  0
LINE
  5
1322
330
1E
100
AcDbEntity
  8
0
100
AcDbLine
 10
229.912
 20
42.022075
 30
0.0
 11
228.406
 21
42.261375
 31
0.0
  0
LINE
  5
1323
330
1E
100
AcDbEntity
  8
0
100
AcDbLine
 10
229.912
 20
40.905375
 30
0.0
 11
228.406
 21
40.666075
 31
0.0
  0
LINE
  5
1324
330
1E
100
AcDbEntity
  8
0
100
AcDbLine
 10
230.558
 20
41.463675
 30
0.0
 11
229.912
 21
42.022075
 31
0.0
  0
LINE
  5
1325
330
1E
100
AcDbEntity
  8
0
100
AcDbLine
 10
230.558
 20
41.463675
 30
0.0
 11
229.912
 21
40.905375
 31
0.0
  0
LINE
  5
1326
330
1E
100
AcDbEntity
  8
0
100
AcDbLine
 10
226.9
 20
42.022075
 30
0.0
 11
226.255
 21
41.463675
 31
0.0
  0
LINE
  5
1327
330
1E
100
AcDbEntity
  8
0
100
AcDbLine
 10
226.9
 20
40.905375
 30
0.0
 11
226.255
 21
41.463675
 31
0.0
  0
LINE
  5
1328
330
1E
100
AcDbEntity
  8
0
100
AcDbLine
 10
228.406
 20
40.666075
 30
0.0
 11
226.9
 21
40.905375
 31
0.0
  0
LINE
  5
1329
330
1E
100
AcDbEntity
  8
0
100
AcDbLine
 10
228.406
 20
42.261375
 30
0.0
 11
226.9
 21
42.022075
 31
0.0
  0
LINE
  5
132A
330
1E
100
AcDbEntity
  8
0
100
AcDbLine
 10
210.55
 20
33.194575
 30
0.0
 11
209.044
 21
32.955375
 31
0.0
  0
LINE
  5
132B
330
1E
100
AcDbEntity
  8
0
100
AcDbLine
 10
210.55
 20
34.311575
 30
0.0
 11
209.044
 21
34.550775
 31
0.0
  0
LINE
  5
132C
330
1E
100
AcDbEntity
  8
0
100
AcDbLine
 10
211.195
 20
33.752875
 30
0.0
 11
210.55
 21
34.311575
 31
0.0
  0
LINE
  5
132D
330
1E
100
AcDbEntity
  8
0
100
AcDbLine
 10
211.195
 20
33.752875
 30
0.0
 11
210.55
 21
33.194575
 31
0.0
  0
LINE
  5
132E
330
1E
100
AcDbEntity
  8
0
100
AcDbLine
 10
211.195
 20
41.463675
 30
0.0
 11
210.55
 21
42.022075
 31
0.0
  0
LINE
  5
132F
330
1E
100
AcDbEntity
  8
0
100
AcDbLine
 10
210.55
 20
40.905375
 30
0.0
 11
209.044
 21
40.666075
 31
0.0
  0
LINE
  5
1330
330
1E
100
AcDbEntity
  8
0
100
AcDbLine
 10
211.195
 20
41.463675
 30
0.0
 11
210.55
 21
40.905375
 31
0.0
  0
LINE
  5
1331
330
1E
100
AcDbEntity
  8
0
100
AcDbLine
 10
210.55
 20
42.022075
 30
0.0
 11
209.044
 21
42.261375
 31
0.0
  0
LINE
  5
1332
330
1E
100
AcDbEntity
  8
0
100
AcDbLine
 10
229.912
 20
49.732775
 30
0.0
 11
228.406
 21
49.972075
 31
0.0
  0
LINE
  5
1333
330
1E
100
AcDbEntity
  8
0
100
AcDbLine
 10
229.912
 20
48.616075
 30
0.0
 11
228.406
 21
48.376775
 31
0.0
  0
LINE
  5
1334
330
1E
100
AcDbEntity
  8
0
100
AcDbLine
 10
230.558
 20
49.174375
 30
0.0
 11
229.912
 21
48.616075
 31
0.0
  0
LINE
  5
1335
330
1E
100
AcDbEntity
  8
0
100
AcDbLine
 10
230.558
 20
49.174375
 30
0.0
 11
229.912
 21
49.732775
 31
0.0
  0
LINE
  5
1336
330
1E
100
AcDbEntity
  8
0
100
AcDbLine
 10
228.406
 20
49.972075
 30
0.0
 11
226.9
 21
49.732775
 31
0.0
  0
LINE
  5
1337
330
1E
100
AcDbEntity
  8
0
100
AcDbLine
 10
226.9
 20
49.732775
 30
0.0
 11
226.255
 21
49.174375
 31
0.0
  0
LINE
  5
1338
330
1E
100
AcDbEntity
  8
0
100
AcDbLine
 10
226.9
 20
48.616075
 30
0.0
 11
226.255
 21
49.174375
 31
0.0
  0
LINE
  5
1339
330
1E
100
AcDbEntity
  8
0
100
AcDbLine
 10
228.406
 20
48.376775
 30
0.0
 11
226.9
 21
48.616075
 31
0.0
  0
LINE
  5
133A
330
1E
100
AcDbEntity
  8
0
100
AcDbLine
 10
229.912
 20
57.443475
 30
0.0
 11
228.406
 21
57.682775
 31
0.0
  0
LINE
  5
133B
330
1E
100
AcDbEntity
  8
0
100
AcDbLine
 10
229.912
 20
56.326775
 30
0.0
 11
228.406
 21
56.087475
 31
0.0
  0
LINE
  5
133C
330
1E
100
AcDbEntity
  8
0
100
AcDbLine
 10
230.558
 20
56.885075
 30
0.0
 11
229.912
 21
56.326775
 31
0.0
  0
LINE
  5
133D
330
1E
100
AcDbEntity
  8
0
100
AcDbLine
 10
230.558
 20
56.885075
 30
0.0
 11
229.912
 21
57.443475
 31
0.0
  0
LINE
  5
133E
330
1E
100
AcDbEntity
  8
0
100
AcDbLine
 10
228.406
 20
57.682775
 30
0.0
 11
226.9
 21
57.443475
 31
0.0
  0
LINE
  5
133F
330
1E
100
AcDbEntity
  8
0
100
AcDbLine
 10
226.9
 20
57.443475
 30
0.0
 11
226.255
 21
56.885075
 31
0.0
  0
LINE
  5
1340
330
1E
100
AcDbEntity
  8
0
100
AcDbLine
 10
226.9
 20
56.326775
 30
0.0
 11
226.255
 21
56.885075
 31
0.0
  0
LINE
  5
1341
330
1E
100
AcDbEntity
  8
0
100
AcDbLine
 10
228.406
 20
56.087475
 30
0.0
 11
226.9
 21
56.326775
 31
0.0
  0
LINE
  5
1342
330
1E
100
AcDbEntity
  8
0
100
AcDbLine
 10
210.55
 20
49.732775
 30
0.0
 11
209.044
 21
49.972075
 31
0.0
  0
LINE
  5
1343
330
1E
100
AcDbEntity
  8
0
100
AcDbLine
 10
210.55
 20
48.616075
 30
0.0
 11
209.044
 21
48.376775
 31
0.0
  0
LINE
  5
1344
330
1E
100
AcDbEntity
  8
0
100
AcDbLine
 10
211.195
 20
49.174375
 30
0.0
 11
210.55
 21
48.616075
 31
0.0
  0
LINE
  5
1345
330
1E
100
AcDbEntity
  8
0
100
AcDbLine
 10
211.195
 20
49.174375
 30
0.0
 11
210.55
 21
49.732775
 31
0.0
  0
LINE
  5
1346
330
1E
100
AcDbEntity
  8
0
100
AcDbLine
 10
210.55
 20
57.443475
 30
0.0
 11
209.044
 21
57.682775
 31
0.0
  0
LINE
  5
1347
330
1E
100
AcDbEntity
  8
0
100
AcDbLine
 10
210.55
 20
56.326775
 30
0.0
 11
209.044
 21
56.087475
 31
0.0
  0
LINE
  5
1348
330
1E
100
AcDbEntity
  8
0
100
AcDbLine
 10
211.195
 20
56.885075
 30
0.0
 11
210.55
 21
56.326775
 31
0.0
  0
LINE
  5
1349
330
1E
100
AcDbEntity
  8
0
100
AcDbLine
 10
211.195
 20
56.885075
 30
0.0
 11
210.55
 21
57.443475
 31
0.0
  0
LINE
  5
134A
330
1E
100
AcDbEntity
  8
0
100
AcDbLine
 10
194.343
 20
37.608375
 30
0.0
 11
193.826
 21
36.247075
 31
0.0
  0
LINE
  5
134B
330
1E
100
AcDbEntity
  8
0
100
AcDbLine
 10
194.343
 20
37.608375
 30
0.0
 11
193.826
 21
38.969675
 31
0.0
  0
LINE
  5
134C
330
1E
100
AcDbEntity
  8
0
100
AcDbLine
 10
194.343
 20
39.420975
 30
0.0
 11
193.826
 21
40.782375
 31
0.0
  0
LINE
  5
134D
330
1E
100
AcDbEntity
  8
0
100
AcDbLine
 10
194.343
 20
37.608375
 30
0.0
 11
194.343
 21
39.420975
 31
0.0
  0
LINE
  5
134E
330
1E
100
AcDbEntity
  8
0
100
AcDbLine
 10
194.343
 20
39.420975
 30
0.0
 11
194.343
 21
37.608375
 31
0.0
  0
LINE
  5
134F
330
1E
100
AcDbEntity
  8
0
100
AcDbLine
 10
207.538
 20
33.194575
 30
0.0
 11
206.892
 21
33.752875
 31
0.0
  0
LINE
  5
1350
330
1E
100
AcDbEntity
  8
0
100
AcDbLine
 10
207.538
 20
34.311575
 30
0.0
 11
206.892
 21
33.752875
 31
0.0
  0
LINE
  5
1351
330
1E
100
AcDbEntity
  8
0
100
AcDbLine
 10
207.538
 20
42.022075
 30
0.0
 11
206.892
 21
41.463675
 31
0.0
  0
LINE
  5
1352
330
1E
100
AcDbEntity
  8
0
100
AcDbLine
 10
207.538
 20
40.905375
 30
0.0
 11
206.892
 21
41.463675
 31
0.0
  0
LINE
  5
1353
330
1E
100
AcDbEntity
  8
0
100
AcDbLine
 10
187.114
 20
32.992575
 30
0.0
 11
183.672
 21
32.482075
 31
0.0
  0
LINE
  5
1354
330
1E
100
AcDbEntity
  8
0
100
AcDbLine
 10
192.449
 20
34.970775
 30
0.0
 11
190.155
 21
33.843275
 31
0.0
  0
LINE
  5
1355
330
1E
100
AcDbEntity
  8
0
100
AcDbLine
 10
190.155
 20
33.843275
 30
0.0
 11
187.114
 21
32.992575
 31
0.0
  0
LINE
  5
1356
330
1E
100
AcDbEntity
  8
0
100
AcDbLine
 10
193.826
 20
36.247075
 30
0.0
 11
192.449
 21
34.970775
 31
0.0
  0
LINE
  5
1357
330
1E
100
AcDbEntity
  8
0
100
AcDbLine
 10
183.672
 20
32.482075
 30
0.0
 11
180.0
 21
32.290575
 31
0.0
  0
LINE
  5
1358
330
1E
100
AcDbEntity
  8
0
100
AcDbLine
 10
187.114
 20
42.224175
 30
0.0
 11
183.672
 21
42.734675
 31
0.0
  0
LINE
  5
1359
330
1E
100
AcDbEntity
  8
0
100
AcDbLine
 10
187.114
 20
44.036775
 30
0.0
 11
183.672
 21
44.547275
 31
0.0
  0
LINE
  5
135A
330
1E
100
AcDbEntity
  8
0
100
AcDbLine
 10
190.155
 20
41.373275
 30
0.0
 11
187.114
 21
42.224175
 31
0.0
  0
LINE
  5
135B
330
1E
100
AcDbEntity
  8
0
100
AcDbLine
 10
193.826
 20
40.782375
 30
0.0
 11
192.449
 21
42.058575
 31
0.0
  0
LINE
  5
135C
330
1E
100
AcDbEntity
  8
0
100
AcDbLine
 10
192.449
 20
40.245975
 30
0.0
 11
190.155
 21
41.373275
 31
0.0
  0
LINE
  5
135D
330
1E
100
AcDbEntity
  8
0
100
AcDbLine
 10
193.826
 20
38.969675
 30
0.0
 11
192.449
 21
40.245975
 31
0.0
  0
LINE
  5
135E
330
1E
100
AcDbEntity
  8
0
100
AcDbLine
 10
192.449
 20
42.058575
 30
0.0
 11
190.155
 21
43.185975
 31
0.0
  0
LINE
  5
135F
330
1E
100
AcDbEntity
  8
0
100
AcDbLine
 10
190.155
 20
43.185975
 30
0.0
 11
187.114
 21
44.036775
 31
0.0
  0
LINE
  5
1360
330
1E
100
AcDbEntity
  8
0
100
AcDbLine
 10
183.672
 20
42.734675
 30
0.0
 11
180.0
 21
42.926075
 31
0.0
  0
LINE
  5
1361
330
1E
100
AcDbEntity
  8
0
100
AcDbLine
 10
183.672
 20
44.547275
 30
0.0
 11
180.0
 21
44.738675
 31
0.0
  0
LINE
  5
1362
330
1E
100
AcDbEntity
  8
0
100
AcDbLine
 10
207.538
 20
49.732775
 30
0.0
 11
206.892
 21
49.174375
 31
0.0
  0
LINE
  5
1363
330
1E
100
AcDbEntity
  8
0
100
AcDbLine
 10
207.538
 20
48.616075
 30
0.0
 11
206.892
 21
49.174375
 31
0.0
  0
LINE
  5
1364
330
1E
100
AcDbEntity
  8
0
100
AcDbLine
 10
207.538
 20
57.443475
 30
0.0
 11
206.892
 21
56.885075
 31
0.0
  0
LINE
  5
1365
330
1E
100
AcDbEntity
  8
0
100
AcDbLine
 10
207.538
 20
56.326775
 30
0.0
 11
206.892
 21
56.885075
 31
0.0
  0
LINE
  5
1366
330
1E
100
AcDbEntity
  8
0
100
AcDbLine
 10
191.187
 20
49.732775
 30
0.0
 11
189.681
 21
49.972075
 31
0.0
  0
LINE
  5
1367
330
1E
100
AcDbEntity
  8
0
100
AcDbLine
 10
191.187
 20
48.616075
 30
0.0
 11
189.681
 21
48.376775
 31
0.0
  0
LINE
  5
1368
330
1E
100
AcDbEntity
  8
0
100
AcDbLine
 10
191.833
 20
49.174375
 30
0.0
 11
191.187
 21
48.616075
 31
0.0
  0
LINE
  5
1369
330
1E
100
AcDbEntity
  8
0
100
AcDbLine
 10
191.833
 20
49.174375
 30
0.0
 11
191.187
 21
49.732775
 31
0.0
  0
LINE
  5
136A
330
1E
100
AcDbEntity
  8
0
100
AcDbLine
 10
189.681
 20
49.972075
 30
0.0
 11
188.175
 21
49.732775
 31
0.0
  0
LINE
  5
136B
330
1E
100
AcDbEntity
  8
0
100
AcDbLine
 10
188.175
 20
49.732775
 30
0.0
 11
187.53
 21
49.174375
 31
0.0
  0
LINE
  5
136C
330
1E
100
AcDbEntity
  8
0
100
AcDbLine
 10
188.175
 20
48.616075
 30
0.0
 11
187.53
 21
49.174375
 31
0.0
  0
LINE
  5
136D
330
1E
100
AcDbEntity
  8
0
100
AcDbLine
 10
189.681
 20
48.376775
 30
0.0
 11
188.175
 21
48.616075
 31
0.0
  0
LINE
  5
136E
330
1E
100
AcDbEntity
  8
0
100
AcDbLine
 10
191.187
 20
57.443475
 30
0.0
 11
189.681
 21
57.682775
 31
0.0
  0
LINE
  5
136F
330
1E
100
AcDbEntity
  8
0
100
AcDbLine
 10
191.187
 20
56.326775
 30
0.0
 11
189.681
 21
56.087475
 31
0.0
  0
LINE
  5
1370
330
1E
100
AcDbEntity
  8
0
100
AcDbLine
 10
191.833
 20
56.885075
 30
0.0
 11
191.187
 21
56.326775
 31
0.0
  0
LINE
  5
1371
330
1E
100
AcDbEntity
  8
0
100
AcDbLine
 10
191.833
 20
56.885075
 30
0.0
 11
191.187
 21
57.443475
 31
0.0
  0
LINE
  5
1372
330
1E
100
AcDbEntity
  8
0
100
AcDbLine
 10
188.175
 20
57.443475
 30
0.0
 11
187.53
 21
56.885075
 31
0.0
  0
LINE
  5
1373
330
1E
100
AcDbEntity
  8
0
100
AcDbLine
 10
188.175
 20
56.326775
 30
0.0
 11
187.53
 21
56.885075
 31
0.0
  0
LINE
  5
1374
330
1E
100
AcDbEntity
  8
0
100
AcDbLine
 10
189.681
 20
57.682775
 30
0.0
 11
188.175
 21
57.443475
 31
0.0
  0
LINE
  5
1375
330
1E
100
AcDbEntity
  8
0
100
AcDbLine
 10
189.681
 20
56.087475
 30
0.0
 11
188.175
 21
56.326775
 31
0.0
  0
LINE
  5
1376
330
1E
100
AcDbEntity
  8
0
100
AcDbLine
 10
209.044
 20
73.104175
 30
0.0
 11
207.538
 21
72.864775
 31
0.0
  0
LINE
  5
1377
330
1E
100
AcDbEntity
  8
0
100
AcDbLine
 10
209.044
 20
71.508775
 30
0.0
 11
207.538
 21
71.748075
 31
0.0
  0
LINE
  5
1378
330
1E
100
AcDbEntity
  8
0
100
AcDbLine
 10
209.044
 20
65.393375
 30
0.0
 11
207.538
 21
65.154175
 31
0.0
  0
LINE
  5
1379
330
1E
100
AcDbEntity
  8
0
100
AcDbLine
 10
209.044
 20
63.798175
 30
0.0
 11
207.538
 21
64.037375
 31
0.0
  0
LINE
  5
137A
330
1E
100
AcDbEntity
  8
0
100
AcDbLine
 10
226.9
 20
65.154175
 30
0.0
 11
226.255
 21
64.595775
 31
0.0
  0
LINE
  5
137B
330
1E
100
AcDbEntity
  8
0
100
AcDbLine
 10
230.558
 20
64.595775
 30
0.0
 11
229.912
 21
65.154175
 31
0.0
  0
LINE
  5
137C
330
1E
100
AcDbEntity
  8
0
100
AcDbLine
 10
229.912
 20
64.037375
 30
0.0
 11
228.406
 21
63.798175
 31
0.0
  0
LINE
  5
137D
330
1E
100
AcDbEntity
  8
0
100
AcDbLine
 10
230.558
 20
64.595775
 30
0.0
 11
229.912
 21
64.037375
 31
0.0
  0
LINE
  5
137E
330
1E
100
AcDbEntity
  8
0
100
AcDbLine
 10
226.9
 20
64.037375
 30
0.0
 11
226.255
 21
64.595775
 31
0.0
  0
LINE
  5
137F
330
1E
100
AcDbEntity
  8
0
100
AcDbLine
 10
228.406
 20
63.798175
 30
0.0
 11
226.9
 21
64.037375
 31
0.0
  0
LINE
  5
1380
330
1E
100
AcDbEntity
  8
0
100
AcDbLine
 10
229.912
 20
65.154175
 30
0.0
 11
228.406
 21
65.393375
 31
0.0
  0
LINE
  5
1381
330
1E
100
AcDbEntity
  8
0
100
AcDbLine
 10
228.406
 20
65.393375
 30
0.0
 11
226.9
 21
65.154175
 31
0.0
  0
LINE
  5
1382
330
1E
100
AcDbEntity
  8
0
100
AcDbLine
 10
211.195
 20
64.595775
 30
0.0
 11
210.55
 21
65.154175
 31
0.0
  0
LINE
  5
1383
330
1E
100
AcDbEntity
  8
0
100
AcDbLine
 10
210.55
 20
64.037375
 30
0.0
 11
209.044
 21
63.798175
 31
0.0
  0
LINE
  5
1384
330
1E
100
AcDbEntity
  8
0
100
AcDbLine
 10
211.195
 20
64.595775
 30
0.0
 11
210.55
 21
64.037375
 31
0.0
  0
LINE
  5
1385
330
1E
100
AcDbEntity
  8
0
100
AcDbLine
 10
210.55
 20
65.154175
 30
0.0
 11
209.044
 21
65.393375
 31
0.0
  0
LINE
  5
1386
330
1E
100
AcDbEntity
  8
0
100
AcDbLine
 10
229.912
 20
72.864775
 30
0.0
 11
228.406
 21
73.104175
 31
0.0
  0
LINE
  5
1387
330
1E
100
AcDbEntity
  8
0
100
AcDbLine
 10
229.912
 20
71.748075
 30
0.0
 11
228.406
 21
71.508775
 31
0.0
  0
LINE
  5
1388
330
1E
100
AcDbEntity
  8
0
100
AcDbLine
 10
230.558
 20
72.306475
 30
0.0
 11
229.912
 21
71.748075
 31
0.0
  0
LINE
  5
1389
330
1E
100
AcDbEntity
  8
0
100
AcDbLine
 10
230.558
 20
72.306475
 30
0.0
 11
229.912
 21
72.864775
 31
0.0
  0
LINE
  5
138A
330
1E
100
AcDbEntity
  8
0
100
AcDbLine
 10
228.406
 20
73.104175
 30
0.0
 11
226.9
 21
72.864775
 31
0.0
  0
LINE
  5
138B
330
1E
100
AcDbEntity
  8
0
100
AcDbLine
 10
226.9
 20
72.864775
 30
0.0
 11
226.255
 21
72.306475
 31
0.0
  0
LINE
  5
138C
330
1E
100
AcDbEntity
  8
0
100
AcDbLine
 10
226.9
 20
71.748075
 30
0.0
 11
226.255
 21
72.306475
 31
0.0
  0
LINE
  5
138D
330
1E
100
AcDbEntity
  8
0
100
AcDbLine
 10
228.406
 20
71.508775
 30
0.0
 11
226.9
 21
71.748075
 31
0.0
  0
LINE
  5
138E
330
1E
100
AcDbEntity
  8
0
100
AcDbLine
 10
211.195
 20
72.306475
 30
0.0
 11
210.55
 21
71.748075
 31
0.0
  0
LINE
  5
138F
330
1E
100
AcDbEntity
  8
0
100
AcDbLine
 10
211.195
 20
72.306475
 30
0.0
 11
210.55
 21
72.864775
 31
0.0
  0
LINE
  5
1390
330
1E
100
AcDbEntity
  8
0
100
AcDbLine
 10
210.55
 20
72.864775
 30
0.0
 11
209.044
 21
73.104175
 31
0.0
  0
LINE
  5
1391
330
1E
100
AcDbEntity
  8
0
100
AcDbLine
 10
210.55
 20
71.748075
 30
0.0
 11
209.044
 21
71.508775
 31
0.0
  0
LINE
  5
1392
330
1E
100
AcDbEntity
  8
0
100
AcDbLine
 10
207.538
 20
65.154175
 30
0.0
 11
206.892
 21
64.595775
 31
0.0
  0
LINE
  5
1393
330
1E
100
AcDbEntity
  8
0
100
AcDbLine
 10
207.538
 20
64.037375
 30
0.0
 11
206.892
 21
64.595775
 31
0.0
  0
LINE
  5
1394
330
1E
100
AcDbEntity
  8
0
100
AcDbLine
 10
188.175
 20
65.154175
 30
0.0
 11
187.53
 21
64.595775
 31
0.0
  0
LINE
  5
1395
330
1E
100
AcDbEntity
  8
0
100
AcDbLine
 10
191.833
 20
64.595775
 30
0.0
 11
191.187
 21
65.154175
 31
0.0
  0
LINE
  5
1396
330
1E
100
AcDbEntity
  8
0
100
AcDbLine
 10
191.187
 20
64.037375
 30
0.0
 11
189.681
 21
63.798175
 31
0.0
  0
LINE
  5
1397
330
1E
100
AcDbEntity
  8
0
100
AcDbLine
 10
191.833
 20
64.595775
 30
0.0
 11
191.187
 21
64.037375
 31
0.0
  0
LINE
  5
1398
330
1E
100
AcDbEntity
  8
0
100
AcDbLine
 10
188.175
 20
64.037375
 30
0.0
 11
187.53
 21
64.595775
 31
0.0
  0
LINE
  5
1399
330
1E
100
AcDbEntity
  8
0
100
AcDbLine
 10
189.681
 20
63.798175
 30
0.0
 11
188.175
 21
64.037375
 31
0.0
  0
LINE
  5
139A
330
1E
100
AcDbEntity
  8
0
100
AcDbLine
 10
191.187
 20
65.154175
 30
0.0
 11
189.681
 21
65.393375
 31
0.0
  0
LINE
  5
139B
330
1E
100
AcDbEntity
  8
0
100
AcDbLine
 10
189.681
 20
65.393375
 30
0.0
 11
188.175
 21
65.154175
 31
0.0
  0
LINE
  5
139C
330
1E
100
AcDbEntity
  8
0
100
AcDbLine
 10
207.538
 20
72.864775
 30
0.0
 11
206.892
 21
72.306475
 31
0.0
  0
LINE
  5
139D
330
1E
100
AcDbEntity
  8
0
100
AcDbLine
 10
207.538
 20
71.748075
 30
0.0
 11
206.892
 21
72.306475
 31
0.0
  0
LINE
  5
139E
330
1E
100
AcDbEntity
  8
0
100
AcDbLine
 10
191.187
 20
72.864775
 30
0.0
 11
189.681
 21
73.104175
 31
0.0
  0
LINE
  5
139F
330
1E
100
AcDbEntity
  8
0
100
AcDbLine
 10
191.187
 20
71.748075
 30
0.0
 11
189.681
 21
71.508775
 31
0.0
  0
LINE
  5
13A0
330
1E
100
AcDbEntity
  8
0
100
AcDbLine
 10
191.833
 20
72.306475
 30
0.0
 11
191.187
 21
71.748075
 31
0.0
  0
LINE
  5
13A1
330
1E
100
AcDbEntity
  8
0
100
AcDbLine
 10
191.833
 20
72.306475
 30
0.0
 11
191.187
 21
72.864775
 31
0.0
  0
LINE
  5
13A2
330
1E
100
AcDbEntity
  8
0
100
AcDbLine
 10
188.175
 20
72.864775
 30
0.0
 11
187.53
 21
72.306475
 31
0.0
  0
LINE
  5
13A3
330
1E
100
AcDbEntity
  8
0
100
AcDbLine
 10
188.175
 20
71.748075
 30
0.0
 11
187.53
 21
72.306475
 31
0.0
  0
LINE
  5
13A4
330
1E
100
AcDbEntity
  8
0
100
AcDbLine
 10
189.681
 20
73.104175
 30
0.0
 11
188.175
 21
72.864775
 31
0.0
  0
LINE
  5
13A5
330
1E
100
AcDbEntity
  8
0
100
AcDbLine
 10
189.681
 20
71.508775
 30
0.0
 11
188.175
 21
71.748075
 31
0.0
  0
LINE
  5
13A6
330
1E
100
AcDbEntity
  8
0
100
AcDbLine
 10
349.9602
 20
90.445475
 30
0.0
 11
180.0
 21
90.445475
 31
0.0
  0
LINE
  5
13A7
330
1E
100
AcDbEntity
  8
0
100
AcDbLine
 10
349.3769
 20
90.783775
 30
0.0
 11
180.0
 21
90.783775
 31
0.0
  0
LINE
  5
13A8
330
1E
100
AcDbEntity
  8
0
100
AcDbLine
 10
349.3769
 20
90.783775
 30
0.0
 11
180.0
 21
90.783775
 31
0.0
  0
LINE
  5
13A9
330
1E
100
AcDbEntity
  8
0
100
AcDbLine
 10
349.9602
 20
90.445475
 30
0.0
 11
180.0
 21
90.445475
 31
0.0
  0
LINE
  5
13AA
330
1E
100
AcDbEntity
  8
0
100
AcDbLine
 10
357.16016
 20
89.419575
 30
0.0
 11
355.60351
 21
89.996775
 31
0.0
  0
LINE
  5
13AB
330
1E
100
AcDbEntity
  8
0
100
AcDbLine
 10
356.27092
 20
89.647775
 30
0.0
 11
354.26295
 21
90.073175
 31
0.0
  0
LINE
  5
13AC
330
1E
100
AcDbEntity
  8
0
100
AcDbLine
 10
359.741833
 20
87.541975
 30
0.0
 11
358.99602
 21
88.318375
 31
0.0
  0
LINE
  5
13AD
330
1E
100
AcDbEntity
  8
0
100
AcDbLine
 10
359.741833
 20
87.541975
 30
0.0
 11
358.99602
 21
88.318375
 31
0.0
  0
LINE
  5
13AE
330
1E
100
AcDbEntity
  8
0
100
AcDbLine
 10
360.0
 20
86.723075
 30
0.0
 11
359.741833
 21
87.541975
 31
0.0
  0
LINE
  5
13AF
330
1E
100
AcDbEntity
  8
0
100
AcDbLine
 10
358.99602
 20
88.318375
 30
0.0
 11
357.84861
 21
89.062875
 31
0.0
  0
LINE
  5
13B0
330
1E
100
AcDbEntity
  8
0
100
AcDbLine
 10
357.84861
 20
89.062875
 30
0.0
 11
356.27092
 21
89.647775
 31
0.0
  0
LINE
  5
13B1
330
1E
100
AcDbEntity
  8
0
100
AcDbLine
 10
357.84861
 20
89.062875
 30
0.0
 11
357.16016
 21
89.419575
 31
0.0
  0
LINE
  5
13B2
330
1E
100
AcDbEntity
  8
0
100
AcDbLine
 10
354.26295
 20
90.073175
 30
0.0
 11
352.16892
 21
90.349675
 31
0.0
  0
LINE
  5
13B3
330
1E
100
AcDbEntity
  8
0
100
AcDbLine
 10
353.62231
 20
90.416475
 30
0.0
 11
351.55621
 21
90.689375
 31
0.0
  0
LINE
  5
13B4
330
1E
100
AcDbEntity
  8
0
100
AcDbLine
 10
355.60351
 20
89.996775
 30
0.0
 11
353.62231
 21
90.416475
 31
0.0
  0
LINE
  5
13B5
330
1E
100
AcDbEntity
  8
0
100
AcDbLine
 10
351.55621
 20
90.689375
 30
0.0
 11
349.3769
 21
90.783775
 31
0.0
  0
LINE
  5
13B6
330
1E
100
AcDbEntity
  8
0
100
AcDbLine
 10
352.16892
 20
90.349675
 30
0.0
 11
349.9602
 21
90.445475
 31
0.0
  0
LINE
  5
13B7
330
1E
100
AcDbEntity
  8
0
100
AcDbLine
 10
187.788
 20
136.936075
 30
0.0
 11
185.456
 21
138.699075
 31
0.0
  0
LINE
  5
13B8
330
1E
100
AcDbEntity
  8
0
100
AcDbLine
 10
219.947
 20
132.607075
 30
0.0
 11
219.774
 21
137.665075
 31
0.0
  0
LINE
  5
13B9
330
1E
100
AcDbEntity
  8
0
100
AcDbLine
 10
191.0
 20
115.018075
 30
0.0
 11
191.0
 21
110.239075
 31
0.0
  0
LINE
  5
13BA
330
1E
100
AcDbEntity
  8
0
100
AcDbLine
 10
191.0
 20
110.239075
 30
0.0
 11
191.0
 21
115.018075
 31
0.0
  0
LINE
  5
13BB
330
1E
100
AcDbEntity
  8
0
100
AcDbLine
 10
219.413
 20
114.176075
 30
0.0
 11
218.979
 21
108.434075
 31
0.0
  0
LINE
  5
13BC
330
1E
100
AcDbEntity
  8
0
100
AcDbLine
 10
209.718
 20
91.399675
 30
0.0
 11
207.965
 21
91.076075
 31
0.0
  0
LINE
  5
13BD
330
1E
100
AcDbEntity
  8
0
100
AcDbLine
 10
217.442
 20
98.034275
 30
0.0
 11
216.94
 21
96.789775
 31
0.0
  0
LINE
  5
13BE
330
1E
100
AcDbEntity
  8
0
100
AcDbLine
 10
215.799
 20
94.948875
 30
0.0
 11
215.071
 21
94.125075
 31
0.0
  0
LINE
  5
13BF
330
1E
100
AcDbEntity
  8
0
100
AcDbLine
 10
216.43
 20
95.899575
 30
0.0
 11
215.799
 21
94.948875
 31
0.0
  0
LINE
  5
13C0
330
1E
100
AcDbEntity
  8
0
100
AcDbLine
 10
216.94
 20
96.789775
 30
0.0
 11
216.43
 21
95.899575
 31
0.0
  0
LINE
  5
13C1
330
1E
100
AcDbEntity
  8
0
100
AcDbLine
 10
212.406
 20
92.255775
 30
0.0
 11
211.162
 21
91.754275
 31
0.0
  0
LINE
  5
13C2
330
1E
100
AcDbEntity
  8
0
100
AcDbLine
 10
214.247
 20
93.397275
 30
0.0
 11
213.297
 21
92.765975
 31
0.0
  0
LINE
  5
13C3
330
1E
100
AcDbEntity
  8
0
100
AcDbLine
 10
215.071
 20
94.125075
 30
0.0
 11
214.247
 21
93.397275
 31
0.0
  0
LINE
  5
13C4
330
1E
100
AcDbEntity
  8
0
100
AcDbLine
 10
213.297
 20
92.765975
 30
0.0
 11
212.406
 21
92.255775
 31
0.0
  0
LINE
  5
13C5
330
1E
100
AcDbEntity
  8
0
100
AcDbLine
 10
211.162
 20
91.754275
 30
0.0
 11
209.718
 21
91.399675
 31
0.0
  0
LINE
  5
13C6
330
1E
100
AcDbEntity
  8
0
100
AcDbLine
 10
218.506
 20
104.472075
 30
0.0
 11
218.12
 21
101.230575
 31
0.0
  0
LINE
  5
13C7
330
1E
100
AcDbEntity
  8
0
100
AcDbLine
 10
218.12
 20
101.230575
 30
0.0
 11
217.796
 21
99.477675
 31
0.0
  0
LINE
  5
13C8
330
1E
100
AcDbEntity
  8
0
100
AcDbLine
 10
217.796
 20
99.477675
 30
0.0
 11
217.442
 21
98.034275
 31
0.0
  0
LINE
  5
13C9
330
1E
100
AcDbEntity
  8
0
100
AcDbLine
 10
218.979
 20
108.434075
 30
0.0
 11
218.506
 21
104.472075
 31
0.0
  0
LINE
  5
13CA
330
1E
100
AcDbEntity
  8
0
100
AcDbLine
 10
191.058
 20
100.037575
 30
0.0
 11
191.058
 21
90.783775
 31
0.0
  0
LINE
  5
13CB
330
1E
100
AcDbEntity
  8
0
100
AcDbLine
 10
191.058
 20
90.783775
 30
0.0
 11
191.058
 21
100.037575
 31
0.0
  0
LINE
  5
13CC
330
1E
100
AcDbEntity
  8
0
100
AcDbLine
 10
207.965
 20
91.076075
 30
0.0
 11
205.511375809376
 21
90.783775
 31
0.0
  0
LINE
  5
13CD
330
1E
100
AcDbEntity
  8
0
100
AcDbLine
 10
190.534057065217
 20
90.783775
 30
0.0
 11
190.394
 21
91.198175
 31
0.0
  0
LINE
  5
13CE
330
1E
100
AcDbEntity
  8
0
100
AcDbLine
 10
189.377412076703
 20
90.783775
 30
0.0
 11
187.192
 21
91.480775
 31
0.0
  0
LINE
  5
13CF
330
1E
100
AcDbEntity
  8
0
100
AcDbLine
 10
189.918133486766
 20
90.783775
 30
0.0
 11
187.018
 21
91.720975
 31
0.0
  0
LINE
  5
13D0
330
1E
100
AcDbEntity
  8
0
100
AcDbLine
 10
187.608
 20
93.235675
 30
0.0
 11
185.352
 21
93.964675
 31
0.0
  0
LINE
  5
13D1
330
1E
100
AcDbEntity
  8
0
100
AcDbLine
 10
187.192
 20
91.480775
 30
0.0
 11
183.712
 21
92.069075
 31
0.0
  0
LINE
  5
13D2
330
1E
100
AcDbEntity
  8
0
100
AcDbLine
 10
189.333
 20
92.282375
 30
0.0
 11
187.608
 21
93.235675
 31
0.0
  0
LINE
  5
13D3
330
1E
100
AcDbEntity
  8
0
100
AcDbLine
 10
190.394
 20
91.198175
 30
0.0
 11
189.333
 21
92.282375
 31
0.0
  0
LINE
  5
13D4
330
1E
100
AcDbEntity
  8
0
100
AcDbLine
 10
182.787
 20
94.413275
 30
0.0
 11
180.0
 21
94.581575
 31
0.0
  0
LINE
  5
13D5
330
1E
100
AcDbEntity
  8
0
100
AcDbLine
 10
185.352
 20
93.964675
 30
0.0
 11
182.787
 21
94.413275
 31
0.0
  0
LINE
  5
13D6
330
1E
100
AcDbEntity
  8
0
100
AcDbLine
 10
183.654
 20
92.309275
 30
0.0
 11
180.0
 21
92.529875
 31
0.0
  0
LINE
  5
13D7
330
1E
100
AcDbEntity
  8
0
100
AcDbLine
 10
183.712
 20
92.069075
 30
0.0
 11
180.0
 21
92.289675
 31
0.0
  0
LINE
  5
13D8
330
1E
100
AcDbEntity
  8
0
100
AcDbLine
 10
187.018
 20
91.720975
 30
0.0
 11
183.654
 21
92.309275
 31
0.0
  0
LINE
  5
13D9
330
1E
100
AcDbEntity
  8
0
100
AcDbLine
 10
191.0
 20
104.996075
 30
0.0
 11
191.0
 21
100.211924748744
 31
0.0
  0
LINE
  5
13DA
330
1E
100
AcDbEntity
  8
0
100
AcDbLine
 10
185.485
 20
104.094075
 30
0.0
 11
182.831
 21
104.542075
 31
0.0
  0
LINE
  5
13DB
330
1E
100
AcDbEntity
  8
0
100
AcDbLine
 10
191.0
 20
100.211924748744
 30
0.0
 11
191.0
 21
104.996075
 31
0.0
  0
LINE
  5
13DC
330
1E
100
AcDbEntity
  8
0
100
AcDbLine
 10
187.829
 20
103.346075
 30
0.0
 11
185.485
 21
104.094075
 31
0.0
  0
LINE
  5
13DD
330
1E
100
AcDbEntity
  8
0
100
AcDbLine
 10
191.058
 20
100.037575
 30
0.0
 11
190.66
 21
101.233975
 31
0.0
  0
LINE
  5
13DE
330
1E
100
AcDbEntity
  8
0
100
AcDbLine
 10
190.66
 20
101.233975
 30
0.0
 11
189.598
 21
102.355075
 31
0.0
  0
LINE
  5
13DF
330
1E
100
AcDbEntity
  8
0
100
AcDbLine
 10
189.598
 20
102.355075
 30
0.0
 11
187.829
 21
103.346075
 31
0.0
  0
LINE
  5
13E0
330
1E
100
AcDbEntity
  8
0
100
AcDbLine
 10
191.0
 20
104.996075
 30
0.0
 11
191.0
 21
110.239075
 31
0.0
  0
LINE
  5
13E1
330
1E
100
AcDbEntity
  8
0
100
AcDbLine
 10
191.0
 20
110.239075
 30
0.0
 11
191.0
 21
104.996075
 31
0.0
  0
LINE
  5
13E2
330
1E
100
AcDbEntity
  8
0
100
AcDbLine
 10
182.831
 20
104.542075
 30
0.0
 11
180.0
 21
104.711075
 31
0.0
  0
LINE
  5
13E3
330
1E
100
AcDbEntity
  8
0
100
AcDbLine
 10
219.947
 20
125.785075
 30
0.0
 11
219.774
 21
120.727075
 31
0.0
  0
LINE
  5
13E4
330
1E
100
AcDbEntity
  8
0
100
AcDbLine
 10
219.774
 20
120.727075
 30
0.0
 11
219.413
 21
114.176075
 31
0.0
  0
LINE
  5
13E5
330
1E
100
AcDbEntity
  8
0
100
AcDbLine
 10
220.0
 20
129.196075
 30
0.0
 11
219.947
 21
132.607075
 31
0.0
  0
LINE
  5
13E6
330
1E
100
AcDbEntity
  8
0
100
AcDbLine
 10
220.0
 20
129.196075
 30
0.0
 11
219.947
 21
125.785075
 31
0.0
  0
LINE
  5
13E7
330
1E
100
AcDbEntity
  8
0
100
AcDbLine
 10
191.0
 20
122.688075
 30
0.0
 11
191.0
 21
125.470075
 31
0.0
  0
LINE
  5
13E8
330
1E
100
AcDbEntity
  8
0
100
AcDbLine
 10
191.0
 20
125.470075
 30
0.0
 11
191.0
 21
122.688075
 31
0.0
  0
LINE
  5
13E9
330
1E
100
AcDbEntity
  8
0
100
AcDbLine
 10
191.0
 20
115.018075
 30
0.0
 11
191.0
 21
119.192075
 31
0.0
  0
LINE
  5
13EA
330
1E
100
AcDbEntity
  8
0
100
AcDbLine
 10
191.0
 20
119.192075
 30
0.0
 11
191.0
 21
115.018075
 31
0.0
  0
LINE
  5
13EB
330
1E
100
AcDbEntity
  8
0
100
AcDbLine
 10
191.0
 20
119.192075
 30
0.0
 11
191.0
 21
122.688075
 31
0.0
  0
LINE
  5
13EC
330
1E
100
AcDbEntity
  8
0
100
AcDbLine
 10
191.0
 20
122.688075
 30
0.0
 11
191.0
 21
119.192075
 31
0.0
  0
LINE
  5
13ED
330
1E
100
AcDbEntity
  8
0
100
AcDbLine
 10
191.0
 20
129.132075
 30
0.0
 11
190.604
 21
131.954075
 31
0.0
  0
LINE
  5
13EE
330
1E
100
AcDbEntity
  8
0
100
AcDbLine
 10
191.0
 20
127.493075
 30
0.0
 11
191.0
 21
128.720075
 31
0.0
  0
LINE
  5
13EF
330
1E
100
AcDbEntity
  8
0
100
AcDbLine
 10
191.0
 20
128.720075
 30
0.0
 11
191.0
 21
127.493075
 31
0.0
  0
LINE
  5
13F0
330
1E
100
AcDbEntity
  8
0
100
AcDbLine
 10
191.0
 20
127.493075
 30
0.0
 11
191.0
 21
125.470075
 31
0.0
  0
LINE
  5
13F1
330
1E
100
AcDbEntity
  8
0
100
AcDbLine
 10
191.0
 20
125.470075
 30
0.0
 11
191.0
 21
127.493075
 31
0.0
  0
LINE
  5
13F2
330
1E
100
AcDbEntity
  8
0
100
AcDbLine
 10
191.0
 20
129.132075
 30
0.0
 11
191.0
 21
128.720075
 31
0.0
  0
LINE
  5
13F3
330
1E
100
AcDbEntity
  8
0
100
AcDbLine
 10
191.0
 20
129.132075
 30
0.0
 11
190.970969395018
 21
128.925195284698
 31
0.0
  0
LINE
  5
13F4
330
1E
100
AcDbEntity
  8
0
100
AcDbLine
 10
191.0
 20
128.720075
 30
0.0
 11
191.0
 21
129.132075
 31
0.0
  0
LINE
  5
13F5
330
1E
100
AcDbEntity
  8
0
100
AcDbLine
 10
190.604
 20
131.954075
 30
0.0
 11
189.548
 21
134.599075
 31
0.0
  0
LINE
  5
13F6
330
1E
100
AcDbEntity
  8
0
100
AcDbLine
 10
189.548
 20
134.599075
 30
0.0
 11
187.788
 21
136.936075
 31
0.0
  0
LINE
  5
13F7
330
1E
100
AcDbEntity
  8
0
100
AcDbLine
 10
215.799
 20
163.443075
 30
0.0
 11
215.071
 21
164.267075
 31
0.0
  0
LINE
  5
13F8
330
1E
100
AcDbEntity
  8
0
100
AcDbLine
 10
218.979
 20
149.958075
 30
0.0
 11
218.506
 21
153.920075
 31
0.0
  0
LINE
  5
13F9
330
1E
100
AcDbEntity
  8
0
100
AcDbLine
 10
219.774
 20
137.665075
 30
0.0
 11
219.413
 21
144.216075
 31
0.0
  0
LINE
  5
13FA
330
1E
100
AcDbEntity
  8
0
100
AcDbLine
 10
219.413
 20
144.216075
 30
0.0
 11
218.979
 21
149.958075
 31
0.0
  0
LINE
  5
13FB
330
1E
100
AcDbEntity
  8
0
100
AcDbLine
 10
218.12
 20
157.161075
 30
0.0
 11
217.796
 21
158.914075
 31
0.0
  0
LINE
  5
13FC
330
1E
100
AcDbEntity
  8
0
100
AcDbLine
 10
218.506
 20
153.920075
 30
0.0
 11
218.12
 21
157.161075
 31
0.0
  0
LINE
  5
13FD
330
1E
100
AcDbEntity
  8
0
100
AcDbLine
 10
217.442
 20
160.358075
 30
0.0
 11
216.94
 21
161.602075
 31
0.0
  0
LINE
  5
13FE
330
1E
100
AcDbEntity
  8
0
100
AcDbLine
 10
217.796
 20
158.914075
 30
0.0
 11
217.442
 21
160.358075
 31
0.0
  0
LINE
  5
13FF
330
1E
100
AcDbEntity
  8
0
100
AcDbLine
 10
216.43
 20
162.492075
 30
0.0
 11
215.799
 21
163.443075
 31
0.0
  0
LINE
  5
1400
330
1E
100
AcDbEntity
  8
0
100
AcDbLine
 10
216.94
 20
161.602075
 30
0.0
 11
216.43
 21
162.492075
 31
0.0
  0
LINE
  5
1401
330
1E
100
AcDbEntity
  8
0
100
AcDbLine
 10
185.456
 20
138.699075
 30
0.0
 11
182.816
 21
139.758075
 31
0.0
  0
LINE
  5
1402
330
1E
100
AcDbEntity
  8
0
100
AcDbLine
 10
182.816
 20
139.758075
 30
0.0
 11
180.0
 21
140.154075
 31
0.0
  0
LINE
  5
1403
330
1E
100
AcDbEntity
  8
0
100
AcDbLine
 10
209.718
 20
166.992075
 30
0.0
 11
207.965
 21
167.316075
 31
0.0
  0
LINE
  5
1404
330
1E
100
AcDbEntity
  8
0
100
AcDbLine
 10
212.406
 20
166.136075
 30
0.0
 11
211.162
 21
166.638075
 31
0.0
  0
LINE
  5
1405
330
1E
100
AcDbEntity
  8
0
100
AcDbLine
 10
213.297
 20
165.626075
 30
0.0
 11
212.406
 21
166.136075
 31
0.0
  0
LINE
  5
1406
330
1E
100
AcDbEntity
  8
0
100
AcDbLine
 10
214.247
 20
164.995075
 30
0.0
 11
213.297
 21
165.626075
 31
0.0
  0
LINE
  5
1407
330
1E
100
AcDbEntity
  8
0
100
AcDbLine
 10
215.071
 20
164.267075
 30
0.0
 11
214.247
 21
164.995075
 31
0.0
  0
LINE
  5
1408
330
1E
100
AcDbEntity
  8
0
100
AcDbLine
 10
211.162
 20
166.638075
 30
0.0
 11
209.718
 21
166.992075
 31
0.0
  0
LINE
  5
1409
330
1E
100
AcDbEntity
  8
0
100
AcDbLine
 10
195.02
 20
168.609075
 30
0.0
 11
188.469
 21
168.970075
 31
0.0
  0
LINE
  5
140A
330
1E
100
AcDbEntity
  8
0
100
AcDbLine
 10
204.724
 20
167.702075
 30
0.0
 11
200.762
 21
168.175075
 31
0.0
  0
LINE
  5
140B
330
1E
100
AcDbEntity
  8
0
100
AcDbLine
 10
207.965
 20
167.316075
 30
0.0
 11
204.724
 21
167.702075
 31
0.0
  0
LINE
  5
140C
330
1E
100
AcDbEntity
  8
0
100
AcDbLine
 10
200.762
 20
168.175075
 30
0.0
 11
195.02
 21
168.609075
 31
0.0
  0
LINE
  5
140D
330
1E
100
AcDbEntity
  8
0
100
AcDbLine
 10
188.469
 20
168.970075
 30
0.0
 11
183.411
 21
169.143075
 31
0.0
  0
LINE
  5
140E
330
1E
100
AcDbEntity
  8
0
100
AcDbLine
 10
183.411
 20
169.143075
 30
0.0
 11
180.0
 21
169.196075
 31
0.0
  0
ENDSEC
  0
SECTION
  2
OBJECTS
  0
DICTIONARY
  5
C
330
0
100
AcDbDictionary
281
     1
  3
ACAD_GROUP
350
D
  3
ACAD_LAYOUT
350
19
  3
ACAD_MLEADERSTYLE
350
1437
  3
ACAD_MLINESTYLE
350
16
  3
ACAD_PLOTSETTINGS
350
18
  3
ACAD_PLOTSTYLENAME
350
E
  3
ACAD_SCALELIST
350
1413
  3
AcDbVariableDictionary
350
1410
  3
DWGPROPS
350
143A
  0
DICTIONARY
  5
D
102
{ACAD_REACTORS
330
C
102
}
330
C
100
AcDbDictionary
281
     1
  0
DICTIONARY
  5
19
102
{ACAD_REACTORS
330
C
102
}
330
C
100
AcDbDictionary
281
     1
  3
Layout1
350
1D
  3
Model
350
21
  0
DICTIONARY
  5
1437
102
{ACAD_REACTORS
330
C
102
}
330
C
100
AcDbDictionary
281
     1
  0
DICTIONARY
  5
16
102
{ACAD_REACTORS
330
C
102
}
330
C
100
AcDbDictionary
281
     1
  3
Standard
350
17
  0
DICTIONARY
  5
18
102
{ACAD_REACTORS
330
C
102
}
330
C
100
AcDbDictionary
281
     1
  0
ACDBDICTIONARYWDFLT
  5
E
102
{ACAD_REACTORS
330
C
102
}
330
C
100
AcDbDictionary
281
     1
  3
Normal
350
F
100
AcDbDictionaryWithDefault
340
F
  0
DICTIONARY
  5
1413
102
{ACAD_REACTORS
330
C
102
}
330
C
100
AcDbDictionary
281
     1
  3
A0
350
1414
  3
A1
350
1415
  3
A2
350
1416
  3
A3
350
1417
  3
A4
350
1418
  3
A5
350
1419
  3
A6
350
141A
  3
A7
350
141B
  3
A8
350
141C
  3
A9
350
141D
  3
B0
350
141E
  3
B1
350
141F
  3
B2
350
1420
  3
B3
350
1421
  3
B4
350
1422
  3
B5
350
1423
  3
B6
350
1424
  3
B7
350
1425
  3
B8
350
1426
  3
B9
350
1427
  3
C0
350
1428
  3
C1
350
1429
  3
C2
350
142A
  3
C3
350
142B
  3
C4
350
142C
  3
C5
350
142D
  3
C6
350
142E
  3
C7
350
142F
  3
C8
350
1430
  3
C9
350
1431
  3
D0
350
1432
  3
D1
350
1433
  3
D2
350
1434
  0
DICTIONARY
  5
1410
102
{ACAD_REACTORS
330
C
102
}
330
C
100
AcDbDictionary
281
     1
  3
CANNOSCALE
350
1438
  3
DIMASSOC
350
1411
  0
XRECORD
  5
143A
102
{ACAD_REACTORS
330
C
102
}
330
C
100
AcDbXrecord
280
     1
  1
DWGPROPS COOKIE
  2

  3

  4

  6

  7

  8
MARTIN
  9

300
=
301
=
302
=
303
=
304
=
305
=
306
=
307
=
308
=
309
=
 40
0.0
 41
2455001.749771412
 42
2456213.5040086
  1

 90
        0
  0
LAYOUT
  5
1D
102
{ACAD_REACTORS
330
19
102
}
330
19
100
AcDbPlotSettings
  1

  2
hp deskjet 980c series
  4

  6

 40
0.0
 41
0.0
 42
0.0
 43
0.0
 44
0.0
 45
0.0
 46
0.0
 47
0.0
 48
0.0
 49
0.0
140
0.0
141
0.0
142
1.0
143
1.0
 70
   688
 72
     0
 73
     0
 74
     5
  7

 75
    16
147
1.0
148
0.0
149
0.0
100
AcDbLayout
  1
Layout1
 70
     1
 71
     1
 10
0.0
 20
0.0
 11
12.0
 21
9.0
 12
0.0
 22
0.0
 32
0.0
 14
1.000000000000E+20
 24
1.000000000000E+20
 34
1.000000000000E+20
 15
-1.000000000000E+20
 25
-1.000000000000E+20
 35
-1.000000000000E+20
146
0.0
 13
0.0
 23
0.0
 33
0.0
 16
1.0
 26
0.0
 36
0.0
 17
0.0
 27
1.0
 37
0.0
 76
     0
330
1A
  0
LAYOUT
  5
21
102
{ACAD_REACTORS
330
19
102
}
330
19
100
AcDbPlotSettings
  1

  2
hp deskjet 980c series
  4

  6

 40
0.0
 41
0.0
 42
0.0
 43
0.0
 44
0.0
 45
0.0
 46
0.0
 47
0.0
 48
0.0
 49
0.0
140
0.0
141
0.0
142
1.0
143
1.0
 70
  1712
 72
     0
 73
     0
 74
     0
  7

 75
     0
147
1.0
148
0.0
149
0.0
100
AcDbLayout
  1
Model
 70
     1
 71
     0
 10
0.0
 20
0.0
 11
12.0
 21
9.0
 12
0.0
 22
0.0
 32
0.0
 14
0.0
 24
0.0
 34
0.0
 15
0.0
 25
0.0
 35
0.0
146
0.0
 13
0.0
 23
0.0
 33
0.0
 16
1.0
 26
0.0
 36
0.0
 17
0.0
 27
1.0
 37
0.0
 76
     0
330
1E
331
1412
  0
MLINESTYLE
  5
17
102
{ACAD_REACTORS
330
16
102
}
330
16
100
AcDbMlineStyle
  2
STANDARD
 70
     0
  3

 62
   256
 51
90.0
 52
90.0
 71
     2
 49
0.5
 62
   256
  6
BYLAYER
 49
-0.5
 62
   256
  6
BYLAYER
  0
ACDBPLACEHOLDER
  5
F
102
{ACAD_REACTORS
330
E
102
}
330
E
  0
SCALE
  5
1414
102
{ACAD_REACTORS
330
1413
102
}
330
1413
100
AcDbScale
 70
     0
300
1:1
140
1.0
141
1.0
290
     1
  0
SCALE
  5
1415
102
{ACAD_REACTORS
330
1413
102
}
330
1413
100
AcDbScale
 70
     0
300
1:2
140
1.0
141
2.0
290
     0
  0
SCALE
  5
1416
102
{ACAD_REACTORS
330
1413
102
}
330
1413
100
AcDbScale
 70
     0
300
1:4
140
1.0
141
4.0
290
     0
  0
SCALE
  5
1417
102
{ACAD_REACTORS
330
1413
102
}
330
1413
100
AcDbScale
 70
     0
300
1:5
140
1.0
141
5.0
290
     0
  0
SCALE
  5
1418
102
{ACAD_REACTORS
330
1413
102
}
330
1413
100
AcDbScale
 70
     0
300
1:8
140
1.0
141
8.0
290
     0
  0
SCALE
  5
1419
102
{ACAD_REACTORS
330
1413
102
}
330
1413
100
AcDbScale
 70
     0
300
1:10
140
1.0
141
10.0
290
     0
  0
SCALE
  5
141A
102
{ACAD_REACTORS
330
1413
102
}
330
1413
100
AcDbScale
 70
     0
300
1:16
140
1.0
141
16.0
290
     0
  0
SCALE
  5
141B
102
{ACAD_REACTORS
330
1413
102
}
330
1413
100
AcDbScale
 70
     0
300
1:20
140
1.0
141
20.0
290
     0
  0
SCALE
  5
141C
102
{ACAD_REACTORS
330
1413
102
}
330
1413
100
AcDbScale
 70
     0
300
1:30
140
1.0
141
30.0
290
     0
  0
SCALE
  5
141D
102
{ACAD_REACTORS
330
1413
102
}
330
1413
100
AcDbScale
 70
     0
300
1:40
140
1.0
141
40.0
290
     0
  0
SCALE
  5
141E
102
{ACAD_REACTORS
330
1413
102
}
330
1413
100
AcDbScale
 70
     0
300
1:50
140
1.0
141
50.0
290
     0
  0
SCALE
  5
141F
102
{ACAD_REACTORS
330
1413
102
}
330
1413
100
AcDbScale
 70
     0
300
1:100
140
1.0
141
100.0
290
     0
  0
SCALE
  5
1420
102
{ACAD_REACTORS
330
1413
102
}
330
1413
100
AcDbScale
 70
     0
300
2:1
140
2.0
141
1.0
290
     0
  0
SCALE
  5
1421
102
{ACAD_REACTORS
330
1413
102
}
330
1413
100
AcDbScale
 70
     0
300
4:1
140
4.0
141
1.0
290
     0
  0
SCALE
  5
1422
102
{ACAD_REACTORS
330
1413
102
}
330
1413
100
AcDbScale
 70
     0
300
8:1
140
8.0
141
1.0
290
     0
  0
SCALE
  5
1423
102
{ACAD_REACTORS
330
1413
102
}
330
1413
100
AcDbScale
 70
     0
300
10:1
140
10.0
141
1.0
290
     0
  0
SCALE
  5
1424
102
{ACAD_REACTORS
330
1413
102
}
330
1413
100
AcDbScale
 70
     0
300
100:1
140
100.0
141
1.0
290
     0
  0
SCALE
  5
1425
102
{ACAD_REACTORS
330
1413
102
}
330
1413
100
AcDbScale
 70
     0
300
1/128" = 1'-0"
140
0.0078125
141
12.0
290
     0
  0
SCALE
  5
1426
102
{ACAD_REACTORS
330
1413
102
}
330
1413
100
AcDbScale
 70
     0
300
1/64" = 1'-0"
140
0.015625
141
12.0
290
     0
  0
SCALE
  5
1427
102
{ACAD_REACTORS
330
1413
102
}
330
1413
100
AcDbScale
 70
     0
300
1/32" = 1'-0"
140
0.03125
141
12.0
290
     0
  0
SCALE
  5
1428
102
{ACAD_REACTORS
330
1413
102
}
330
1413
100
AcDbScale
 70
     0
300
1/16" = 1'-0"
140
0.0625
141
12.0
290
     0
  0
SCALE
  5
1429
102
{ACAD_REACTORS
330
1413
102
}
330
1413
100
AcDbScale
 70
     0
300
3/32" = 1'-0"
140
0.09375
141
12.0
290
     0
  0
SCALE
  5
142A
102
{ACAD_REACTORS
330
1413
102
}
330
1413
100
AcDbScale
 70
     0
300
1/8" = 1'-0"
140
0.125
141
12.0
290
     0
  0
SCALE
  5
142B
102
{ACAD_REACTORS
330
1413
102
}
330
1413
100
AcDbScale
 70
     0
300
3/16" = 1'-0"
140
0.1875
141
12.0
290
     0
  0
SCALE
  5
142C
102
{ACAD_REACTORS
330
1413
102
}
330
1413
100
AcDbScale
 70
     0
300
1/4" = 1'-0"
140
0.25
141
12.0
290
     0
  0
SCALE
  5
142D
102
{ACAD_REACTORS
330
1413
102
}
330
1413
100
AcDbScale
 70
     0
300
3/8" = 1'-0"
140
0.375
141
12.0
290
     0
  0
SCALE
  5
142E
102
{ACAD_REACTORS
330
1413
102
}
330
1413
100
AcDbScale
 70
     0
300
1/2" = 1'-0"
140
0.5
141
12.0
290
     0
  0
SCALE
  5
142F
102
{ACAD_REACTORS
330
1413
102
}
330
1413
100
AcDbScale
 70
     0
300
3/4" = 1'-0"
140
0.75
141
12.0
290
     0
  0
SCALE
  5
1430
102
{ACAD_REACTORS
330
1413
102
}
330
1413
100
AcDbScale
 70
     0
300
1" = 1'-0"
140
1.0
141
12.0
290
     0
  0
SCALE
  5
1431
102
{ACAD_REACTORS
330
1413
102
}
330
1413
100
AcDbScale
 70
     0
300
1-1/2" = 1'-0"
140
1.5
141
12.0
290
     0
  0
SCALE
  5
1432
102
{ACAD_REACTORS
330
1413
102
}
330
1413
100
AcDbScale
 70
     0
300
3" = 1'-0"
140
3.0
141
12.0
290
     0
  0
SCALE
  5
1433
102
{ACAD_REACTORS
330
1413
102
}
330
1413
100
AcDbScale
 70
     0
300
6" = 1'-0"
140
6.0
141
12.0
290
     0
  0
SCALE
  5
1434
102
{ACAD_REACTORS
330
1413
102
}
330
1413
100
AcDbScale
 70
     0
300
1'-0" = 1'-0"
140
12.0
141
12.0
290
     0
  0
DICTIONARYVAR
  5
1438
102
{ACAD_REACTORS
330
1410
102
}
330
1410
100
DictionaryVariables
280
     0
  1
1:1
  0
DICTIONARYVAR
  5
1411
102
{ACAD_REACTORS
330
1410
102
}
330
1410
100
DictionaryVariables
280
     0
  1
1
  0
ENDSEC
  0
SECTION
  2
THUMBNAILIMAGE
 90
    16364
310
28000000B40000005500000001000800000000000000000000000000000000000000000000000000FFFFFF000000FF0000FFFF0000FF0000FFFF0000FF000000FF00FF000000000080808000C0C0C0000000FF007F7FFF000000A5005252A50000007F003F3F7F0000004C0026264C000000260013132600003FFF007F9FFF
310
000029A5005267A500001F7F003F4F7F0000134C00262F4C000009260013172600007FFF007FBFFF000052A500527CA500003F7F003F5F7F0000264C0026394C0000132600131C260000BFFF007FDFFF00007CA5005291A500005F7F003F6F7F0000394C0026424C00001C26001321260000FFFF007FFFFF0000A5A50052A5
310
A500007F7F003F7F7F00004C4C00264C4C00002626001326260000FFBF007FFFDF0000A57C0052A59100007F5F003F7F6F00004C3900264C420000261C001326210000FF7F007FFFBF0000A5520052A57C00007F3F003F7F5F00004C2600264C39000026130013261C0000FF3F007FFF9F0000A5290052A56700007F1F003F
310
7F4F00004C1300264C2F00002609001326170000FF00007FFF7F0000A5000052A55200007F00003F7F3F00004C0000264C260000260000132613003FFF00009FFF7F0029A5000067A552001F7F00004F7F3F00134C00002F4C260009260000172613007FFF0000BFFF7F0052A500007CA552003F7F00005F7F3F00264C0000
310
394C2600132600001C261300BFFF0000DFFF7F007CA5000091A552005F7F00006F7F3F00394C0000424C26001C26000021261300FFFF0000FFFF7F00A5A50000A5A552007F7F00007F7F3F004C4C00004C4C26002626000026261300FFBF0000FFDF7F00A57C0000A59152007F5F00007F6F3F004C3900004C422600261C00
310
0026211300FF7F0000FFBF7F00A5520000A57C52007F3F00007F5F3F004C2600004C39260026130000261C1300FF3F0000FF9F7F00A5290000A56752007F1F00007F4F3F004C1300004C2F26002609000026171300FF000000FF7F7F00A5000000A55252007F0000007F3F3F004C0000004C2626002600000026131300FF00
310
3F00FF7F9F00A5002900A55267007F001F007F3F4F004C0013004C262F002600090026131700FF007F00FF7FBF00A5005200A5527C007F003F007F3F5F004C0026004C2639002600130026131C00FF00BF00FF7FDF00A5007C00A55291007F005F007F3F6F004C0039004C26420026001C0026132100FF00FF00FF7FFF00A5
310
00A500A552A5007F007F007F3F7F004C004C004C264C002600260026132600BF00FF00DF7FFF007C00A5009152A5005F007F006F3F7F0039004C0042264C001C002600211326007F00FF00BF7FFF005200A5007C52A5003F007F005F3F7F0026004C0039264C00130026001C1326003F00FF009F7FFF002900A5006752A500
310
1F007F004F3F7F0013004C002F264C000900260017132600000000002D2D2D005B5B5B0089898900B7B7B700B3B3B30000000000000000000000000000000000000000000000000000000000000000000000000000000000000000000000000000000000000000000000000000000000000000000000000000000000000000
310
00000000000000000000000000000000000000000000000000000000000000000000000000000000000000000000000000000000000000000000000000000000000000000000000000000000000000000000000000000000000000000000000000000000000000000000000000000000000000000000000000000000000000
310
00000000000000000000000000000000000000000000000000000000000000000000000000000000000000000000000000000000000000000000000000000000000000000000000000000000000000000000000000000000000000000000000000000000000000000000000000000000000000000000000000000000000000
310
00000000000000000000000000000000000000000000000000000000000000000000000007070707070707070707070707070707070707070707070707070707070707070707070707070707070707070707070707070707070707070707070707070707070707070707070707070707070707070700070707070707070707
310
07070707070707070707070707070707070707070707070707070707070707070707070707070707070707070707070707070707070707070707070707070707070707070707070700000000000000000000000000000007070000000007070000000000000007070000000000000007070000000000000007070000000000
310
00000707000000000000000707000000000000000707000000000000000000000000000000000000000000000000000000000000000000000000000000000000000707000000000000000707000000000000000707000000000000000707000000000000000707000000000000000707000000000000000707000000000707
310
00000000000000000000000000070000000000070700000000000000070700000000000000070700000000000000070700000000000000070700000000000000070700000000000000070700000000000000000000000000000000000000000000000000000000000000000000000000000000000000070700000000000000
310
07070000000000000007070000000000000007070000000000000007070000000000000007070000000000000007070000000000070000000000000000000000000007000000000000000000000000000000000000000000000000000000000000000000000000000000000000000000000000000000000000000000000000
310
00000000000000000000000000000000000000000000000000000000000000000000000000000000000000000000000000000000000000000000000000000000000000000000000000000000000000000000000000000000000000000000000000000000000000000007000000000000000000000000000700000000000000
310
00000000000000000000000000000000000000000000000000000000000000000000000000000000000000000000000000000000000000000000000000000000000000000000000000000000000000000000000000000000000000000000000000000000000000000000000000000000000000000000000000000000000000
310
00000000000000000000000000000000000000000000000000000000000000070000000000000000000000000007000000000007070000000000000007070000000000000007070000000000000007070000000000000007070000000000000007070000000000000007070000000000000007070000000000000007070000
310
00000000000707000000000000000707000000000000000707000000000000000707000000000000000707000000000000000707000000000000000707000000000000000707000000000000000707000000000007000000000000000000000000000700000000000707000000000000000707000000000000000707000000
310
00000000070700000000000000070700000000000000070700000000000000070700000000000000070700000000000000070700000000000000070700000000000000070700000000000000070700000000000000070700000000000000070700000000000000070700000000000000070700000000000000070700000000
310
00000007070000000000070000000000000000000000000007000000000000000000000000000000000000000000000000000000000000000000000000000000000000000000000000000000000000000000000000000000000000000000000000000000000000000000000000000000000000000000000000000000000000
310
00000000000000000000000000000000000000000000000000000000000000000000000000000000000000000000000000000000000000000000000000000007000000000000000000000000000700000000000007000000000000000007000000000000000007000000000000000007000000000000000007000000000000
310
00000700000000000000000700000000000000000700000000000000000700000000000000070000000000000000070000000000000000070000000000000000070000000000000000070000000000000000070000000000000000070000000000000000070000000000000000070000000000000700000000000000000000
310
00000007000000000007070000000000000007070000000000000007070000000000000007070000000000000007070000000000000007070000000000000007070000000000000007070000000000000007070000000000000007070000000000000007070000000000000007070000000000000007070000000000000007
310
07000000000000000707000000000000000707000000000000000707000000000000000707000000000007000000000000000000000000000700000000000000000000000000000000000000000000000000000000000000000000000000000000000000000000000000000000000000000000000000000000000000000000
310
00000000000000000000000000000000000000000000000000000000000000000000000000000000000000000000000000000000000000000000000000000000000000000000000000000000000000000000000000000000000000000000000700000000000000000000000000070000000000000000000000000000000000
310
00000000000000000000000000000000000000000000000000000000000000000000000000000000000000000000000000000000000000000000000000000000000000000000000000000000000000000000000000000000000000000000000000000000000000000000000000000000000000000000000000000000000000
310
00000000000000000000000000000000000000000007000000000000000000000000000700000000000707000000000000000707000000000000000707000000000000000707000000000000000707000000000000000707000000000000000707000000000000000707000000000000000707000000000000000707000000
310
00000000070700000000000000070700000000000000070700000000000000070700000000000000070700000000000000070700000000000000070700000000000000070700000000000700000000000000000000000000070000000000070700000000000000070700000000000000070700000000000000070700000000
310
00000007070000000000000007070000000000000007070000000000000007070000000000000007070000000000000007070000000000000007070000000000000007070000000000000007070000000000000007070000000000000007070000000000000007070000000000000007070000000000000007070000000000
310
07000000000000000000000000000700000000000000000000000000000000000000000000000000000000000000000000000000000000000000000000000000000000000000000000000000000000000000000000000000000000000000000000000000000000000000000000000000000000000000000000000000000000
310
00000000000000000000000000000000000000000000000000000000000000000000000000000000000000000000000000000000000700000000000000000000000000070000000000000000000000000000000000000000000000000000000000000000000000000000000000000000000000000000000000000000000000
310
00000000000000000000000000000000000000000007070007070000000000000000000000000000000000000000000000000000000000000000000000000000000000000000000000000000000000000000000000000000000000000000000000000000000000000000070000000000000000000000000007000000000007
310
07000000000000000707000000000000000707000000000000000707000000000000000707000000000000000707000000000000000707000000000000000707000000000000000707070000000000070707000000000000000707000000000000000707000000000000000707000000000000000707000000000000000707
310
00000000000000070700000000000000070700000000000000070700000000000700000000000000000000000000070000000000000000000000000000000000000000000000000000000000000000000000000000000000000000000000000000000000000000000000000000000000000000000000000000000007000000
310
00000000000000000700000000000000000000000000000000000000000000000000000000000000000000000000000000000000000000000000000000000000000000000000000000000000000000000000000000070000000000000000000000000007000000000000000000000000000000000000000000000000000000
310
00000000000000000000000000000000000000000000000000000000000000000000000000000000000000000000000007070000000000000000000000070700000000000000000000000000000000000000000000000000000000000000000000000000000000000000000000000000000000000000000000000000000000
310
00000000000000000000000700000000000000000000000000070000000000070700000000000000070700000000000000070700000000000000070700000000000000070700000000000000070700000000000000070700000000000000070700000000000707000000000000000000000007070000000000070700000000
310
00000007070000000000000007070000000000000007070000000000000007070000000000000007070000000000000007070000000000000007070000000000070000000000000000000000000007000000000007070000000000000007070000000000000007070000000000000007070000000000000007070000000000
310
00000707000000000000000707000000000000000707000000000000070707070707000707070707070000000000000707000000000000000707000000000000000707000000000000000707000000000000000707000000000000000707000000000000000707000000000000000707000000000007000000000000000000
310
00000000070000000000000000000000000000000000000000000000000000000000000000000000000000000000000000000000000000000000000000000000000000000000000000000000000000000000000707070700070707070000000000000000000000000000000000000000000000000000000000000000000000
310
00000000000000000000000000000000000000000000000000000000000000000000000000000000000000070000000000000000000000000007000000000000000000000000000000000000000000000000000000000000000000000000000000000000000000000000000000000000000000000000000000000000000000
310
00000000000000000000000000000000000000000000000000000000000000000000000000000000000000000000000000000000000000000000000000000000000000000000000000000000000000000000000000000000000000000000000007000000000000000000000000000700000000000707000000000000000707
310
00000000000000070700000000000000070700000000000000070700000000000000070700000000000000070700000000000000070700000000000000070700000000000000070700000000000000070700000000000000070700000000000000070700000000000000070700000000000000070700000000000000070700
310
00000000000007070000000000000007070000000000070000000000000000000000000007000000000000070000000000000000070000000000000000070000000000000000070000000000000000070000000000000000070000000000000000070000000000000000070000000000000000070000000000000007000000
310
00000000000700000000000000000700000000000000000700000000000000000700000000000000000700000000000000000700000000000000000700000000000000000700000000000007000000000000000000000000000700000000000000000000000000000000000000000000000000000000000000000000000000
310
00000000000000000000000000000000000000000000000000000000000000000000000000000000000000000000000000000000000000000000000000000000000000000000000000000000000000000000000000000000000000000000000000000000000000000000000000000000000000000000000000000000000000
310
00070000000000000000000000000007000000000007070000000000000007070000000000000007070000000000000007070000000000000007070000000000000007070000000000000007070000000000000007070000000000000007070000000000000007070000000000000007070000000000000007070000000000
310
00000707000000000000000707000000000000000707000000000000000707000000000000000707000000000000000707000000000007000000000000000000000000000700000000000707000000000000000707000000000000000707000000000000000707000000000000000707000000000000000707000000000000
310
00070700000000000000070700000000000000070700000000000000070700000000000000070700000000000000070700000000000000070700000000000000070700000000000000070700000000000000070700000000000000070700000000000000070700000000000700000000000000000000000000070000000000
310
00000000000000000000000000000000000000000000000000000000000000000000000000000000000000000000000000000000000000000000000000000000000000000000000000000000000000000000000000000000000000000000000000000000000000000000000000000000000000000000000000000000000000
310
00000000000000000000000000000000000000000000000000000000000000000007000000000000000000000000000700000000000000000000000000000000000000000000000000000000000000000000000000000000000000000000000000000000000000000000000000000000000000000000000000000000000000
310
00000000000000000000000000000000000000000000000000000000000000000000000000000000000000000000000000000000000000000000000000000000000000000000000000000000000000000000000000000700000000000000000000000000070000000000070700000000000000070700000000000000070700
310
00000000000007070000000000000007070000000000000007070000000000000007070000000000000007070000000000000007070000000000000007070000000000000007070000000000000007070000000000000007070000000000000007070000000000000007070000000000000007070000000000000007070000
310
00000000000707000000000007000000000000000000000000000700000000000707000000000000000707000000000000000707000000000000000707000000000000000707000000000000000707000000000000000707000000000000000707000000000000000707000000000000000707000000000000000707000000
310
00000000070700000000000000070700000000000000070700000000000000070700000000000000070700000000000000070700000000000000070700000000000700000000000000000000000000070000000000000000000000000000000000000000000000000000000000000000000000000000000000000000000000
310
00000000000000000000000000000000000000000000000000000000000000000000000000000000000000000000000000000000000000000000000000000000000000000000000000000000000000000000000000000000000000000000000000000000000000000000000000000000000000000000070000000000000000
310
00000000000700000000000007000000000000000007000000000000000007000000000000000007000000000000000007000000000000000007000000000000000007000000000000000007000000000000000007000000000000000700000000000000000700000000000000000700000000000000000700000000000000
310
00070000000000000000070000000000000000070000000000000000070000000000000000070000000000000700000000000000000000000000070000000000070700000000000000070700000000000000070700000000000000070700000000000000070700000000000000070700000000000000070700000000000000
310
07070000000000000007070000000000000007070000000000000007070000000000000007070000000000000007070000000000000007070000000000000007070000000000000007070000000000000007070000000000000007070000000000070000000000000000000000000007000000000000000000000000000000
310
00000000000000000000000000000000000000000000000000000000000000000000000000000000000000000000000000000000000000000000000000000000000000000000000000000000000000000000000000000000000000000000000000000000000000000000000000000000000000000000000000000000000000
310
00000000000000000000000000000000000000000000000700000000000000000000000000070000000000000000000000000000000000000000000000000000000000000000000000000000000000000000000000000000000000000000000000000000000000000000000000000000000000000000000000000000000000
310
00000000000000000000000000000000000000000000000000000000000000000000000000000000000000000000000000000000000000000000000000000000000000000000000000000000070000000000000000000000000007070707070707070707070707070707070707070707070707070707070707070707070707
310
07070707070707070707070707070707070707070707070707070707070707070707070707070707070707070707000707070707070707070707070707070707070707070707070707070707070707070707070707070707070707070707070707070707070707070707070707070707070707070707070707070707070707
310
07070700000000000000000000000000070000000000000000000000000000000000000000000000000000000000000000000000000000000000000000000000000000000000000000000000000000000000000000000000000000000000000000000000000000000000000000000000000000000000000000000000000000
310
00000000000000000000000000000000000000000000000000000000000000000000000000000000000000000000000000000000000000070000000000000000000000000007000000000000000000000000000000000000000000000000000000000000000000000000000000000000000000000000000000000000000000
310
00000000000000000000000000000000000000000000000000000000000000000000000000000000000000000000000000000000000000000000000000000000000000000000000000000000000000000000000000000000000000000000000000000000000000000000000007000000000000000000000000000700000000
310
00000000000000000000000000000000000000000000000000000000000000000000000000000000000000000000000000000000000000000000000000000000000000000000000000000000000000000000000000000000000000000000000000000000000000000000000000000000000000000000000000000000000000
310
00000000000000000000000000000000000000000000000000000000000000000000070000000000000000000000000007000000000000000000000000000000000000000000000000000000000000000000000000000000000000000000000000000000000000000000000000000000000000000000000000000000000000
310
00000000000000000000000000000000000000000000000000000000000000000000000000000000000000000000000000000000000000000000000000000000000000000000000000000000000000000000000000000007000000000000000000000000000007070707070707070707070707070707070707070707070707
310
07070707070707070707070707070707070707070707070707070707070707070707070707070707070707070707070707070707070707070700070707070707070707070707070707070707070707070707070707070707070707070707070707070707070707070707070707070707070707070707070707070707070707
310
07070707070707070707070707000000000000000000000000000000000000000000000000000000000000000000000000000000000000000000000000000000000000000000000000000000000000000000000000000000000000000000000707070000000000000007070707070007070707070000000000000007070700
310
00000000000000000000000000000000000000000000000000000000000000000000000000000000000000000000000000000000000000000000000000000000000000000000000000000000000000000000000000000000000000000000000000000000000000000000000000000000000000000000000000000000000000
310
00000000000000000000000000000000000000070700000000000000000000070707070700070707070700000000000000000000070700000000000000000000000000000000000000000000000000000000000000000000000000000000000000000000000000000000000000000000000000000000000000000000000000
310
00000000000000000000000000000000000000000000000000000000000000000000000000000000000000000000000000000000000000000000000000000000000000000000000007000000000000000000000007000000000000000000070000000000000000000000070000000000000000000000000000000000000000
310
00000000000000000000000000000000000000000000000000000000000000000000000000000000000000000000000000000000000000000000000000000000000000000000000000000000000000000000000000000000000000000000000000000000000000000000000000000000000000000000000000000000070700
310
00000000000000000000070000000000000000000700000000000000000000000707000000000000000000000000000000000000000000000000000000000000000000000000000000000000000000000000000000000000000000000000000000000000000000000000000000000000000000000000000000000000000000
310
00000000000000000000000000000000000000000000000000000000000000000000000000000000000000000000000000000700000000000000000000000007000000000000000000070000000000000000000000000700000000000000000000000000000000000000000000000000000000000000000000000000000000
310
00000000000000000000000000000000000000000000000000000000000000000000000000000000000000000000000000000000000000000000000000000000000000000000000000000000000000000000000000000000000000000000000000000000000000070000000000000000000000000707000000000000000707
310
00000000000000000000000007000000000000000000000000000000000000000000000000000000000000000000000000000000000000000000000000000000000000000000000000000000000000000000000000000000000000000000000000000000000000000000000000000000000000000000000000000000000000
310
00000000000000000000000000000000000000000000000000000000000700000000000000000000000007000707070007070700070000000000000000000000000700000000000000000000000000000000000000000000000000000000000000000000000000000000000000000000000000000000000000000000000000
310
00000000000000000000000000000000000000000000000000000000000000000000000000000000000000000000000000000000000000000000000000000000000000000000000000000000000000000000070000000000000000000000000700000000000000000007000000000000000000000000070000000000000000
310
00000000000000000000000000000000000000000000000000000000000000000000000000000000000000000000000000000000000000000000000000000000000000000000000000000000000000000000000000000000000000000000000000000000000000000000000000000000000000000000000000000000000000
310
00000000000000000700000000000000000000000007000000000000000000070000000000000000000000000700000000000000000000000000000000000000000000000000000000000000000000000000000000000000000000000000000000000000000000000000000000000000000000000000000000000000000000
310
00000000000000000000000000000000000000000000000000000000000000000000000000000000000000000000000000000000000000000000000000070000000000000000000000000700000000000000000007000000000000000000000000070000000000000000000000000000000000000000000000000000000000
310
00000000000000000000000000000000000000000000000000000000000000000000000000000000000000000000000000000000000000000000000000000000000000000000000000000000000000000000000000000000000000000000000000000000000000000000000000000000000007000000000000000000000000
310
07000000000000000000070000000000000000000000000700000000000000000000000000000000000000000000000000000000000000000000000000000000000000000000000000000000000000000000000000000000000000000000000000000000000000000000000000000000000000000000000000000000000000
310
00000000000000000000000000000000000000000000000000000000000000000000000000000000070000000000000000000000000700000000000000000007000000000000000000000000070000000000000000000000000000000000000000000000000000000000000000000000000000000000000000000000000000
310
00000000000000000000000000000000000000000000000000000000000000000000000000000000000000000000000000000000000000000000000000000000000000000000000000000000000000000000000000000000000000000007000000000000000000000000070000000000000000000700000000000000000000
310
00000700000000000000000000000000000000000000000000000000000000000000000000000000000000000000000000000000000000000000000000000000000000000000000000000000000000000000000000000000000000000000000000000000000000000000000000000000000000000000000000000000000000
310
00000000000000000000000000000000000000070000000000000000000000000700000000000000000007000000000000000000000000070000000000000000000000000000000000000000000000000000000000000000000000000000000000000000000000000000000000000000000000000000000000000000000000
310
00000000000000000000000000000000000000000000000000000000000000000000000000000000000000000000000000000000000000000000000000000000000000000000000007000000000000000000000000070000000000000000000700000000000000000000000007000000000000000000000000000000000000
310
00000000000000000000000000000000000000000000000000000000000000000000000000000000000000000000000000000000000000000000000000000000000000000000000000000000000000000000000000000000000000000000000000000000000000000000000000000000000000000000000000000000070000
310
00000000000000000000000700000000000000000007000000000000000000000000000700000000000000000000000000000000000000000000000000000000000000000000000000000000000000000000000000000000000000000000000000000000000000000000000000000000000000000000000000000000000000
310
00000000000000000000000000000000000000000000000000000000000000000000000000000000000000000000000000000700000000000000000000000000070000000000000000000700000000000000000000000000070000000000000000000000000000000000000000000000000000000000000000000000000000
310
00000000000000000000000000000000000000000000000000000000000000000000000000000000000000000000000000000000000000000000000000000000000000000000000000000000000000000000000000000000000000000000000000000000000000070000000000000000000000000007000000000000000000
310
07000000000000000000000000000700000000000000000000000000000000000000000000000000000000000000000000000000000000000000000000000000000000000000000000000000000000000000000000000000000000000000000000000000000000000000000000000000000000000000000000000000000000
310
00000000000000000000000000000000000000000000000000000000000700000000000000000000000000070000000000000000000700000000000000000000000000070000000000000000000000000000000000000000000000000000000000000000000000000000000000000000000000000000000000000000000000
310
00000000000000000000000000000000000000000000000000000000000000000000000000000000000000000000000000000000000000000000000000000000000000000000000000000000000000000000070000000000000000000000000007000000000000000007000000000000000000000000000007000000000000
310
00000000000000000000000000000000000000000000000000000000000000000000000000000000000000000000000000000000000000000000000000000000000000000000000000000000000000000000000000000000000000000000000000000000000000000000000000000000000000000000000000000000000000
310
00000000000000000700000000000000000000000000000700000000000000070000000000000000000000000007000000000000000000000000000000000000000000000000000000000000000000000000000000000000000000000000000000000000000000000000000000000000000000000000000000000000000000
310
00000000000000000000000000000000000000000000000000000000000000000000000000000000000000000000000000000000000000000000000000000700000000000000000000000000070000000000000007000000000000000000000000000700000000000000000000000000000000000000000000000000000000
310
00000000000000000000000000000000000000000000000000000000000000000000000000000000000000000000000000000000000000000000000000000000000000000000000000000000000000000000000000000000000000000000000000000000000000000000000000000000000000070000000000000000000000
310
00000007070700070707000000000000000000000000000007000000000000000000000000000000000000000000000000000000000000000000000000000000000000000000000000000000000000000000000000000000000000000000000000000000000000000000000000000000000000000000000000000000000000
310
00000000000000000000000000000000000000000000000000000000000000000000000000000000000700000000000000000000000000000000000000000000000000000000000000000000000700000000000000000000000000000000000000000000000000000000000000000000000000000000000000000000000000
310
00000000000000000000000000000000000000000000000000000000000000000000000000000000000000000000000000000000000000000000000000000000000000000000000000000000000000000000000000000000000000000000070000000000000000000000000000000000000000000000000000000000000000
310
00000007000000000000000000000000000000000000000000000000000000000000000000000000000000000000000000000000000000000000000000000000000000000000000000000000000000000000000000000000000000000000000000000000000000000000000000000000000000000000000000000000000000
310
00000000000000000000000000000000000000000700000000000000000000000000000000000000000000000000000000000000000000000700000000000000000000000000000000000000000000000000000000000000000000000000000000000000000000000000000000000000000000000000000000000000000000
310
00000000000000000000000000000000000000000000000000000000000000000000000000000000000000000000000000000000000000000000000000000000000000000000000000070000000000000000000000000000000000000000000000000000000000000000000000070000000000000000000000000000000000
310
00000000000000000000000000000000000000000000000000000000000000000000000000000000000000000000000000000000000000000000000000000000000000000000000000000000000000000000000000000000000000000000000000000000000000000000000000000000000000000000000000000000000007
310
00000000000000000000000000000000000000000000000000000000000000000000000700000000000000000000000000000000000000000000000000000000000000000000000000000000000000000000000000000000000000000000000000000000000000000000000000000000000000000000000000000000000000
310
00000000000000000000000000000000000000000000000000000000000000000000000000000000000000000000000000000000070000000000000000000000000000000000000000000000000000000000000000000000070000000000000000000000000000000000000000000000000000000000000000000000000000
310
00000000000000000000000000000000000000000000000000000000000000000000000000000000000000000000000000000000000000000000000000000000000000000000000000000000000000000000000000000000000000000000000000000000000000000007000000000000000000000000000000000000000000
310
00000000000000000000000000000700000000000000000000000000000000000000000000000000000000000000000000000000000000000000000000000000000000000000000000000000000000000000000000000000000000000000000000000000000000000000000000000000000000000000000000000000000000
310
00000000000000000000000000000000000000000000000000000000000000070000000000000000000000000000000000000000000000000000000000000000000000070000000000000000000000000000000000000000000000000000000000000000000000000000000000000000000000000000000000000000000000
310
00000000000000000000000000000000000000000000000000000000000000000000000000000000000000000000000000000000000000000000000000000000000000000000000000000000000000000000000007000000000000000000000000000000000000000000000000000000000000000000000007000000000000
310
00000000000000000000000000000000000000000000000000000000000000000000000000000000000000000000000000000000000000000000000000000000000000000000000000000000000000000000000000000000000000000000000000000000000000000000000000000000000000000000000000000000000000
310
00000000000000000000000700000000000000000000000000000000000000000000000000000000000000000007000000000000000000000000000000000000000000000000000000000000000000000000000000000000000000000000000000000000000000000000000000000000000000000000000000000000000000
310
00000000000000000000000000000000000000000000000000000000000000000000000000000000000000000000000000000000000000000000000000000000070700000000000000000000000000000000000000000000000000000000000000070700000000000000000000000000000000000000000000000000000000
310
00000000000000000000000000000000000000000000000000000000000000000000000000000000000000000000000000000000000000000000000000000000000000000000000000000000000000000000000000000000000000000000000000000000000000000000000000000000000000000000070700000000000000
310
00000000000000000000000000000000000000000000070700000000000000000000000000000000000000000000000000000000000000000000000000000000000000000000000000000000000000000000000000000000000000000000000000000000000000000000000000000000000000000000000000000000000000
310
00000000000000000000000000000000000000000000000000000000000000000000000000000000000000000000070707070707070707000000000000000000000007070707070707070700000000000000000000000000000000000000000000000000000000000000000000000000000000000000000000000000000000
310
00000000000000000000000000000000000000000000000000000000000000000000000000000000000000000000000000000000000000000000000000000000000000000000000000000000000000000000000000000000000000000000000000000000000000000000000007070707070007070707070000000000000000
310
00000000000000000000000000000000000000000000000000000000000000000000000000000000000000000000000000000000000000000000000000000000000000000000000000000000000000000000000000000000000000000000000000000000000000000000000000000000000000000000000000000000000000
310
00000000000000000000000000000000000000000000000000000000000000000000000000000000000000000000000000000000000000000000000000000000000000000000000000000000000000000000000000000000000000000000000000000000000000000000000000000000000000000000000000000000000000
310
00000000000000000000000000000000000000000000000000000000000000000000000000000000000000000000000000000000000000000000000000000000000000000000000000000000000000000000000000000000000000000000000000000000000000000000000000000000000000000000000000000000000000
310
00000000000000000000000000000000000000000000000000000000000000000000000000000000000000000000000000000000000000000000000000000000000000000000000000000000000000000000000000000000000000000000000000000000000000000000000000000000000000000000000000000000000000
310
000000000000000000000000000000000000000000000000000000000000000000000000000000000000000000000000000000000000000000000000000000000000000000000000000000000000000000000000000000000000000000000000000000000000000000000000
  0
ENDSEC
  0
EOF
