  0
SECTION
  2
HEADER
  9
$ACADVER
  1
AC1009
  9
$INSBASE
 10
0.0
 20
0.0
 30
0.0
  9
$EXTMIN
 10
-0.0000000000000094
 20
3.9999999999999791
 30
0.0
  9
$EXTMAX
 10
87.0
 20
364.0
 30
0.0
  9
$LIMMIN
 10
0.0
 20
0.0
  9
$LIMMAX
 10
12.0
 20
9.0
  9
$ORTHOMODE
 70
     0
  9
$REGENMODE
 70
     1
  9
$FILLMODE
 70
     1
  9
$QTEXTMODE
 70
     0
  9
$MIRRTEXT
 70
     1
  9
$DRAGMODE
 70
     2
  9
$LTSCALE
 40
1.0
  9
$OSMODE
 70
    37
  9
$ATTMODE
 70
     1
  9
$TEXTSIZE
 40
0.2
  9
$TRACEWID
 40
0.05
  9
$TEXTSTYLE
  7
STANDARD
  9
$CLAYER
  8
0
  9
$CELTYPE
  6
CONTINUOUS
  9
$CECOLOR
 62
   256
  9
$DIMSCALE
 40
1.0
  9
$DIMASZ
 40
0.18
  9
$DIMEXO
 40
0.0625
  9
$DIMDLI
 40
0.38
  9
$DIMRND
 40
0.0
  9
$DIMDLE
 40
0.0
  9
$DIMEXE
 40
0.18
  9
$DIMTP
 40
0.0
  9
$DIMTM
 40
0.0
  9
$DIMTXT
 40
0.18
  9
$DIMCEN
 40
0.09
  9
$DIMTSZ
 40
0.0
  9
$DIMTOL
 70
     0
  9
$DIMLIM
 70
     0
  9
$DIMTIH
 70
     1
  9
$DIMTOH
 70
     1
  9
$DIMSE1
 70
     0
  9
$DIMSE2
 70
     0
  9
$DIMTAD
 70
     0
  9
$DIMZIN
 70
     0
  9
$DIMBLK
  1

  9
$DIMASO
 70
     1
  9
$DIMSHO
 70
     1
  9
$DIMPOST
  1

  9
$DIMAPOST
  1

  9
$DIMALT
 70
     0
  9
$DIMALTD
 70
     2
  9
$DIMALTF
 40
25.399999999999999
  9
$DIMLFAC
 40
1.0
  9
$DIMTOFL
 70
     0
  9
$DIMTVP
 40
0.0
  9
$DIMTIX
 70
     0
  9
$DIMSOXD
 70
     0
  9
$DIMSAH
 70
     0
  9
$DIMBLK1
  1

  9
$DIMBLK2
  1

  9
$DIMSTYLE
  2
STANDARD
  9
$DIMCLRD
 70
     0
  9
$DIMCLRE
 70
     0
  9
$DIMCLRT
 70
     0
  9
$DIMTFAC
 40
1.0
  9
$DIMGAP
 40
0.09
  9
$LUNITS
 70
     2
  9
$LUPREC
 70
     4
  9
$SKETCHINC
 40
0.1
  9
$FILLETRAD
 40
0.0
  9
$AUNITS
 70
     0
  9
$AUPREC
 70
     0
  9
$MENU
  1
.
  9
$ELEVATION
 40
0.0
  9
$PELEVATION
 40
0.0
  9
$THICKNESS
 40
0.0
  9
$LIMCHECK
 70
     0
  9
$BLIPMODE
 70
     0
  9
$CHAMFERA
 40
0.0
  9
$CHAMFERB
 40
0.0
  9
$SKPOLY
 70
     0
  9
$TDCREATE
 40
2454674.5344077311
  9
$TDUPDATE
 40
2454674.5396149759
  9
$TDINDWG
 40
0.0052074306
  9
$TDUSRTIMER
 40
0.0052074306
  9
$USRTIMER
 70
     1
  9
$ANGBASE
 50
0.0
  9
$ANGDIR
 70
     0
  9
$PDMODE
 70
     0
  9
$PDSIZE
 40
0.0
  9
$PLINEWID
 40
0.0
  9
$COORDS
 70
     1
  9
$SPLFRAME
 70
     0
  9
$SPLINETYPE
 70
     6
  9
$SPLINESEGS
 70
     8
  9
$ATTDIA
 70
     0
  9
$ATTREQ
 70
     1
  9
$HANDLING
 70
 22529
  9
$HANDSEED
  5
8A7
  9
$SURFTAB1
 70
     6
  9
$SURFTAB2
 70
     6
  9
$SURFTYPE
 70
     6
  9
$SURFU
 70
     6
  9
$SURFV
 70
     6
  9
$UCSNAME
  2

  9
$UCSORG
 10
0.0
 20
0.0
 30
0.0
  9
$UCSXDIR
 10
1.0
 20
0.0
 30
0.0
  9
$UCSYDIR
 10
0.0
 20
1.0
 30
0.0
  9
$PUCSNAME
  2

  9
$PUCSORG
 10
0.0
 20
0.0
 30
0.0
  9
$PUCSXDIR
 10
1.0
 20
0.0
 30
0.0
  9
$PUCSYDIR
 10
0.0
 20
1.0
 30
0.0
  9
$USERI1
 70
     0
  9
$USERI2
 70
     0
  9
$USERI3
 70
     0
  9
$USERI4
 70
     0
  9
$USERI5
 70
     0
  9
$USERR1
 40
0.0
  9
$USERR2
 40
0.0
  9
$USERR3
 40
0.0
  9
$USERR4
 40
0.0
  9
$USERR5
 40
0.0
  9
$WORLDVIEW
 70
     1
  9
$SHADEDGE
 70
     3
  9
$SHADEDIF
 70
    70
  9
$TILEMODE
 70
     1
  9
$MAXACTVP
 70
    64
  9
$PLIMCHECK
 70
     0
  9
$PEXTMIN
 10
1.0000000000000000E+020
 20
1.0000000000000000E+020
 30
1.0000000000000000E+020
  9
$PEXTMAX
 10
-1.0000000000000000E+020
 20
-1.0000000000000000E+020
 30
-1.0000000000000000E+020
  9
$PLIMMIN
 10
0.0
 20
0.0
  9
$PLIMMAX
 10
12.0
 20
9.0
  9
$UNITMODE
 70
     0
  9
$VISRETAIN
 70
     1
  9
$PLINEGEN
 70
     0
  9
$PSLTSCALE
 70
     1
  0
ENDSEC
  0
SECTION
  2
TABLES
  0
TABLE
  2
VPORT
 70
     4
  0
VPORT
  2
*ACTIVE
 70
     0
 10
0.0
 20
0.0
 11
1.0
 21
1.0
 12
43.5
 22
183.99999999999989
 13
0.0
 23
0.0
 14
1.0
 24
1.0
 15
0.0
 25
0.0
 16
0.0
 26
0.0
 36
1.0
 17
0.0
 27
0.0
 37
0.0
 40
362.76214833759587
 41
2.0435339308578739
 42
50.0
 43
0.0
 44
0.0
 50
0.0
 51
0.0
 71
     0
 72
   100
 73
     1
 74
     3
 75
     0
 76
     0
 77
     0
 78
     0
  0
ENDTAB
  0
TABLE
  2
LTYPE
 70
     1
  0
LTYPE
  2
CONTINUOUS
 70
     0
  3
Solid line
 72
    65
 73
     0
 40
0.0
  0
ENDTAB
  0
TABLE
  2
LAYER
 70
     1
  0
LAYER
  2
0
 70
     0
 62
     7
  6
CONTINUOUS
  0
ENDTAB
  0
TABLE
  2
STYLE
 70
     1
  0
STYLE
  2
STANDARD
 70
     0
 40
0.0
 41
1.0
 50
0.0
 71
     0
 42
0.2
  3
txt
  4

  0
ENDTAB
  0
TABLE
  2
VIEW
 70
     0
  0
ENDTAB
  0
TABLE
  2
UCS
 70
     0
  0
ENDTAB
  0
TABLE
  2
APPID
 70
     1
  0
APPID
  2
ACAD
 70
     0
  0
ENDTAB
  0
TABLE
  2
DIMSTYLE
 70
     1
  0
DIMSTYLE
  2
STANDARD
 70
     0
  3

  4

  5

  6

  7

 40
1.0
 41
0.18
 42
0.0625
 43
0.38
 44
0.18
 45
0.0
 46
0.0
 47
0.0
 48
0.0
140
0.18
141
0.09
142
0.0
143
25.399999999999999
144
1.0
145
0.0
146
1.0
147
0.09
 71
     0
 72
     0
 73
     1
 74
     1
 75
     0
 76
     0
 77
     0
 78
     0
170
     0
171
     2
172
     0
173
     0
174
     0
175
     0
176
     0
177
     0
178
     0
  0
ENDTAB
  0
ENDSEC
  0
SECTION
  2
BLOCKS
  0
BLOCK
  8
0
  2
$MODEL_SPACE
 70
     0
 10
0.0
 20
0.0
 30
0.0
  3
$MODEL_SPACE
  1

  0
ENDBLK
  5
20
  8
0
  0
BLOCK
 67
     1
  8
0
  2
$PAPER_SPACE
 70
     0
 10
0.0
 20
0.0
 30
0.0
  3
$PAPER_SPACE
  1

  0
ENDBLK
  5
1C
 67
     1
  8
0
  0
ENDSEC
  0
SECTION
  2
ENTITIES
  0
LINE
  5
22
  8
0
 10
66.299999999999983
 20
4.2999999999999794
 30
0.0
 11
66.5
 21
4.2999999999999794
 31
0.0
  0
LINE
  5
23
  8
0
 10
66.299999999999983
 20
4.2999999999999794
 30
0.0
 11
67.0
 21
3.9999999999999791
 31
0.0
  0
LINE
  5
24
  8
0
 10
66.299999999999983
 20
4.9999999999999796
 30
0.0
 11
66.299999999999983
 21
363.0
 31
0.0
  0
LINE
  5
25
  8
0
 10
66.299999999999983
 20
4.9999999999999796
 30
0.0
 11
66.5
 21
4.2999999999999794
 31
0.0
  0
LINE
  5
26
  8
0
 10
36.320500000000003
 20
39.5
 30
0.0
 11
65.679500000000004
 21
39.5
 31
0.0
  0
LINE
  5
27
  8
0
 10
36.320500000000003
 20
39.5
 30
0.0
 11
36.320500000000003
 21
40.381999999999991
 31
0.0
  0
LINE
  5
28
  8
0
 10
65.679500000000004
 20
39.5
 30
0.0
 11
66.0
 21
40.087999999999987
 31
0.0
  0
LINE
  5
29
  8
0
 10
65.679500000000004
 20
39.5
 30
0.0
 11
65.679500000000004
 21
40.381999999999991
 31
0.0
  0
LINE
  5
2A
  8
0
 10
0.384614999999991
 20
39.5
 30
0.0
 11
35.615400000000001
 21
39.5
 31
0.0
  0
LINE
  5
2B
  8
0
 10
0.384614999999991
 20
39.5
 30
0.0
 11
35.615400000000001
 21
39.5
 31
0.0
  0
LINE
  5
2C
  8
0
 10
0.384614999999991
 20
39.5
 30
0.0
 11
0.384614999999991
 21
40.381999999999991
 31
0.0
  0
LINE
  5
2D
  8
0
 10
-0.0000000000000094
 20
40.087999999999987
 30
0.0
 11
0.384614999999991
 21
39.5
 31
0.0
  0
LINE
  5
2E
  8
0
 10
-0.0000000000000094
 20
40.087999999999987
 30
0.0
 11
0.384614999999991
 21
39.5
 31
0.0
  0
LINE
  5
2F
  8
0
 10
-0.0000000000000094
 20
40.087999999999987
 30
0.0
 11
-0.0000000000000093
 21
40.969999999999999
 31
0.0
  0
LINE
  5
30
  8
0
 10
0.384614999999991
 20
40.381999999999991
 30
0.0
 11
0.384614999999991
 21
39.5
 31
0.0
  0
LINE
  5
31
  8
0
 10
0.384614999999991
 20
40.381999999999991
 30
0.0
 11
0.384614999999991
 21
42.733999999999988
 31
0.0
  0
LINE
  5
32
  8
0
 10
-0.0000000000000093
 20
40.969999999999999
 30
0.0
 11
-0.0000000000000092
 21
43.321999999999989
 31
0.0
  0
LINE
  5
33
  8
0
 10
0.384614999999991
 20
42.733999999999988
 30
0.0
 11
0.384614999999991
 21
46.653999999999989
 31
0.0
  0
LINE
  5
34
  8
0
 10
-0.000000000000009
 20
47.143999999999998
 30
0.0
 11
-0.0000000000000087
 21
52.141999999999989
 31
0.0
  0
LINE
  5
35
  8
0
 10
-0.0000000000000092
 20
43.321999999999989
 30
0.0
 11
-0.000000000000009
 21
47.143999999999998
 31
0.0
  0
LINE
  5
36
  8
0
 10
0.384614999999991
 20
51.847999999999999
 30
0.0
 11
0.3846149999999921
 21
57.728000000000002
 31
0.0
  0
LINE
  5
37
  8
0
 10
0.384614999999991
 20
46.653999999999989
 30
0.0
 11
0.384614999999991
 21
51.847999999999999
 31
0.0
  0
LINE
  5
38
  8
0
 10
-0.0000000000000079
 20
64.0
 30
0.0
 11
-0.0000000000000075
 21
70.173999999999992
 31
0.0
  0
LINE
  5
39
  8
0
 10
-0.0000000000000083
 20
57.826000000000001
 30
0.0
 11
-0.0000000000000079
 21
64.0
 31
0.0
  0
LINE
  5
3A
  8
0
 10
-0.0000000000000087
 20
52.141999999999989
 30
0.0
 11
-0.0000000000000083
 21
57.826000000000001
 31
0.0
  0
LINE
  5
3B
  8
0
 10
0.3846149999999921
 20
64.0
 30
0.0
 11
0.3846149999999921
 21
70.271999999999991
 31
0.0
  0
LINE
  5
3C
  8
0
 10
0.3846149999999921
 20
57.728000000000002
 30
0.0
 11
0.3846149999999921
 21
64.0
 31
0.0
  0
LINE
  5
3D
  8
0
 10
-0.0000000000000075
 20
70.173999999999992
 30
0.0
 11
-0.0000000000000072
 21
75.858000000000004
 31
0.0
  0
LINE
  5
3E
  8
0
 10
-0.0000000000000072
 20
75.858000000000004
 30
0.0
 11
-0.0000000000000069
 21
80.856000000000009
 31
0.0
  0
LINE
  5
3F
  8
0
 10
0.3846149999999921
 20
70.271999999999991
 30
0.0
 11
0.384614999999993
 21
76.152000000000001
 31
0.0
  0
LINE
  5
40
  8
0
 10
-0.0000000000000069
 20
80.856000000000009
 30
0.0
 11
-0.0000000000000067
 21
84.677999999999997
 31
0.0
  0
LINE
  5
41
  8
0
 10
-0.0000000000000067
 20
84.677999999999997
 30
0.0
 11
-0.0000000000000065
 21
87.030000000000015
 31
0.0
  0
LINE
  5
42
  8
0
 10
0.384614999999993
 20
76.152000000000001
 30
0.0
 11
0.384614999999993
 21
81.346000000000004
 31
0.0
  0
LINE
  5
43
  8
0
 10
0.384614999999993
 20
81.346000000000004
 30
0.0
 11
0.384614999999993
 21
85.266000000000005
 31
0.0
  0
LINE
  5
44
  8
0
 10
-0.0000000000000065
 20
87.030000000000015
 30
0.0
 11
-0.0000000000000065
 21
87.912000000000006
 31
0.0
  0
LINE
  5
45
  8
0
 10
-0.0000000000000065
 20
87.912000000000006
 30
0.0
 11
0.384614999999994
 21
88.499999999999986
 31
0.0
  0
LINE
  5
46
  8
0
 10
-0.0000000000000065
 20
87.912000000000006
 30
0.0
 11
0.384614999999994
 21
88.499999999999986
 31
0.0
  0
LINE
  5
47
  8
0
 10
0.384614999999993
 20
85.266000000000005
 30
0.0
 11
0.384614999999994
 21
87.617999999999995
 31
0.0
  0
LINE
  5
48
  8
0
 10
23.0
 20
88.499999999999986
 30
0.0
 11
23.0
 21
90.307699999999997
 31
0.0
  0
LINE
  5
49
  8
0
 10
0.384614999999995
 20
88.499999999999986
 30
0.0
 11
28.0
 21
88.499999999999986
 31
0.0
  0
LINE
  5
4A
  8
0
 10
0.384614999999994
 20
87.617999999999995
 30
0.0
 11
0.384614999999994
 21
88.499999999999986
 31
0.0
  0
LINE
  5
4B
  8
0
 10
24.870000000000001
 20
90.5
 30
0.0
 11
25.5
 21
90.5
 31
0.0
  0
LINE
  5
4C
  8
0
 10
24.289999999999999
 20
90.5
 30
0.0
 11
24.870000000000001
 21
90.5
 31
0.0
  0
LINE
  5
4D
  8
0
 10
23.780000000000001
 20
90.5
 30
0.0
 11
24.289999999999999
 21
90.5
 31
0.0
  0
LINE
  5
4E
  8
0
 10
23.38999999999999
 20
90.5
 30
0.0
 11
23.780000000000001
 21
90.5
 31
0.0
  0
LINE
  5
4F
  8
0
 10
23.149999999999991
 20
90.5
 30
0.0
 11
23.38999999999999
 21
90.5
 31
0.0
  0
LINE
  5
50
  8
0
 10
23.059999999999999
 20
90.5
 30
0.0
 11
23.149999999999991
 21
90.5
 31
0.0
  0
LINE
  5
51
  8
0
 10
23.0
 20
90.307699999999997
 30
0.0
 11
23.0
 21
88.499999999999986
 31
0.0
  0
LINE
  5
52
  8
0
 10
23.0
 20
90.307699999999997
 30
0.0
 11
23.059999999999999
 21
90.5
 31
0.0
  0
LINE
  5
53
  8
0
 10
25.5
 20
90.5
 30
0.0
 11
26.129999999999988
 21
90.5
 31
0.0
  0
LINE
  5
54
  8
0
 10
26.129999999999988
 20
90.5
 30
0.0
 11
26.710000000000001
 21
90.5
 31
0.0
  0
LINE
  5
55
  8
0
 10
26.710000000000001
 20
90.5
 30
0.0
 11
27.219999999999992
 21
90.5
 31
0.0
  0
LINE
  5
56
  8
0
 10
27.219999999999992
 20
90.5
 30
0.0
 11
27.609999999999999
 21
90.5
 31
0.0
  0
LINE
  5
57
  8
0
 10
24.384599999999999
 20
126.5
 30
0.0
 11
65.615399999999994
 21
126.5
 31
0.0
  0
LINE
  5
58
  8
0
 10
24.0
 20
126.92
 30
0.0
 11
24.384599999999999
 21
126.5
 31
0.0
  0
LINE
  5
59
  8
0
 10
24.0
 20
126.92
 30
0.0
 11
24.0
 21
127.55
 31
0.0
  0
LINE
  5
5A
  8
0
 10
24.0
 20
129.22999999999999
 30
0.0
 11
24.0
 21
127.55
 31
0.0
  0
LINE
  5
5B
  8
0
 10
24.0
 20
129.22999999999999
 30
0.0
 11
24.0
 21
131.96000000000001
 31
0.0
  0
LINE
  5
5C
  8
0
 10
24.0
 20
127.55
 30
0.0
 11
24.0
 21
126.92
 31
0.0
  0
LINE
  5
5D
  8
0
 10
24.0
 20
127.55
 30
0.0
 11
24.0
 21
129.22999999999999
 31
0.0
  0
LINE
  5
5E
  8
0
 10
24.0
 20
135.52999999999989
 30
0.0
 11
24.0
 21
131.96000000000001
 31
0.0
  0
LINE
  5
5F
  8
0
 10
24.0
 20
135.52999999999989
 30
0.0
 11
24.0
 21
139.59
 31
0.0
  0
LINE
  5
60
  8
0
 10
24.0
 20
131.96000000000001
 30
0.0
 11
24.0
 21
129.22999999999999
 31
0.0
  0
LINE
  5
61
  8
0
 10
24.0
 20
131.96000000000001
 30
0.0
 11
24.0
 21
135.52999999999989
 31
0.0
  0
LINE
  5
62
  8
0
 10
24.0
 20
148.40999999999991
 30
0.0
 11
24.0
 21
144.0
 31
0.0
  0
LINE
  5
63
  8
0
 10
24.0
 20
148.40999999999991
 30
0.0
 11
24.0
 21
152.46999999999991
 31
0.0
  0
LINE
  5
64
  8
0
 10
24.0
 20
152.46999999999991
 30
0.0
 11
24.0
 21
148.40999999999991
 31
0.0
  0
LINE
  5
65
  8
0
 10
24.0
 20
152.46999999999991
 30
0.0
 11
24.0
 21
156.03999999999999
 31
0.0
  0
LINE
  5
66
  8
0
 10
24.0
 20
156.03999999999999
 30
0.0
 11
24.0
 21
152.46999999999991
 31
0.0
  0
LINE
  5
67
  8
0
 10
24.0
 20
156.03999999999999
 30
0.0
 11
24.0
 21
158.77000000000001
 31
0.0
  0
LINE
  5
68
  8
0
 10
24.0
 20
158.77000000000001
 30
0.0
 11
24.0
 21
156.03999999999999
 31
0.0
  0
LINE
  5
69
  8
0
 10
24.0
 20
158.77000000000001
 30
0.0
 11
24.0
 21
160.4499999999999
 31
0.0
  0
LINE
  5
6A
  8
0
 10
24.0
 20
160.4499999999999
 30
0.0
 11
24.0
 21
158.77000000000001
 31
0.0
  0
LINE
  5
6B
  8
0
 10
24.0
 20
160.4499999999999
 30
0.0
 11
24.0
 21
161.08000000000001
 31
0.0
  0
LINE
  5
6C
  8
0
 10
24.0
 20
161.08000000000001
 30
0.0
 11
24.384599999999999
 21
161.5
 31
0.0
  0
LINE
  5
6D
  8
0
 10
24.0
 20
161.08000000000001
 30
0.0
 11
24.0
 21
160.4499999999999
 31
0.0
  0
LINE
  5
6E
  8
0
 10
24.384599999999999
 20
148.4799999999999
 30
0.0
 11
24.384599999999999
 21
144.0
 31
0.0
  0
LINE
  5
6F
  8
0
 10
24.384599999999999
 20
148.4799999999999
 30
0.0
 11
24.384599999999999
 21
152.68000000000001
 31
0.0
  0
LINE
  5
70
  8
0
 10
24.384599999999999
 20
152.68000000000001
 30
0.0
 11
24.384599999999999
 21
148.4799999999999
 31
0.0
  0
LINE
  5
71
  8
0
 10
24.384599999999999
 20
152.68000000000001
 30
0.0
 11
24.384599999999999
 21
156.3899999999999
 31
0.0
  0
LINE
  5
72
  8
0
 10
24.384599999999999
 20
156.3899999999999
 30
0.0
 11
24.384599999999999
 21
152.68000000000001
 31
0.0
  0
LINE
  5
73
  8
0
 10
24.384599999999999
 20
156.3899999999999
 30
0.0
 11
24.384599999999999
 21
159.19
 31
0.0
  0
LINE
  5
74
  8
0
 10
24.384599999999999
 20
159.19
 30
0.0
 11
24.384599999999999
 21
156.3899999999999
 31
0.0
  0
LINE
  5
75
  8
0
 10
24.384599999999999
 20
159.19
 30
0.0
 11
24.384599999999999
 21
160.86999999999989
 31
0.0
  0
LINE
  5
76
  8
0
 10
24.384599999999999
 20
160.86999999999989
 30
0.0
 11
24.384599999999999
 21
159.19
 31
0.0
  0
LINE
  5
77
  8
0
 10
24.384599999999999
 20
160.86999999999989
 30
0.0
 11
24.384599999999999
 21
161.5
 31
0.0
  0
LINE
  5
78
  8
0
 10
24.384599999999999
 20
161.5
 30
0.0
 11
24.384599999999999
 21
160.86999999999989
 31
0.0
  0
LINE
  5
79
  8
0
 10
24.384599999999999
 20
161.5
 30
0.0
 11
65.615399999999994
 21
161.5
 31
0.0
  0
LINE
  5
7A
  8
0
 10
24.0
 20
228.41
 30
0.0
 11
24.0
 21
224.0
 31
0.0
  0
LINE
  5
7B
  8
0
 10
24.0
 20
228.41
 30
0.0
 11
24.0
 21
232.46999999999991
 31
0.0
  0
LINE
  5
7C
  8
0
 10
24.0
 20
232.46999999999991
 30
0.0
 11
24.0
 21
228.41
 31
0.0
  0
LINE
  5
7D
  8
0
 10
24.0
 20
232.46999999999991
 30
0.0
 11
24.0
 21
236.03999999999991
 31
0.0
  0
LINE
  5
7E
  8
0
 10
24.0
 20
236.03999999999991
 30
0.0
 11
24.0
 21
232.46999999999991
 31
0.0
  0
LINE
  5
7F
  8
0
 10
24.0
 20
236.03999999999991
 30
0.0
 11
24.0
 21
238.77000000000001
 31
0.0
  0
LINE
  5
80
  8
0
 10
24.0
 20
238.77000000000001
 30
0.0
 11
24.0
 21
236.03999999999991
 31
0.0
  0
LINE
  5
81
  8
0
 10
24.0
 20
238.77000000000001
 30
0.0
 11
24.0
 21
240.44999999999999
 31
0.0
  0
LINE
  5
82
  8
0
 10
24.0
 20
240.44999999999999
 30
0.0
 11
24.0
 21
238.77000000000001
 31
0.0
  0
LINE
  5
83
  8
0
 10
24.0
 20
240.44999999999999
 30
0.0
 11
24.0
 21
241.08000000000001
 31
0.0
  0
LINE
  5
84
  8
0
 10
24.0
 20
241.08000000000001
 30
0.0
 11
24.384599999999999
 21
241.5
 31
0.0
  0
LINE
  5
85
  8
0
 10
24.0
 20
241.08000000000001
 30
0.0
 11
24.0
 21
240.44999999999999
 31
0.0
  0
LINE
  5
86
  8
0
 10
24.0
 20
224.0
 30
0.0
 11
24.0
 21
219.58999999999989
 31
0.0
  0
LINE
  5
87
  8
0
 10
24.0
 20
224.0
 30
0.0
 11
24.0
 21
228.41
 31
0.0
  0
LINE
  5
88
  8
0
 10
24.0
 20
219.58999999999989
 30
0.0
 11
24.0
 21
215.52999999999989
 31
0.0
  0
LINE
  5
89
  8
0
 10
24.0
 20
219.58999999999989
 30
0.0
 11
24.0
 21
224.0
 31
0.0
  0
LINE
  5
8A
  8
0
 10
24.0
 20
215.52999999999989
 30
0.0
 11
24.0
 21
211.96000000000001
 31
0.0
  0
LINE
  5
8B
  8
0
 10
24.0
 20
215.52999999999989
 30
0.0
 11
24.0
 21
219.58999999999989
 31
0.0
  0
LINE
  5
8C
  8
0
 10
24.0
 20
211.96000000000001
 30
0.0
 11
24.0
 21
209.2299999999999
 31
0.0
  0
LINE
  5
8D
  8
0
 10
24.0
 20
211.96000000000001
 30
0.0
 11
24.0
 21
215.52999999999989
 31
0.0
  0
LINE
  5
8E
  8
0
 10
24.0
 20
209.2299999999999
 30
0.0
 11
24.0
 21
207.55000000000001
 31
0.0
  0
LINE
  5
8F
  8
0
 10
24.0
 20
209.2299999999999
 30
0.0
 11
24.0
 21
211.96000000000001
 31
0.0
  0
LINE
  5
90
  8
0
 10
24.0
 20
207.55000000000001
 30
0.0
 11
24.0
 21
206.9199999999999
 31
0.0
  0
LINE
  5
91
  8
0
 10
24.0
 20
207.55000000000001
 30
0.0
 11
24.0
 21
209.2299999999999
 31
0.0
  0
LINE
  5
92
  8
0
 10
24.0
 20
308.41000000000003
 30
0.0
 11
24.0
 21
304.0
 31
0.0
  0
LINE
  5
93
  8
0
 10
24.0
 20
308.41000000000003
 30
0.0
 11
24.0
 21
312.47000000000003
 31
0.0
  0
LINE
  5
94
  8
0
 10
24.0
 20
312.47000000000003
 30
0.0
 11
24.0
 21
308.41000000000003
 31
0.0
  0
LINE
  5
95
  8
0
 10
24.0
 20
312.47000000000003
 30
0.0
 11
24.0
 21
316.04000000000002
 31
0.0
  0
LINE
  5
96
  8
0
 10
24.0
 20
316.04000000000002
 30
0.0
 11
24.0
 21
312.47000000000003
 31
0.0
  0
LINE
  5
97
  8
0
 10
24.0
 20
316.04000000000002
 30
0.0
 11
24.0
 21
318.76999999999992
 31
0.0
  0
LINE
  5
98
  8
0
 10
24.0
 20
318.76999999999992
 30
0.0
 11
24.0
 21
316.04000000000002
 31
0.0
  0
LINE
  5
99
  8
0
 10
24.0
 20
318.76999999999992
 30
0.0
 11
24.0
 21
320.44999999999987
 31
0.0
  0
LINE
  5
9A
  8
0
 10
24.0
 20
320.44999999999987
 30
0.0
 11
24.0
 21
318.76999999999992
 31
0.0
  0
LINE
  5
9B
  8
0
 10
24.0
 20
320.44999999999987
 30
0.0
 11
24.0
 21
321.07999999999993
 31
0.0
  0
LINE
  5
9C
  8
0
 10
24.0
 20
321.07999999999993
 30
0.0
 11
24.384599999999999
 21
321.49999999999989
 31
0.0
  0
LINE
  5
9D
  8
0
 10
24.0
 20
321.07999999999993
 30
0.0
 11
24.0
 21
320.44999999999987
 31
0.0
  0
LINE
  5
9E
  8
0
 10
24.0
 20
304.0
 30
0.0
 11
24.0
 21
299.58999999999992
 31
0.0
  0
LINE
  5
9F
  8
0
 10
24.0
 20
304.0
 30
0.0
 11
24.0
 21
308.41000000000003
 31
0.0
  0
LINE
  5
A0
  8
0
 10
24.0
 20
299.58999999999992
 30
0.0
 11
24.0
 21
295.52999999999992
 31
0.0
  0
LINE
  5
A1
  8
0
 10
24.0
 20
299.58999999999992
 30
0.0
 11
24.0
 21
304.0
 31
0.0
  0
LINE
  5
A2
  8
0
 10
24.0
 20
295.52999999999992
 30
0.0
 11
24.0
 21
291.95999999999992
 31
0.0
  0
LINE
  5
A3
  8
0
 10
24.0
 20
295.52999999999992
 30
0.0
 11
24.0
 21
299.58999999999992
 31
0.0
  0
LINE
  5
A4
  8
0
 10
24.0
 20
291.95999999999992
 30
0.0
 11
24.0
 21
289.23000000000002
 31
0.0
  0
LINE
  5
A5
  8
0
 10
24.0
 20
291.95999999999992
 30
0.0
 11
24.0
 21
295.52999999999992
 31
0.0
  0
LINE
  5
A6
  8
0
 10
24.0
 20
289.23000000000002
 30
0.0
 11
24.0
 21
287.55000000000001
 31
0.0
  0
LINE
  5
A7
  8
0
 10
24.0
 20
289.23000000000002
 30
0.0
 11
24.0
 21
291.95999999999992
 31
0.0
  0
LINE
  5
A8
  8
0
 10
24.0
 20
287.55000000000001
 30
0.0
 11
24.0
 21
286.92000000000002
 31
0.0
  0
LINE
  5
A9
  8
0
 10
24.0
 20
287.55000000000001
 30
0.0
 11
24.0
 21
289.23000000000002
 31
0.0
  0
LINE
  5
AA
  8
0
 10
24.0
 20
286.92000000000002
 30
0.0
 11
24.384599999999999
 21
286.5
 31
0.0
  0
LINE
  5
AB
  8
0
 10
24.0
 20
286.92000000000002
 30
0.0
 11
24.0
 21
287.55000000000001
 31
0.0
  0
LINE
  5
AC
  8
0
 10
24.0
 20
206.9199999999999
 30
0.0
 11
24.384599999999999
 21
206.49999999999989
 31
0.0
  0
LINE
  5
AD
  8
0
 10
24.0
 20
206.9199999999999
 30
0.0
 11
24.0
 21
207.55000000000001
 31
0.0
  0
LINE
  5
AE
  8
0
 10
24.384599999999999
 20
161.5
 30
0.0
 11
65.615399999999994
 21
161.5
 31
0.0
  0
LINE
  5
AF
  8
0
 10
24.0
 20
144.0
 30
0.0
 11
24.0
 21
139.59
 31
0.0
  0
LINE
  5
B0
  8
0
 10
24.0
 20
144.0
 30
0.0
 11
24.0
 21
148.40999999999991
 31
0.0
  0
LINE
  5
B1
  8
0
 10
24.0
 20
139.59
 30
0.0
 11
24.0
 21
135.52999999999989
 31
0.0
  0
LINE
  5
B2
  8
0
 10
24.0
 20
139.59
 30
0.0
 11
24.0
 21
144.0
 31
0.0
  0
LINE
  5
B3
  8
0
 10
24.384599999999999
 20
144.0
 30
0.0
 11
24.384599999999999
 21
139.52000000000001
 31
0.0
  0
LINE
  5
B4
  8
0
 10
24.384599999999999
 20
144.0
 30
0.0
 11
24.384599999999999
 21
148.4799999999999
 31
0.0
  0
LINE
  5
B5
  8
0
 10
24.384599999999999
 20
139.52000000000001
 30
0.0
 11
24.384599999999999
 21
135.31999999999991
 31
0.0
  0
LINE
  5
B6
  8
0
 10
24.384599999999999
 20
139.52000000000001
 30
0.0
 11
24.384599999999999
 21
144.0
 31
0.0
  0
LINE
  5
B7
  8
0
 10
24.384599999999999
 20
135.31999999999991
 30
0.0
 11
24.384599999999999
 21
131.61000000000001
 31
0.0
  0
LINE
  5
B8
  8
0
 10
24.384599999999999
 20
135.31999999999991
 30
0.0
 11
24.384599999999999
 21
139.52000000000001
 31
0.0
  0
LINE
  5
B9
  8
0
 10
24.384599999999999
 20
131.61000000000001
 30
0.0
 11
24.384599999999999
 21
128.81
 31
0.0
  0
LINE
  5
BA
  8
0
 10
24.384599999999999
 20
131.61000000000001
 30
0.0
 11
24.384599999999999
 21
135.31999999999991
 31
0.0
  0
LINE
  5
BB
  8
0
 10
24.384599999999999
 20
128.81
 30
0.0
 11
24.384599999999999
 21
127.1299999999999
 31
0.0
  0
LINE
  5
BC
  8
0
 10
24.384599999999999
 20
128.81
 30
0.0
 11
24.384599999999999
 21
131.61000000000001
 31
0.0
  0
LINE
  5
BD
  8
0
 10
24.384599999999999
 20
127.1299999999999
 30
0.0
 11
24.384599999999999
 21
126.5
 31
0.0
  0
LINE
  5
BE
  8
0
 10
24.384599999999999
 20
127.1299999999999
 30
0.0
 11
24.384599999999999
 21
128.81
 31
0.0
  0
LINE
  5
BF
  8
0
 10
24.384599999999999
 20
228.47999999999999
 30
0.0
 11
24.384599999999999
 21
224.0
 31
0.0
  0
LINE
  5
C0
  8
0
 10
24.384599999999999
 20
228.47999999999999
 30
0.0
 11
24.384599999999999
 21
232.67999999999989
 31
0.0
  0
LINE
  5
C1
  8
0
 10
24.384599999999999
 20
232.67999999999989
 30
0.0
 11
24.384599999999999
 21
228.47999999999999
 31
0.0
  0
LINE
  5
C2
  8
0
 10
24.384599999999999
 20
232.67999999999989
 30
0.0
 11
24.384599999999999
 21
236.38999999999999
 31
0.0
  0
LINE
  5
C3
  8
0
 10
24.384599999999999
 20
236.38999999999999
 30
0.0
 11
24.384599999999999
 21
232.67999999999989
 31
0.0
  0
LINE
  5
C4
  8
0
 10
24.384599999999999
 20
236.38999999999999
 30
0.0
 11
24.384599999999999
 21
239.19
 31
0.0
  0
LINE
  5
C5
  8
0
 10
24.384599999999999
 20
239.19
 30
0.0
 11
24.384599999999999
 21
236.38999999999999
 31
0.0
  0
LINE
  5
C6
  8
0
 10
24.384599999999999
 20
239.19
 30
0.0
 11
24.384599999999999
 21
240.87
 31
0.0
  0
LINE
  5
C7
  8
0
 10
24.384599999999999
 20
321.49999999999989
 30
0.0
 11
65.615399999999994
 21
321.49999999999989
 31
0.0
  0
LINE
  5
C8
  8
0
 10
24.384599999999999
 20
286.5
 30
0.0
 11
65.615399999999994
 21
286.5
 31
0.0
  0
LINE
  5
C9
  8
0
 10
24.384599999999999
 20
240.87
 30
0.0
 11
24.384599999999999
 21
239.19
 31
0.0
  0
LINE
  5
CA
  8
0
 10
24.384599999999999
 20
240.87
 30
0.0
 11
24.384599999999999
 21
241.5
 31
0.0
  0
LINE
  5
CB
  8
0
 10
24.384599999999999
 20
241.5
 30
0.0
 11
65.615399999999994
 21
241.5
 31
0.0
  0
LINE
  5
CC
  8
0
 10
24.384599999999999
 20
241.5
 30
0.0
 11
24.384599999999999
 21
240.87
 31
0.0
  0
LINE
  5
CD
  8
0
 10
24.384599999999999
 20
224.0
 30
0.0
 11
24.384599999999999
 21
219.52000000000001
 31
0.0
  0
LINE
  5
CE
  8
0
 10
24.384599999999999
 20
224.0
 30
0.0
 11
24.384599999999999
 21
228.47999999999999
 31
0.0
  0
LINE
  5
CF
  8
0
 10
24.384599999999999
 20
219.52000000000001
 30
0.0
 11
24.384599999999999
 21
215.31999999999999
 31
0.0
  0
LINE
  5
D0
  8
0
 10
24.384599999999999
 20
219.52000000000001
 30
0.0
 11
24.384599999999999
 21
224.0
 31
0.0
  0
LINE
  5
D1
  8
0
 10
24.384599999999999
 20
215.31999999999999
 30
0.0
 11
24.384599999999999
 21
211.61000000000001
 31
0.0
  0
LINE
  5
D2
  8
0
 10
24.384599999999999
 20
215.31999999999999
 30
0.0
 11
24.384599999999999
 21
219.52000000000001
 31
0.0
  0
LINE
  5
D3
  8
0
 10
24.384599999999999
 20
211.61000000000001
 30
0.0
 11
24.384599999999999
 21
208.80999999999989
 31
0.0
  0
LINE
  5
D4
  8
0
 10
24.384599999999999
 20
211.61000000000001
 30
0.0
 11
24.384599999999999
 21
215.31999999999999
 31
0.0
  0
LINE
  5
D5
  8
0
 10
24.384599999999999
 20
208.80999999999989
 30
0.0
 11
24.384599999999999
 21
207.12999999999991
 31
0.0
  0
LINE
  5
D6
  8
0
 10
24.384599999999999
 20
208.80999999999989
 30
0.0
 11
24.384599999999999
 21
211.61000000000001
 31
0.0
  0
LINE
  5
D7
  8
0
 10
24.384599999999999
 20
308.48000000000002
 30
0.0
 11
24.384599999999999
 21
304.0
 31
0.0
  0
LINE
  5
D8
  8
0
 10
24.384599999999999
 20
308.48000000000002
 30
0.0
 11
24.384599999999999
 21
312.68000000000001
 31
0.0
  0
LINE
  5
D9
  8
0
 10
24.384599999999999
 20
312.68000000000001
 30
0.0
 11
24.384599999999999
 21
308.48000000000002
 31
0.0
  0
LINE
  5
DA
  8
0
 10
24.384599999999999
 20
312.68000000000001
 30
0.0
 11
24.384599999999999
 21
316.38999999999987
 31
0.0
  0
LINE
  5
DB
  8
0
 10
24.384599999999999
 20
316.38999999999987
 30
0.0
 11
24.384599999999999
 21
312.68000000000001
 31
0.0
  0
LINE
  5
DC
  8
0
 10
24.384599999999999
 20
316.38999999999987
 30
0.0
 11
24.384599999999999
 21
319.18999999999988
 31
0.0
  0
LINE
  5
DD
  8
0
 10
24.384599999999999
 20
319.18999999999988
 30
0.0
 11
24.384599999999999
 21
316.38999999999987
 31
0.0
  0
LINE
  5
DE
  8
0
 10
24.384599999999999
 20
319.18999999999988
 30
0.0
 11
24.384599999999999
 21
320.87
 31
0.0
  0
LINE
  5
DF
  8
0
 10
24.384599999999999
 20
320.87
 30
0.0
 11
24.384599999999999
 21
319.18999999999988
 31
0.0
  0
LINE
  5
E0
  8
0
 10
24.384599999999999
 20
320.87
 30
0.0
 11
24.384599999999999
 21
321.49999999999989
 31
0.0
  0
LINE
  5
E1
  8
0
 10
24.384599999999999
 20
321.49999999999989
 30
0.0
 11
24.384599999999999
 21
320.87
 31
0.0
  0
LINE
  5
E2
  8
0
 10
24.384599999999999
 20
321.49999999999989
 30
0.0
 11
65.615399999999994
 21
321.49999999999989
 31
0.0
  0
LINE
  5
E3
  8
0
 10
24.384599999999999
 20
304.0
 30
0.0
 11
24.384599999999999
 21
299.51999999999998
 31
0.0
  0
LINE
  5
E4
  8
0
 10
24.384599999999999
 20
304.0
 30
0.0
 11
24.384599999999999
 21
308.48000000000002
 31
0.0
  0
LINE
  5
E5
  8
0
 10
24.384599999999999
 20
299.51999999999998
 30
0.0
 11
24.384599999999999
 21
295.31999999999988
 31
0.0
  0
LINE
  5
E6
  8
0
 10
24.384599999999999
 20
299.51999999999998
 30
0.0
 11
24.384599999999999
 21
304.0
 31
0.0
  0
LINE
  5
E7
  8
0
 10
24.384599999999999
 20
295.31999999999988
 30
0.0
 11
24.384599999999999
 21
291.61000000000001
 31
0.0
  0
LINE
  5
E8
  8
0
 10
24.384599999999999
 20
295.31999999999988
 30
0.0
 11
24.384599999999999
 21
299.51999999999998
 31
0.0
  0
LINE
  5
E9
  8
0
 10
24.384599999999999
 20
291.61000000000001
 30
0.0
 11
24.384599999999999
 21
288.81
 31
0.0
  0
LINE
  5
EA
  8
0
 10
24.384599999999999
 20
291.61000000000001
 30
0.0
 11
24.384599999999999
 21
295.31999999999988
 31
0.0
  0
LINE
  5
EB
  8
0
 10
24.384599999999999
 20
288.81
 30
0.0
 11
24.384599999999999
 21
287.13
 31
0.0
  0
LINE
  5
EC
  8
0
 10
24.384599999999999
 20
288.81
 30
0.0
 11
24.384599999999999
 21
291.61000000000001
 31
0.0
  0
LINE
  5
ED
  8
0
 10
24.384599999999999
 20
287.13
 30
0.0
 11
24.384599999999999
 21
286.5
 31
0.0
  0
LINE
  5
EE
  8
0
 10
24.384599999999999
 20
287.13
 30
0.0
 11
24.384599999999999
 21
288.81
 31
0.0
  0
LINE
  5
EF
  8
0
 10
24.384599999999999
 20
286.5
 30
0.0
 11
65.615399999999994
 21
286.5
 31
0.0
  0
LINE
  5
F0
  8
0
 10
24.384599999999999
 20
286.5
 30
0.0
 11
24.384599999999999
 21
287.13
 31
0.0
  0
LINE
  5
F1
  8
0
 10
24.384599999999999
 20
207.12999999999991
 30
0.0
 11
24.384599999999999
 21
206.49999999999989
 31
0.0
  0
LINE
  5
F2
  8
0
 10
24.384599999999999
 20
207.12999999999991
 30
0.0
 11
24.384599999999999
 21
208.80999999999989
 31
0.0
  0
LINE
  5
F3
  8
0
 10
24.384599999999999
 20
206.49999999999989
 30
0.0
 11
65.615399999999994
 21
206.49999999999989
 31
0.0
  0
LINE
  5
F4
  8
0
 10
24.384599999999999
 20
206.49999999999989
 30
0.0
 11
24.384599999999999
 21
207.12999999999991
 31
0.0
  0
LINE
  5
F5
  8
0
 10
24.384599999999999
 20
126.5
 30
0.0
 11
65.615399999999994
 21
126.5
 31
0.0
  0
LINE
  5
F6
  8
0
 10
24.384599999999999
 20
126.5
 30
0.0
 11
24.384599999999999
 21
127.1299999999999
 31
0.0
  0
LINE
  5
F7
  8
0
 10
27.609999999999999
 20
90.5
 30
0.0
 11
27.850000000000001
 21
90.5
 31
0.0
  0
LINE
  5
F8
  8
0
 10
28.0
 20
90.307699999999997
 30
0.0
 11
28.0
 21
88.499999999999986
 31
0.0
  0
LINE
  5
F9
  8
0
 10
27.940000000000001
 20
90.5
 30
0.0
 11
28.0
 21
90.307699999999997
 31
0.0
  0
LINE
  5
FA
  8
0
 10
27.850000000000001
 20
90.5
 30
0.0
 11
27.940000000000001
 21
90.5
 31
0.0
  0
LINE
  5
FB
  8
0
 10
0.384614999999995
 20
88.499999999999986
 30
0.0
 11
28.0
 21
88.499999999999986
 31
0.0
  0
LINE
  5
FC
  8
0
 10
35.615400000000001
 20
70.271999999999991
 30
0.0
 11
35.615400000000001
 21
76.152000000000001
 31
0.0
  0
LINE
  5
FF
  8
0
 10
35.615400000000001
 20
70.271999999999991
 30
0.0
 11
35.615400000000001
 21
64.0
 31
0.0
  0
LINE
  5
100
  8
0
 10
35.615400000000001
 20
76.152000000000001
 30
0.0
 11
35.615400000000001
 21
81.346000000000004
 31
0.0
  0
LINE
  5
103
  8
0
 10
35.615400000000001
 20
76.152000000000001
 30
0.0
 11
35.615400000000001
 21
70.271999999999991
 31
0.0
  0
LINE
  5
104
  8
0
 10
35.615400000000001
 20
81.346000000000004
 30
0.0
 11
35.615400000000001
 21
85.266000000000005
 31
0.0
  0
LINE
  5
107
  8
0
 10
35.615400000000001
 20
81.346000000000004
 30
0.0
 11
35.615400000000001
 21
76.152000000000001
 31
0.0
  0
LINE
  5
108
  8
0
 10
35.615400000000001
 20
85.266000000000005
 30
0.0
 11
35.615400000000001
 21
87.617999999999995
 31
0.0
  0
LINE
  5
10B
  8
0
 10
35.615400000000001
 20
85.266000000000005
 30
0.0
 11
35.615400000000001
 21
81.346000000000004
 31
0.0
  0
LINE
  5
10C
  8
0
 10
35.615400000000001
 20
88.499999999999986
 30
0.0
 11
36.0
 21
87.912000000000006
 31
0.0
  0
LINE
  5
10D
  8
0
 10
35.615400000000001
 20
88.499999999999986
 30
0.0
 11
35.615400000000001
 21
87.617999999999995
 31
0.0
  0
LINE
  5
10E
  8
0
 10
35.615400000000001
 20
87.617999999999995
 30
0.0
 11
35.615400000000001
 21
88.499999999999986
 31
0.0
  0
LINE
  5
112
  8
0
 10
35.615400000000001
 20
87.617999999999995
 30
0.0
 11
35.615400000000001
 21
85.266000000000005
 31
0.0
  0
LINE
  5
113
  8
0
 10
28.0
 20
88.499999999999986
 30
0.0
 11
35.615400000000001
 21
88.499999999999986
 31
0.0
  0
LINE
  5
114
  8
0
 10
28.0
 20
88.499999999999986
 30
0.0
 11
28.0
 21
90.307699999999997
 31
0.0
  0
LINE
  5
116
  8
0
 10
35.615400000000001
 20
64.0
 30
0.0
 11
35.615400000000001
 21
57.728000000000002
 31
0.0
  0
LINE
  5
117
  8
0
 10
35.615400000000001
 20
64.0
 30
0.0
 11
35.615400000000001
 21
70.271999999999991
 31
0.0
  0
LINE
  5
119
  8
0
 10
35.615400000000001
 20
57.728000000000002
 30
0.0
 11
35.615400000000001
 21
51.847999999999999
 31
0.0
  0
LINE
  5
11B
  8
0
 10
35.615400000000001
 20
57.728000000000002
 30
0.0
 11
35.615400000000001
 21
64.0
 31
0.0
  0
LINE
  5
11D
  8
0
 10
35.615400000000001
 20
51.847999999999999
 30
0.0
 11
35.615400000000001
 21
46.653999999999989
 31
0.0
  0
LINE
  5
11F
  8
0
 10
35.615400000000001
 20
51.847999999999999
 30
0.0
 11
35.615400000000001
 21
57.728000000000002
 31
0.0
  0
LINE
  5
121
  8
0
 10
35.615400000000001
 20
46.653999999999989
 30
0.0
 11
35.615400000000001
 21
42.733999999999988
 31
0.0
  0
LINE
  5
123
  8
0
 10
35.615400000000001
 20
46.653999999999989
 30
0.0
 11
35.615400000000001
 21
51.847999999999999
 31
0.0
  0
LINE
  5
126
  8
0
 10
35.615400000000001
 20
42.733999999999988
 30
0.0
 11
35.615400000000001
 21
46.653999999999989
 31
0.0
  0
LINE
  5
127
  8
0
 10
36.0
 20
40.969999999999999
 30
0.0
 11
36.0
 21
43.321999999999989
 31
0.0
  0
LINE
  5
128
  8
0
 10
36.0
 20
40.969999999999999
 30
0.0
 11
36.0
 21
40.087999999999987
 31
0.0
  0
LINE
  5
129
  8
0
 10
35.615400000000001
 20
40.381999999999991
 30
0.0
 11
35.615400000000001
 21
39.5
 31
0.0
  0
LINE
  5
12C
  8
0
 10
35.615400000000001
 20
40.381999999999991
 30
0.0
 11
35.615400000000001
 21
42.733999999999988
 31
0.0
  0
LINE
  5
12D
  8
0
 10
36.320500000000003
 20
40.381999999999991
 30
0.0
 11
36.320500000000003
 21
39.5
 31
0.0
  0
LINE
  5
12E
  8
0
 10
36.320500000000003
 20
40.381999999999991
 30
0.0
 11
36.320500000000003
 21
42.733999999999988
 31
0.0
  0
LINE
  5
12F
  8
0
 10
36.320500000000003
 20
42.733999999999988
 30
0.0
 11
36.320500000000003
 21
46.653999999999989
 31
0.0
  0
LINE
  5
130
  8
0
 10
65.679500000000004
 20
42.733999999999988
 30
0.0
 11
65.679500000000004
 21
40.381999999999991
 31
0.0
  0
LINE
  5
131
  8
0
 10
65.679500000000004
 20
42.733999999999988
 30
0.0
 11
65.679500000000004
 21
46.653999999999989
 31
0.0
  0
LINE
  5
132
  8
0
 10
66.0
 20
43.321999999999989
 30
0.0
 11
66.0
 21
47.143999999999998
 31
0.0
  0
LINE
  5
133
  8
0
 10
66.0
 20
43.321999999999989
 30
0.0
 11
66.0
 21
40.969999999999999
 31
0.0
  0
LINE
  5
134
  8
0
 10
66.0
 20
40.969999999999999
 30
0.0
 11
66.0
 21
43.321999999999989
 31
0.0
  0
LINE
  5
135
  8
0
 10
65.679500000000004
 20
40.381999999999991
 30
0.0
 11
65.679500000000004
 21
39.5
 31
0.0
  0
LINE
  5
136
  8
0
 10
65.679500000000004
 20
40.381999999999991
 30
0.0
 11
65.679500000000004
 21
42.733999999999988
 31
0.0
  0
LINE
  5
137
  8
0
 10
36.0
 20
70.173999999999992
 30
0.0
 11
36.0
 21
75.858000000000004
 31
0.0
  0
LINE
  5
138
  8
0
 10
36.0
 20
70.173999999999992
 30
0.0
 11
36.0
 21
64.0
 31
0.0
  0
LINE
  5
139
  8
0
 10
36.0
 20
75.858000000000004
 30
0.0
 11
36.0
 21
80.856000000000009
 31
0.0
  0
LINE
  5
13A
  8
0
 10
36.0
 20
75.858000000000004
 30
0.0
 11
36.0
 21
70.173999999999992
 31
0.0
  0
LINE
  5
13B
  8
0
 10
36.0
 20
80.856000000000009
 30
0.0
 11
36.0
 21
84.677999999999997
 31
0.0
  0
LINE
  5
13C
  8
0
 10
36.0
 20
80.856000000000009
 30
0.0
 11
36.0
 21
75.858000000000004
 31
0.0
  0
LINE
  5
13D
  8
0
 10
36.0
 20
87.912000000000006
 30
0.0
 11
36.0
 21
87.030000000000015
 31
0.0
  0
LINE
  5
13E
  8
0
 10
36.0
 20
87.912000000000006
 30
0.0
 11
36.320500000000003
 21
88.499999999999986
 31
0.0
  0
LINE
  5
13F
  8
0
 10
36.0
 20
84.677999999999997
 30
0.0
 11
36.0
 21
87.030000000000015
 31
0.0
  0
LINE
  5
140
  8
0
 10
36.0
 20
84.677999999999997
 30
0.0
 11
36.0
 21
80.856000000000009
 31
0.0
  0
LINE
  5
141
  8
0
 10
36.0
 20
87.030000000000015
 30
0.0
 11
36.0
 21
87.912000000000006
 31
0.0
  0
LINE
  5
142
  8
0
 10
36.0
 20
87.030000000000015
 30
0.0
 11
36.0
 21
84.677999999999997
 31
0.0
  0
LINE
  5
143
  8
0
 10
36.0
 20
64.0
 30
0.0
 11
36.0
 21
57.826000000000001
 31
0.0
  0
LINE
  5
144
  8
0
 10
36.0
 20
64.0
 30
0.0
 11
36.0
 21
70.173999999999992
 31
0.0
  0
LINE
  5
145
  8
0
 10
36.0
 20
57.826000000000001
 30
0.0
 11
36.0
 21
64.0
 31
0.0
  0
LINE
  5
146
  8
0
 10
36.0
 20
57.826000000000001
 30
0.0
 11
36.0
 21
52.141999999999989
 31
0.0
  0
LINE
  5
147
  8
0
 10
36.0
 20
52.141999999999989
 30
0.0
 11
36.0
 21
57.826000000000001
 31
0.0
  0
LINE
  5
148
  8
0
 10
36.0
 20
52.141999999999989
 30
0.0
 11
36.0
 21
47.143999999999998
 31
0.0
  0
LINE
  5
149
  8
0
 10
36.320500000000003
 20
51.847999999999999
 30
0.0
 11
36.320500000000003
 21
46.653999999999989
 31
0.0
  0
LINE
  5
14A
  8
0
 10
36.320500000000003
 20
51.847999999999999
 30
0.0
 11
36.320500000000003
 21
57.728000000000002
 31
0.0
  0
LINE
  5
14B
  8
0
 10
36.320500000000003
 20
46.653999999999989
 30
0.0
 11
36.320500000000003
 21
42.733999999999988
 31
0.0
  0
LINE
  5
14C
  8
0
 10
36.320500000000003
 20
46.653999999999989
 30
0.0
 11
36.320500000000003
 21
51.847999999999999
 31
0.0
  0
LINE
  5
14D
  8
0
 10
36.320500000000003
 20
57.728000000000002
 30
0.0
 11
36.320500000000003
 21
51.847999999999999
 31
0.0
  0
LINE
  5
14E
  8
0
 10
36.320500000000003
 20
57.728000000000002
 30
0.0
 11
36.320500000000003
 21
64.0
 31
0.0
  0
LINE
  5
14F
  8
0
 10
36.320500000000003
 20
64.0
 30
0.0
 11
36.320500000000003
 21
57.728000000000002
 31
0.0
  0
LINE
  5
150
  8
0
 10
36.320500000000003
 20
64.0
 30
0.0
 11
36.320500000000003
 21
70.271999999999991
 31
0.0
  0
LINE
  5
151
  8
0
 10
66.0
 20
64.0
 30
0.0
 11
66.0
 21
57.826000000000001
 31
0.0
  0
LINE
  5
152
  8
0
 10
66.0
 20
64.0
 30
0.0
 11
66.0
 21
70.173999999999992
 31
0.0
  0
LINE
  5
153
  8
0
 10
36.320500000000003
 20
70.271999999999991
 30
0.0
 11
36.320500000000003
 21
64.0
 31
0.0
  0
LINE
  5
154
  8
0
 10
36.320500000000003
 20
70.271999999999991
 30
0.0
 11
36.320500000000003
 21
76.152000000000001
 31
0.0
  0
LINE
  5
155
  8
0
 10
36.320500000000003
 20
76.152000000000001
 30
0.0
 11
36.320500000000003
 21
70.271999999999991
 31
0.0
  0
LINE
  5
156
  8
0
 10
36.320500000000003
 20
76.152000000000001
 30
0.0
 11
36.320500000000003
 21
81.346000000000004
 31
0.0
  0
LINE
  5
157
  8
0
 10
36.320500000000003
 20
81.346000000000004
 30
0.0
 11
36.320500000000003
 21
76.152000000000001
 31
0.0
  0
LINE
  5
158
  8
0
 10
36.320500000000003
 20
81.346000000000004
 30
0.0
 11
36.320500000000003
 21
85.266000000000005
 31
0.0
  0
LINE
  5
159
  8
0
 10
36.320500000000003
 20
85.266000000000005
 30
0.0
 11
36.320500000000003
 21
81.346000000000004
 31
0.0
  0
LINE
  5
15A
  8
0
 10
36.320500000000003
 20
85.266000000000005
 30
0.0
 11
36.320500000000003
 21
87.617999999999995
 31
0.0
  0
LINE
  5
15B
  8
0
 10
36.320500000000003
 20
87.617999999999995
 30
0.0
 11
36.320500000000003
 21
85.266000000000005
 31
0.0
  0
LINE
  5
15C
  8
0
 10
36.320500000000003
 20
87.617999999999995
 30
0.0
 11
36.320500000000003
 21
88.499999999999986
 31
0.0
  0
LINE
  5
15D
  8
0
 10
65.679500000000004
 20
70.271999999999991
 30
0.0
 11
65.679500000000004
 21
76.152000000000001
 31
0.0
  0
LINE
  5
15E
  8
0
 10
65.679500000000004
 20
70.271999999999991
 30
0.0
 11
65.679500000000004
 21
64.0
 31
0.0
  0
LINE
  5
15F
  8
0
 10
65.679500000000004
 20
76.152000000000001
 30
0.0
 11
65.679500000000004
 21
81.346000000000004
 31
0.0
  0
LINE
  5
160
  8
0
 10
65.679500000000004
 20
76.152000000000001
 30
0.0
 11
65.679500000000004
 21
70.271999999999991
 31
0.0
  0
LINE
  5
161
  8
0
 10
65.679500000000004
 20
81.346000000000004
 30
0.0
 11
65.679500000000004
 21
85.266000000000005
 31
0.0
  0
LINE
  5
162
  8
0
 10
66.0
 20
70.173999999999992
 30
0.0
 11
66.0
 21
64.0
 31
0.0
  0
LINE
  5
163
  8
0
 10
65.679500000000004
 20
85.266000000000005
 30
0.0
 11
65.679500000000004
 21
87.617999999999995
 31
0.0
  0
LINE
  5
164
  8
0
 10
65.679500000000004
 20
85.266000000000005
 30
0.0
 11
65.679500000000004
 21
81.346000000000004
 31
0.0
  0
LINE
  5
165
  8
0
 10
65.615399999999994
 20
148.4799999999999
 30
0.0
 11
65.615399999999994
 21
152.68000000000001
 31
0.0
  0
LINE
  5
166
  8
0
 10
65.615399999999994
 20
148.4799999999999
 30
0.0
 11
65.615399999999994
 21
144.0
 31
0.0
  0
LINE
  5
167
  8
0
 10
65.615399999999994
 20
152.68000000000001
 30
0.0
 11
65.615399999999994
 21
156.3899999999999
 31
0.0
  0
LINE
  5
168
  8
0
 10
65.615399999999994
 20
152.68000000000001
 30
0.0
 11
65.615399999999994
 21
148.4799999999999
 31
0.0
  0
LINE
  5
169
  8
0
 10
65.615399999999994
 20
156.3899999999999
 30
0.0
 11
65.615399999999994
 21
159.19
 31
0.0
  0
LINE
  5
16A
  8
0
 10
65.615399999999994
 20
156.3899999999999
 30
0.0
 11
65.615399999999994
 21
152.68000000000001
 31
0.0
  0
LINE
  5
16B
  8
0
 10
65.615399999999994
 20
224.0
 30
0.0
 11
65.615399999999994
 21
219.52000000000001
 31
0.0
  0
LINE
  5
16C
  8
0
 10
65.615399999999994
 20
224.0
 30
0.0
 11
65.615399999999994
 21
228.47999999999999
 31
0.0
  0
LINE
  5
16D
  8
0
 10
65.615399999999994
 20
219.52000000000001
 30
0.0
 11
65.615399999999994
 21
215.31999999999999
 31
0.0
  0
LINE
  5
16E
  8
0
 10
65.615399999999994
 20
219.52000000000001
 30
0.0
 11
65.615399999999994
 21
224.0
 31
0.0
  0
LINE
  5
16F
  8
0
 10
65.615399999999994
 20
215.31999999999999
 30
0.0
 11
65.615399999999994
 21
211.61000000000001
 31
0.0
  0
LINE
  5
170
  8
0
 10
65.615399999999994
 20
215.31999999999999
 30
0.0
 11
65.615399999999994
 21
219.52000000000001
 31
0.0
  0
LINE
  5
171
  8
0
 10
65.615399999999994
 20
211.61000000000001
 30
0.0
 11
65.615399999999994
 21
208.80999999999989
 31
0.0
  0
LINE
  5
172
  8
0
 10
65.615399999999994
 20
211.61000000000001
 30
0.0
 11
65.615399999999994
 21
215.31999999999999
 31
0.0
  0
LINE
  5
173
  8
0
 10
65.615399999999994
 20
208.80999999999989
 30
0.0
 11
65.615399999999994
 21
207.12999999999991
 31
0.0
  0
LINE
  5
174
  8
0
 10
65.615399999999994
 20
208.80999999999989
 30
0.0
 11
65.615399999999994
 21
211.61000000000001
 31
0.0
  0
LINE
  5
175
  8
0
 10
65.615399999999994
 20
207.12999999999991
 30
0.0
 11
65.615399999999994
 21
206.49999999999989
 31
0.0
  0
LINE
  5
176
  8
0
 10
65.615399999999994
 20
207.12999999999991
 30
0.0
 11
65.615399999999994
 21
208.80999999999989
 31
0.0
  0
LINE
  5
177
  8
0
 10
65.615399999999994
 20
206.49999999999989
 30
0.0
 11
66.0
 21
206.9199999999999
 31
0.0
  0
LINE
  5
178
  8
0
 10
65.615399999999994
 20
206.49999999999989
 30
0.0
 11
65.615399999999994
 21
207.12999999999991
 31
0.0
  0
LINE
  5
179
  8
0
 10
65.615399999999994
 20
161.5
 30
0.0
 11
66.0
 21
161.08000000000001
 31
0.0
  0
LINE
  5
17A
  8
0
 10
65.615399999999994
 20
161.5
 30
0.0
 11
65.615399999999994
 21
160.86999999999989
 31
0.0
  0
LINE
  5
17B
  8
0
 10
65.615399999999994
 20
159.19
 30
0.0
 11
65.615399999999994
 21
160.86999999999989
 31
0.0
  0
LINE
  5
17C
  8
0
 10
65.615399999999994
 20
159.19
 30
0.0
 11
65.615399999999994
 21
156.3899999999999
 31
0.0
  0
LINE
  5
17D
  8
0
 10
65.615399999999994
 20
160.86999999999989
 30
0.0
 11
65.615399999999994
 21
161.5
 31
0.0
  0
LINE
  5
17E
  8
0
 10
65.615399999999994
 20
160.86999999999989
 30
0.0
 11
65.615399999999994
 21
159.19
 31
0.0
  0
LINE
  5
17F
  8
0
 10
65.615399999999994
 20
144.0
 30
0.0
 11
65.615399999999994
 21
139.52000000000001
 31
0.0
  0
LINE
  5
180
  8
0
 10
65.615399999999994
 20
144.0
 30
0.0
 11
65.615399999999994
 21
148.4799999999999
 31
0.0
  0
LINE
  5
181
  8
0
 10
65.615399999999994
 20
139.52000000000001
 30
0.0
 11
65.615399999999994
 21
135.31999999999991
 31
0.0
  0
LINE
  5
182
  8
0
 10
65.615399999999994
 20
139.52000000000001
 30
0.0
 11
65.615399999999994
 21
144.0
 31
0.0
  0
LINE
  5
183
  8
0
 10
65.615399999999994
 20
135.31999999999991
 30
0.0
 11
65.615399999999994
 21
131.61000000000001
 31
0.0
  0
LINE
  5
184
  8
0
 10
65.615399999999994
 20
135.31999999999991
 30
0.0
 11
65.615399999999994
 21
139.52000000000001
 31
0.0
  0
LINE
  5
185
  8
0
 10
65.615399999999994
 20
131.61000000000001
 30
0.0
 11
65.615399999999994
 21
128.81
 31
0.0
  0
LINE
  5
186
  8
0
 10
65.615399999999994
 20
131.61000000000001
 30
0.0
 11
65.615399999999994
 21
135.31999999999991
 31
0.0
  0
LINE
  5
187
  8
0
 10
65.615399999999994
 20
128.81
 30
0.0
 11
65.615399999999994
 21
127.1299999999999
 31
0.0
  0
LINE
  5
188
  8
0
 10
65.615399999999994
 20
128.81
 30
0.0
 11
65.615399999999994
 21
131.61000000000001
 31
0.0
  0
LINE
  5
189
  8
0
 10
65.615399999999994
 20
228.47999999999999
 30
0.0
 11
65.615399999999994
 21
232.67999999999989
 31
0.0
  0
LINE
  5
18A
  8
0
 10
65.615399999999994
 20
232.67999999999989
 30
0.0
 11
65.615399999999994
 21
236.38999999999999
 31
0.0
  0
LINE
  5
18B
  8
0
 10
65.615399999999994
 20
232.67999999999989
 30
0.0
 11
65.615399999999994
 21
228.47999999999999
 31
0.0
  0
LINE
  5
18C
  8
0
 10
65.615399999999994
 20
236.38999999999999
 30
0.0
 11
65.615399999999994
 21
239.19
 31
0.0
  0
LINE
  5
18D
  8
0
 10
65.615399999999994
 20
236.38999999999999
 30
0.0
 11
65.615399999999994
 21
232.67999999999989
 31
0.0
  0
LINE
  5
18E
  8
0
 10
65.615399999999994
 20
239.19
 30
0.0
 11
65.615399999999994
 21
240.87
 31
0.0
  0
LINE
  5
18F
  8
0
 10
65.615399999999994
 20
239.19
 30
0.0
 11
65.615399999999994
 21
236.38999999999999
 31
0.0
  0
LINE
  5
190
  8
0
 10
65.615399999999994
 20
308.48000000000002
 30
0.0
 11
65.615399999999994
 21
312.68000000000001
 31
0.0
  0
LINE
  5
191
  8
0
 10
65.615399999999994
 20
308.48000000000002
 30
0.0
 11
65.615399999999994
 21
304.0
 31
0.0
  0
LINE
  5
192
  8
0
 10
65.615399999999994
 20
312.68000000000001
 30
0.0
 11
65.615399999999994
 21
316.38999999999987
 31
0.0
  0
LINE
  5
193
  8
0
 10
65.615399999999994
 20
312.68000000000001
 30
0.0
 11
65.615399999999994
 21
308.48000000000002
 31
0.0
  0
LINE
  5
194
  8
0
 10
65.615399999999994
 20
316.38999999999987
 30
0.0
 11
65.615399999999994
 21
319.18999999999988
 31
0.0
  0
LINE
  5
195
  8
0
 10
65.615399999999994
 20
316.38999999999987
 30
0.0
 11
65.615399999999994
 21
312.68000000000001
 31
0.0
  0
LINE
  5
196
  8
0
 10
65.615399999999994
 20
321.49999999999989
 30
0.0
 11
66.0
 21
321.07999999999993
 31
0.0
  0
LINE
  5
197
  8
0
 10
65.615399999999994
 20
321.49999999999989
 30
0.0
 11
65.615399999999994
 21
320.87
 31
0.0
  0
LINE
  5
198
  8
0
 10
65.615399999999994
 20
319.18999999999988
 30
0.0
 11
65.615399999999994
 21
320.87
 31
0.0
  0
LINE
  5
199
  8
0
 10
65.615399999999994
 20
319.18999999999988
 30
0.0
 11
65.615399999999994
 21
316.38999999999987
 31
0.0
  0
LINE
  5
19A
  8
0
 10
65.615399999999994
 20
320.87
 30
0.0
 11
65.615399999999994
 21
321.49999999999989
 31
0.0
  0
LINE
  5
19B
  8
0
 10
65.615399999999994
 20
320.87
 30
0.0
 11
65.615399999999994
 21
319.18999999999988
 31
0.0
  0
LINE
  5
19C
  8
0
 10
65.615399999999994
 20
304.0
 30
0.0
 11
65.615399999999994
 21
299.51999999999998
 31
0.0
  0
LINE
  5
19D
  8
0
 10
65.615399999999994
 20
304.0
 30
0.0
 11
65.615399999999994
 21
308.48000000000002
 31
0.0
  0
LINE
  5
19E
  8
0
 10
65.615399999999994
 20
299.51999999999998
 30
0.0
 11
65.615399999999994
 21
295.31999999999988
 31
0.0
  0
LINE
  5
19F
  8
0
 10
65.615399999999994
 20
299.51999999999998
 30
0.0
 11
65.615399999999994
 21
304.0
 31
0.0
  0
LINE
  5
1A0
  8
0
 10
65.615399999999994
 20
295.31999999999988
 30
0.0
 11
65.615399999999994
 21
291.61000000000001
 31
0.0
  0
LINE
  5
1A1
  8
0
 10
65.615399999999994
 20
295.31999999999988
 30
0.0
 11
65.615399999999994
 21
299.51999999999998
 31
0.0
  0
LINE
  5
1A2
  8
0
 10
65.615399999999994
 20
291.61000000000001
 30
0.0
 11
65.615399999999994
 21
288.81
 31
0.0
  0
LINE
  5
1A3
  8
0
 10
65.615399999999994
 20
291.61000000000001
 30
0.0
 11
65.615399999999994
 21
295.31999999999988
 31
0.0
  0
LINE
  5
1A4
  8
0
 10
65.615399999999994
 20
288.81
 30
0.0
 11
65.615399999999994
 21
287.13
 31
0.0
  0
LINE
  5
1A5
  8
0
 10
65.615399999999994
 20
288.81
 30
0.0
 11
65.615399999999994
 21
291.61000000000001
 31
0.0
  0
LINE
  5
1A6
  8
0
 10
65.615399999999994
 20
287.13
 30
0.0
 11
65.615399999999994
 21
286.5
 31
0.0
  0
LINE
  5
1A7
  8
0
 10
65.615399999999994
 20
287.13
 30
0.0
 11
65.615399999999994
 21
288.81
 31
0.0
  0
LINE
  5
1A8
  8
0
 10
65.615399999999994
 20
286.5
 30
0.0
 11
66.0
 21
286.92000000000002
 31
0.0
  0
LINE
  5
1A9
  8
0
 10
65.615399999999994
 20
286.5
 30
0.0
 11
65.615399999999994
 21
287.13
 31
0.0
  0
LINE
  5
1AA
  8
0
 10
65.615399999999994
 20
241.5
 30
0.0
 11
66.0
 21
241.08000000000001
 31
0.0
  0
LINE
  5
1AB
  8
0
 10
65.615399999999994
 20
241.5
 30
0.0
 11
65.615399999999994
 21
240.87
 31
0.0
  0
LINE
  5
1AC
  8
0
 10
65.615399999999994
 20
240.87
 30
0.0
 11
65.615399999999994
 21
241.5
 31
0.0
  0
LINE
  5
1AD
  8
0
 10
65.615399999999994
 20
240.87
 30
0.0
 11
65.615399999999994
 21
239.19
 31
0.0
  0
LINE
  5
1AE
  8
0
 10
65.615399999999994
 20
127.1299999999999
 30
0.0
 11
65.615399999999994
 21
126.5
 31
0.0
  0
LINE
  5
1AF
  8
0
 10
65.615399999999994
 20
127.1299999999999
 30
0.0
 11
65.615399999999994
 21
128.81
 31
0.0
  0
LINE
  5
1B0
  8
0
 10
65.615399999999994
 20
126.5
 30
0.0
 11
66.0
 21
126.92
 31
0.0
  0
LINE
  5
1B1
  8
0
 10
65.615399999999994
 20
126.5
 30
0.0
 11
65.615399999999994
 21
127.1299999999999
 31
0.0
  0
LINE
  5
1B2
  8
0
 10
65.679500000000004
 20
88.499999999999986
 30
0.0
 11
66.0
 21
87.912000000000006
 31
0.0
  0
LINE
  5
1B3
  8
0
 10
65.679500000000004
 20
88.499999999999986
 30
0.0
 11
65.679500000000004
 21
87.617999999999995
 31
0.0
  0
LINE
  5
1B4
  8
0
 10
65.679500000000004
 20
87.617999999999995
 30
0.0
 11
65.679500000000004
 21
88.499999999999986
 31
0.0
  0
LINE
  5
1B5
  8
0
 10
65.679500000000004
 20
87.617999999999995
 30
0.0
 11
65.679500000000004
 21
85.266000000000005
 31
0.0
  0
LINE
  5
1B6
  8
0
 10
36.320500000000003
 20
88.499999999999986
 30
0.0
 11
65.679500000000004
 21
88.499999999999986
 31
0.0
  0
LINE
  5
1B7
  8
0
 10
36.320500000000003
 20
88.499999999999986
 30
0.0
 11
36.320500000000003
 21
87.617999999999995
 31
0.0
  0
LINE
  5
1B8
  8
0
 10
65.679500000000004
 20
64.0
 30
0.0
 11
65.679500000000004
 21
57.728000000000002
 31
0.0
  0
LINE
  5
1B9
  8
0
 10
65.679500000000004
 20
64.0
 30
0.0
 11
65.679500000000004
 21
70.271999999999991
 31
0.0
  0
LINE
  5
1BA
  8
0
 10
66.0
 20
57.826000000000001
 30
0.0
 11
66.0
 21
64.0
 31
0.0
  0
LINE
  5
1BB
  8
0
 10
66.0
 20
57.826000000000001
 30
0.0
 11
66.0
 21
52.141999999999989
 31
0.0
  0
LINE
  5
1BC
  8
0
 10
65.679500000000004
 20
57.728000000000002
 30
0.0
 11
65.679500000000004
 21
51.847999999999999
 31
0.0
  0
LINE
  5
1BD
  8
0
 10
65.679500000000004
 20
57.728000000000002
 30
0.0
 11
65.679500000000004
 21
64.0
 31
0.0
  0
LINE
  5
1BE
  8
0
 10
66.0
 20
52.141999999999989
 30
0.0
 11
66.0
 21
57.826000000000001
 31
0.0
  0
LINE
  5
1BF
  8
0
 10
66.0
 20
52.141999999999989
 30
0.0
 11
66.0
 21
47.143999999999998
 31
0.0
  0
LINE
  5
1C0
  8
0
 10
65.679500000000004
 20
51.847999999999999
 30
0.0
 11
65.679500000000004
 21
46.653999999999989
 31
0.0
  0
LINE
  5
1C1
  8
0
 10
65.679500000000004
 20
51.847999999999999
 30
0.0
 11
65.679500000000004
 21
57.728000000000002
 31
0.0
  0
LINE
  5
1C2
  8
0
 10
66.0
 20
47.143999999999998
 30
0.0
 11
66.0
 21
52.141999999999989
 31
0.0
  0
LINE
  5
1C3
  8
0
 10
66.0
 20
47.143999999999998
 30
0.0
 11
66.0
 21
43.321999999999989
 31
0.0
  0
LINE
  5
1C4
  8
0
 10
65.679500000000004
 20
46.653999999999989
 30
0.0
 11
65.679500000000004
 21
42.733999999999988
 31
0.0
  0
LINE
  5
1C5
  8
0
 10
65.679500000000004
 20
46.653999999999989
 30
0.0
 11
65.679500000000004
 21
51.847999999999999
 31
0.0
  0
LINE
  5
1C6
  8
0
 10
36.0
 20
47.143999999999998
 30
0.0
 11
36.0
 21
52.141999999999989
 31
0.0
  0
LINE
  5
1C7
  8
0
 10
36.0
 20
47.143999999999998
 30
0.0
 11
36.0
 21
43.321999999999989
 31
0.0
  0
LINE
  5
1C8
  8
0
 10
36.0
 20
43.321999999999989
 30
0.0
 11
36.0
 21
47.143999999999998
 31
0.0
  0
LINE
  5
1C9
  8
0
 10
36.0
 20
40.087999999999987
 30
0.0
 11
36.0
 21
40.969999999999999
 31
0.0
  0
LINE
  5
1CA
  8
0
 10
36.0
 20
40.087999999999987
 30
0.0
 11
36.320500000000003
 21
39.5
 31
0.0
  0
LINE
  5
1CB
  8
0
 10
35.615400000000001
 20
39.5
 30
0.0
 11
36.0
 21
40.087999999999987
 31
0.0
  0
LINE
  5
1CD
  8
0
 10
35.615400000000001
 20
39.5
 30
0.0
 11
35.615400000000001
 21
40.381999999999991
 31
0.0
  0
LINE
  5
1CE
  8
0
 10
66.0
 20
148.40999999999991
 30
0.0
 11
66.0
 21
152.46999999999991
 31
0.0
  0
LINE
  5
1CF
  8
0
 10
66.0
 20
148.40999999999991
 30
0.0
 11
66.0
 21
144.0
 31
0.0
  0
LINE
  5
1D0
  8
0
 10
66.0
 20
152.46999999999991
 30
0.0
 11
66.0
 21
156.03999999999999
 31
0.0
  0
LINE
  5
1D1
  8
0
 10
66.0
 20
152.46999999999991
 30
0.0
 11
66.0
 21
148.40999999999991
 31
0.0
  0
LINE
  5
1D2
  8
0
 10
66.0
 20
156.03999999999999
 30
0.0
 11
66.0
 21
158.77000000000001
 31
0.0
  0
LINE
  5
1D3
  8
0
 10
66.0
 20
156.03999999999999
 30
0.0
 11
66.0
 21
152.46999999999991
 31
0.0
  0
LINE
  5
1D4
  8
0
 10
66.0
 20
158.77000000000001
 30
0.0
 11
66.0
 21
160.4499999999999
 31
0.0
  0
LINE
  5
1D5
  8
0
 10
66.0
 20
158.77000000000001
 30
0.0
 11
66.0
 21
156.03999999999999
 31
0.0
  0
LINE
  5
1D6
  8
0
 10
66.0
 20
224.0
 30
0.0
 11
66.0
 21
219.58999999999989
 31
0.0
  0
LINE
  5
1D7
  8
0
 10
66.0
 20
224.0
 30
0.0
 11
66.0
 21
228.41
 31
0.0
  0
LINE
  5
1D8
  8
0
 10
66.0
 20
219.58999999999989
 30
0.0
 11
66.0
 21
224.0
 31
0.0
  0
LINE
  5
1D9
  8
0
 10
66.0
 20
219.58999999999989
 30
0.0
 11
66.0
 21
215.52999999999989
 31
0.0
  0
LINE
  5
1DA
  8
0
 10
66.0
 20
215.52999999999989
 30
0.0
 11
66.0
 21
219.58999999999989
 31
0.0
  0
LINE
  5
1DB
  8
0
 10
66.0
 20
215.52999999999989
 30
0.0
 11
66.0
 21
211.96000000000001
 31
0.0
  0
LINE
  5
1DC
  8
0
 10
66.0
 20
211.96000000000001
 30
0.0
 11
66.0
 21
215.52999999999989
 31
0.0
  0
LINE
  5
1DD
  8
0
 10
66.0
 20
211.96000000000001
 30
0.0
 11
66.0
 21
209.2299999999999
 31
0.0
  0
LINE
  5
1DE
  8
0
 10
66.0
 20
209.2299999999999
 30
0.0
 11
66.0
 21
211.96000000000001
 31
0.0
  0
LINE
  5
1DF
  8
0
 10
66.0
 20
209.2299999999999
 30
0.0
 11
66.0
 21
207.55000000000001
 31
0.0
  0
LINE
  5
1E0
  8
0
 10
66.0
 20
207.55000000000001
 30
0.0
 11
66.0
 21
209.2299999999999
 31
0.0
  0
LINE
  5
1E1
  8
0
 10
66.0
 20
207.55000000000001
 30
0.0
 11
66.0
 21
206.9199999999999
 31
0.0
  0
LINE
  5
1E2
  8
0
 10
66.0
 20
206.9199999999999
 30
0.0
 11
66.0
 21
207.55000000000001
 31
0.0
  0
LINE
  5
1E3
  8
0
 10
66.0
 20
161.08000000000001
 30
0.0
 11
66.0
 21
160.4499999999999
 31
0.0
  0
LINE
  5
1E4
  8
0
 10
66.0
 20
160.4499999999999
 30
0.0
 11
66.0
 21
161.08000000000001
 31
0.0
  0
LINE
  5
1E5
  8
0
 10
66.0
 20
160.4499999999999
 30
0.0
 11
66.0
 21
158.77000000000001
 31
0.0
  0
LINE
  5
1E6
  8
0
 10
66.0
 20
144.0
 30
0.0
 11
66.0
 21
139.59
 31
0.0
  0
LINE
  5
1E7
  8
0
 10
66.0
 20
144.0
 30
0.0
 11
66.0
 21
148.40999999999991
 31
0.0
  0
LINE
  5
1E8
  8
0
 10
66.0
 20
139.59
 30
0.0
 11
66.0
 21
144.0
 31
0.0
  0
LINE
  5
1E9
  8
0
 10
66.0
 20
139.59
 30
0.0
 11
66.0
 21
135.52999999999989
 31
0.0
  0
LINE
  5
1EA
  8
0
 10
66.0
 20
135.52999999999989
 30
0.0
 11
66.0
 21
139.59
 31
0.0
  0
LINE
  5
1EB
  8
0
 10
66.0
 20
135.52999999999989
 30
0.0
 11
66.0
 21
131.96000000000001
 31
0.0
  0
LINE
  5
1EC
  8
0
 10
66.0
 20
131.96000000000001
 30
0.0
 11
66.0
 21
135.52999999999989
 31
0.0
  0
LINE
  5
1ED
  8
0
 10
66.0
 20
131.96000000000001
 30
0.0
 11
66.0
 21
129.22999999999999
 31
0.0
  0
LINE
  5
1EE
  8
0
 10
66.0
 20
129.22999999999999
 30
0.0
 11
66.0
 21
131.96000000000001
 31
0.0
  0
LINE
  5
1EF
  8
0
 10
66.0
 20
129.22999999999999
 30
0.0
 11
66.0
 21
127.55
 31
0.0
  0
LINE
  5
1F0
  8
0
 10
66.0
 20
127.55
 30
0.0
 11
66.0
 21
129.22999999999999
 31
0.0
  0
LINE
  5
1F1
  8
0
 10
66.0
 20
127.55
 30
0.0
 11
66.0
 21
126.92
 31
0.0
  0
LINE
  5
1F2
  8
0
 10
66.0
 20
308.41000000000003
 30
0.0
 11
66.0
 21
312.47000000000003
 31
0.0
  0
LINE
  5
1F3
  8
0
 10
66.0
 20
308.41000000000003
 30
0.0
 11
66.0
 21
304.0
 31
0.0
  0
LINE
  5
1F4
  8
0
 10
66.0
 20
312.47000000000003
 30
0.0
 11
66.0
 21
316.04000000000002
 31
0.0
  0
LINE
  5
1F5
  8
0
 10
66.0
 20
312.47000000000003
 30
0.0
 11
66.0
 21
308.41000000000003
 31
0.0
  0
LINE
  5
1F6
  8
0
 10
66.0
 20
316.04000000000002
 30
0.0
 11
66.0
 21
318.76999999999992
 31
0.0
  0
LINE
  5
1F7
  8
0
 10
66.0
 20
316.04000000000002
 30
0.0
 11
66.0
 21
312.47000000000003
 31
0.0
  0
LINE
  5
1F8
  8
0
 10
66.0
 20
321.07999999999993
 30
0.0
 11
66.0
 21
320.44999999999987
 31
0.0
  0
LINE
  5
1F9
  8
0
 10
66.0
 20
318.76999999999992
 30
0.0
 11
66.0
 21
320.44999999999987
 31
0.0
  0
LINE
  5
1FA
  8
0
 10
66.0
 20
318.76999999999992
 30
0.0
 11
66.0
 21
316.04000000000002
 31
0.0
  0
LINE
  5
1FB
  8
0
 10
66.0
 20
320.44999999999987
 30
0.0
 11
66.0
 21
321.07999999999993
 31
0.0
  0
LINE
  5
1FC
  8
0
 10
66.0
 20
320.44999999999987
 30
0.0
 11
66.0
 21
318.76999999999992
 31
0.0
  0
LINE
  5
1FD
  8
0
 10
66.0
 20
304.0
 30
0.0
 11
66.0
 21
299.58999999999992
 31
0.0
  0
LINE
  5
1FE
  8
0
 10
66.0
 20
304.0
 30
0.0
 11
66.0
 21
308.41000000000003
 31
0.0
  0
LINE
  5
1FF
  8
0
 10
66.0
 20
299.58999999999992
 30
0.0
 11
66.0
 21
304.0
 31
0.0
  0
LINE
  5
200
  8
0
 10
66.0
 20
299.58999999999992
 30
0.0
 11
66.0
 21
295.52999999999992
 31
0.0
  0
LINE
  5
201
  8
0
 10
66.0
 20
295.52999999999992
 30
0.0
 11
66.0
 21
299.58999999999992
 31
0.0
  0
LINE
  5
202
  8
0
 10
66.0
 20
295.52999999999992
 30
0.0
 11
66.0
 21
291.95999999999992
 31
0.0
  0
LINE
  5
203
  8
0
 10
66.0
 20
291.95999999999992
 30
0.0
 11
66.0
 21
295.52999999999992
 31
0.0
  0
LINE
  5
204
  8
0
 10
66.0
 20
291.95999999999992
 30
0.0
 11
66.0
 21
289.23000000000002
 31
0.0
  0
LINE
  5
205
  8
0
 10
66.0
 20
289.23000000000002
 30
0.0
 11
66.0
 21
291.95999999999992
 31
0.0
  0
LINE
  5
206
  8
0
 10
66.0
 20
289.23000000000002
 30
0.0
 11
66.0
 21
287.55000000000001
 31
0.0
  0
LINE
  5
207
  8
0
 10
66.0
 20
287.55000000000001
 30
0.0
 11
66.0
 21
289.23000000000002
 31
0.0
  0
LINE
  5
208
  8
0
 10
66.0
 20
287.55000000000001
 30
0.0
 11
66.0
 21
286.92000000000002
 31
0.0
  0
LINE
  5
209
  8
0
 10
66.0
 20
286.92000000000002
 30
0.0
 11
66.0
 21
287.55000000000001
 31
0.0
  0
LINE
  5
20A
  8
0
 10
66.0
 20
126.92
 30
0.0
 11
66.0
 21
127.55
 31
0.0
  0
LINE
  5
20B
  8
0
 10
66.299999999999983
 20
4.9999999999999796
 30
0.0
 11
66.299999999999983
 21
363.0
 31
0.0
  0
LINE
  5
20C
  8
0
 10
66.0
 20
4.9999999999999796
 30
0.0
 11
66.0
 21
363.0
 31
0.0
  0
LINE
  5
20D
  8
0
 10
66.0
 20
4.9999999999999796
 30
0.0
 11
66.0
 21
363.0
 31
0.0
  0
LINE
  5
20E
  8
0
 10
66.0
 20
4.9999999999999796
 30
0.0
 11
66.299999999999983
 21
4.2999999999999794
 31
0.0
  0
LINE
  5
20F
  8
0
 10
66.299999999999983
 20
363.0
 30
0.0
 11
66.5
 21
363.69999999999999
 31
0.0
  0
LINE
  5
210
  8
0
 10
66.0
 20
363.0
 30
0.0
 11
66.299999999999983
 21
363.69999999999999
 31
0.0
  0
LINE
  5
211
  8
0
 10
67.0
 20
3.9999999999999791
 30
0.0
 11
86.0
 21
3.9999999999999791
 31
0.0
  0
LINE
  5
212
  8
0
 10
67.0
 20
4.2999999999999794
 30
0.0
 11
86.0
 21
4.2999999999999794
 31
0.0
  0
LINE
  5
213
  8
0
 10
66.5
 20
4.2999999999999794
 30
0.0
 11
67.0
 21
4.2999999999999794
 31
0.0
  0
LINE
  5
214
  8
0
 10
86.0
 20
3.9999999999999791
 30
0.0
 11
86.699999999999989
 21
4.2999999999999794
 31
0.0
  0
LINE
  5
215
  8
0
 10
86.5
 20
4.2999999999999794
 30
0.0
 11
86.699999999999989
 21
4.9999999999999796
 31
0.0
  0
LINE
  5
216
  8
0
 10
86.5
 20
4.2999999999999794
 30
0.0
 11
86.699999999999989
 21
4.2999999999999794
 31
0.0
  0
LINE
  5
217
  8
0
 10
86.0
 20
4.2999999999999794
 30
0.0
 11
86.5
 21
4.2999999999999794
 31
0.0
  0
LINE
  5
218
  8
0
 10
86.699999999999989
 20
4.2999999999999794
 30
0.0
 11
87.0
 21
4.9999999999999796
 31
0.0
  0
LINE
  5
219
  8
0
 10
86.699999999999989
 20
4.9999999999999796
 30
0.0
 11
86.699999999999989
 21
363.0
 31
0.0
  0
LINE
  5
246
  8
0
 10
87.0
 20
11.0
 30
0.0
 11
87.0
 21
12.0792
 31
0.0
  0
LINE
  5
248
  8
0
 10
87.0
 20
12.0792
 30
0.0
 11
87.0
 21
13.9718
 31
0.0
  0
LINE
  5
249
  8
0
 10
87.0
 20
12.0792
 30
0.0
 11
87.0
 21
11.0
 31
0.0
  0
LINE
  5
24A
  8
0
 10
87.0
 20
13.9718
 30
0.0
 11
87.0
 21
15.8644
 31
0.0
  0
LINE
  5
24B
  8
0
 10
87.0
 20
13.9718
 30
0.0
 11
87.0
 21
12.0792
 31
0.0
  0
LINE
  5
24C
  8
0
 10
87.0
 20
15.8644
 30
0.0
 11
87.0
 21
18.758900000000001
 31
0.0
  0
LINE
  5
24D
  8
0
 10
87.0
 20
15.8644
 30
0.0
 11
87.0
 21
13.9718
 31
0.0
  0
LINE
  5
24E
  8
0
 10
87.0
 20
18.758900000000001
 30
0.0
 11
87.0
 21
23.657399999999999
 31
0.0
  0
LINE
  5
24F
  8
0
 10
87.0
 20
18.758900000000001
 30
0.0
 11
87.0
 21
15.8644
 31
0.0
  0
LINE
  5
250
  8
0
 10
87.0
 20
23.657399999999999
 30
0.0
 11
87.0
 21
30.114499999999989
 31
0.0
  0
LINE
  5
251
  8
0
 10
87.0
 20
23.657399999999999
 30
0.0
 11
87.0
 21
18.758900000000001
 31
0.0
  0
LINE
  5
252
  8
0
 10
87.0
 20
30.114499999999989
 30
0.0
 11
87.0
 21
37.239600000000003
 31
0.0
  0
LINE
  5
253
  8
0
 10
87.0
 20
30.114499999999989
 30
0.0
 11
87.0
 21
23.657399999999999
 31
0.0
  0
LINE
  5
254
  8
0
 10
87.0
 20
37.239600000000003
 30
0.0
 11
87.0
 21
46.81389999999999
 31
0.0
  0
LINE
  5
255
  8
0
 10
87.0
 20
37.239600000000003
 30
0.0
 11
87.0
 21
30.114499999999989
 31
0.0
  0
LINE
  5
256
  8
0
 10
87.0
 20
46.81389999999999
 30
0.0
 11
87.0
 21
57.487200000000001
 31
0.0
  0
LINE
  5
257
  8
0
 10
87.0
 20
46.81389999999999
 30
0.0
 11
87.0
 21
37.239600000000003
 31
0.0
  0
LINE
  5
258
  8
0
 10
87.0
 20
57.487200000000001
 30
0.0
 11
87.0
 21
71.034400000000005
 31
0.0
  0
LINE
  5
259
  8
0
 10
87.0
 20
57.487200000000001
 30
0.0
 11
87.0
 21
46.81389999999999
 31
0.0
  0
LINE
  5
25A
  8
0
 10
87.0
 20
71.034400000000005
 30
0.0
 11
87.0
 21
79.3934
 31
0.0
  0
LINE
  5
25B
  8
0
 10
87.0
 20
71.034400000000005
 30
0.0
 11
87.0
 21
57.487200000000001
 31
0.0
  0
LINE
  5
25C
  8
0
 10
87.0
 20
79.3934
 30
0.0
 11
87.0
 21
84.581699999999998
 31
0.0
  0
LINE
  5
25D
  8
0
 10
87.0
 20
79.3934
 30
0.0
 11
87.0
 21
71.034400000000005
 31
0.0
  0
LINE
  5
25E
  8
0
 10
87.0
 20
84.581699999999998
 30
0.0
 11
87.0
 21
87.560199999999995
 31
0.0
  0
LINE
  5
25F
  8
0
 10
87.0
 20
84.581699999999998
 30
0.0
 11
87.0
 21
79.3934
 31
0.0
  0
LINE
  5
260
  8
0
 10
87.0
 20
87.560199999999995
 30
0.0
 11
87.0
 21
90.250500000000002
 31
0.0
  0
LINE
  5
261
  8
0
 10
87.0
 20
87.560199999999995
 30
0.0
 11
87.0
 21
84.581699999999998
 31
0.0
  0
LINE
  5
262
  8
0
 10
87.0
 20
90.250500000000002
 30
0.0
 11
87.0
 21
92.556399999999996
 31
0.0
  0
LINE
  5
263
  8
0
 10
87.0
 20
90.250500000000002
 30
0.0
 11
87.0
 21
87.560199999999995
 31
0.0
  0
LINE
  5
264
  8
0
 10
87.0
 20
92.556399999999996
 30
0.0
 11
87.0
 21
94.574100000000016
 31
0.0
  0
LINE
  5
265
  8
0
 10
87.0
 20
92.556399999999996
 30
0.0
 11
87.0
 21
90.250500000000002
 31
0.0
  0
LINE
  5
266
  8
0
 10
87.0
 20
94.574100000000016
 30
0.0
 11
87.0
 21
96.321000000000012
 31
0.0
  0
LINE
  5
267
  8
0
 10
87.0
 20
94.574100000000016
 30
0.0
 11
87.0
 21
92.556399999999996
 31
0.0
  0
LINE
  5
269
  8
0
 10
87.0
 20
97.0
 30
0.0
 11
87.0
 21
96.321000000000012
 31
0.0
  0
LINE
  5
272
  8
0
 10
87.0
 20
96.321000000000012
 30
0.0
 11
87.0
 21
97.0
 31
0.0
  0
LINE
  5
273
  8
0
 10
87.0
 20
96.321000000000012
 30
0.0
 11
87.0
 21
94.574100000000016
 31
0.0
  0
LINE
  5
27E
  8
0
 10
87.0
 20
130.0
 30
0.0
 11
87.0
 21
130.50399999999991
 31
0.0
  0
LINE
  5
27F
  8
0
 10
87.0
 20
133.292
 30
0.0
 11
87.0
 21
134.40100000000001
 31
0.0
  0
LINE
  5
280
  8
0
 10
87.0
 20
132.923
 30
0.0
 11
87.0
 21
131.8479999999999
 31
0.0
  0
LINE
  5
281
  8
0
 10
87.0
 20
132.923
 30
0.0
 11
87.0
 21
133.292
 31
0.0
  0
LINE
  5
282
  8
0
 10
87.0
 20
130.50399999999991
 30
0.0
 11
87.0
 21
131.8479999999999
 31
0.0
  0
LINE
  5
283
  8
0
 10
87.0
 20
130.50399999999991
 30
0.0
 11
87.0
 21
130.0
 31
0.0
  0
LINE
  5
284
  8
0
 10
87.0
 20
131.8479999999999
 30
0.0
 11
87.0
 21
132.923
 31
0.0
  0
LINE
  5
285
  8
0
 10
87.0
 20
131.8479999999999
 30
0.0
 11
87.0
 21
130.50399999999991
 31
0.0
  0
LINE
  5
286
  8
0
 10
87.0
 20
131.8479999999999
 30
0.0
 11
87.0
 21
134.08799999999999
 31
0.0
  0
LINE
  5
28B
  8
0
 10
87.0
 20
134.40100000000001
 30
0.0
 11
87.0
 21
136.15299999999991
 31
0.0
  0
LINE
  5
28C
  8
0
 10
87.0
 20
134.08799999999999
 30
0.0
 11
87.0
 21
137.05600000000001
 31
0.0
  0
LINE
  5
28D
  8
0
 10
87.0
 20
134.08799999999999
 30
0.0
 11
87.0
 21
131.8479999999999
 31
0.0
  0
LINE
  5
292
  8
0
 10
87.0
 20
136.15299999999991
 30
0.0
 11
87.0
 21
138.46199999999999
 31
0.0
  0
LINE
  5
293
  8
0
 10
87.0
 20
138.46199999999999
 30
0.0
 11
87.0
 21
141.13800000000001
 31
0.0
  0
LINE
  5
294
  8
0
 10
87.0
 20
137.05600000000001
 30
0.0
 11
87.0
 21
140.416
 31
0.0
  0
LINE
  5
295
  8
0
 10
87.0
 20
137.05600000000001
 30
0.0
 11
87.0
 21
134.08799999999999
 31
0.0
  0
LINE
  5
29A
  8
0
 10
87.0
 20
144.0
 30
0.0
 11
87.0
 21
140.416
 31
0.0
  0
LINE
  5
29B
  8
0
 10
87.0
 20
144.0
 30
0.0
 11
87.0
 21
147.58399999999989
 31
0.0
  0
LINE
  5
29C
  8
0
 10
87.0
 20
144.0
 30
0.0
 11
87.0
 21
141.13800000000001
 31
0.0
  0
LINE
  5
29D
  8
0
 10
87.0
 20
140.416
 30
0.0
 11
87.0
 21
144.0
 31
0.0
  0
LINE
  5
29E
  8
0
 10
87.0
 20
140.416
 30
0.0
 11
87.0
 21
137.05600000000001
 31
0.0
  0
LINE
  5
2A3
  8
0
 10
87.0
 20
147.04599999999991
 30
0.0
 11
87.0
 21
144.0
 31
0.0
  0
LINE
  5
2A4
  8
0
 10
87.0
 20
147.58399999999989
 30
0.0
 11
87.0
 21
144.0
 31
0.0
  0
LINE
  5
2A5
  8
0
 10
87.0
 20
147.58399999999989
 30
0.0
 11
87.0
 21
150.9439999999999
 31
0.0
  0
LINE
  5
2AA
  8
0
 10
87.0
 20
149.74000000000001
 30
0.0
 11
87.0
 21
147.04599999999991
 31
0.0
  0
LINE
  5
2AB
  8
0
 10
87.0
 20
149.98500000000001
 30
0.0
 11
87.0
 21
149.74000000000001
 31
0.0
  0
LINE
  5
2AC
  8
0
 10
87.0
 20
152.35099999999991
 30
0.0
 11
87.0
 21
149.98500000000001
 31
0.0
  0
LINE
  5
2AD
  8
0
 10
87.0
 20
150.9439999999999
 30
0.0
 11
87.0
 21
147.58399999999989
 31
0.0
  0
LINE
  5
2AE
  8
0
 10
87.0
 20
150.9439999999999
 30
0.0
 11
87.0
 21
153.91200000000001
 31
0.0
  0
LINE
  5
2B5
  8
0
 10
87.0
 20
155.1629999999999
 30
0.0
 11
87.0
 21
154.06100000000001
 31
0.0
  0
LINE
  5
2B6
  8
0
 10
87.0
 20
154.06100000000001
 30
0.0
 11
87.0
 21
152.35099999999991
 31
0.0
  0
LINE
  5
2B7
  8
0
 10
87.0
 20
155.5379999999999
 30
0.0
 11
87.0
 21
156.15199999999999
 31
0.0
  0
LINE
  5
2B8
  8
0
 10
87.0
 20
155.5379999999999
 30
0.0
 11
87.0
 21
155.1629999999999
 31
0.0
  0
LINE
  5
2B9
  8
0
 10
87.0
 20
153.91200000000001
 30
0.0
 11
87.0
 21
150.9439999999999
 31
0.0
  0
LINE
  5
2BA
  8
0
 10
87.0
 20
153.91200000000001
 30
0.0
 11
87.0
 21
156.15199999999999
 31
0.0
  0
LINE
  5
2C2
  8
0
 10
87.0
 20
158.0
 30
0.0
 11
87.0
 21
157.49600000000001
 31
0.0
  0
LINE
  5
2C3
  8
0
 10
87.0
 20
157.49600000000001
 30
0.0
 11
87.0
 21
156.15199999999999
 31
0.0
  0
LINE
  5
2C4
  8
0
 10
87.0
 20
157.49600000000001
 30
0.0
 11
87.0
 21
158.0
 31
0.0
  0
LINE
  5
2C5
  8
0
 10
87.0
 20
156.15199999999999
 30
0.0
 11
87.0
 21
153.91200000000001
 31
0.0
  0
LINE
  5
2C6
  8
0
 10
87.0
 20
156.15199999999999
 30
0.0
 11
87.0
 21
157.49600000000001
 31
0.0
  0
LINE
  5
2C7
  8
0
 10
87.0
 20
156.15199999999999
 30
0.0
 11
87.0
 21
155.5379999999999
 31
0.0
  0
LINE
  5
34A
  8
0
 10
87.0
 20
290.0
 30
0.0
 11
87.0
 21
290.50399999999991
 31
0.0
  0
LINE
  5
34B
  8
0
 10
87.0
 20
293.29199999999997
 30
0.0
 11
87.0
 21
294.40100000000001
 31
0.0
  0
LINE
  5
34C
  8
0
 10
87.0
 20
292.923
 30
0.0
 11
87.0
 21
291.84800000000001
 31
0.0
  0
LINE
  5
34D
  8
0
 10
87.0
 20
292.923
 30
0.0
 11
87.0
 21
293.29199999999997
 31
0.0
  0
LINE
  5
34E
  8
0
 10
87.0
 20
290.50399999999991
 30
0.0
 11
87.0
 21
291.84800000000001
 31
0.0
  0
LINE
  5
34F
  8
0
 10
87.0
 20
290.50399999999991
 30
0.0
 11
87.0
 21
290.0
 31
0.0
  0
LINE
  5
350
  8
0
 10
87.0
 20
291.84800000000001
 30
0.0
 11
87.0
 21
292.923
 31
0.0
  0
LINE
  5
351
  8
0
 10
87.0
 20
291.84800000000001
 30
0.0
 11
87.0
 21
290.50399999999991
 31
0.0
  0
LINE
  5
352
  8
0
 10
87.0
 20
291.84800000000001
 30
0.0
 11
87.0
 21
294.08799999999991
 31
0.0
  0
LINE
  5
357
  8
0
 10
87.0
 20
294.40100000000001
 30
0.0
 11
87.0
 21
296.15399999999988
 31
0.0
  0
LINE
  5
358
  8
0
 10
87.0
 20
294.08799999999991
 30
0.0
 11
87.0
 21
297.05599999999993
 31
0.0
  0
LINE
  5
359
  8
0
 10
87.0
 20
294.08799999999991
 30
0.0
 11
87.0
 21
291.84800000000001
 31
0.0
  0
LINE
  5
35E
  8
0
 10
87.0
 20
296.15399999999988
 30
0.0
 11
87.0
 21
298.46199999999988
 31
0.0
  0
LINE
  5
35F
  8
0
 10
87.0
 20
298.46199999999988
 30
0.0
 11
87.0
 21
301.13799999999992
 31
0.0
  0
LINE
  5
360
  8
0
 10
87.0
 20
297.05599999999993
 30
0.0
 11
87.0
 21
300.416
 31
0.0
  0
LINE
  5
361
  8
0
 10
87.0
 20
297.05599999999993
 30
0.0
 11
87.0
 21
294.08799999999991
 31
0.0
  0
LINE
  5
366
  8
0
 10
87.0
 20
304.0
 30
0.0
 11
87.0
 21
300.416
 31
0.0
  0
LINE
  5
367
  8
0
 10
87.0
 20
304.0
 30
0.0
 11
87.0
 21
307.58399999999989
 31
0.0
  0
LINE
  5
368
  8
0
 10
87.0
 20
304.0
 30
0.0
 11
87.0
 21
301.13799999999992
 31
0.0
  0
LINE
  5
369
  8
0
 10
87.0
 20
300.416
 30
0.0
 11
87.0
 21
304.0
 31
0.0
  0
LINE
  5
36A
  8
0
 10
87.0
 20
300.416
 30
0.0
 11
87.0
 21
297.05599999999993
 31
0.0
  0
LINE
  5
36F
  8
0
 10
87.0
 20
307.04599999999999
 30
0.0
 11
87.0
 21
304.0
 31
0.0
  0
LINE
  5
370
  8
0
 10
87.0
 20
307.58399999999989
 30
0.0
 11
87.0
 21
304.0
 31
0.0
  0
LINE
  5
371
  8
0
 10
87.0
 20
307.58399999999989
 30
0.0
 11
87.0
 21
310.94400000000002
 31
0.0
  0
LINE
  5
376
  8
0
 10
87.0
 20
309.74000000000001
 30
0.0
 11
87.0
 21
307.04599999999999
 31
0.0
  0
LINE
  5
377
  8
0
 10
87.0
 20
309.9849999999999
 30
0.0
 11
87.0
 21
309.74000000000001
 31
0.0
  0
LINE
  5
378
  8
0
 10
87.0
 20
312.351
 30
0.0
 11
87.0
 21
309.9849999999999
 31
0.0
  0
LINE
  5
379
  8
0
 10
87.0
 20
310.94400000000002
 30
0.0
 11
87.0
 21
307.58399999999989
 31
0.0
  0
LINE
  5
37A
  8
0
 10
87.0
 20
310.94400000000002
 30
0.0
 11
87.0
 21
313.91199999999998
 31
0.0
  0
LINE
  5
381
  8
0
 10
87.0
 20
315.16300000000001
 30
0.0
 11
87.0
 21
314.06099999999992
 31
0.0
  0
LINE
  5
382
  8
0
 10
87.0
 20
314.06099999999992
 30
0.0
 11
87.0
 21
312.351
 31
0.0
  0
LINE
  5
383
  8
0
 10
87.0
 20
315.53899999999999
 30
0.0
 11
87.0
 21
316.15199999999987
 31
0.0
  0
LINE
  5
384
  8
0
 10
87.0
 20
315.53899999999999
 30
0.0
 11
87.0
 21
315.16300000000001
 31
0.0
  0
LINE
  5
385
  8
0
 10
87.0
 20
313.91199999999998
 30
0.0
 11
87.0
 21
310.94400000000002
 31
0.0
  0
LINE
  5
386
  8
0
 10
87.0
 20
313.91199999999998
 30
0.0
 11
87.0
 21
316.15199999999987
 31
0.0
  0
LINE
  5
38E
  8
0
 10
87.0
 20
318.0
 30
0.0
 11
87.0
 21
317.49599999999998
 31
0.0
  0
LINE
  5
38F
  8
0
 10
87.0
 20
317.49599999999998
 30
0.0
 11
87.0
 21
316.15199999999987
 31
0.0
  0
LINE
  5
390
  8
0
 10
87.0
 20
317.49599999999998
 30
0.0
 11
87.0
 21
318.0
 31
0.0
  0
LINE
  5
391
  8
0
 10
87.0
 20
316.15199999999987
 30
0.0
 11
87.0
 21
313.91199999999998
 31
0.0
  0
LINE
  5
392
  8
0
 10
87.0
 20
316.15199999999987
 30
0.0
 11
87.0
 21
317.49599999999998
 31
0.0
  0
LINE
  5
393
  8
0
 10
87.0
 20
316.15199999999987
 30
0.0
 11
87.0
 21
315.53899999999999
 31
0.0
  0
LINE
  5
888
  8
0
 10
87.0
 20
4.9999999999999796
 30
0.0
 11
87.0
 21
363.0
 31
0.0
  0
LINE
  5
889
  8
0
 10
87.0
 20
4.9999999999999796
 30
0.0
 11
87.0
 21
363.0
 31
0.0
  0
LINE
  5
88A
  8
0
 10
86.699999999999989
 20
4.9999999999999796
 30
0.0
 11
86.699999999999989
 21
363.0
 31
0.0
  0
LINE
  5
88B
  8
0
 10
86.699999999999989
 20
363.69999999999999
 30
0.0
 11
87.0
 21
363.0
 31
0.0
  0
LINE
  5
88C
  8
0
 10
86.5
 20
363.69999999999999
 30
0.0
 11
86.699999999999989
 21
363.69999999999999
 31
0.0
  0
LINE
  5
88D
  8
0
 10
86.5
 20
363.69999999999999
 30
0.0
 11
86.699999999999989
 21
363.0
 31
0.0
  0
LINE
  5
88E
  8
0
 10
86.0
 20
363.69999999999999
 30
0.0
 11
86.5
 21
363.69999999999999
 31
0.0
  0
LINE
  5
88F
  8
0
 10
67.0
 20
363.69999999999999
 30
0.0
 11
86.0
 21
363.69999999999999
 31
0.0
  0
LINE
  5
890
  8
0
 10
86.0
 20
364.0
 30
0.0
 11
86.699999999999989
 21
363.69999999999999
 31
0.0
  0
LINE
  5
891
  8
0
 10
67.0
 20
364.0
 30
0.0
 11
86.0
 21
364.0
 31
0.0
  0
LINE
  5
892
  8
0
 10
66.5
 20
363.69999999999999
 30
0.0
 11
67.0
 21
363.69999999999999
 31
0.0
  0
LINE
  5
893
  8
0
 10
66.299999999999983
 20
363.69999999999999
 30
0.0
 11
67.0
 21
364.0
 31
0.0
  0
LINE
  5
894
  8
0
 10
66.299999999999983
 20
363.69999999999999
 30
0.0
 11
66.5
 21
363.69999999999999
 31
0.0
  0
ENDSEC
  0
EOF
