  0
SECTION
  2
HEADER
  9
$ACADVER
  1
AC1009
  9
$INSBASE
 10
0.0
 20
0.0
 30
0.0
  9
$EXTMIN
 10
0.0
 20
3.9999999999999791
 30
0.0
  9
$EXTMAX
 10
120.0
 20
364.0
 30
0.0
  9
$LIMMIN
 10
0.0
 20
0.0
  9
$LIMMAX
 10
12.0
 20
9.0
  9
$ORTHOMODE
 70
     0
  9
$REGENMODE
 70
     1
  9
$FILLMODE
 70
     1
  9
$QTEXTMODE
 70
     0
  9
$MIRRTEXT
 70
     1
  9
$DRAGMODE
 70
     2
  9
$LTSCALE
 40
1.0
  9
$OSMODE
 70
    37
  9
$ATTMODE
 70
     1
  9
$TEXTSIZE
 40
0.2
  9
$TRACEWID
 40
0.05
  9
$TEXTSTYLE
  7
STANDARD
  9
$CLAYER
  8
0
  9
$CELTYPE
  6
CONTINUOUS
  9
$CECOLOR
 62
   256
  9
$DIMSCALE
 40
1.0
  9
$DIMASZ
 40
0.18
  9
$DIMEXO
 40
0.0625
  9
$DIMDLI
 40
0.38
  9
$DIMRND
 40
0.0
  9
$DIMDLE
 40
0.0
  9
$DIMEXE
 40
0.18
  9
$DIMTP
 40
0.0
  9
$DIMTM
 40
0.0
  9
$DIMTXT
 40
0.18
  9
$DIMCEN
 40
0.09
  9
$DIMTSZ
 40
0.0
  9
$DIMTOL
 70
     0
  9
$DIMLIM
 70
     0
  9
$DIMTIH
 70
     1
  9
$DIMTOH
 70
     1
  9
$DIMSE1
 70
     0
  9
$DIMSE2
 70
     0
  9
$DIMTAD
 70
     0
  9
$DIMZIN
 70
     0
  9
$DIMBLK
  1

  9
$DIMASO
 70
     1
  9
$DIMSHO
 70
     1
  9
$DIMPOST
  1

  9
$DIMAPOST
  1

  9
$DIMALT
 70
     0
  9
$DIMALTD
 70
     2
  9
$DIMALTF
 40
25.399999999999999
  9
$DIMLFAC
 40
1.0
  9
$DIMTOFL
 70
     0
  9
$DIMTVP
 40
0.0
  9
$DIMTIX
 70
     0
  9
$DIMSOXD
 70
     0
  9
$DIMSAH
 70
     0
  9
$DIMBLK1
  1

  9
$DIMBLK2
  1

  9
$DIMSTYLE
  2
STANDARD
  9
$DIMCLRD
 70
     0
  9
$DIMCLRE
 70
     0
  9
$DIMCLRT
 70
     0
  9
$DIMTFAC
 40
1.0
  9
$DIMGAP
 40
0.09
  9
$LUNITS
 70
     2
  9
$LUPREC
 70
     4
  9
$SKETCHINC
 40
0.1
  9
$FILLETRAD
 40
0.0
  9
$AUNITS
 70
     0
  9
$AUPREC
 70
     0
  9
$MENU
  1
.
  9
$ELEVATION
 40
0.0
  9
$PELEVATION
 40
0.0
  9
$THICKNESS
 40
0.0
  9
$LIMCHECK
 70
     0
  9
$BLIPMODE
 70
     0
  9
$CHAMFERA
 40
0.0
  9
$CHAMFERB
 40
0.0
  9
$SKPOLY
 70
     0
  9
$TDCREATE
 40
2454674.5344055551
  9
$TDUPDATE
 40
2454674.5407564701
  9
$TDINDWG
 40
0.0063512731
  9
$TDUSRTIMER
 40
0.0063512731
  9
$USRTIMER
 70
     1
  9
$ANGBASE
 50
0.0
  9
$ANGDIR
 70
     0
  9
$PDMODE
 70
     0
  9
$PDSIZE
 40
0.0
  9
$PLINEWID
 40
0.0
  9
$COORDS
 70
     1
  9
$SPLFRAME
 70
     0
  9
$SPLINETYPE
 70
     6
  9
$SPLINESEGS
 70
     8
  9
$ATTDIA
 70
     0
  9
$ATTREQ
 70
     1
  9
$HANDLING
 70
 22529
  9
$HANDSEED
  5
15B
  9
$SURFTAB1
 70
     6
  9
$SURFTAB2
 70
     6
  9
$SURFTYPE
 70
     6
  9
$SURFU
 70
     6
  9
$SURFV
 70
     6
  9
$UCSNAME
  2

  9
$UCSORG
 10
0.0
 20
0.0
 30
0.0
  9
$UCSXDIR
 10
1.0
 20
0.0
 30
0.0
  9
$UCSYDIR
 10
0.0
 20
1.0
 30
0.0
  9
$PUCSNAME
  2

  9
$PUCSORG
 10
0.0
 20
0.0
 30
0.0
  9
$PUCSXDIR
 10
1.0
 20
0.0
 30
0.0
  9
$PUCSYDIR
 10
0.0
 20
1.0
 30
0.0
  9
$USERI1
 70
     0
  9
$USERI2
 70
     0
  9
$USERI3
 70
     0
  9
$USERI4
 70
     0
  9
$USERI5
 70
     0
  9
$USERR1
 40
0.0
  9
$USERR2
 40
0.0
  9
$USERR3
 40
0.0
  9
$USERR4
 40
0.0
  9
$USERR5
 40
0.0
  9
$WORLDVIEW
 70
     1
  9
$SHADEDGE
 70
     3
  9
$SHADEDIF
 70
    70
  9
$TILEMODE
 70
     1
  9
$MAXACTVP
 70
    64
  9
$PLIMCHECK
 70
     0
  9
$PEXTMIN
 10
1.0000000000000000E+020
 20
1.0000000000000000E+020
 30
1.0000000000000000E+020
  9
$PEXTMAX
 10
-1.0000000000000000E+020
 20
-1.0000000000000000E+020
 30
-1.0000000000000000E+020
  9
$PLIMMIN
 10
0.0
 20
0.0
  9
$PLIMMAX
 10
12.0
 20
9.0
  9
$UNITMODE
 70
     0
  9
$VISRETAIN
 70
     1
  9
$PLINEGEN
 70
     0
  9
$PSLTSCALE
 70
     1
  0
ENDSEC
  0
SECTION
  2
TABLES
  0
TABLE
  2
VPORT
 70
     4
  0
VPORT
  2
*ACTIVE
 70
     0
 10
0.0
 20
0.0
 11
1.0
 21
1.0
 12
60.0
 22
183.99999999999989
 13
0.0
 23
0.0
 14
1.0
 24
1.0
 15
0.0
 25
0.0
 16
0.0
 26
0.0
 36
1.0
 17
0.0
 27
0.0
 37
0.0
 40
362.76214833759587
 41
2.0435339308578739
 42
50.0
 43
0.0
 44
0.0
 50
0.0
 51
0.0
 71
     0
 72
   100
 73
     1
 74
     3
 75
     0
 76
     0
 77
     0
 78
     0
  0
ENDTAB
  0
TABLE
  2
LTYPE
 70
     1
  0
LTYPE
  2
CONTINUOUS
 70
     0
  3
Solid line
 72
    65
 73
     0
 40
0.0
  0
ENDTAB
  0
TABLE
  2
LAYER
 70
     1
  0
LAYER
  2
0
 70
     0
 62
     7
  6
CONTINUOUS
  0
ENDTAB
  0
TABLE
  2
STYLE
 70
     1
  0
STYLE
  2
STANDARD
 70
     0
 40
0.0
 41
1.0
 50
0.0
 71
     0
 42
0.2
  3
txt
  4

  0
ENDTAB
  0
TABLE
  2
VIEW
 70
     0
  0
ENDTAB
  0
TABLE
  2
UCS
 70
     0
  0
ENDTAB
  0
TABLE
  2
APPID
 70
     1
  0
APPID
  2
ACAD
 70
     0
  0
ENDTAB
  0
TABLE
  2
DIMSTYLE
 70
     1
  0
DIMSTYLE
  2
STANDARD
 70
     0
  3

  4

  5

  6

  7

 40
1.0
 41
0.18
 42
0.0625
 43
0.38
 44
0.18
 45
0.0
 46
0.0
 47
0.0
 48
0.0
140
0.18
141
0.09
142
0.0
143
25.399999999999999
144
1.0
145
0.0
146
1.0
147
0.09
 71
     0
 72
     0
 73
     1
 74
     1
 75
     0
 76
     0
 77
     0
 78
     0
170
     0
171
     2
172
     0
173
     0
174
     0
175
     0
176
     0
177
     0
178
     0
  0
ENDTAB
  0
ENDSEC
  0
SECTION
  2
BLOCKS
  0
BLOCK
  8
0
  2
$MODEL_SPACE
 70
     0
 10
0.0
 20
0.0
 30
0.0
  3
$MODEL_SPACE
  1

  0
ENDBLK
  5
20
  8
0
  0
BLOCK
 67
     1
  8
0
  2
$PAPER_SPACE
 70
     0
 10
0.0
 20
0.0
 30
0.0
  3
$PAPER_SPACE
  1

  0
ENDBLK
  5
1C
 67
     1
  8
0
  0
ENDSEC
  0
SECTION
  2
ENTITIES
  0
LINE
  5
22
  8
0
 10
0.0
 20
4.9999999999999796
 30
0.0
 11
0.3
 21
4.2999999999999794
 31
0.0
  0
LINE
  5
23
  8
0
 10
0.3
 20
4.2999999999999794
 30
0.0
 11
1.0
 21
3.9999999999999791
 31
0.0
  0
LINE
  5
24
  8
0
 10
0.0
 20
4.9999999999999796
 30
0.0
 11
0.0
 21
363.0
 31
0.0
  0
LINE
  5
25
  8
0
 10
0.0
 20
363.0
 30
0.0
 11
0.3
 21
363.69999999999999
 31
0.0
  0
LINE
  5
26
  8
0
 10
0.0
 20
363.0
 30
0.0
 11
0.0
 21
4.9999999999999796
 31
0.0
  0
LINE
  5
27
  8
0
 10
0.3
 20
4.2999999999999794
 30
0.0
 11
1.0
 21
3.9999999999999791
 31
0.0
  0
LINE
  5
28
  8
0
 10
0.3
 20
4.2999999999999794
 30
0.0
 11
0.5
 21
4.2999999999999794
 31
0.0
  0
LINE
  5
29
  8
0
 10
0.5
 20
4.2999999999999794
 30
0.0
 11
1.0
 21
4.2999999999999794
 31
0.0
  0
LINE
  5
2A
  8
0
 10
0.3
 20
4.9999999999999796
 30
0.0
 11
0.3
 21
363.0
 31
0.0
  0
LINE
  5
2B
  8
0
 10
0.3
 20
4.9999999999999796
 30
0.0
 11
0.5
 21
4.2999999999999794
 31
0.0
  0
LINE
  5
2C
  8
0
 10
0.3
 20
363.0
 30
0.0
 11
0.5
 21
363.69999999999999
 31
0.0
  0
LINE
  5
2D
  8
0
 10
0.3
 20
363.0
 30
0.0
 11
0.3
 21
4.9999999999999796
 31
0.0
  0
LINE
  5
2E
  8
0
 10
1.0
 20
3.9999999999999791
 30
0.0
 11
119.0
 21
3.9999999999999791
 31
0.0
  0
LINE
  5
2F
  8
0
 10
0.999999999999996
 20
3.9999999999999791
 30
0.0
 11
119.0
 21
3.9999999999999791
 31
0.0
  0
LINE
  5
30
  8
0
 10
0.999999999999996
 20
4.2999999999999794
 30
0.0
 11
119.0
 21
4.2999999999999794
 31
0.0
  0
LINE
  5
73
  8
0
 10
53.728000000000002
 20
40.381999999999991
 30
0.0
 11
60.0
 21
39.5
 31
0.0
  0
LINE
  5
74
  8
0
 10
60.0
 20
39.5
 30
0.0
 11
66.271999999999991
 21
40.381999999999991
 31
0.0
  0
LINE
  5
75
  8
0
 10
66.271999999999991
 20
40.381999999999991
 30
0.0
 11
72.152000000000001
 21
42.733999999999988
 31
0.0
  0
LINE
  5
76
  8
0
 10
60.0
 20
39.5
 30
0.0
 11
66.271999999999991
 21
40.381999999999991
 31
0.0
  0
LINE
  5
77
  8
0
 10
42.653999999999989
 20
46.653999999999989
 30
0.0
 11
47.847999999999992
 21
42.733999999999988
 31
0.0
  0
LINE
  5
78
  8
0
 10
47.847999999999992
 20
42.733999999999988
 30
0.0
 11
53.728000000000002
 21
40.381999999999991
 31
0.0
  0
LINE
  5
79
  8
0
 10
36.381999999999991
 20
70.271999999999991
 30
0.0
 11
38.734000000000002
 21
76.152000000000001
 31
0.0
  0
LINE
  5
7A
  8
0
 10
38.734000000000002
 20
76.152000000000001
 30
0.0
 11
42.653999999999989
 21
81.346000000000004
 31
0.0
  0
LINE
  5
7B
  8
0
 10
35.5
 20
64.0
 30
0.0
 11
36.381999999999991
 21
57.728000000000002
 31
0.0
  0
LINE
  5
7C
  8
0
 10
35.5
 20
64.0
 30
0.0
 11
36.381999999999991
 21
70.271999999999991
 31
0.0
  0
LINE
  5
7D
  8
0
 10
36.381999999999991
 20
57.728000000000002
 30
0.0
 11
38.734000000000002
 21
51.847999999999999
 31
0.0
  0
LINE
  5
7E
  8
0
 10
42.920000000000002
 20
144.0
 30
0.0
 11
43.54999999999999
 21
139.59
 31
0.0
  0
LINE
  5
7F
  8
0
 10
42.920000000000002
 20
144.0
 30
0.0
 11
43.54999999999999
 21
148.40999999999991
 31
0.0
  0
LINE
  5
80
  8
0
 10
42.5
 20
304.0
 30
0.0
 11
43.130000000000003
 21
299.51999999999998
 31
0.0
  0
LINE
  5
81
  8
0
 10
42.5
 20
304.0
 30
0.0
 11
43.130000000000003
 21
308.48000000000002
 31
0.0
  0
LINE
  5
82
  8
0
 10
43.130000000000003
 20
308.48000000000002
 30
0.0
 11
44.810000000000002
 21
312.68000000000001
 31
0.0
  0
LINE
  5
83
  8
0
 10
42.920000000000002
 20
304.0
 30
0.0
 11
43.54999999999999
 21
299.58999999999992
 31
0.0
  0
LINE
  5
84
  8
0
 10
42.920000000000002
 20
304.0
 30
0.0
 11
43.54999999999999
 21
308.41000000000003
 31
0.0
  0
LINE
  5
85
  8
0
 10
43.130000000000003
 20
299.51999999999998
 30
0.0
 11
44.810000000000002
 21
295.31999999999988
 31
0.0
  0
LINE
  5
86
  8
0
 10
43.130000000000003
 20
228.47999999999999
 30
0.0
 11
44.810000000000002
 21
232.67999999999989
 31
0.0
  0
LINE
  5
87
  8
0
 10
42.920000000000002
 20
224.0
 30
0.0
 11
43.54999999999999
 21
219.58999999999989
 31
0.0
  0
LINE
  5
88
  8
0
 10
42.920000000000002
 20
224.0
 30
0.0
 11
43.54999999999999
 21
228.41
 31
0.0
  0
LINE
  5
89
  8
0
 10
42.5
 20
224.0
 30
0.0
 11
43.130000000000003
 21
219.52000000000001
 31
0.0
  0
LINE
  5
8A
  8
0
 10
42.5
 20
224.0
 30
0.0
 11
43.130000000000003
 21
228.47999999999999
 31
0.0
  0
LINE
  5
8B
  8
0
 10
43.130000000000003
 20
219.52000000000001
 30
0.0
 11
44.810000000000002
 21
215.31999999999999
 31
0.0
  0
LINE
  5
8C
  8
0
 10
43.130000000000003
 20
148.4799999999999
 30
0.0
 11
44.810000000000002
 21
152.68000000000001
 31
0.0
  0
LINE
  5
8D
  8
0
 10
42.5
 20
144.0
 30
0.0
 11
43.130000000000003
 21
139.52000000000001
 31
0.0
  0
LINE
  5
8E
  8
0
 10
42.5
 20
144.0
 30
0.0
 11
43.130000000000003
 21
148.4799999999999
 31
0.0
  0
LINE
  5
8F
  8
0
 10
43.130000000000003
 20
139.52000000000001
 30
0.0
 11
44.810000000000002
 21
135.31999999999991
 31
0.0
  0
LINE
  5
90
  8
0
 10
42.653999999999989
 20
81.346000000000004
 30
0.0
 11
47.847999999999992
 21
85.266000000000005
 31
0.0
  0
LINE
  5
91
  8
0
 10
38.734000000000002
 20
51.847999999999999
 30
0.0
 11
42.653999999999989
 21
46.653999999999989
 31
0.0
  0
LINE
  5
92
  8
0
 10
38.734000000000002
 20
51.847999999999999
 30
0.0
 11
42.653999999999989
 21
46.653999999999989
 31
0.0
  0
LINE
  5
93
  8
0
 10
43.54999999999999
 20
308.41000000000003
 30
0.0
 11
45.22999999999999
 21
312.47000000000003
 31
0.0
  0
LINE
  5
94
  8
0
 10
44.810000000000002
 20
312.68000000000001
 30
0.0
 11
47.609999999999999
 21
316.38999999999987
 31
0.0
  0
LINE
  5
95
  8
0
 10
43.54999999999999
 20
299.58999999999992
 30
0.0
 11
45.22999999999999
 21
295.52999999999992
 31
0.0
  0
LINE
  5
96
  8
0
 10
44.810000000000002
 20
295.31999999999988
 30
0.0
 11
47.609999999999999
 21
291.61000000000001
 31
0.0
  0
LINE
  5
97
  8
0
 10
43.54999999999999
 20
228.41
 30
0.0
 11
45.22999999999999
 21
232.46999999999991
 31
0.0
  0
LINE
  5
98
  8
0
 10
44.810000000000002
 20
232.67999999999989
 30
0.0
 11
47.609999999999999
 21
236.38999999999999
 31
0.0
  0
LINE
  5
99
  8
0
 10
43.54999999999999
 20
219.58999999999989
 30
0.0
 11
45.22999999999999
 21
215.52999999999989
 31
0.0
  0
LINE
  5
9A
  8
0
 10
44.810000000000002
 20
215.31999999999999
 30
0.0
 11
47.609999999999999
 21
211.61000000000001
 31
0.0
  0
LINE
  5
9B
  8
0
 10
43.54999999999999
 20
148.40999999999991
 30
0.0
 11
45.22999999999999
 21
152.46999999999991
 31
0.0
  0
LINE
  5
9C
  8
0
 10
44.810000000000002
 20
152.68000000000001
 30
0.0
 11
47.609999999999999
 21
156.3899999999999
 31
0.0
  0
LINE
  5
9D
  8
0
 10
43.54999999999999
 20
139.59
 30
0.0
 11
45.22999999999999
 21
135.52999999999989
 31
0.0
  0
LINE
  5
9E
  8
0
 10
45.22999999999999
 20
312.47000000000003
 30
0.0
 11
47.960000000000001
 21
316.04000000000002
 31
0.0
  0
LINE
  5
9F
  8
0
 10
45.22999999999999
 20
295.52999999999992
 30
0.0
 11
47.960000000000001
 21
291.95999999999992
 31
0.0
  0
LINE
  5
A0
  8
0
 10
45.22999999999999
 20
232.46999999999991
 30
0.0
 11
47.960000000000001
 21
236.03999999999991
 31
0.0
  0
LINE
  5
A1
  8
0
 10
45.22999999999999
 20
215.52999999999989
 30
0.0
 11
47.960000000000001
 21
211.96000000000001
 31
0.0
  0
LINE
  5
A2
  8
0
 10
45.22999999999999
 20
152.46999999999991
 30
0.0
 11
47.960000000000001
 21
156.03999999999999
 31
0.0
  0
LINE
  5
A3
  8
0
 10
47.609999999999999
 20
316.38999999999987
 30
0.0
 11
51.32
 21
319.18999999999988
 31
0.0
  0
LINE
  5
A4
  8
0
 10
47.609999999999999
 20
291.61000000000001
 30
0.0
 11
51.32
 21
288.81
 31
0.0
  0
LINE
  5
A5
  8
0
 10
47.609999999999999
 20
236.38999999999999
 30
0.0
 11
51.32
 21
239.19
 31
0.0
  0
LINE
  5
A6
  8
0
 10
47.609999999999999
 20
211.61000000000001
 30
0.0
 11
51.32
 21
208.80999999999989
 31
0.0
  0
LINE
  5
A7
  8
0
 10
47.609999999999999
 20
156.3899999999999
 30
0.0
 11
51.32
 21
159.19
 31
0.0
  0
LINE
  5
A8
  8
0
 10
45.22999999999999
 20
135.52999999999989
 30
0.0
 11
47.960000000000001
 21
131.96000000000001
 31
0.0
  0
LINE
  5
A9
  8
0
 10
47.609999999999999
 20
131.61000000000001
 30
0.0
 11
51.32
 21
128.81
 31
0.0
  0
LINE
  5
AA
  8
0
 10
44.810000000000002
 20
135.31999999999991
 30
0.0
 11
47.609999999999999
 21
131.61000000000001
 31
0.0
  0
LINE
  5
AB
  8
0
 10
47.847999999999992
 20
85.266000000000005
 30
0.0
 11
53.728000000000002
 21
87.617999999999995
 31
0.0
  0
LINE
  5
AC
  8
0
 10
42.653999999999989
 20
46.653999999999989
 30
0.0
 11
47.847999999999992
 21
42.733999999999988
 31
0.0
  0
LINE
  5
AD
  8
0
 10
47.960000000000001
 20
316.04000000000002
 30
0.0
 11
51.530000000000001
 21
318.76999999999992
 31
0.0
  0
LINE
  5
AE
  8
0
 10
51.32
 20
319.18999999999988
 30
0.0
 11
55.520000000000003
 21
320.87
 31
0.0
  0
LINE
  5
AF
  8
0
 10
47.960000000000001
 20
291.95999999999992
 30
0.0
 11
51.530000000000001
 21
289.23000000000002
 31
0.0
  0
LINE
  5
B0
  8
0
 10
51.32
 20
288.81
 30
0.0
 11
55.520000000000003
 21
287.13
 31
0.0
  0
LINE
  5
B1
  8
0
 10
47.960000000000001
 20
236.03999999999991
 30
0.0
 11
51.530000000000001
 21
238.77000000000001
 31
0.0
  0
LINE
  5
B2
  8
0
 10
51.32
 20
239.19
 30
0.0
 11
55.520000000000003
 21
240.87
 31
0.0
  0
LINE
  5
B3
  8
0
 10
47.960000000000001
 20
211.96000000000001
 30
0.0
 11
51.530000000000001
 21
209.2299999999999
 31
0.0
  0
LINE
  5
B4
  8
0
 10
51.32
 20
208.80999999999989
 30
0.0
 11
55.520000000000003
 21
207.12999999999991
 31
0.0
  0
LINE
  5
B5
  8
0
 10
47.960000000000001
 20
156.03999999999999
 30
0.0
 11
51.530000000000001
 21
158.77000000000001
 31
0.0
  0
LINE
  5
B6
  8
0
 10
51.530000000000001
 20
318.76999999999992
 30
0.0
 11
55.590000000000011
 21
320.44999999999987
 31
0.0
  0
LINE
  5
B7
  8
0
 10
51.530000000000001
 20
289.23000000000002
 30
0.0
 11
55.590000000000011
 21
287.55000000000001
 31
0.0
  0
LINE
  5
B8
  8
0
 10
51.530000000000001
 20
238.77000000000001
 30
0.0
 11
55.590000000000011
 21
240.44999999999999
 31
0.0
  0
LINE
  5
B9
  8
0
 10
51.530000000000001
 20
209.2299999999999
 30
0.0
 11
55.590000000000011
 21
207.55000000000001
 31
0.0
  0
LINE
  5
BA
  8
0
 10
51.530000000000001
 20
158.77000000000001
 30
0.0
 11
55.590000000000011
 21
160.4499999999999
 31
0.0
  0
LINE
  5
BB
  8
0
 10
51.32
 20
159.19
 30
0.0
 11
55.520000000000003
 21
160.86999999999989
 31
0.0
  0
LINE
  5
BC
  8
0
 10
47.960000000000001
 20
131.96000000000001
 30
0.0
 11
51.530000000000001
 21
129.22999999999999
 31
0.0
  0
LINE
  5
BD
  8
0
 10
55.520000000000003
 20
320.87
 30
0.0
 11
60.0
 21
321.49999999999989
 31
0.0
  0
LINE
  5
BE
  8
0
 10
55.520000000000003
 20
287.13
 30
0.0
 11
60.0
 21
286.5
 31
0.0
  0
LINE
  5
BF
  8
0
 10
55.520000000000003
 20
240.87
 30
0.0
 11
60.0
 21
241.5
 31
0.0
  0
LINE
  5
C0
  8
0
 10
55.520000000000003
 20
207.12999999999991
 30
0.0
 11
60.0
 21
206.49999999999989
 31
0.0
  0
LINE
  5
C1
  8
0
 10
55.520000000000003
 20
160.86999999999989
 30
0.0
 11
60.0
 21
161.5
 31
0.0
  0
LINE
  5
C2
  8
0
 10
51.530000000000001
 20
129.22999999999999
 30
0.0
 11
55.590000000000011
 21
127.55
 31
0.0
  0
LINE
  5
C3
  8
0
 10
51.32
 20
128.81
 30
0.0
 11
55.520000000000003
 21
127.1299999999999
 31
0.0
  0
LINE
  5
C4
  8
0
 10
55.590000000000011
 20
320.44999999999987
 30
0.0
 11
60.0
 21
321.07999999999993
 31
0.0
  0
LINE
  5
C5
  8
0
 10
55.590000000000011
 20
287.55000000000001
 30
0.0
 11
60.0
 21
286.92000000000002
 31
0.0
  0
LINE
  5
C6
  8
0
 10
55.590000000000011
 20
240.44999999999999
 30
0.0
 11
60.0
 21
241.08000000000001
 31
0.0
  0
LINE
  5
C7
  8
0
 10
55.590000000000011
 20
207.55000000000001
 30
0.0
 11
60.0
 21
206.9199999999999
 31
0.0
  0
LINE
  5
C8
  8
0
 10
55.590000000000011
 20
160.4499999999999
 30
0.0
 11
60.0
 21
161.08000000000001
 31
0.0
  0
LINE
  5
C9
  8
0
 10
55.590000000000011
 20
127.55
 30
0.0
 11
60.0
 21
126.92
 31
0.0
  0
LINE
  5
CA
  8
0
 10
55.520000000000003
 20
127.1299999999999
 30
0.0
 11
60.0
 21
126.5
 31
0.0
  0
LINE
  5
CB
  8
0
 10
57.5
 20
88.148437499999986
 30
0.0
 11
57.5
 21
90.307699999999997
 31
0.0
  0
LINE
  5
CC
  8
0
 10
57.560000000000002
 20
90.5
 30
0.0
 11
57.649999999999999
 21
90.5
 31
0.0
  0
LINE
  5
CD
  8
0
 10
57.649999999999999
 20
90.5
 30
0.0
 11
57.890000000000001
 21
90.5
 31
0.0
  0
LINE
  5
CE
  8
0
 10
57.890000000000001
 20
90.5
 30
0.0
 11
58.280000000000001
 21
90.5
 31
0.0
  0
LINE
  5
CF
  8
0
 10
58.280000000000001
 20
90.5
 30
0.0
 11
58.789999999999999
 21
90.5
 31
0.0
  0
LINE
  5
D0
  8
0
 10
58.789999999999999
 20
90.5
 30
0.0
 11
59.369999999999997
 21
90.5
 31
0.0
  0
LINE
  5
D1
  8
0
 10
59.369999999999997
 20
90.5
 30
0.0
 11
60.0
 21
90.5
 31
0.0
  0
LINE
  5
D2
  8
0
 10
60.0
 20
321.07999999999993
 30
0.0
 11
64.409999999999997
 21
320.44999999999987
 31
0.0
  0
LINE
  5
D3
  8
0
 10
60.0
 20
321.49999999999989
 30
0.0
 11
64.480000000000004
 21
320.87
 31
0.0
  0
LINE
  5
D4
  8
0
 10
60.0
 20
286.92000000000002
 30
0.0
 11
64.409999999999997
 21
287.55000000000001
 31
0.0
  0
LINE
  5
D5
  8
0
 10
60.0
 20
286.5
 30
0.0
 11
64.480000000000004
 21
287.13
 31
0.0
  0
LINE
  5
D6
  8
0
 10
60.0
 20
241.08000000000001
 30
0.0
 11
64.409999999999997
 21
240.44999999999999
 31
0.0
  0
LINE
  5
D7
  8
0
 10
60.0
 20
241.5
 30
0.0
 11
64.480000000000004
 21
240.87
 31
0.0
  0
LINE
  5
D8
  8
0
 10
60.0
 20
206.9199999999999
 30
0.0
 11
64.409999999999997
 21
207.55000000000001
 31
0.0
  0
LINE
  5
D9
  8
0
 10
60.0
 20
206.49999999999989
 30
0.0
 11
64.480000000000004
 21
207.12999999999991
 31
0.0
  0
LINE
  5
DA
  8
0
 10
60.0
 20
161.08000000000001
 30
0.0
 11
64.409999999999997
 21
160.4499999999999
 31
0.0
  0
LINE
  5
DB
  8
0
 10
60.0
 20
161.5
 30
0.0
 11
64.480000000000004
 21
160.86999999999989
 31
0.0
  0
LINE
  5
DC
  8
0
 10
60.0
 20
126.92
 30
0.0
 11
64.409999999999997
 21
127.55
 31
0.0
  0
LINE
  5
DD
  8
0
 10
60.0
 20
126.5
 30
0.0
 11
64.480000000000004
 21
127.1299999999999
 31
0.0
  0
LINE
  5
DE
  8
0
 10
60.0
 20
90.5
 30
0.0
 11
60.630000000000003
 21
90.5
 31
0.0
  0
LINE
  5
DF
  8
0
 10
57.5
 20
90.307699999999997
 30
0.0
 11
57.560000000000002
 21
90.5
 31
0.0
  0
LINE
  5
E0
  8
0
 10
57.5
 20
90.307699999999997
 30
0.0
 11
57.5
 21
88.148437499999986
 31
0.0
  0
LINE
  5
E1
  8
0
 10
53.728000000000002
 20
87.617999999999995
 30
0.0
 11
57.5
 21
88.148437499999986
 31
0.0
  0
LINE
  5
E2
  8
0
 10
53.728000000000002
 20
87.617999999999995
 30
0.0
 11
60.0
 21
88.499999999999986
 31
0.0
  0
LINE
  5
E3
  8
0
 10
72.152000000000001
 20
85.266000000000005
 30
0.0
 11
77.346000000000004
 21
81.346000000000004
 31
0.0
  0
LINE
  5
E4
  8
0
 10
62.350000000000001
 20
90.5
 30
0.0
 11
62.439999999999991
 21
90.5
 31
0.0
  0
LINE
  5
E5
  8
0
 10
62.109999999999999
 20
90.5
 30
0.0
 11
62.350000000000001
 21
90.5
 31
0.0
  0
LINE
  5
E6
  8
0
 10
61.719999999999999
 20
90.5
 30
0.0
 11
62.109999999999999
 21
90.5
 31
0.0
  0
LINE
  5
E7
  8
0
 10
61.210000000000001
 20
90.5
 30
0.0
 11
61.719999999999999
 21
90.5
 31
0.0
  0
LINE
  5
E8
  8
0
 10
60.630000000000003
 20
90.5
 30
0.0
 11
61.210000000000001
 21
90.5
 31
0.0
  0
LINE
  5
E9
  8
0
 10
62.5
 20
88.148437499999986
 30
0.0
 11
62.5
 21
90.307699999999997
 31
0.0
  0
LINE
  5
EA
  8
0
 10
64.409999999999997
 20
320.44999999999987
 30
0.0
 11
68.469999999999999
 21
318.76999999999992
 31
0.0
  0
LINE
  5
EB
  8
0
 10
64.480000000000004
 20
320.87
 30
0.0
 11
68.680000000000007
 21
319.18999999999988
 31
0.0
  0
LINE
  5
EC
  8
0
 10
64.409999999999997
 20
287.55000000000001
 30
0.0
 11
68.469999999999999
 21
289.23000000000002
 31
0.0
  0
LINE
  5
ED
  8
0
 10
64.480000000000004
 20
287.13
 30
0.0
 11
68.680000000000007
 21
288.81
 31
0.0
  0
LINE
  5
EE
  8
0
 10
64.409999999999997
 20
240.44999999999999
 30
0.0
 11
68.469999999999999
 21
238.77000000000001
 31
0.0
  0
LINE
  5
EF
  8
0
 10
64.480000000000004
 20
240.87
 30
0.0
 11
68.680000000000007
 21
239.19
 31
0.0
  0
LINE
  5
F0
  8
0
 10
64.409999999999997
 20
207.55000000000001
 30
0.0
 11
68.469999999999999
 21
209.2299999999999
 31
0.0
  0
LINE
  5
F1
  8
0
 10
64.480000000000004
 20
207.12999999999991
 30
0.0
 11
68.680000000000007
 21
208.80999999999989
 31
0.0
  0
LINE
  5
F2
  8
0
 10
64.409999999999997
 20
160.4499999999999
 30
0.0
 11
68.469999999999999
 21
158.77000000000001
 31
0.0
  0
LINE
  5
F3
  8
0
 10
64.480000000000004
 20
160.86999999999989
 30
0.0
 11
68.680000000000007
 21
159.19
 31
0.0
  0
LINE
  5
F4
  8
0
 10
64.409999999999997
 20
127.55
 30
0.0
 11
68.469999999999999
 21
129.22999999999999
 31
0.0
  0
LINE
  5
F5
  8
0
 10
68.469999999999999
 20
318.76999999999992
 30
0.0
 11
72.040000000000006
 21
316.04000000000002
 31
0.0
  0
LINE
  5
F6
  8
0
 10
68.469999999999999
 20
289.23000000000002
 30
0.0
 11
72.040000000000006
 21
291.95999999999992
 31
0.0
  0
LINE
  5
F7
  8
0
 10
68.469999999999999
 20
238.77000000000001
 30
0.0
 11
72.040000000000006
 21
236.03999999999991
 31
0.0
  0
LINE
  5
F8
  8
0
 10
68.469999999999999
 20
209.2299999999999
 30
0.0
 11
72.040000000000006
 21
211.96000000000001
 31
0.0
  0
LINE
  5
F9
  8
0
 10
68.469999999999999
 20
158.77000000000001
 30
0.0
 11
72.040000000000006
 21
156.03999999999999
 31
0.0
  0
LINE
  5
FA
  8
0
 10
68.680000000000007
 20
319.18999999999988
 30
0.0
 11
72.390000000000001
 21
316.38999999999987
 31
0.0
  0
LINE
  5
FB
  8
0
 10
68.680000000000007
 20
288.81
 30
0.0
 11
72.390000000000001
 21
291.61000000000001
 31
0.0
  0
LINE
  5
FC
  8
0
 10
68.680000000000007
 20
239.19
 30
0.0
 11
72.390000000000001
 21
236.38999999999999
 31
0.0
  0
LINE
  5
FD
  8
0
 10
68.680000000000007
 20
208.80999999999989
 30
0.0
 11
72.390000000000001
 21
211.61000000000001
 31
0.0
  0
LINE
  5
FE
  8
0
 10
72.040000000000006
 20
316.04000000000002
 30
0.0
 11
74.769999999999996
 21
312.47000000000003
 31
0.0
  0
LINE
  5
FF
  8
0
 10
72.040000000000006
 20
291.95999999999992
 30
0.0
 11
74.769999999999996
 21
295.52999999999992
 31
0.0
  0
LINE
  5
100
  8
0
 10
72.040000000000006
 20
236.03999999999991
 30
0.0
 11
74.769999999999996
 21
232.46999999999991
 31
0.0
  0
LINE
  5
101
  8
0
 10
72.040000000000006
 20
211.96000000000001
 30
0.0
 11
74.769999999999996
 21
215.52999999999989
 31
0.0
  0
LINE
  5
102
  8
0
 10
72.040000000000006
 20
156.03999999999999
 30
0.0
 11
74.769999999999996
 21
152.46999999999991
 31
0.0
  0
LINE
  5
103
  8
0
 10
68.680000000000007
 20
159.19
 30
0.0
 11
72.390000000000001
 21
156.3899999999999
 31
0.0
  0
LINE
  5
104
  8
0
 10
72.040000000000006
 20
131.96000000000001
 30
0.0
 11
74.769999999999996
 21
135.52999999999989
 31
0.0
  0
LINE
  5
105
  8
0
 10
68.469999999999999
 20
129.22999999999999
 30
0.0
 11
72.040000000000006
 21
131.96000000000001
 31
0.0
  0
LINE
  5
106
  8
0
 10
68.680000000000007
 20
128.81
 30
0.0
 11
72.390000000000001
 21
131.61000000000001
 31
0.0
  0
LINE
  5
107
  8
0
 10
64.480000000000004
 20
127.1299999999999
 30
0.0
 11
68.680000000000007
 21
128.81
 31
0.0
  0
LINE
  5
108
  8
0
 10
62.5
 20
90.307699999999997
 30
0.0
 11
62.5
 21
88.148437499999986
 31
0.0
  0
LINE
  5
109
  8
0
 10
62.439999999999991
 20
90.5
 30
0.0
 11
62.5
 21
90.307699999999997
 31
0.0
  0
LINE
  5
10A
  8
0
 10
66.271999999999991
 20
87.617999999999995
 30
0.0
 11
72.152000000000001
 21
85.266000000000005
 31
0.0
  0
LINE
  5
10B
  8
0
 10
60.0
 20
88.499999999999986
 30
0.0
 11
66.271999999999991
 21
87.617999999999995
 31
0.0
  0
LINE
  5
10D
  8
0
 10
47.847999999999992
 20
42.733999999999988
 30
0.0
 11
53.728000000000002
 21
40.381999999999991
 31
0.0
  0
LINE
  5
10E
  8
0
 10
53.728000000000002
 20
40.381999999999991
 30
0.0
 11
60.0
 21
39.5
 31
0.0
  0
LINE
  5
10F
  8
0
 10
81.266000000000005
 20
76.152000000000001
 30
0.0
 11
83.617999999999995
 21
70.271999999999991
 31
0.0
  0
LINE
  5
110
  8
0
 10
72.390000000000001
 20
316.38999999999987
 30
0.0
 11
75.189999999999998
 21
312.68000000000001
 31
0.0
  0
LINE
  5
111
  8
0
 10
72.390000000000001
 20
291.61000000000001
 30
0.0
 11
75.189999999999998
 21
295.31999999999988
 31
0.0
  0
LINE
  5
112
  8
0
 10
72.390000000000001
 20
236.38999999999999
 30
0.0
 11
75.189999999999998
 21
232.67999999999989
 31
0.0
  0
LINE
  5
113
  8
0
 10
72.390000000000001
 20
211.61000000000001
 30
0.0
 11
75.189999999999998
 21
215.31999999999999
 31
0.0
  0
LINE
  5
114
  8
0
 10
72.390000000000001
 20
156.3899999999999
 30
0.0
 11
75.189999999999998
 21
152.68000000000001
 31
0.0
  0
LINE
  5
115
  8
0
 10
76.450000000000003
 20
148.40999999999991
 30
0.0
 11
77.079999999999998
 21
144.0
 31
0.0
  0
LINE
  5
116
  8
0
 10
74.769999999999996
 20
152.46999999999991
 30
0.0
 11
76.450000000000003
 21
148.40999999999991
 31
0.0
  0
LINE
  5
117
  8
0
 10
74.769999999999996
 20
312.47000000000003
 30
0.0
 11
76.450000000000003
 21
308.41000000000003
 31
0.0
  0
LINE
  5
118
  8
0
 10
75.189999999999998
 20
312.68000000000001
 30
0.0
 11
76.870000000000005
 21
308.48000000000002
 31
0.0
  0
LINE
  5
119
  8
0
 10
74.769999999999996
 20
295.52999999999992
 30
0.0
 11
76.450000000000003
 21
299.58999999999992
 31
0.0
  0
LINE
  5
11A
  8
0
 10
75.189999999999998
 20
295.31999999999988
 30
0.0
 11
76.870000000000005
 21
299.51999999999998
 31
0.0
  0
LINE
  5
11B
  8
0
 10
74.769999999999996
 20
232.46999999999991
 30
0.0
 11
76.450000000000003
 21
228.41
 31
0.0
  0
LINE
  5
11C
  8
0
 10
75.189999999999998
 20
232.67999999999989
 30
0.0
 11
76.870000000000005
 21
228.47999999999999
 31
0.0
  0
LINE
  5
11D
  8
0
 10
74.769999999999996
 20
215.52999999999989
 30
0.0
 11
76.450000000000003
 21
219.58999999999989
 31
0.0
  0
LINE
  5
11E
  8
0
 10
76.450000000000003
 20
308.41000000000003
 30
0.0
 11
77.079999999999998
 21
304.0
 31
0.0
  0
LINE
  5
11F
  8
0
 10
76.450000000000003
 20
299.58999999999992
 30
0.0
 11
77.079999999999998
 21
304.0
 31
0.0
  0
LINE
  5
120
  8
0
 10
76.450000000000003
 20
228.41
 30
0.0
 11
77.079999999999998
 21
224.0
 31
0.0
  0
LINE
  5
121
  8
0
 10
76.450000000000003
 20
219.58999999999989
 30
0.0
 11
77.079999999999998
 21
224.0
 31
0.0
  0
LINE
  5
122
  8
0
 10
75.189999999999998
 20
215.31999999999999
 30
0.0
 11
76.870000000000005
 21
219.52000000000001
 31
0.0
  0
LINE
  5
123
  8
0
 10
75.189999999999998
 20
152.68000000000001
 30
0.0
 11
76.870000000000005
 21
148.4799999999999
 31
0.0
  0
LINE
  5
124
  8
0
 10
76.870000000000005
 20
308.48000000000002
 30
0.0
 11
77.5
 21
304.0
 31
0.0
  0
LINE
  5
125
  8
0
 10
76.870000000000005
 20
299.51999999999998
 30
0.0
 11
77.5
 21
304.0
 31
0.0
  0
LINE
  5
126
  8
0
 10
76.870000000000005
 20
228.47999999999999
 30
0.0
 11
77.5
 21
224.0
 31
0.0
  0
LINE
  5
127
  8
0
 10
76.870000000000005
 20
219.52000000000001
 30
0.0
 11
77.5
 21
224.0
 31
0.0
  0
LINE
  5
128
  8
0
 10
76.870000000000005
 20
148.4799999999999
 30
0.0
 11
77.5
 21
144.0
 31
0.0
  0
LINE
  5
129
  8
0
 10
76.450000000000003
 20
139.59
 30
0.0
 11
77.079999999999998
 21
144.0
 31
0.0
  0
LINE
  5
12A
  8
0
 10
74.769999999999996
 20
135.52999999999989
 30
0.0
 11
76.450000000000003
 21
139.59
 31
0.0
  0
LINE
  5
12B
  8
0
 10
76.870000000000005
 20
139.52000000000001
 30
0.0
 11
77.5
 21
144.0
 31
0.0
  0
LINE
  5
12C
  8
0
 10
75.189999999999998
 20
135.31999999999991
 30
0.0
 11
76.870000000000005
 21
139.52000000000001
 31
0.0
  0
LINE
  5
12D
  8
0
 10
72.390000000000001
 20
131.61000000000001
 30
0.0
 11
75.189999999999998
 21
135.31999999999991
 31
0.0
  0
LINE
  5
12E
  8
0
 10
77.346000000000004
 20
81.346000000000004
 30
0.0
 11
81.266000000000005
 21
76.152000000000001
 31
0.0
  0
LINE
  5
12F
  8
0
 10
83.617999999999995
 20
70.271999999999991
 30
0.0
 11
84.500000000000014
 21
64.0
 31
0.0
  0
LINE
  5
130
  8
0
 10
83.617999999999995
 20
57.728000000000002
 30
0.0
 11
84.500000000000014
 21
64.0
 31
0.0
  0
LINE
  5
131
  8
0
 10
81.266000000000005
 20
51.847999999999999
 30
0.0
 11
83.617999999999995
 21
57.728000000000002
 31
0.0
  0
LINE
  5
132
  8
0
 10
77.346000000000004
 20
46.653999999999989
 30
0.0
 11
81.266000000000005
 21
51.847999999999999
 31
0.0
  0
LINE
  5
133
  8
0
 10
72.152000000000001
 20
42.733999999999988
 30
0.0
 11
77.346000000000004
 21
46.653999999999989
 31
0.0
  0
LINE
  5
134
  8
0
 10
119.0
 20
4.2999999999999794
 30
0.0
 11
119.5
 21
4.2999999999999794
 31
0.0
  0
LINE
  5
135
  8
0
 10
1.0
 20
4.2999999999999794
 30
0.0
 11
119.0
 21
4.2999999999999794
 31
0.0
  0
LINE
  5
136
  8
0
 10
0.999999999999996
 20
363.69999999999999
 30
0.0
 11
119.0
 21
363.69999999999999
 31
0.0
  0
LINE
  5
137
  8
0
 10
119.7
 20
4.2999999999999794
 30
0.0
 11
120.0
 21
4.9999999999999796
 31
0.0
  0
LINE
  5
138
  8
0
 10
119.5
 20
4.2999999999999794
 30
0.0
 11
119.7
 21
4.9999999999999796
 31
0.0
  0
LINE
  5
139
  8
0
 10
119.5
 20
4.2999999999999794
 30
0.0
 11
119.7
 21
4.2999999999999794
 31
0.0
  0
LINE
  5
13A
  8
0
 10
119.7
 20
363.0
 30
0.0
 11
119.7
 21
4.9999999999999796
 31
0.0
  0
LINE
  5
13B
  8
0
 10
119.7
 20
4.9999999999999796
 30
0.0
 11
119.7
 21
363.0
 31
0.0
  0
LINE
  5
13C
  8
0
 10
120.0
 20
363.0
 30
0.0
 11
120.0
 21
4.9999999999999796
 31
0.0
  0
LINE
  5
13D
  8
0
 10
120.0
 20
4.9999999999999796
 30
0.0
 11
120.0
 21
363.0
 31
0.0
  0
LINE
  5
13E
  8
0
 10
119.7
 20
363.69999999999999
 30
0.0
 11
120.0
 21
363.0
 31
0.0
  0
LINE
  5
13F
  8
0
 10
119.5
 20
363.69999999999999
 30
0.0
 11
119.7
 21
363.69999999999999
 31
0.0
  0
LINE
  5
140
  8
0
 10
119.5
 20
363.69999999999999
 30
0.0
 11
119.7
 21
363.0
 31
0.0
  0
LINE
  5
141
  8
0
 10
119.0
 20
363.69999999999999
 30
0.0
 11
119.5
 21
363.69999999999999
 31
0.0
  0
LINE
  5
142
  8
0
 10
1.0
 20
363.69999999999999
 30
0.0
 11
119.0
 21
363.69999999999999
 31
0.0
  0
LINE
  5
143
  8
0
 10
0.5
 20
363.69999999999999
 30
0.0
 11
1.0
 21
363.69999999999999
 31
0.0
  0
LINE
  5
144
  8
0
 10
1.0
 20
364.0
 30
0.0
 11
119.0
 21
364.0
 31
0.0
  0
LINE
  5
145
  8
0
 10
119.0
 20
364.0
 30
0.0
 11
119.7
 21
363.69999999999999
 31
0.0
  0
LINE
  5
146
  8
0
 10
0.999999999999996
 20
364.0
 30
0.0
 11
119.0
 21
364.0
 31
0.0
  0
LINE
  5
147
  8
0
 10
0.3
 20
363.69999999999999
 30
0.0
 11
0.5
 21
363.69999999999999
 31
0.0
  0
LINE
  5
148
  8
0
 10
0.3
 20
363.69999999999999
 30
0.0
 11
1.0
 21
364.0
 31
0.0
  0
LINE
  5
149
  8
0
 10
0.3
 20
363.69999999999999
 30
0.0
 11
1.0
 21
364.0
 31
0.0
  0
ENDSEC
  0
EOF
