  0
SECTION
  2
HEADER
  9
$ACADVER
  1
AC1015
  9
$ACADMAINTVER
 70
    13
  9
$DWGCODEPAGE
  3
ANSI_1252
  9
$INSBASE
 10
0.0
 20
0.0
 30
0.0
  9
$EXTMIN
 10
0.249999999999997
 20
-0.0000000000000116
 30
0.0
  9
$EXTMAX
 10
87.75
 20
204.0
 30
0.0
  9
$LIMMIN
 10
0.0
 20
0.0
  9
$LIMMAX
 10
12.0
 20
9.0
  9
$ORTHOMODE
 70
     0
  9
$REGENMODE
 70
     1
  9
$FILLMODE
 70
     1
  9
$QTEXTMODE
 70
     0
  9
$MIRRTEXT
 70
     1
  9
$LTSCALE
 40
1.0
  9
$ATTMODE
 70
     1
  9
$TEXTSIZE
 40
0.2
  9
$TRACEWID
 40
0.05
  9
$TEXTSTYLE
  7
Standard
  9
$CLAYER
  8
0
  9
$CELTYPE
  6
Continuous
  9
$CECOLOR
 62
   256
  9
$CELTSCALE
 40
1.0
  9
$DISPSILH
 70
     0
  9
$DIMSCALE
 40
1.0
  9
$DIMASZ
 40
0.18
  9
$DIMEXO
 40
0.0625
  9
$DIMDLI
 40
0.38
  9
$DIMRND
 40
0.0
  9
$DIMDLE
 40
0.0
  9
$DIMEXE
 40
0.18
  9
$DIMTP
 40
0.0
  9
$DIMTM
 40
0.0
  9
$DIMTXT
 40
0.18
  9
$DIMCEN
 40
0.09
  9
$DIMTSZ
 40
0.0
  9
$DIMTOL
 70
     0
  9
$DIMLIM
 70
     0
  9
$DIMTIH
 70
     1
  9
$DIMTOH
 70
     1
  9
$DIMSE1
 70
     0
  9
$DIMSE2
 70
     0
  9
$DIMTAD
 70
     0
  9
$DIMZIN
 70
     0
  9
$DIMBLK
  1

  9
$DIMASO
 70
     1
  9
$DIMSHO
 70
     1
  9
$DIMPOST
  1

  9
$DIMAPOST
  1

  9
$DIMALT
 70
     0
  9
$DIMALTD
 70
     2
  9
$DIMALTF
 40
25.4
  9
$DIMLFAC
 40
1.0
  9
$DIMTOFL
 70
     0
  9
$DIMTVP
 40
0.0
  9
$DIMTIX
 70
     0
  9
$DIMSOXD
 70
     0
  9
$DIMSAH
 70
     0
  9
$DIMBLK1
  1

  9
$DIMBLK2
  1

  9
$DIMSTYLE
  2
Standard
  9
$DIMCLRD
 70
     0
  9
$DIMCLRE
 70
     0
  9
$DIMCLRT
 70
     0
  9
$DIMTFAC
 40
1.0
  9
$DIMGAP
 40
0.09
  9
$DIMJUST
 70
     0
  9
$DIMSD1
 70
     0
  9
$DIMSD2
 70
     0
  9
$DIMTOLJ
 70
     1
  9
$DIMTZIN
 70
     0
  9
$DIMALTZ
 70
     0
  9
$DIMALTTZ
 70
     0
  9
$DIMUPT
 70
     0
  9
$DIMDEC
 70
     4
  9
$DIMTDEC
 70
     4
  9
$DIMALTU
 70
     2
  9
$DIMALTTD
 70
     2
  9
$DIMTXSTY
  7
Standard
  9
$DIMAUNIT
 70
     0
  9
$DIMADEC
 70
     0
  9
$DIMALTRND
 40
0.0
  9
$DIMAZIN
 70
     0
  9
$DIMDSEP
 70
    46
  9
$DIMATFIT
 70
     3
  9
$DIMFRAC
 70
     0
  9
$DIMLDRBLK
  1

  9
$DIMLUNIT
 70
     2
  9
$DIMLWD
 70
    -2
  9
$DIMLWE
 70
    -2
  9
$DIMTMOVE
 70
     0
  9
$LUNITS
 70
     2
  9
$LUPREC
 70
     4
  9
$SKETCHINC
 40
0.1
  9
$FILLETRAD
 40
0.0
  9
$AUNITS
 70
     0
  9
$AUPREC
 70
     0
  9
$MENU
  1
.
  9
$ELEVATION
 40
0.0
  9
$PELEVATION
 40
0.0
  9
$THICKNESS
 40
0.0
  9
$LIMCHECK
 70
     0
  9
$CHAMFERA
 40
0.0
  9
$CHAMFERB
 40
0.0
  9
$CHAMFERC
 40
0.0
  9
$CHAMFERD
 40
0.0
  9
$SKPOLY
 70
     0
  9
$TDCREATE
 40
2455508.472254583
  9
$TDUCREATE
 40
2455508.430587916
  9
$TDUPDATE
 40
2455508.498494456
  9
$TDUUPDATE
 40
2455508.456827789
  9
$TDINDWG
 40
0.0262398727
  9
$TDUSRTIMER
 40
0.0262398727
  9
$USRTIMER
 70
     1
  9
$ANGBASE
 50
0.0
  9
$ANGDIR
 70
     0
  9
$PDMODE
 70
     0
  9
$PDSIZE
 40
0.0
  9
$PLINEWID
 40
0.0
  9
$SPLFRAME
 70
     0
  9
$SPLINETYPE
 70
     6
  9
$SPLINESEGS
 70
     8
  9
$HANDSEED
  5
227
  9
$SURFTAB1
 70
     6
  9
$SURFTAB2
 70
     6
  9
$SURFTYPE
 70
     6
  9
$SURFU
 70
     6
  9
$SURFV
 70
     6
  9
$UCSBASE
  2

  9
$UCSNAME
  2

  9
$UCSORG
 10
0.0
 20
0.0
 30
0.0
  9
$UCSXDIR
 10
1.0
 20
0.0
 30
0.0
  9
$UCSYDIR
 10
0.0
 20
1.0
 30
0.0
  9
$UCSORTHOREF
  2

  9
$UCSORTHOVIEW
 70
     1
  9
$UCSORGTOP
 10
0.0
 20
0.0
 30
0.0
  9
$UCSORGBOTTOM
 10
0.0
 20
0.0
 30
0.0
  9
$UCSORGLEFT
 10
0.0
 20
0.0
 30
0.0
  9
$UCSORGRIGHT
 10
0.0
 20
0.0
 30
0.0
  9
$UCSORGFRONT
 10
0.0
 20
0.0
 30
0.0
  9
$UCSORGBACK
 10
0.0
 20
0.0
 30
0.0
  9
$PUCSBASE
  2

  9
$PUCSNAME
  2

  9
$PUCSORG
 10
0.0
 20
0.0
 30
0.0
  9
$PUCSXDIR
 10
1.0
 20
0.0
 30
0.0
  9
$PUCSYDIR
 10
0.0
 20
1.0
 30
0.0
  9
$PUCSORTHOREF
  2

  9
$PUCSORTHOVIEW
 70
     0
  9
$PUCSORGTOP
 10
0.0
 20
0.0
 30
0.0
  9
$PUCSORGBOTTOM
 10
0.0
 20
0.0
 30
0.0
  9
$PUCSORGLEFT
 10
0.0
 20
0.0
 30
0.0
  9
$PUCSORGRIGHT
 10
0.0
 20
0.0
 30
0.0
  9
$PUCSORGFRONT
 10
0.0
 20
0.0
 30
0.0
  9
$PUCSORGBACK
 10
0.0
 20
0.0
 30
0.0
  9
$USERI1
 70
     0
  9
$USERI2
 70
     0
  9
$USERI3
 70
     0
  9
$USERI4
 70
     0
  9
$USERI5
 70
     0
  9
$USERR1
 40
0.0
  9
$USERR2
 40
0.0
  9
$USERR3
 40
0.0
  9
$USERR4
 40
0.0
  9
$USERR5
 40
0.0
  9
$WORLDVIEW
 70
     1
  9
$SHADEDGE
 70
     3
  9
$SHADEDIF
 70
    70
  9
$TILEMODE
 70
     1
  9
$MAXACTVP
 70
    64
  9
$PINSBASE
 10
0.0
 20
0.0
 30
0.0
  9
$PLIMCHECK
 70
     0
  9
$PEXTMIN
 10
1.000000000000000E+20
 20
1.000000000000000E+20
 30
1.000000000000000E+20
  9
$PEXTMAX
 10
-1.000000000000000E+20
 20
-1.000000000000000E+20
 30
-1.000000000000000E+20
  9
$PLIMMIN
 10
0.0
 20
0.0
  9
$PLIMMAX
 10
12.0
 20
9.0
  9
$UNITMODE
 70
     0
  9
$VISRETAIN
 70
     1
  9
$PLINEGEN
 70
     0
  9
$PSLTSCALE
 70
     1
  9
$TREEDEPTH
 70
  3020
  9
$CMLSTYLE
  2
Standard
  9
$CMLJUST
 70
     0
  9
$CMLSCALE
 40
1.0
  9
$PROXYGRAPHICS
 70
     1
  9
$MEASUREMENT
 70
     0
  9
$CELWEIGHT
370
    -1
  9
$ENDCAPS
280
     0
  9
$JOINSTYLE
280
     0
  9
$LWDISPLAY
290
     0
  9
$INSUNITS
 70
     0
  9
$HYPERLINKBASE
  1

  9
$STYLESHEET
  1

  9
$XEDIT
290
     1
  9
$CEPSNTYPE
380
     0
  9
$PSTYLEMODE
290
     1
  9
$FINGERPRINTGUID
  2
{2775FB2A-AD61-4341-BDED-DAF353CD283B}
  9
$VERSIONGUID
  2
{87CE0183-8BDA-490C-B2F2-7CC3C285DD18}
  9
$EXTNAMES
290
     1
  9
$PSVPSCALE
 40
0.0
  9
$OLESTARTUP
290
     0
  0
ENDSEC
  0
SECTION
  2
CLASSES
  0
CLASS
  1
ACDBDICTIONARYWDFLT
  2
AcDbDictionaryWithDefault
  3
AutoCAD 2000
 90
        0
280
     0
281
     0
  0
CLASS
  1
ACDBPLACEHOLDER
  2
AcDbPlaceHolder
  3
AutoCAD 2000
 90
        0
280
     0
281
     0
  0
CLASS
  1
LAYOUT
  2
AcDbLayout
  3
AutoCAD 2000
 90
        0
280
     0
281
     0
  0
CLASS
  1
DICTIONARYVAR
  2
AcDbDictionaryVar
  3
AutoCAD 2000
 90
        0
280
     0
281
     0
  0
ENDSEC
  0
SECTION
  2
TABLES
  0
TABLE
  2
VPORT
  5
8
330
0
100
AcDbSymbolTable
 70
     3
  0
VPORT
  5
226
330
8
100
AcDbSymbolTableRecord
100
AcDbViewportTableRecord
  2
*Active
 70
     0
 10
0.0
 20
0.0
 11
1.0
 21
1.0
 12
44.0
 22
101.9999999999999
 13
0.0
 23
0.0
 14
1.0
 24
1.0
 15
0.0
 25
0.0
 16
0.0
 26
0.0
 36
1.0
 17
0.0
 27
0.0
 37
0.0
 40
205.379932356257
 41
2.073363431151241
 42
50.0
 43
0.0
 44
0.0
 50
0.0
 51
0.0
 71
     0
 72
   100
 73
     1
 74
     3
 75
     0
 76
     0
 77
     0
 78
     0
281
     0
 65
     1
110
0.0
120
0.0
130
0.0
111
1.0
121
0.0
131
0.0
112
0.0
122
1.0
132
0.0
 79
     1
146
0.0
  0
ENDTAB
  0
TABLE
  2
LTYPE
  5
5
330
0
100
AcDbSymbolTable
 70
     1
  0
LTYPE
  5
13
330
5
100
AcDbSymbolTableRecord
100
AcDbLinetypeTableRecord
  2
ByBlock
 70
     0
  3

 72
    65
 73
     0
 40
0.0
  0
LTYPE
  5
14
330
5
100
AcDbSymbolTableRecord
100
AcDbLinetypeTableRecord
  2
ByLayer
 70
     0
  3

 72
    65
 73
     0
 40
0.0
  0
LTYPE
  5
15
330
5
100
AcDbSymbolTableRecord
100
AcDbLinetypeTableRecord
  2
Continuous
 70
     0
  3
Solid line
 72
    65
 73
     0
 40
0.0
  0
ENDTAB
  0
TABLE
  2
LAYER
  5
2
330
0
100
AcDbSymbolTable
 70
     1
  0
LAYER
  5
10
330
2
100
AcDbSymbolTableRecord
100
AcDbLayerTableRecord
  2
0
 70
     0
 62
     7
  6
Continuous
370
    -3
390
F
  0
ENDTAB
  0
TABLE
  2
STYLE
  5
3
330
0
100
AcDbSymbolTable
 70
     1
  0
STYLE
  5
11
330
3
100
AcDbSymbolTableRecord
100
AcDbTextStyleTableRecord
  2
Standard
 70
     0
 40
0.0
 41
1.0
 50
0.0
 71
     0
 42
0.2
  3
txt
  4

  0
ENDTAB
  0
TABLE
  2
VIEW
  5
6
330
0
100
AcDbSymbolTable
 70
     0
  0
ENDTAB
  0
TABLE
  2
UCS
  5
7
330
0
100
AcDbSymbolTable
 70
     0
  0
ENDTAB
  0
TABLE
  2
APPID
  5
9
330
0
100
AcDbSymbolTable
 70
     1
  0
APPID
  5
12
330
9
100
AcDbSymbolTableRecord
100
AcDbRegAppTableRecord
  2
ACAD
 70
     0
  0
ENDTAB
  0
TABLE
  2
DIMSTYLE
  5
A
330
0
100
AcDbSymbolTable
 70
     1
100
AcDbDimStyleTable
 71
     0
  0
DIMSTYLE
105
216
330
A
100
AcDbSymbolTableRecord
100
AcDbDimStyleTableRecord
  2
Standard
 70
     0
340
11
  0
ENDTAB
  0
TABLE
  2
BLOCK_RECORD
  5
1
330
0
100
AcDbSymbolTable
 70
     0
  0
BLOCK_RECORD
  5
1E
330
1
100
AcDbSymbolTableRecord
100
AcDbBlockTableRecord
  2
*Model_Space
340
21
  0
BLOCK_RECORD
  5
1A
330
1
100
AcDbSymbolTableRecord
100
AcDbBlockTableRecord
  2
*Paper_Space
340
1D
  0
ENDTAB
  0
ENDSEC
  0
SECTION
  2
BLOCKS
  0
BLOCK
  5
1F
330
1E
100
AcDbEntity
  8
0
100
AcDbBlockBegin
  2
*Model_Space
 70
     0
 10
0.0
 20
0.0
 30
0.0
  3
*Model_Space
  1

  0
ENDBLK
  5
20
330
1E
100
AcDbEntity
  8
0
100
AcDbBlockEnd
  0
BLOCK
  5
1B
330
1A
100
AcDbEntity
 67
     1
  8
0
100
AcDbBlockBegin
  2
*Paper_Space
 70
     0
 10
0.0
 20
0.0
 30
0.0
  3
*Paper_Space
  1

  0
ENDBLK
  5
1C
330
1A
100
AcDbEntity
 67
     1
  8
0
100
AcDbBlockEnd
  0
ENDSEC
  0
SECTION
  2
ENTITIES
  0
LINE
  5
22
330
1E
100
AcDbEntity
  8
0
100
AcDbLine
 10
0.249999999999997
 20
-0.00000000000001
 30
0.0
 11
1.149999999999999
 21
-0.0000000000000104
 31
0.0
  0
LINE
  5
23
330
1E
100
AcDbEntity
  8
0
100
AcDbLine
 10
0.249999999999997
 20
4.42307999999999
 30
0.0
 11
0.249999999999997
 21
-0.0000000000000092
 31
0.0
  0
LINE
  5
24
330
1E
100
AcDbEntity
  8
0
100
AcDbLine
 10
0.249999999999997
 20
4.42307999999999
 30
0.0
 11
1.149999999999999
 21
4.42307999999999
 31
0.0
  0
LINE
  5
25
330
1E
100
AcDbEntity
  8
0
100
AcDbLine
 10
0.249999999999997
 20
4.42307999999999
 30
0.0
 11
0.6249999999999972
 21
4.80768999999999
 31
0.0
  0
LINE
  5
26
330
1E
100
AcDbEntity
  8
0
100
AcDbLine
 10
1.149999999999999
 20
-0.0000000000000104
 30
0.0
 11
3.7
 21
-0.0000000000000108
 31
0.0
  0
LINE
  5
27
330
1E
100
AcDbEntity
  8
0
100
AcDbLine
 10
0.6249999999999972
 20
4.80768999999999
 30
0.0
 11
1.375
 21
4.99999999999999
 31
0.0
  0
LINE
  5
28
330
1E
100
AcDbEntity
  8
0
100
AcDbLine
 10
0.6249999999999972
 20
4.80768999999999
 30
0.0
 11
1.375
 21
4.99999999999999
 31
0.0
  0
LINE
  5
29
330
1E
100
AcDbEntity
  8
0
100
AcDbLine
 10
2.274999999999999
 20
4.99999999999999
 30
0.0
 11
4.674999999999999
 21
4.99999999999999
 31
0.0
  0
LINE
  5
2A
330
1E
100
AcDbEntity
  8
0
100
AcDbLine
 10
1.375
 20
4.99999999999999
 30
0.0
 11
2.274999999999999
 21
4.99999999999999
 31
0.0
  0
LINE
  5
2B
330
1E
100
AcDbEntity
  8
0
100
AcDbLine
 10
1.149999999999999
 20
4.42307999999999
 30
0.0
 11
3.7
 21
4.42307999999999
 31
0.0
  0
LINE
  5
2C
330
1E
100
AcDbEntity
  8
0
100
AcDbLine
 10
1.149999999999999
 20
-0.0000000000000088
 30
0.0
 11
3.7
 21
-0.0000000000000085
 31
0.0
  0
LINE
  5
2D
330
1E
100
AcDbEntity
  8
0
100
AcDbLine
 10
0.249999999999997
 20
-0.0000000000000092
 30
0.0
 11
1.149999999999999
 21
-0.0000000000000088
 31
0.0
  0
LINE
  5
2E
330
1E
100
AcDbEntity
  8
0
100
AcDbLine
 10
0.249999999999997
 20
-0.0000000000000092
 30
0.0
 11
0.249999999999997
 21
4.42307999999999
 31
0.0
  0
LINE
  5
2F
330
1E
100
AcDbEntity
  8
0
100
AcDbLine
 10
2.75
 20
4.99999999999999
 30
0.0
 11
5.25
 21
5.59999999999999
 31
0.0
  0
LINE
  5
30
330
1E
100
AcDbEntity
  8
0
100
AcDbLine
 10
3.7
 20
-0.0000000000000108
 30
0.0
 11
7.75
 21
-0.0000000000000111
 31
0.0
  0
LINE
  5
31
330
1E
100
AcDbEntity
  8
0
100
AcDbLine
 10
7.75
 20
-0.0000000000000111
 30
0.0
 11
13.075
 21
-0.0000000000000114
 31
0.0
  0
LINE
  5
32
330
1E
100
AcDbEntity
  8
0
100
AcDbLine
 10
3.7
 20
-0.0000000000000085
 30
0.0
 11
7.75
 21
-0.0000000000000081
 31
0.0
  0
LINE
  5
33
330
1E
100
AcDbEntity
  8
0
100
AcDbLine
 10
13.075
 20
-0.0000000000000114
 30
0.0
 11
19.225
 21
-0.0000000000000115
 31
0.0
  0
LINE
  5
34
330
1E
100
AcDbEntity
  8
0
100
AcDbLine
 10
7.75
 20
-0.0000000000000081
 30
0.0
 11
13.075
 21
-0.0000000000000079
 31
0.0
  0
LINE
  5
35
330
1E
100
AcDbEntity
  8
0
100
AcDbLine
 10
3.7
 20
4.42307999999999
 30
0.0
 11
7.75
 21
4.42307999999999
 31
0.0
  0
LINE
  5
36
330
1E
100
AcDbEntity
  8
0
100
AcDbLine
 10
4.674999999999999
 20
4.99999999999999
 30
0.0
 11
8.5
 21
4.99999999999999
 31
0.0
  0
LINE
  5
38
330
1E
100
AcDbEntity
  8
0
100
AcDbLine
 10
8.5
 20
4.99999999999999
 30
0.0
 11
13.6
 21
4.99999999999999
 31
0.0
  0
LINE
  5
3A
330
1E
100
AcDbEntity
  8
0
100
AcDbLine
 10
7.75
 20
4.42307999999999
 30
0.0
 11
13.075
 21
4.42307999999999
 31
0.0
  0
LINE
  5
3B
330
1E
100
AcDbEntity
  8
0
100
AcDbLine
 10
13.075
 20
4.42307999999999
 30
0.0
 11
19.225
 21
4.42307999999999
 31
0.0
  0
LINE
  5
3C
330
1E
100
AcDbEntity
  8
0
100
AcDbLine
 10
13.075
 20
-0.0000000000000079
 30
0.0
 11
19.225
 21
-0.0000000000000077
 31
0.0
  0
LINE
  5
3D
330
1E
100
AcDbEntity
  8
0
100
AcDbLine
 10
43.75
 20
-0.0000000000000111
 30
0.0
 11
47.8
 21
-0.0000000000000108
 31
0.0
  0
LINE
  5
3E
330
1E
100
AcDbEntity
  8
0
100
AcDbLine
 10
47.8
 20
-0.0000000000000108
 30
0.0
 11
50.35
 21
-0.0000000000000104
 31
0.0
  0
LINE
  5
3F
330
1E
100
AcDbEntity
  8
0
100
AcDbLine
 10
50.35
 20
-0.0000000000000104
 30
0.0
 11
51.25
 21
-0.00000000000001
 31
0.0
  0
LINE
  5
40
330
1E
100
AcDbEntity
  8
0
100
AcDbLine
 10
38.42499999999999
 20
-0.0000000000000114
 30
0.0
 11
43.75
 21
-0.0000000000000111
 31
0.0
  0
LINE
  5
41
330
1E
100
AcDbEntity
  8
0
100
AcDbLine
 10
32.275
 20
-0.0000000000000115
 30
0.0
 11
38.42499999999999
 21
-0.0000000000000114
 31
0.0
  0
LINE
  5
42
330
1E
100
AcDbEntity
  8
0
100
AcDbLine
 10
25.75
 20
-0.0000000000000116
 30
0.0
 11
32.275
 21
-0.0000000000000115
 31
0.0
  0
LINE
  5
43
330
1E
100
AcDbEntity
  8
0
100
AcDbLine
 10
43.75
 20
-0.0000000000000081
 30
0.0
 11
47.8
 21
-0.0000000000000085
 31
0.0
  0
LINE
  5
44
330
1E
100
AcDbEntity
  8
0
100
AcDbLine
 10
47.8
 20
-0.0000000000000085
 30
0.0
 11
50.35
 21
-0.0000000000000088
 31
0.0
  0
LINE
  5
45
330
1E
100
AcDbEntity
  8
0
100
AcDbLine
 10
50.35
 20
-0.0000000000000088
 30
0.0
 11
51.25
 21
-0.0000000000000092
 31
0.0
  0
LINE
  5
46
330
1E
100
AcDbEntity
  8
0
100
AcDbLine
 10
38.42499999999999
 20
-0.0000000000000079
 30
0.0
 11
43.75
 21
-0.0000000000000081
 31
0.0
  0
LINE
  5
47
330
1E
100
AcDbEntity
  8
0
100
AcDbLine
 10
32.275
 20
-0.0000000000000077
 30
0.0
 11
38.42499999999999
 21
-0.0000000000000079
 31
0.0
  0
LINE
  5
48
330
1E
100
AcDbEntity
  8
0
100
AcDbLine
 10
51.25
 20
-0.0000000000000092
 30
0.0
 11
51.25
 21
4.42307999999999
 31
0.0
  0
LINE
  5
49
330
1E
100
AcDbEntity
  8
0
100
AcDbLine
 10
19.225
 20
-0.0000000000000115
 30
0.0
 11
25.75
 21
-0.0000000000000116
 31
0.0
  0
LINE
  5
4A
330
1E
100
AcDbEntity
  8
0
100
AcDbLine
 10
13.6
 20
4.99999999999999
 30
0.0
 11
19.45
 21
4.99999999999999
 31
0.0
  0
LINE
  5
4B
330
1E
100
AcDbEntity
  8
0
100
AcDbLine
 10
25.75
 20
4.99999999999999
 30
0.0
 11
32.05
 21
4.99999999999999
 31
0.0
  0
LINE
  5
4C
330
1E
100
AcDbEntity
  8
0
100
AcDbLine
 10
43.75
 20
4.42307999999999
 30
0.0
 11
47.8
 21
4.42307999999999
 31
0.0
  0
LINE
  5
4D
330
1E
100
AcDbEntity
  8
0
100
AcDbLine
 10
47.8
 20
4.42307999999999
 30
0.0
 11
50.35
 21
4.42307999999999
 31
0.0
  0
LINE
  5
4E
330
1E
100
AcDbEntity
  8
0
100
AcDbLine
 10
38.42499999999999
 20
4.42307999999999
 30
0.0
 11
43.75
 21
4.42307999999999
 31
0.0
  0
LINE
  5
4F
330
1E
100
AcDbEntity
  8
0
100
AcDbLine
 10
37.9
 20
4.99999999999999
 30
0.0
 11
43.0
 21
4.99999999999999
 31
0.0
  0
LINE
  5
50
330
1E
100
AcDbEntity
  8
0
100
AcDbLine
 10
32.05
 20
4.99999999999999
 30
0.0
 11
37.9
 21
4.99999999999999
 31
0.0
  0
LINE
  5
51
330
1E
100
AcDbEntity
  8
0
100
AcDbLine
 10
43.0
 20
4.99999999999999
 30
0.0
 11
46.825
 21
4.99999999999999
 31
0.0
  0
LINE
  5
52
330
1E
100
AcDbEntity
  8
0
100
AcDbLine
 10
46.825
 20
4.99999999999999
 30
0.0
 11
49.225
 21
4.99999999999999
 31
0.0
  0
LINE
  5
53
330
1E
100
AcDbEntity
  8
0
100
AcDbLine
 10
49.225
 20
4.99999999999999
 30
0.0
 11
50.125
 21
4.99999999999999
 31
0.0
  0
LINE
  5
56
330
1E
100
AcDbEntity
  8
0
100
AcDbLine
 10
32.275
 20
4.42307999999999
 30
0.0
 11
38.42499999999999
 21
4.42307999999999
 31
0.0
  0
LINE
  5
57
330
1E
100
AcDbEntity
  8
0
100
AcDbLine
 10
25.75
 20
4.42307999999999
 30
0.0
 11
32.275
 21
4.42307999999999
 31
0.0
  0
LINE
  5
58
330
1E
100
AcDbEntity
  8
0
100
AcDbLine
 10
25.75
 20
-0.0000000000000077
 30
0.0
 11
32.275
 21
-0.0000000000000077
 31
0.0
  0
LINE
  5
59
330
1E
100
AcDbEntity
  8
0
100
AcDbLine
 10
50.35
 20
4.42307999999999
 30
0.0
 11
51.25
 21
4.42307999999999
 31
0.0
  0
LINE
  5
5A
330
1E
100
AcDbEntity
  8
0
100
AcDbLine
 10
51.25
 20
4.42307999999999
 30
0.0
 11
51.25
 21
-0.0000000000000092
 31
0.0
  0
LINE
  5
5B
330
1E
100
AcDbEntity
  8
0
100
AcDbLine
 10
50.875
 20
4.80768999999999
 30
0.0
 11
51.25
 21
4.42307999999999
 31
0.0
  0
LINE
  5
5C
330
1E
100
AcDbEntity
  8
0
100
AcDbLine
 10
50.125
 20
4.99999999999999
 30
0.0
 11
50.875
 21
4.80768999999999
 31
0.0
  0
LINE
  5
5D
330
1E
100
AcDbEntity
  8
0
100
AcDbLine
 10
46.25
 20
5.59999999999999
 30
0.0
 11
48.75
 21
4.99999999999999
 31
0.0
  0
LINE
  5
5E
330
1E
100
AcDbEntity
  8
0
100
AcDbLine
 10
19.45
 20
4.99999999999999
 30
0.0
 11
25.75
 21
4.99999999999999
 31
0.0
  0
LINE
  5
5F
330
1E
100
AcDbEntity
  8
0
100
AcDbLine
 10
19.225
 20
4.42307999999999
 30
0.0
 11
25.75
 21
4.42307999999999
 31
0.0
  0
LINE
  5
60
330
1E
100
AcDbEntity
  8
0
100
AcDbLine
 10
19.225
 20
-0.0000000000000077
 30
0.0
 11
25.75
 21
-0.0000000000000077
 31
0.0
  0
LINE
  5
61
330
1E
100
AcDbEntity
  8
0
100
AcDbLine
 10
44.55
 20
7.19999999999999
 30
0.0
 11
46.25
 21
5.59999999999999
 31
0.0
  0
LINE
  5
62
330
1E
100
AcDbEntity
  8
0
100
AcDbLine
 10
43.75
 20
9.999999999999991
 30
0.0
 11
43.75
 21
72.0
 31
0.0
  0
LINE
  5
63
330
1E
100
AcDbEntity
  8
0
100
AcDbLine
 10
43.75
 20
9.999999999999991
 30
0.0
 11
44.55
 21
7.19999999999999
 31
0.0
  0
LINE
  5
64
330
1E
100
AcDbEntity
  8
0
100
AcDbLine
 10
43.75
 20
38.0
 30
0.0
 11
50.1731
 21
38.0
 31
0.0
  0
LINE
  5
65
330
1E
100
AcDbEntity
  8
0
100
AcDbLine
 10
50.1731
 20
38.0
 30
0.0
 11
50.55769999999999
 21
38.25
 31
0.0
  0
LINE
  5
66
330
1E
100
AcDbEntity
  8
0
100
AcDbLine
 10
50.75
 20
38.75
 30
0.0
 11
50.75
 21
39.35
 31
0.0
  0
LINE
  5
67
330
1E
100
AcDbEntity
  8
0
100
AcDbLine
 10
50.55769999999999
 20
38.85
 30
0.0
 11
50.55769999999999
 21
40.49999999999999
 31
0.0
  0
LINE
  5
68
330
1E
100
AcDbEntity
  8
0
100
AcDbLine
 10
50.55769999999999
 20
38.85
 30
0.0
 11
50.55769999999999
 21
38.25
 31
0.0
  0
LINE
  5
69
330
1E
100
AcDbEntity
  8
0
100
AcDbLine
 10
50.55769999999999
 20
38.25
 30
0.0
 11
50.55769999999999
 21
38.85
 31
0.0
  0
LINE
  5
6A
330
1E
100
AcDbEntity
  8
0
100
AcDbLine
 10
50.55769999999999
 20
38.25
 30
0.0
 11
50.75
 21
38.75
 31
0.0
  0
LINE
  5
6B
330
1E
100
AcDbEntity
  8
0
100
AcDbLine
 10
43.75
 20
38.0
 30
0.0
 11
50.1731
 21
38.0
 31
0.0
  0
LINE
  5
6D
330
1E
100
AcDbEntity
  8
0
100
AcDbLine
 10
6.95
 20
7.19999999999999
 30
0.0
 11
7.75
 21
9.999999999999991
 31
0.0
  0
LINE
  5
6E
330
1E
100
AcDbEntity
  8
0
100
AcDbLine
 10
5.25
 20
5.59999999999999
 30
0.0
 11
6.95
 21
7.19999999999999
 31
0.0
  0
LINE
  5
6F
330
1E
100
AcDbEntity
  8
0
100
AcDbLine
 10
2.75
 20
4.99999999999999
 30
0.0
 11
5.25
 21
5.59999999999999
 31
0.0
  0
LINE
  5
70
330
1E
100
AcDbEntity
  8
0
100
AcDbLine
 10
43.75
 20
72.0
 30
0.0
 11
43.75
 21
9.999999999999991
 31
0.0
  0
LINE
  5
71
330
1E
100
AcDbEntity
  8
0
100
AcDbLine
 10
50.75
 20
40.95
 30
0.0
 11
50.75
 21
43.5
 31
0.0
  0
LINE
  5
72
330
1E
100
AcDbEntity
  8
0
100
AcDbLine
 10
50.75
 20
40.95
 30
0.0
 11
50.75
 21
39.35
 31
0.0
  0
LINE
  5
73
330
1E
100
AcDbEntity
  8
0
100
AcDbLine
 10
50.75
 20
39.35
 30
0.0
 11
50.75
 21
40.95
 31
0.0
  0
LINE
  5
74
330
1E
100
AcDbEntity
  8
0
100
AcDbLine
 10
50.75
 20
39.35
 30
0.0
 11
50.75
 21
38.75
 31
0.0
  0
LINE
  5
75
330
1E
100
AcDbEntity
  8
0
100
AcDbLine
 10
50.55769999999999
 20
40.49999999999999
 30
0.0
 11
50.55769999999999
 21
43.15
 31
0.0
  0
LINE
  5
76
330
1E
100
AcDbEntity
  8
0
100
AcDbLine
 10
50.55769999999999
 20
40.49999999999999
 30
0.0
 11
50.55769999999999
 21
38.85
 31
0.0
  0
LINE
  5
77
330
1E
100
AcDbEntity
  8
0
100
AcDbLine
 10
50.75
 20
39.0
 30
0.0
 11
51.75
 21
39.0
 31
0.0
  0
LINE
  5
78
330
1E
100
AcDbEntity
  8
0
100
AcDbLine
 10
51.75
 20
39.6132
 30
0.0
 11
51.75
 21
38.25829999999999
 31
0.0
  0
LINE
  5
79
330
1E
100
AcDbEntity
  8
0
100
AcDbLine
 10
50.75
 20
43.5
 30
0.0
 11
50.75
 21
46.9
 31
0.0
  0
LINE
  5
7A
330
1E
100
AcDbEntity
  8
0
100
AcDbLine
 10
50.75
 20
43.5
 30
0.0
 11
50.75
 21
40.95
 31
0.0
  0
LINE
  5
7B
330
1E
100
AcDbEntity
  8
0
100
AcDbLine
 10
50.55769999999999
 20
43.15
 30
0.0
 11
50.55769999999999
 21
46.65
 31
0.0
  0
LINE
  5
7C
330
1E
100
AcDbEntity
  8
0
100
AcDbLine
 10
50.55769999999999
 20
43.15
 30
0.0
 11
50.55769999999999
 21
40.49999999999999
 31
0.0
  0
LINE
  5
7D
330
1E
100
AcDbEntity
  8
0
100
AcDbLine
 10
50.55769999999999
 20
46.65
 30
0.0
 11
50.55769999999999
 21
50.7
 31
0.0
  0
LINE
  5
7E
330
1E
100
AcDbEntity
  8
0
100
AcDbLine
 10
50.55769999999999
 20
46.65
 30
0.0
 11
50.55769999999999
 21
43.15
 31
0.0
  0
LINE
  5
7F
330
1E
100
AcDbEntity
  8
0
100
AcDbLine
 10
50.75
 20
46.9
 30
0.0
 11
50.75
 21
50.8
 31
0.0
  0
LINE
  5
80
330
1E
100
AcDbEntity
  8
0
100
AcDbLine
 10
50.75
 20
46.9
 30
0.0
 11
50.75
 21
43.5
 31
0.0
  0
LINE
  5
81
330
1E
100
AcDbEntity
  8
0
100
AcDbLine
 10
51.75
 20
42.0167
 30
0.0
 11
51.75
 21
39.6132
 31
0.0
  0
LINE
  5
82
330
1E
100
AcDbEntity
  8
0
100
AcDbLine
 10
51.75
 20
45.2661
 30
0.0
 11
51.75
 21
42.0167
 31
0.0
  0
LINE
  5
8B
330
1E
100
AcDbEntity
  8
0
100
AcDbLine
 10
50.55769999999999
 20
55.0
 30
0.0
 11
50.55769999999999
 21
50.7
 31
0.0
  0
LINE
  5
8C
330
1E
100
AcDbEntity
  8
0
100
AcDbLine
 10
50.55769999999999
 20
55.0
 30
0.0
 11
50.55769999999999
 21
59.29999999999999
 31
0.0
  0
LINE
  5
8D
330
1E
100
AcDbEntity
  8
0
100
AcDbLine
 10
50.75
 20
55.0
 30
0.0
 11
50.75
 21
50.8
 31
0.0
  0
LINE
  5
8E
330
1E
100
AcDbEntity
  8
0
100
AcDbLine
 10
50.75
 20
55.0
 30
0.0
 11
50.75
 21
59.2
 31
0.0
  0
LINE
  5
8F
330
1E
100
AcDbEntity
  8
0
100
AcDbLine
 10
50.75
 20
50.8
 30
0.0
 11
50.75
 21
55.0
 31
0.0
  0
LINE
  5
90
330
1E
100
AcDbEntity
  8
0
100
AcDbLine
 10
50.75
 20
50.8
 30
0.0
 11
50.75
 21
46.9
 31
0.0
  0
LINE
  5
91
330
1E
100
AcDbEntity
  8
0
100
AcDbLine
 10
50.55769999999999
 20
50.7
 30
0.0
 11
50.55769999999999
 21
55.0
 31
0.0
  0
LINE
  5
92
330
1E
100
AcDbEntity
  8
0
100
AcDbLine
 10
50.55769999999999
 20
50.7
 30
0.0
 11
50.55769999999999
 21
46.65
 31
0.0
  0
LINE
  5
9B
330
1E
100
AcDbEntity
  8
0
100
AcDbLine
 10
51.75
 20
49.0833
 30
0.0
 11
51.75
 21
45.2661
 31
0.0
  0
LINE
  5
9C
330
1E
100
AcDbEntity
  8
0
100
AcDbLine
 10
51.75
 20
53.51469999999999
 30
0.0
 11
51.75
 21
49.0833
 31
0.0
  0
LINE
  5
9D
330
1E
100
AcDbEntity
  8
0
100
AcDbLine
 10
50.55769999999999
 20
63.35
 30
0.0
 11
50.55769999999999
 21
66.84999999999999
 31
0.0
  0
LINE
  5
9E
330
1E
100
AcDbEntity
  8
0
100
AcDbLine
 10
50.55769999999999
 20
63.35
 30
0.0
 11
50.55769999999999
 21
59.29999999999999
 31
0.0
  0
LINE
  5
9F
330
1E
100
AcDbEntity
  8
0
100
AcDbLine
 10
50.75
 20
63.1
 30
0.0
 11
50.75
 21
66.5
 31
0.0
  0
LINE
  5
A0
330
1E
100
AcDbEntity
  8
0
100
AcDbLine
 10
50.75
 20
63.1
 30
0.0
 11
50.75
 21
59.2
 31
0.0
  0
LINE
  5
A1
330
1E
100
AcDbEntity
  8
0
100
AcDbLine
 10
50.75
 20
59.2
 30
0.0
 11
50.75
 21
63.1
 31
0.0
  0
LINE
  5
A2
330
1E
100
AcDbEntity
  8
0
100
AcDbLine
 10
50.75
 20
59.2
 30
0.0
 11
50.75
 21
55.0
 31
0.0
  0
LINE
  5
A3
330
1E
100
AcDbEntity
  8
0
100
AcDbLine
 10
50.55769999999999
 20
59.29999999999999
 30
0.0
 11
50.55769999999999
 21
63.35
 31
0.0
  0
LINE
  5
A4
330
1E
100
AcDbEntity
  8
0
100
AcDbLine
 10
50.55769999999999
 20
59.29999999999999
 30
0.0
 11
50.55769999999999
 21
55.0
 31
0.0
  0
LINE
  5
A5
330
1E
100
AcDbEntity
  8
0
100
AcDbLine
 10
51.75
 20
57.952
 30
0.0
 11
51.75
 21
53.51469999999999
 31
0.0
  0
LINE
  5
A6
330
1E
100
AcDbEntity
  8
0
100
AcDbLine
 10
51.75
 20
38.25829999999999
 30
0.0
 11
53.8221
 21
38.0785
 31
0.0
  0
LINE
  5
A7
330
1E
100
AcDbEntity
  8
0
100
AcDbLine
 10
50.55769999999999
 20
66.84999999999999
 30
0.0
 11
50.55769999999999
 21
69.5
 31
0.0
  0
LINE
  5
A8
330
1E
100
AcDbEntity
  8
0
100
AcDbLine
 10
50.55769999999999
 20
66.84999999999999
 30
0.0
 11
50.55769999999999
 21
63.35
 31
0.0
  0
LINE
  5
A9
330
1E
100
AcDbEntity
  8
0
100
AcDbLine
 10
50.75
 20
66.5
 30
0.0
 11
50.75
 21
69.05
 31
0.0
  0
LINE
  5
AA
330
1E
100
AcDbEntity
  8
0
100
AcDbLine
 10
50.75
 20
66.5
 30
0.0
 11
50.75
 21
63.1
 31
0.0
  0
LINE
  5
AB
330
1E
100
AcDbEntity
  8
0
100
AcDbLine
 10
50.75
 20
69.05
 30
0.0
 11
50.75
 21
70.65000000000001
 31
0.0
  0
LINE
  5
AC
330
1E
100
AcDbEntity
  8
0
100
AcDbLine
 10
50.75
 20
69.05
 30
0.0
 11
50.75
 21
66.5
 31
0.0
  0
LINE
  5
AD
330
1E
100
AcDbEntity
  8
0
100
AcDbLine
 10
50.75
 20
70.65000000000001
 30
0.0
 11
50.75
 21
71.25
 31
0.0
  0
LINE
  5
AE
330
1E
100
AcDbEntity
  8
0
100
AcDbLine
 10
50.75
 20
70.65000000000001
 30
0.0
 11
50.75
 21
69.05
 31
0.0
  0
LINE
  5
AF
330
1E
100
AcDbEntity
  8
0
100
AcDbLine
 10
50.55769999999999
 20
69.5
 30
0.0
 11
50.55769999999999
 21
71.15000000000001
 31
0.0
  0
LINE
  5
B0
330
1E
100
AcDbEntity
  8
0
100
AcDbLine
 10
50.55769999999999
 20
69.5
 30
0.0
 11
50.55769999999999
 21
66.84999999999999
 31
0.0
  0
LINE
  5
B1
330
1E
100
AcDbEntity
  8
0
100
AcDbLine
 10
50.75
 20
71.25
 30
0.0
 11
50.75
 21
70.65000000000001
 31
0.0
  0
LINE
  5
B2
330
1E
100
AcDbEntity
  8
0
100
AcDbLine
 10
50.55769999999999
 20
71.15000000000001
 30
0.0
 11
50.55769999999999
 21
71.75
 31
0.0
  0
LINE
  5
B3
330
1E
100
AcDbEntity
  8
0
100
AcDbLine
 10
50.55769999999999
 20
71.15000000000001
 30
0.0
 11
50.55769999999999
 21
69.5
 31
0.0
  0
LINE
  5
B4
330
1E
100
AcDbEntity
  8
0
100
AcDbLine
 10
50.75
 20
71.0
 30
0.0
 11
51.75
 21
71.0
 31
0.0
  0
LINE
  5
BB
330
1E
100
AcDbEntity
  8
0
100
AcDbLine
 10
43.30270089143879
 20
72.0
 30
0.0
 11
50.1731
 21
72.0
 31
0.0
  0
LINE
  5
BC
330
1E
100
AcDbEntity
  8
0
100
AcDbLine
 10
50.55769999999999
 20
71.75
 30
0.0
 11
50.75
 21
71.25
 31
0.0
  0
LINE
  5
BD
330
1E
100
AcDbEntity
  8
0
100
AcDbLine
 10
50.55769999999999
 20
71.75
 30
0.0
 11
50.55769999999999
 21
71.15000000000001
 31
0.0
  0
LINE
  5
BE
330
1E
100
AcDbEntity
  8
0
100
AcDbLine
 10
43.75
 20
78.62919999999999
 30
0.0
 11
43.75
 21
72.0
 31
0.0
  0
LINE
  5
BF
330
1E
100
AcDbEntity
  8
0
100
AcDbLine
 10
43.75
 20
80.74479999999999
 30
0.0
 11
43.75
 21
78.62919999999999
 31
0.0
  0
LINE
  5
C0
330
1E
100
AcDbEntity
  8
0
100
AcDbLine
 10
43.75
 20
82.7753
 30
0.0
 11
43.75
 21
80.74479999999999
 31
0.0
  0
LINE
  5
C1
330
1E
100
AcDbEntity
  8
0
100
AcDbLine
 10
43.75
 20
85.0
 30
0.0
 11
43.75
 21
82.7753
 31
0.0
  0
LINE
  5
C2
330
1E
100
AcDbEntity
  8
0
100
AcDbLine
 10
50.1731
 20
72.0
 30
0.0
 11
50.55769999999999
 21
71.75
 31
0.0
  0
LINE
  5
C3
330
1E
100
AcDbEntity
  8
0
100
AcDbLine
 10
43.30270089143879
 20
72.0
 30
0.0
 11
50.1731
 21
72.0
 31
0.0
  0
LINE
  5
C8
330
1E
100
AcDbEntity
  8
0
100
AcDbLine
 10
11.3442
 20
161.227
 30
0.0
 11
11.5667
 21
164.2319999999999
 31
0.0
  0
LINE
  5
C9
330
1E
100
AcDbEntity
  8
0
100
AcDbLine
 10
11.5667
 20
164.2319999999999
 30
0.0
 11
11.80509999999999
 21
167.1109999999999
 31
0.0
  0
LINE
  5
CA
330
1E
100
AcDbEntity
  8
0
100
AcDbLine
 10
11.1216
 20
158.109
 30
0.0
 11
11.3442
 21
161.227
 31
0.0
  0
LINE
  5
CB
330
1E
100
AcDbEntity
  8
0
100
AcDbLine
 10
10.8832
 20
154.96
 30
0.0
 11
11.1216
 21
158.109
 31
0.0
  0
LINE
  5
CC
330
1E
100
AcDbEntity
  8
0
100
AcDbLine
 10
11.80509999999999
 20
167.1109999999999
 30
0.0
 11
12.01179999999999
 21
169.9259999999999
 31
0.0
  0
LINE
  5
CD
330
1E
100
AcDbEntity
  8
0
100
AcDbLine
 10
12.1707
 20
172.391
 30
0.0
 11
12.3296
 21
174.634
 31
0.0
  0
LINE
  5
CE
330
1E
100
AcDbEntity
  8
0
100
AcDbLine
 10
12.5231
 20
178.2059999999999
 30
0.0
 11
12.6191
 21
179.2569999999999
 31
0.0
  0
LINE
  5
CF
330
1E
100
AcDbEntity
  8
0
100
AcDbLine
 10
12.4568
 20
176.5579999999999
 30
0.0
 11
12.5231
 21
178.2059999999999
 31
0.0
  0
LINE
  5
D0
330
1E
100
AcDbEntity
  8
0
100
AcDbLine
 10
12.3296
 20
174.634
 30
0.0
 11
12.4568
 21
176.5579999999999
 31
0.0
  0
LINE
  5
D1
330
1E
100
AcDbEntity
  8
0
100
AcDbLine
 10
12.6191
 20
179.2569999999999
 30
0.0
 11
12.69519999999999
 21
180.0159999999999
 31
0.0
  0
LINE
  5
D2
330
1E
100
AcDbEntity
  8
0
100
AcDbLine
 10
12.01179999999999
 20
169.9259999999999
 30
0.0
 11
12.1707
 21
172.391
 31
0.0
  0
LINE
  5
D3
330
1E
100
AcDbEntity
  8
0
100
AcDbLine
 10
12.75
 20
180.3429999999999
 30
0.0
 11
14.75
 21
195.8179999999999
 31
0.0
  0
LINE
  5
D4
330
1E
100
AcDbEntity
  8
0
100
AcDbLine
 10
14.75
 20
194.731
 30
0.0
 11
14.75
 21
195.8179999999999
 31
0.0
  0
LINE
  5
D5
330
1E
100
AcDbEntity
  8
0
100
AcDbLine
 10
14.75
 20
194.731
 30
0.0
 11
14.75
 21
191.454
 31
0.0
  0
LINE
  5
D6
330
1E
100
AcDbEntity
  8
0
100
AcDbLine
 10
14.75
 20
195.8179999999999
 30
0.0
 11
15.14599999999999
 21
197.9129999999999
 31
0.0
  0
LINE
  5
D7
330
1E
100
AcDbEntity
  8
0
100
AcDbLine
 10
14.75
 20
195.8179999999999
 30
0.0
 11
14.75
 21
194.731
 31
0.0
  0
LINE
  5
D8
330
1E
100
AcDbEntity
  8
0
100
AcDbLine
 10
14.75
 20
191.454
 30
0.0
 11
14.75
 21
186.3829999999999
 31
0.0
  0
LINE
  5
D9
330
1E
100
AcDbEntity
  8
0
100
AcDbLine
 10
14.75
 20
191.454
 30
0.0
 11
14.75
 21
194.731
 31
0.0
  0
LINE
  5
DA
330
1E
100
AcDbEntity
  8
0
100
AcDbLine
 10
14.75
 20
186.3829999999999
 30
0.0
 11
14.75
 21
191.454
 31
0.0
  0
LINE
  5
DB
330
1E
100
AcDbEntity
  8
0
100
AcDbLine
 10
14.75
 20
186.3829999999999
 30
0.0
 11
14.75
 21
179.755
 31
0.0
  0
LINE
  5
DC
330
1E
100
AcDbEntity
  8
0
100
AcDbLine
 10
12.69519999999999
 20
180.0159999999999
 30
0.0
 11
12.75
 21
180.3429999999999
 31
0.0
  0
LINE
  5
DD
330
1E
100
AcDbEntity
  8
0
100
AcDbLine
 10
14.75
 20
179.755
 30
0.0
 11
14.75
 21
177.884
 31
0.0
  0
LINE
  5
DE
330
1E
100
AcDbEntity
  8
0
100
AcDbLine
 10
14.75
 20
179.755
 30
0.0
 11
14.75
 21
186.3829999999999
 31
0.0
  0
LINE
  5
DF
330
1E
100
AcDbEntity
  8
0
100
AcDbLine
 10
40.15579999999999
 20
161.227
 30
0.0
 11
40.3784
 21
158.109
 31
0.0
  0
LINE
  5
E0
330
1E
100
AcDbEntity
  8
0
100
AcDbLine
 10
40.3784
 20
158.109
 30
0.0
 11
40.61679999999999
 21
154.96
 31
0.0
  0
LINE
  5
E1
330
1E
100
AcDbEntity
  8
0
100
AcDbLine
 10
39.9333
 20
164.2319999999999
 30
0.0
 11
40.15579999999999
 21
161.227
 31
0.0
  0
LINE
  5
E2
330
1E
100
AcDbEntity
  8
0
100
AcDbLine
 10
39.3293
 20
172.391
 30
0.0
 11
39.4883
 21
169.9259999999999
 31
0.0
  0
LINE
  5
E3
330
1E
100
AcDbEntity
  8
0
100
AcDbLine
 10
39.4883
 20
169.9259999999999
 30
0.0
 11
39.6949
 21
167.1109999999999
 31
0.0
  0
LINE
  5
E4
330
1E
100
AcDbEntity
  8
0
100
AcDbLine
 10
39.6949
 20
167.1109999999999
 30
0.0
 11
39.9333
 21
164.2319999999999
 31
0.0
  0
LINE
  5
E5
330
1E
100
AcDbEntity
  8
0
100
AcDbLine
 10
25.75
 20
173.2879999999999
 30
0.0
 11
28.566
 21
173.452
 31
0.0
  0
LINE
  5
E6
330
1E
100
AcDbEntity
  8
0
100
AcDbLine
 10
28.566
 20
173.452
 30
0.0
 11
31.206
 21
173.894
 31
0.0
  0
LINE
  5
E7
330
1E
100
AcDbEntity
  8
0
100
AcDbLine
 10
40.61679999999999
 20
154.96
 30
0.0
 11
43.75
 21
85.0
 31
0.0
  0
LINE
  5
E8
330
1E
100
AcDbEntity
  8
0
100
AcDbLine
 10
28.054
 20
174.1089999999999
 30
0.0
 11
30.214
 21
174.4159999999999
 31
0.0
  0
LINE
  5
E9
330
1E
100
AcDbEntity
  8
0
100
AcDbLine
 10
31.206
 20
173.894
 30
0.0
 11
33.538
 21
174.629
 31
0.0
  0
LINE
  5
EB
330
1E
100
AcDbEntity
  8
0
100
AcDbLine
 10
25.75
 20
173.9959999999999
 30
0.0
 11
28.054
 21
174.1089999999999
 31
0.0
  0
LINE
  5
EC
330
1E
100
AcDbEntity
  8
0
100
AcDbLine
 10
30.214
 20
174.4159999999999
 30
0.0
 11
32.122
 21
174.925
 31
0.0
  0
LINE
  5
ED
330
1E
100
AcDbEntity
  8
0
100
AcDbLine
 10
33.538
 20
174.629
 30
0.0
 11
35.298
 21
175.604
 31
0.0
  0
LINE
  5
EE
330
1E
100
AcDbEntity
  8
0
100
AcDbLine
 10
23.44599999999999
 20
174.1089999999999
 30
0.0
 11
25.75
 21
173.9959999999999
 31
0.0
  0
LINE
  5
EF
330
1E
100
AcDbEntity
  8
0
100
AcDbLine
 10
21.286
 20
174.4159999999999
 30
0.0
 11
23.44599999999999
 21
174.1089999999999
 31
0.0
  0
LINE
  5
F0
330
1E
100
AcDbEntity
  8
0
100
AcDbLine
 10
22.934
 20
173.452
 30
0.0
 11
25.75
 21
173.2879999999999
 31
0.0
  0
LINE
  5
F1
330
1E
100
AcDbEntity
  8
0
100
AcDbLine
 10
20.294
 20
173.894
 30
0.0
 11
22.934
 21
173.452
 31
0.0
  0
LINE
  5
F2
330
1E
100
AcDbEntity
  8
0
100
AcDbLine
 10
17.074
 20
176.364
 30
0.0
 11
17.938
 21
175.6
 31
0.0
  0
LINE
  5
F3
330
1E
100
AcDbEntity
  8
0
100
AcDbLine
 10
39.1704
 20
174.634
 30
0.0
 11
39.3293
 21
172.391
 31
0.0
  0
LINE
  5
F4
330
1E
100
AcDbEntity
  8
0
100
AcDbLine
 10
32.122
 20
174.925
 30
0.0
 11
33.56199999999999
 21
175.6
 31
0.0
  0
LINE
  5
F5
330
1E
100
AcDbEntity
  8
0
100
AcDbLine
 10
33.56199999999999
 20
175.6
 30
0.0
 11
34.426
 21
176.364
 31
0.0
  0
LINE
  5
F6
330
1E
100
AcDbEntity
  8
0
100
AcDbLine
 10
33.56199999999999
 20
175.6
 30
0.0
 11
34.426
 21
176.3619999999999
 31
0.0
  0
LINE
  5
F7
330
1E
100
AcDbEntity
  8
0
100
AcDbLine
 10
19.378
 20
174.925
 30
0.0
 11
21.286
 21
174.4159999999999
 31
0.0
  0
LINE
  5
F8
330
1E
100
AcDbEntity
  8
0
100
AcDbLine
 10
34.426
 20
176.3619999999999
 30
0.0
 11
34.75
 21
177.179
 31
0.0
  0
LINE
  5
F9
330
1E
100
AcDbEntity
  8
0
100
AcDbLine
 10
35.298
 20
175.604
 30
0.0
 11
36.354
 21
176.7079999999999
 31
0.0
  0
LINE
  5
FA
330
1E
100
AcDbEntity
  8
0
100
AcDbLine
 10
34.426
 20
176.364
 30
0.0
 11
34.75
 21
177.179
 31
0.0
  0
LINE
  5
FB
330
1E
100
AcDbEntity
  8
0
100
AcDbLine
 10
39.0432
 20
176.5579999999999
 30
0.0
 11
39.1704
 21
174.634
 31
0.0
  0
LINE
  5
FC
330
1E
100
AcDbEntity
  8
0
100
AcDbLine
 10
36.354
 20
176.7079999999999
 30
0.0
 11
36.75
 21
177.884
 31
0.0
  0
LINE
  5
FD
330
1E
100
AcDbEntity
  8
0
100
AcDbLine
 10
17.938
 20
175.6
 30
0.0
 11
19.378
 21
174.925
 31
0.0
  0
LINE
  5
FE
330
1E
100
AcDbEntity
  8
0
100
AcDbLine
 10
17.074
 20
176.3619999999999
 30
0.0
 11
17.938
 21
175.6
 31
0.0
  0
LINE
  5
FF
330
1E
100
AcDbEntity
  8
0
100
AcDbLine
 10
17.96199999999999
 20
174.629
 30
0.0
 11
20.294
 21
173.894
 31
0.0
  0
LINE
  5
100
330
1E
100
AcDbEntity
  8
0
100
AcDbLine
 10
16.202
 20
175.604
 30
0.0
 11
17.96199999999999
 21
174.629
 31
0.0
  0
LINE
  5
101
330
1E
100
AcDbEntity
  8
0
100
AcDbLine
 10
15.14599999999999
 20
197.9129999999999
 30
0.0
 11
16.202
 21
199.8759999999999
 31
0.0
  0
LINE
  5
102
330
1E
100
AcDbEntity
  8
0
100
AcDbLine
 10
17.074
 20
177.994
 30
0.0
 11
17.938
 21
178.7559999999999
 31
0.0
  0
LINE
  5
103
330
1E
100
AcDbEntity
  8
0
100
AcDbLine
 10
28.054
 20
176.9149999999999
 30
0.0
 11
30.214
 21
177.2199999999999
 31
0.0
  0
LINE
  5
104
330
1E
100
AcDbEntity
  8
0
100
AcDbLine
 10
25.75
 20
176.8
 30
0.0
 11
28.054
 21
176.9149999999999
 31
0.0
  0
LINE
  5
105
330
1E
100
AcDbEntity
  8
0
100
AcDbLine
 10
32.122
 20
177.7299999999999
 30
0.0
 11
33.56199999999999
 21
178.405
 31
0.0
  0
LINE
  5
106
330
1E
100
AcDbEntity
  8
0
100
AcDbLine
 10
30.214
 20
177.2199999999999
 30
0.0
 11
32.122
 21
177.7299999999999
 31
0.0
  0
LINE
  5
107
330
1E
100
AcDbEntity
  8
0
100
AcDbLine
 10
23.44599999999999
 20
176.9149999999999
 30
0.0
 11
25.75
 21
176.8
 31
0.0
  0
LINE
  5
108
330
1E
100
AcDbEntity
  8
0
100
AcDbLine
 10
21.286
 20
177.2199999999999
 30
0.0
 11
23.44599999999999
 21
176.9149999999999
 31
0.0
  0
LINE
  5
109
330
1E
100
AcDbEntity
  8
0
100
AcDbLine
 10
33.56199999999999
 20
178.405
 30
0.0
 11
33.76086163934429
 21
178.580615081967
 31
0.0
  0
LINE
  5
10A
330
1E
100
AcDbEntity
  8
0
100
AcDbLine
 10
38.9769
 20
178.2059999999999
 30
0.0
 11
39.0432
 21
176.5579999999999
 31
0.0
  0
LINE
  5
10B
330
1E
100
AcDbEntity
  8
0
100
AcDbLine
 10
36.75
 20
177.884
 30
0.0
 11
36.75
 21
179.755
 31
0.0
  0
LINE
  5
10C
330
1E
100
AcDbEntity
  8
0
100
AcDbLine
 10
34.426
 20
177.994
 30
0.0
 11
34.75
 21
177.179
 31
0.0
  0
LINE
  5
10D
330
1E
100
AcDbEntity
  8
0
100
AcDbLine
 10
19.378
 20
177.7299999999999
 30
0.0
 11
21.286
 21
177.2199999999999
 31
0.0
  0
LINE
  5
10E
330
1E
100
AcDbEntity
  8
0
100
AcDbLine
 10
17.938
 20
178.405
 30
0.0
 11
19.378
 21
177.7299999999999
 31
0.0
  0
LINE
  5
10F
330
1E
100
AcDbEntity
  8
0
100
AcDbLine
 10
32.122
 20
179.432
 30
0.0
 11
33.56199999999999
 21
178.7559999999999
 31
0.0
  0
LINE
  5
110
330
1E
100
AcDbEntity
  8
0
100
AcDbLine
 10
33.56199999999999
 20
178.7559999999999
 30
0.0
 11
34.426
 21
177.994
 31
0.0
  0
LINE
  5
111
330
1E
100
AcDbEntity
  8
0
100
AcDbLine
 10
38.8809
 20
179.2569999999999
 30
0.0
 11
38.9769
 21
178.2059999999999
 31
0.0
  0
LINE
  5
112
330
1E
100
AcDbEntity
  8
0
100
AcDbLine
 10
36.354
 20
178.699
 30
0.0
 11
36.75
 21
177.884
 31
0.0
  0
LINE
  5
113
330
1E
100
AcDbEntity
  8
0
100
AcDbLine
 10
35.298
 20
179.4629999999999
 30
0.0
 11
36.354
 21
178.699
 31
0.0
  0
LINE
  5
114
330
1E
100
AcDbEntity
  8
0
100
AcDbLine
 10
19.378
 20
179.432
 30
0.0
 11
21.286
 21
179.9409999999999
 31
0.0
  0
LINE
  5
115
330
1E
100
AcDbEntity
  8
0
100
AcDbLine
 10
17.938
 20
178.7559999999999
 30
0.0
 11
19.378
 21
179.432
 31
0.0
  0
LINE
  5
116
330
1E
100
AcDbEntity
  8
0
100
AcDbLine
 10
17.73913836065569
 20
178.580615081967
 30
0.0
 11
17.938
 21
178.405
 31
0.0
  0
LINE
  5
117
330
1E
100
AcDbEntity
  8
0
100
AcDbLine
 10
16.75
 20
177.179
 30
0.0
 11
17.074
 21
176.3619999999999
 31
0.0
  0
LINE
  5
118
330
1E
100
AcDbEntity
  8
0
100
AcDbLine
 10
16.75
 20
177.179
 30
0.0
 11
17.074
 21
177.994
 31
0.0
  0
LINE
  5
119
330
1E
100
AcDbEntity
  8
0
100
AcDbLine
 10
16.75
 20
177.179
 30
0.0
 11
17.074
 21
176.364
 31
0.0
  0
LINE
  5
11A
330
1E
100
AcDbEntity
  8
0
100
AcDbLine
 10
17.96199999999999
 20
201.6109999999999
 30
0.0
 11
20.294
 21
202.9199999999999
 31
0.0
  0
LINE
  5
11B
330
1E
100
AcDbEntity
  8
0
100
AcDbLine
 10
16.202
 20
199.8759999999999
 30
0.0
 11
17.96199999999999
 21
201.6109999999999
 31
0.0
  0
LINE
  5
11C
330
1E
100
AcDbEntity
  8
0
100
AcDbLine
 10
28.054
 20
180.247
 30
0.0
 11
30.214
 21
179.9409999999999
 31
0.0
  0
LINE
  5
11D
330
1E
100
AcDbEntity
  8
0
100
AcDbLine
 10
30.214
 20
179.9409999999999
 30
0.0
 11
32.122
 21
179.432
 31
0.0
  0
LINE
  5
11E
330
1E
100
AcDbEntity
  8
0
100
AcDbLine
 10
38.8048
 20
180.0159999999999
 30
0.0
 11
38.8809
 21
179.2569999999999
 31
0.0
  0
LINE
  5
11F
330
1E
100
AcDbEntity
  8
0
100
AcDbLine
 10
33.538
 20
180.1379999999999
 30
0.0
 11
35.298
 21
179.4629999999999
 31
0.0
  0
LINE
  5
120
330
1E
100
AcDbEntity
  8
0
100
AcDbLine
 10
36.75
 20
179.755
 30
0.0
 11
36.75
 21
186.3829999999999
 31
0.0
  0
LINE
  5
121
330
1E
100
AcDbEntity
  8
0
100
AcDbLine
 10
36.75
 20
179.755
 30
0.0
 11
36.75
 21
177.884
 31
0.0
  0
LINE
  5
123
330
1E
100
AcDbEntity
  8
0
100
AcDbLine
 10
25.75
 20
180.362
 30
0.0
 11
28.054
 21
180.247
 31
0.0
  0
LINE
  5
124
330
1E
100
AcDbEntity
  8
0
100
AcDbLine
 10
38.75
 20
180.3429999999999
 30
0.0
 11
38.8048
 21
180.0159999999999
 31
0.0
  0
LINE
  5
125
330
1E
100
AcDbEntity
  8
0
100
AcDbLine
 10
31.206
 20
180.647
 30
0.0
 11
33.538
 21
180.1379999999999
 31
0.0
  0
LINE
  5
127
330
1E
100
AcDbEntity
  8
0
100
AcDbLine
 10
23.44599999999999
 20
180.247
 30
0.0
 11
25.75
 21
180.362
 31
0.0
  0
LINE
  5
128
330
1E
100
AcDbEntity
  8
0
100
AcDbLine
 10
21.286
 20
179.9409999999999
 30
0.0
 11
23.44599999999999
 21
180.247
 31
0.0
  0
LINE
  5
129
330
1E
100
AcDbEntity
  8
0
100
AcDbLine
 10
22.934
 20
203.705
 30
0.0
 11
25.75
 21
204.0
 31
0.0
  0
LINE
  5
12A
330
1E
100
AcDbEntity
  8
0
100
AcDbLine
 10
20.294
 20
202.9199999999999
 30
0.0
 11
22.934
 21
203.705
 31
0.0
  0
LINE
  5
12B
330
1E
100
AcDbEntity
  8
0
100
AcDbLine
 10
25.75
 20
181.067
 30
0.0
 11
28.566
 21
180.953
 31
0.0
  0
LINE
  5
12C
330
1E
100
AcDbEntity
  8
0
100
AcDbLine
 10
28.566
 20
180.953
 30
0.0
 11
31.206
 21
180.647
 31
0.0
  0
LINE
  5
131
330
1E
100
AcDbEntity
  8
0
100
AcDbLine
 10
36.75
 20
186.3829999999999
 30
0.0
 11
36.75
 21
191.454
 31
0.0
  0
LINE
  5
132
330
1E
100
AcDbEntity
  8
0
100
AcDbLine
 10
36.75
 20
191.454
 30
0.0
 11
36.75
 21
194.731
 31
0.0
  0
LINE
  5
133
330
1E
100
AcDbEntity
  8
0
100
AcDbLine
 10
36.75
 20
191.454
 30
0.0
 11
36.75
 21
186.3829999999999
 31
0.0
  0
LINE
  5
134
330
1E
100
AcDbEntity
  8
0
100
AcDbLine
 10
36.75
 20
194.731
 30
0.0
 11
36.75
 21
191.454
 31
0.0
  0
LINE
  5
135
330
1E
100
AcDbEntity
  8
0
100
AcDbLine
 10
36.75
 20
194.731
 30
0.0
 11
36.75
 21
195.8179999999999
 31
0.0
  0
LINE
  5
137
330
1E
100
AcDbEntity
  8
0
100
AcDbLine
 10
25.75
 20
204.0
 30
0.0
 11
28.566
 21
203.705
 31
0.0
  0
LINE
  5
138
330
1E
100
AcDbEntity
  8
0
100
AcDbLine
 10
28.566
 20
203.705
 30
0.0
 11
31.206
 21
202.9199999999999
 31
0.0
  0
LINE
  5
139
330
1E
100
AcDbEntity
  8
0
100
AcDbLine
 10
31.206
 20
202.9199999999999
 30
0.0
 11
33.538
 21
201.6109999999999
 31
0.0
  0
LINE
  5
13A
330
1E
100
AcDbEntity
  8
0
100
AcDbLine
 10
33.538
 20
201.6109999999999
 30
0.0
 11
35.298
 21
199.8759999999999
 31
0.0
  0
LINE
  5
13B
330
1E
100
AcDbEntity
  8
0
100
AcDbLine
 10
35.298
 20
199.8759999999999
 30
0.0
 11
36.354
 21
197.9129999999999
 31
0.0
  0
LINE
  5
13C
330
1E
100
AcDbEntity
  8
0
100
AcDbLine
 10
36.354
 20
197.9129999999999
 30
0.0
 11
36.75
 21
195.8179999999999
 31
0.0
  0
LINE
  5
13D
330
1E
100
AcDbEntity
  8
0
100
AcDbLine
 10
36.75
 20
195.8179999999999
 30
0.0
 11
38.75
 21
180.3429999999999
 31
0.0
  0
LINE
  5
13E
330
1E
100
AcDbEntity
  8
0
100
AcDbLine
 10
36.75
 20
195.8179999999999
 30
0.0
 11
36.75
 21
194.731
 31
0.0
  0
LINE
  5
13F
330
1E
100
AcDbEntity
  8
0
100
AcDbLine
 10
22.934
 20
180.953
 30
0.0
 11
25.75
 21
181.067
 31
0.0
  0
LINE
  5
140
330
1E
100
AcDbEntity
  8
0
100
AcDbLine
 10
20.294
 20
180.647
 30
0.0
 11
22.934
 21
180.953
 31
0.0
  0
LINE
  5
141
330
1E
100
AcDbEntity
  8
0
100
AcDbLine
 10
17.96199999999999
 20
180.1379999999999
 30
0.0
 11
20.294
 21
180.647
 31
0.0
  0
LINE
  5
142
330
1E
100
AcDbEntity
  8
0
100
AcDbLine
 10
16.202
 20
179.4629999999999
 30
0.0
 11
17.96199999999999
 21
180.1379999999999
 31
0.0
  0
LINE
  5
143
330
1E
100
AcDbEntity
  8
0
100
AcDbLine
 10
15.14599999999999
 20
178.699
 30
0.0
 11
16.202
 21
179.4629999999999
 31
0.0
  0
LINE
  5
144
330
1E
100
AcDbEntity
  8
0
100
AcDbLine
 10
15.14599999999999
 20
176.7079999999999
 30
0.0
 11
16.202
 21
175.604
 31
0.0
  0
LINE
  5
145
330
1E
100
AcDbEntity
  8
0
100
AcDbLine
 10
14.75
 20
177.884
 30
0.0
 11
15.14599999999999
 21
176.7079999999999
 31
0.0
  0
LINE
  5
146
330
1E
100
AcDbEntity
  8
0
100
AcDbLine
 10
14.75
 20
177.884
 30
0.0
 11
14.75
 21
179.755
 31
0.0
  0
LINE
  5
147
330
1E
100
AcDbEntity
  8
0
100
AcDbLine
 10
14.75
 20
177.884
 30
0.0
 11
15.14599999999999
 21
178.699
 31
0.0
  0
LINE
  5
149
330
1E
100
AcDbEntity
  8
0
100
AcDbLine
 10
7.75
 20
85.0
 30
0.0
 11
10.8832
 21
154.96
 31
0.0
  0
LINE
  5
14B
330
1E
100
AcDbEntity
  8
0
100
AcDbLine
 10
51.75
 20
71.7417
 30
0.0
 11
51.75
 21
71.9149
 31
0.0
  0
LINE
  5
14C
330
1E
100
AcDbEntity
  8
0
100
AcDbLine
 10
51.75
 20
71.9149
 30
0.0
 11
51.75
 21
70.97
 31
0.0
  0
LINE
  5
14D
330
1E
100
AcDbEntity
  8
0
100
AcDbLine
 10
51.75
 20
71.9149
 30
0.0
 11
68.75
 21
71.9149
 31
0.0
  0
LINE
  5
14E
330
1E
100
AcDbEntity
  8
0
100
AcDbLine
 10
51.75
 20
70.97
 30
0.0
 11
51.75
 21
68.9015
 31
0.0
  0
LINE
  5
14F
330
1E
100
AcDbEntity
  8
0
100
AcDbLine
 10
51.75
 20
68.9015
 30
0.0
 11
51.75
 21
66.02199999999999
 31
0.0
  0
LINE
  5
150
330
1E
100
AcDbEntity
  8
0
100
AcDbLine
 10
51.75
 20
66.02199999999999
 30
0.0
 11
51.75
 21
62.181
 31
0.0
  0
LINE
  5
151
330
1E
100
AcDbEntity
  8
0
100
AcDbLine
 10
55.4454
 20
50.0475
 30
0.0
 11
56.1454
 21
49.7565
 31
0.0
  0
LINE
  5
152
330
1E
100
AcDbEntity
  8
0
100
AcDbLine
 10
56.1454
 20
49.7565
 30
0.0
 11
56.8454
 21
50.0475
 31
0.0
  0
LINE
  5
153
330
1E
100
AcDbEntity
  8
0
100
AcDbLine
 10
56.8454
 20
51.4054
 30
0.0
 11
57.1454
 21
50.7265
 31
0.0
  0
LINE
  5
154
330
1E
100
AcDbEntity
  8
0
100
AcDbLine
 10
56.1454
 20
51.6964
 30
0.0
 11
56.8454
 21
51.4054
 31
0.0
  0
LINE
  5
155
330
1E
100
AcDbEntity
  8
0
100
AcDbLine
 10
55.4454
 20
51.4054
 30
0.0
 11
56.1454
 21
51.6964
 31
0.0
  0
LINE
  5
156
330
1E
100
AcDbEntity
  8
0
100
AcDbLine
 10
55.1454
 20
50.7265
 30
0.0
 11
55.4454
 21
50.0475
 31
0.0
  0
LINE
  5
157
330
1E
100
AcDbEntity
  8
0
100
AcDbLine
 10
55.1454
 20
50.7265
 30
0.0
 11
55.4454
 21
51.4054
 31
0.0
  0
LINE
  5
158
330
1E
100
AcDbEntity
  8
0
100
AcDbLine
 10
56.8454
 20
50.0475
 30
0.0
 11
57.1454
 21
50.7265
 31
0.0
  0
LINE
  5
15A
330
1E
100
AcDbEntity
  8
0
100
AcDbLine
 10
71.2359
 20
39.6863
 30
0.0
 11
71.81709999999999
 21
38.4029
 31
0.0
  0
LINE
  5
15B
330
1E
100
AcDbEntity
  8
0
100
AcDbLine
 10
70.6978
 20
42.11249999999999
 30
0.0
 11
71.2359
 21
39.6863
 31
0.0
  0
LINE
  5
15C
330
1E
100
AcDbEntity
  8
0
100
AcDbLine
 10
70.3318
 20
45.29849999999999
 30
0.0
 11
70.6978
 21
42.11249999999999
 31
0.0
  0
LINE
  5
15D
330
1E
100
AcDbEntity
  8
0
100
AcDbLine
 10
69.96590000000001
 20
49.1412
 30
0.0
 11
70.3318
 21
45.29849999999999
 31
0.0
  0
LINE
  5
15E
330
1E
100
AcDbEntity
  8
0
100
AcDbLine
 10
71.6233
 20
53.6283
 30
0.0
 11
72.4628
 21
53.6993
 31
0.0
  0
LINE
  5
15F
330
1E
100
AcDbEntity
  8
0
100
AcDbLine
 10
75.0695
 20
54.2464
 30
0.0
 11
75.4354
 21
54.4293
 31
0.0
  0
LINE
  5
160
330
1E
100
AcDbEntity
  8
0
100
AcDbLine
 10
74.5744
 20
54.11
 30
0.0
 11
75.0695
 21
54.2464
 31
0.0
  0
LINE
  5
161
330
1E
100
AcDbEntity
  8
0
100
AcDbLine
 10
73.9717
 20
53.9545
 30
0.0
 11
74.5744
 21
54.11
 31
0.0
  0
LINE
  5
162
330
1E
100
AcDbEntity
  8
0
100
AcDbLine
 10
73.28079999999999
 20
53.8314
 30
0.0
 11
73.9717
 21
53.9545
 31
0.0
  0
LINE
  5
163
330
1E
100
AcDbEntity
  8
0
100
AcDbLine
 10
72.4628
 20
53.6993
 30
0.0
 11
73.28079999999999
 21
53.8314
 31
0.0
  0
LINE
  5
164
330
1E
100
AcDbEntity
  8
0
100
AcDbLine
 10
70.6978
 20
53.5684
 30
0.0
 11
71.6233
 21
53.6283
 31
0.0
  0
LINE
  5
165
330
1E
100
AcDbEntity
  8
0
100
AcDbLine
 10
55.4454
 20
64.1553
 30
0.0
 11
56.1454
 21
63.90679999999999
 31
0.0
  0
LINE
  5
166
330
1E
100
AcDbEntity
  8
0
100
AcDbLine
 10
55.1454
 20
64.735
 30
0.0
 11
55.4454
 21
65.3147
 31
0.0
  0
LINE
  5
167
330
1E
100
AcDbEntity
  8
0
100
AcDbLine
 10
55.1454
 20
64.735
 30
0.0
 11
55.4454
 21
64.1553
 31
0.0
  0
LINE
  5
168
330
1E
100
AcDbEntity
  8
0
100
AcDbLine
 10
56.8454
 20
64.1553
 30
0.0
 11
57.1454
 21
64.735
 31
0.0
  0
LINE
  5
169
330
1E
100
AcDbEntity
  8
0
100
AcDbLine
 10
56.1454
 20
63.90679999999999
 30
0.0
 11
56.8454
 21
64.1553
 31
0.0
  0
LINE
  5
16A
330
1E
100
AcDbEntity
  8
0
100
AcDbLine
 10
55.4454
 20
65.3147
 30
0.0
 11
56.1454
 21
65.5631
 31
0.0
  0
LINE
  5
16B
330
1E
100
AcDbEntity
  8
0
100
AcDbLine
 10
56.1454
 20
65.5631
 30
0.0
 11
56.8454
 21
65.3147
 31
0.0
  0
LINE
  5
16C
330
1E
100
AcDbEntity
  8
0
100
AcDbLine
 10
56.8454
 20
65.3147
 30
0.0
 11
57.1454
 21
64.735
 31
0.0
  0
LINE
  5
16D
330
1E
100
AcDbEntity
  8
0
100
AcDbLine
 10
75.7798
 20
54.6128
 30
0.0
 11
75.8875
 21
54.7904
 31
0.0
  0
LINE
  5
16E
330
1E
100
AcDbEntity
  8
0
100
AcDbLine
 10
75.4354
 20
54.4293
 30
0.0
 11
75.7798
 21
54.6128
 31
0.0
  0
LINE
  5
16F
330
1E
100
AcDbEntity
  8
0
100
AcDbLine
 10
75.8875
 20
54.7904
 30
0.0
 11
75.9618
 21
54.966
 31
0.0
  0
LINE
  5
170
330
1E
100
AcDbEntity
  8
0
100
AcDbLine
 10
69.75069999999999
 20
53.53100000000001
 30
0.0
 11
69.96590000000001
 21
49.1412
 31
0.0
  0
LINE
  5
171
330
1E
100
AcDbEntity
  8
0
100
AcDbLine
 10
69.75069999999999
 20
53.53100000000001
 30
0.0
 11
70.6978
 21
53.5684
 31
0.0
  0
LINE
  5
172
330
1E
100
AcDbEntity
  8
0
100
AcDbLine
 10
75.9618
 20
54.966
 30
0.0
 11
80.3992
 21
64.9352
 31
0.0
  0
LINE
  5
178
330
1E
100
AcDbEntity
  8
0
100
AcDbLine
 10
77.3011
 20
38.1077
 30
0.0
 11
77.8357
 21
38.14569999999999
 31
0.0
  0
LINE
  5
179
330
1E
100
AcDbEntity
  8
0
100
AcDbLine
 10
76.75
 20
38.0851
 30
0.0
 11
77.3011
 21
38.1077
 31
0.0
  0
LINE
  5
17A
330
1E
100
AcDbEntity
  8
0
100
AcDbLine
 10
53.8221
 20
38.0785
 30
0.0
 11
76.75
 21
38.0851
 31
0.0
  0
LINE
  5
17B
330
1E
100
AcDbEntity
  8
0
100
AcDbLine
 10
77.8357
 20
38.14569999999999
 30
0.0
 11
78.295
 21
38.2071
 31
0.0
  0
LINE
  5
17C
330
1E
100
AcDbEntity
  8
0
100
AcDbLine
 10
78.295
 20
38.2071
 30
0.0
 11
78.65219999999999
 21
38.2794
 31
0.0
  0
LINE
  5
17D
330
1E
100
AcDbEntity
  8
0
100
AcDbLine
 10
78.65219999999999
 20
38.2794
 30
0.0
 11
78.8721
 21
38.3374
 31
0.0
  0
LINE
  5
17E
330
1E
100
AcDbEntity
  8
0
100
AcDbLine
 10
78.8721
 20
38.3374
 30
0.0
 11
79.08800000000001
 21
38.407
 31
0.0
  0
LINE
  5
17F
330
1E
100
AcDbEntity
  8
0
100
AcDbLine
 10
79.33069999999999
 20
38.47849999999999
 30
0.0
 11
79.5617
 21
38.55879999999999
 31
0.0
  0
LINE
  5
180
330
1E
100
AcDbEntity
  8
0
100
AcDbLine
 10
79.08800000000001
 20
38.407
 30
0.0
 11
79.33069999999999
 21
38.47849999999999
 31
0.0
  0
LINE
  5
181
330
1E
100
AcDbEntity
  8
0
100
AcDbLine
 10
79.5617
 20
38.55879999999999
 30
0.0
 11
79.8878
 21
38.70049999999999
 31
0.0
  0
LINE
  5
183
330
1E
100
AcDbEntity
  8
0
100
AcDbLine
 10
80.98829999999999
 20
39.27179999999999
 30
0.0
 11
81.5454
 21
39.7033
 31
0.0
  0
LINE
  5
184
330
1E
100
AcDbEntity
  8
0
100
AcDbLine
 10
80.2274
 20
38.85629999999999
 30
0.0
 11
80.98829999999999
 21
39.27179999999999
 31
0.0
  0
LINE
  5
187
330
1E
100
AcDbEntity
  8
0
100
AcDbLine
 10
79.8878
 20
38.70049999999999
 30
0.0
 11
80.2274
 21
38.85629999999999
 31
0.0
  0
LINE
  5
188
330
1E
100
AcDbEntity
  8
0
100
AcDbLine
 10
81.5454
 20
39.7033
 30
0.0
 11
83.1095
 21
40.97199999999999
 31
0.0
  0
LINE
  5
18F
330
1E
100
AcDbEntity
  8
0
100
AcDbLine
 10
83.1095
 20
40.97199999999999
 30
0.0
 11
84.42666599444379
 21
42.85419882393759
 31
0.0
  0
LINE
  5
192
330
1E
100
AcDbEntity
  8
0
100
AcDbLine
 10
84.42666599444379
 20
42.85419882393759
 30
0.0
 11
85.58518561548391
 21
44.9541613346707
 31
0.0
  0
LINE
  5
197
330
1E
100
AcDbEntity
  8
0
100
AcDbLine
 10
85.58518561548391
 20
44.9541613346707
 30
0.0
 11
86.29859999999998
 21
46.311
 31
0.0
  0
LINE
  5
19D
330
1E
100
AcDbEntity
  8
0
100
AcDbLine
 10
86.85370972177841
 20
48.2932483262591
 30
0.0
 11
87.4736
 21
50.6597
 31
0.0
  0
LINE
  5
19E
330
1E
100
AcDbEntity
  8
0
100
AcDbLine
 10
86.3945
 20
46.5402
 30
0.0
 11
86.84196968446
 21
48.248430344855
 31
0.0
  0
LINE
  5
19F
330
1E
100
AcDbEntity
  8
0
100
AcDbLine
 10
86.29859999999998
 20
46.311
 30
0.0
 11
86.3945
 21
46.5402
 31
0.0
  0
LINE
  5
1A3
330
1E
100
AcDbEntity
  8
0
100
AcDbLine
 10
87.4736
 20
50.6597
 30
0.0
 11
87.5213036860576
 21
51.40878939433999
 31
0.0
  0
LINE
  5
1E1
330
1E
100
AcDbEntity
  8
0
100
AcDbLine
 10
81.4305
 20
69.50669999999999
 30
0.0
 11
81.4305
 21
72.46120000000001
 31
0.0
  0
LINE
  5
1E5
330
1E
100
AcDbEntity
  8
0
100
AcDbLine
 10
87.75
 20
69.0655
 30
0.0
 11
87.75
 21
72.01990000000001
 31
0.0
  0
LINE
  5
1EA
330
1E
100
AcDbEntity
  8
0
100
AcDbLine
 10
87.75
 20
72.01990000000001
 30
0.0
 11
87.75
 21
74.05660000000001
 31
0.0
  0
LINE
  5
1EB
330
1E
100
AcDbEntity
  8
0
100
AcDbLine
 10
87.75
 20
72.01990000000001
 30
0.0
 11
87.75
 21
69.0655
 31
0.0
  0
LINE
  5
1EC
330
1E
100
AcDbEntity
  8
0
100
AcDbLine
 10
75.3687
 20
72.2356
 30
0.0
 11
76.81090000000001
 21
72.3964
 31
0.0
  0
LINE
  5
1ED
330
1E
100
AcDbEntity
  8
0
100
AcDbLine
 10
81.4305
 20
72.46120000000001
 30
0.0
 11
81.4305
 21
69.50669999999999
 31
0.0
  0
LINE
  5
1F1
330
1E
100
AcDbEntity
  8
0
100
AcDbLine
 10
81.41490000000001
 20
75.105
 30
0.0
 11
81.4305
 21
72.46120000000001
 31
0.0
  0
LINE
  5
1F2
330
1E
100
AcDbEntity
  8
0
100
AcDbLine
 10
80.69830000000001
 20
77.4155
 30
0.0
 11
80.7829
 21
77.5933
 31
0.0
  0
LINE
  5
1F3
330
1E
100
AcDbEntity
  8
0
100
AcDbLine
 10
81.3953
 20
76.9367
 30
0.0
 11
81.41490000000001
 21
75.105
 31
0.0
  0
LINE
  5
1F4
330
1E
100
AcDbEntity
  8
0
100
AcDbLine
 10
81.37
 20
77.8289
 30
0.0
 11
81.3953
 21
76.9367
 31
0.0
  0
LINE
  5
1F5
330
1E
100
AcDbEntity
  8
0
100
AcDbLine
 10
80.7829
 20
77.5933
 30
0.0
 11
81.2859
 21
78.5857
 31
0.0
  0
LINE
  5
1F6
330
1E
100
AcDbEntity
  8
0
100
AcDbLine
 10
80.6174
 20
77.21810000000001
 30
0.0
 11
80.69830000000001
 21
77.4155
 31
0.0
  0
LINE
  5
1F7
330
1E
100
AcDbEntity
  8
0
100
AcDbLine
 10
81.2859
 20
78.5857
 30
0.0
 11
81.34269999999999
 21
78.3229
 31
0.0
  0
LINE
  5
1F8
330
1E
100
AcDbEntity
  8
0
100
AcDbLine
 10
81.2859
 20
78.5857
 30
0.0
 11
82.2868
 21
79.07659999999999
 31
0.0
  0
LINE
  5
1F9
330
1E
100
AcDbEntity
  8
0
100
AcDbLine
 10
81.34269999999999
 20
78.3229
 30
0.0
 11
81.37
 21
77.8289
 31
0.0
  0
LINE
  5
1FA
330
1E
100
AcDbEntity
  8
0
100
AcDbLine
 10
82.2868
 20
79.07659999999999
 30
0.0
 11
86.05
 21
79.07600000000001
 31
0.0
  0
LINE
  5
1FB
330
1E
100
AcDbEntity
  8
0
100
AcDbLine
 10
86.05
 20
79.07600000000001
 30
0.0
 11
87.05
 21
78.5781
 31
0.0
  0
LINE
  5
1FD
330
1E
100
AcDbEntity
  8
0
100
AcDbLine
 10
87.05
 20
78.5781
 30
0.0
 11
87.55
 21
77.5822
 31
0.0
  0
LINE
  5
204
330
1E
100
AcDbEntity
  8
0
100
AcDbLine
 10
87.75
 20
76.08830000000001
 30
0.0
 11
87.75
 21
75.9268
 31
0.0
  0
LINE
  5
205
330
1E
100
AcDbEntity
  8
0
100
AcDbLine
 10
87.55
 20
77.5822
 30
0.0
 11
87.75
 21
76.08830000000001
 31
0.0
  0
LINE
  5
206
330
1E
100
AcDbEntity
  8
0
100
AcDbLine
 10
87.75
 20
75.9268
 30
0.0
 11
87.75
 21
76.08830000000001
 31
0.0
  0
LINE
  5
207
330
1E
100
AcDbEntity
  8
0
100
AcDbLine
 10
87.75
 20
75.9268
 30
0.0
 11
87.75
 21
75.6695
 31
0.0
  0
LINE
  5
208
330
1E
100
AcDbEntity
  8
0
100
AcDbLine
 10
87.75
 20
75.6695
 30
0.0
 11
87.75
 21
75.9268
 31
0.0
  0
LINE
  5
209
330
1E
100
AcDbEntity
  8
0
100
AcDbLine
 10
87.75
 20
75.6695
 30
0.0
 11
87.75
 21
75.2647
 31
0.0
  0
LINE
  5
20A
330
1E
100
AcDbEntity
  8
0
100
AcDbLine
 10
87.75
 20
75.2647
 30
0.0
 11
87.75
 21
75.6695
 31
0.0
  0
LINE
  5
20B
330
1E
100
AcDbEntity
  8
0
100
AcDbLine
 10
87.75
 20
75.2647
 30
0.0
 11
87.75
 21
74.05660000000001
 31
0.0
  0
LINE
  5
20C
330
1E
100
AcDbEntity
  8
0
100
AcDbLine
 10
87.75
 20
74.05660000000001
 30
0.0
 11
87.75
 21
75.2647
 31
0.0
  0
LINE
  5
20D
330
1E
100
AcDbEntity
  8
0
100
AcDbLine
 10
87.75
 20
74.05660000000001
 30
0.0
 11
87.75
 21
72.01990000000001
 31
0.0
  0
LINE
  5
210
330
1E
100
AcDbEntity
  8
0
100
AcDbLine
 10
77.8871
 20
72.58849999999999
 30
0.0
 11
78.6383763031599
 21
72.7306460673773
 31
0.0
  0
LINE
  5
211
330
1E
100
AcDbEntity
  8
0
100
AcDbLine
 10
76.81090000000001
 20
72.3964
 30
0.0
 11
77.8871
 21
72.58849999999999
 31
0.0
  0
LINE
  5
212
330
1E
100
AcDbEntity
  8
0
100
AcDbLine
 10
73.5391
 20
72.05020000000001
 30
0.0
 11
75.3687
 21
72.2356
 31
0.0
  0
LINE
  5
213
330
1E
100
AcDbEntity
  8
0
100
AcDbLine
 10
71.2359
 20
71.988
 30
0.0
 11
73.5391
 21
72.05020000000001
 31
0.0
  0
LINE
  5
214
330
1E
100
AcDbEntity
  8
0
100
AcDbLine
 10
68.75
 20
71.9149
 30
0.0
 11
71.2359
 21
71.988
 31
0.0
  0
LINE
  5
215
330
1E
100
AcDbEntity
  8
0
100
AcDbLine
 10
51.75
 20
62.181
 30
0.0
 11
51.75
 21
57.952
 31
0.0
  0
LINE
  5
21A
330
1E
100
AcDbEntity
  8
0
  6
Continuous
100
AcDbLine
 10
7.75
 20
9.999999999999991
 30
0.0
 11
7.75
 21
85.0
 31
0.0
  0
LINE
  5
21B
330
1E
100
AcDbEntity
  8
0
  6
Continuous
100
AcDbLine
 10
78.6383763031599
 20
72.7306460673773
 30
0.0
 11
79.36795663632017
 21
73.62938981221453
 31
0.0
  0
LINE
  5
21C
330
1E
100
AcDbEntity
  8
0
  6
Continuous
100
AcDbLine
 10
79.36795663632017
 20
73.62938981221453
 30
0.0
 11
80.10773473457163
 21
75.21185017747336
 31
0.0
  0
LINE
  5
21D
330
1E
100
AcDbEntity
  8
0
  6
Continuous
100
AcDbLine
 10
80.10773473457163
 20
75.21185017747336
 30
0.0
 11
80.6174
 21
77.21810000000001
 31
0.0
  0
LINE
  5
21E
330
1E
100
AcDbEntity
  8
0
  6
Continuous
100
AcDbLine
 10
80.3992
 20
64.9352
 30
0.0
 11
80.8904
 21
66.3823
 31
0.0
  0
LINE
  5
21F
330
1E
100
AcDbEntity
  8
0
  6
Continuous
100
AcDbLine
 10
69.75069999999999
 20
53.53100000000001
 30
0.0
 11
69.75069999999999
 21
71.94432643308259
 31
0.0
  0
LINE
  5
220
330
1E
100
AcDbEntity
  8
0
  6
Continuous
100
AcDbLine
 10
80.8904
 20
66.3823
 30
0.0
 11
81.4305
 21
69.50669999999999
 31
0.0
  0
LINE
  5
221
330
1E
100
AcDbEntity
  8
0
  6
Continuous
100
AcDbLine
 10
87.75
 20
69.0655
 30
0.0
 11
87.75
 21
55.8509
 31
0.0
  0
LINE
  5
222
330
1E
100
AcDbEntity
  8
0
  6
Continuous
100
AcDbLine
 10
87.75
 20
55.8509
 30
0.0
 11
87.5213036860576
 21
51.40878939433999
 31
0.0
  0
ENDSEC
  0
SECTION
  2
OBJECTS
  0
DICTIONARY
  5
C
330
0
100
AcDbDictionary
281
     1
  3
ACAD_GROUP
350
D
  3
ACAD_LAYOUT
350
19
  3
ACAD_MLINESTYLE
350
16
  3
ACAD_PLOTSETTINGS
350
18
  3
ACAD_PLOTSTYLENAME
350
E
  3
AcDbVariableDictionary
350
224
  0
DICTIONARY
  5
D
102
{ACAD_REACTORS
330
C
102
}
330
C
100
AcDbDictionary
281
     1
  0
DICTIONARY
  5
19
102
{ACAD_REACTORS
330
C
102
}
330
C
100
AcDbDictionary
281
     1
  3
Layout1
350
1D
  3
Model
350
21
  0
DICTIONARY
  5
16
102
{ACAD_REACTORS
330
C
102
}
330
C
100
AcDbDictionary
281
     1
  3
Standard
350
17
  0
DICTIONARY
  5
18
102
{ACAD_REACTORS
330
C
102
}
330
C
100
AcDbDictionary
281
     1
  0
ACDBDICTIONARYWDFLT
  5
E
102
{ACAD_REACTORS
330
C
102
}
330
C
100
AcDbDictionary
281
     1
  3
Normal
350
F
100
AcDbDictionaryWithDefault
340
F
  0
DICTIONARY
  5
224
102
{ACAD_REACTORS
330
C
102
}
330
C
100
AcDbDictionary
281
     1
  3
DIMASSOC
350
225
  0
LAYOUT
  5
1D
102
{ACAD_REACTORS
330
19
102
}
330
19
100
AcDbPlotSettings
  1

  2
C:\Programme\AutoCAD LT 2002 Deu\plotters\DWF ePlot (optimized for plotting).pc3
  4

  6

 40
0.0
 41
0.0
 42
0.0
 43
0.0
 44
0.0
 45
0.0
 46
0.0
 47
0.0
 48
0.0
 49
0.0
140
0.0
141
0.0
142
1.0
143
1.0
 70
   688
 72
     0
 73
     0
 74
     5
  7

 75
    16
147
1.0
148
0.0
149
0.0
100
AcDbLayout
  1
Layout1
 70
     1
 71
     1
 10
0.0
 20
0.0
 11
12.0
 21
9.0
 12
0.0
 22
0.0
 32
0.0
 14
1.000000000000000E+20
 24
1.000000000000000E+20
 34
1.000000000000000E+20
 15
-1.000000000000000E+20
 25
-1.000000000000000E+20
 35
-1.000000000000000E+20
146
0.0
 13
0.0
 23
0.0
 33
0.0
 16
1.0
 26
0.0
 36
0.0
 17
0.0
 27
1.0
 37
0.0
 76
     0
330
1A
  0
LAYOUT
  5
21
102
{ACAD_REACTORS
330
19
102
}
330
19
100
AcDbPlotSettings
  1

  2
C:\Programme\AutoCAD LT 2002 Deu\plotters\DWF ePlot (optimized for plotting).pc3
  4

  6

 40
0.0
 41
0.0
 42
0.0
 43
0.0
 44
0.0
 45
0.0
 46
0.0
 47
0.0
 48
0.0
 49
0.0
140
0.0
141
0.0
142
1.0
143
1.0
 70
  1712
 72
     0
 73
     0
 74
     0
  7

 75
     0
147
1.0
148
0.0
149
0.0
100
AcDbLayout
  1
Model
 70
     1
 71
     0
 10
0.0
 20
0.0
 11
12.0
 21
9.0
 12
0.0
 22
0.0
 32
0.0
 14
0.0
 24
0.0
 34
0.0
 15
0.0
 25
0.0
 35
0.0
146
0.0
 13
0.0
 23
0.0
 33
0.0
 16
1.0
 26
0.0
 36
0.0
 17
0.0
 27
1.0
 37
0.0
 76
     0
330
1E
  0
MLINESTYLE
  5
17
102
{ACAD_REACTORS
330
16
102
}
330
16
100
AcDbMlineStyle
  2
STANDARD
 70
     0
  3

 62
   256
 51
90.0
 52
90.0
 71
     2
 49
0.5
 62
   256
  6
BYLAYER
 49
-0.5
 62
   256
  6
BYLAYER
  0
ACDBPLACEHOLDER
  5
F
102
{ACAD_REACTORS
330
E
102
}
330
E
  0
DICTIONARYVAR
  5
225
102
{ACAD_REACTORS
330
224
102
}
330
224
100
DictionaryVariables
280
     0
  1
1
  0
ENDSEC
  0
EOF
