  0
SECTION
  2
HEADER
  9
$ACADVER
  1
AC1015
  9
$ACADMAINTVER
 70
    13
  9
$DWGCODEPAGE
  3
ANSI_1252
  9
$INSBASE
 10
0.0
 20
0.0
 30
0.0
  9
$EXTMIN
 10
0.249999999999997
 20
0.121410000000007
 30
0.0
  9
$EXTMAX
 10
87.75
 20
215.87859
 30
0.0
  9
$LIMMIN
 10
0.0
 20
0.0
  9
$LIMMAX
 10
12.0
 20
9.0
  9
$ORTHOMODE
 70
     0
  9
$REGENMODE
 70
     1
  9
$FILLMODE
 70
     1
  9
$QTEXTMODE
 70
     0
  9
$MIRRTEXT
 70
     1
  9
$LTSCALE
 40
1.0
  9
$ATTMODE
 70
     1
  9
$TEXTSIZE
 40
0.2
  9
$TRACEWID
 40
0.05
  9
$TEXTSTYLE
  7
Standard
  9
$CLAYER
  8
0
  9
$CELTYPE
  6
Continuous
  9
$CECOLOR
 62
   256
  9
$CELTSCALE
 40
1.0
  9
$DISPSILH
 70
     0
  9
$DIMSCALE
 40
1.0
  9
$DIMASZ
 40
0.18
  9
$DIMEXO
 40
0.0625
  9
$DIMDLI
 40
0.38
  9
$DIMRND
 40
0.0
  9
$DIMDLE
 40
0.0
  9
$DIMEXE
 40
0.18
  9
$DIMTP
 40
0.0
  9
$DIMTM
 40
0.0
  9
$DIMTXT
 40
0.18
  9
$DIMCEN
 40
0.09
  9
$DIMTSZ
 40
0.0
  9
$DIMTOL
 70
     0
  9
$DIMLIM
 70
     0
  9
$DIMTIH
 70
     1
  9
$DIMTOH
 70
     1
  9
$DIMSE1
 70
     0
  9
$DIMSE2
 70
     0
  9
$DIMTAD
 70
     0
  9
$DIMZIN
 70
     0
  9
$DIMBLK
  1

  9
$DIMASO
 70
     1
  9
$DIMSHO
 70
     1
  9
$DIMPOST
  1

  9
$DIMAPOST
  1

  9
$DIMALT
 70
     0
  9
$DIMALTD
 70
     2
  9
$DIMALTF
 40
25.4
  9
$DIMLFAC
 40
1.0
  9
$DIMTOFL
 70
     0
  9
$DIMTVP
 40
0.0
  9
$DIMTIX
 70
     0
  9
$DIMSOXD
 70
     0
  9
$DIMSAH
 70
     0
  9
$DIMBLK1
  1

  9
$DIMBLK2
  1

  9
$DIMSTYLE
  2
Standard
  9
$DIMCLRD
 70
     0
  9
$DIMCLRE
 70
     0
  9
$DIMCLRT
 70
     0
  9
$DIMTFAC
 40
1.0
  9
$DIMGAP
 40
0.09
  9
$DIMJUST
 70
     0
  9
$DIMSD1
 70
     0
  9
$DIMSD2
 70
     0
  9
$DIMTOLJ
 70
     1
  9
$DIMTZIN
 70
     0
  9
$DIMALTZ
 70
     0
  9
$DIMALTTZ
 70
     0
  9
$DIMUPT
 70
     0
  9
$DIMDEC
 70
     4
  9
$DIMTDEC
 70
     4
  9
$DIMALTU
 70
     2
  9
$DIMALTTD
 70
     2
  9
$DIMTXSTY
  7
Standard
  9
$DIMAUNIT
 70
     0
  9
$DIMADEC
 70
     0
  9
$DIMALTRND
 40
0.0
  9
$DIMAZIN
 70
     0
  9
$DIMDSEP
 70
    46
  9
$DIMATFIT
 70
     3
  9
$DIMFRAC
 70
     0
  9
$DIMLDRBLK
  1

  9
$DIMLUNIT
 70
     2
  9
$DIMLWD
 70
    -2
  9
$DIMLWE
 70
    -2
  9
$DIMTMOVE
 70
     0
  9
$LUNITS
 70
     2
  9
$LUPREC
 70
     4
  9
$SKETCHINC
 40
0.1
  9
$FILLETRAD
 40
0.0
  9
$AUNITS
 70
     0
  9
$AUPREC
 70
     0
  9
$MENU
  1
.
  9
$ELEVATION
 40
0.0
  9
$PELEVATION
 40
0.0
  9
$THICKNESS
 40
0.0
  9
$LIMCHECK
 70
     0
  9
$CHAMFERA
 40
0.0
  9
$CHAMFERB
 40
0.0
  9
$CHAMFERC
 40
0.0
  9
$CHAMFERD
 40
0.0
  9
$SKPOLY
 70
     0
  9
$TDCREATE
 40
2455508.472251690
  9
$TDUCREATE
 40
2455508.430585023
  9
$TDUPDATE
 40
2455508.501126482
  9
$TDUUPDATE
 40
2455508.459459814
  9
$TDINDWG
 40
0.0288747917
  9
$TDUSRTIMER
 40
0.0288747917
  9
$USRTIMER
 70
     1
  9
$ANGBASE
 50
0.0
  9
$ANGDIR
 70
     0
  9
$PDMODE
 70
     0
  9
$PDSIZE
 40
0.0
  9
$PLINEWID
 40
0.0
  9
$SPLFRAME
 70
     0
  9
$SPLINETYPE
 70
     6
  9
$SPLINESEGS
 70
     8
  9
$HANDSEED
  5
219
  9
$SURFTAB1
 70
     6
  9
$SURFTAB2
 70
     6
  9
$SURFTYPE
 70
     6
  9
$SURFU
 70
     6
  9
$SURFV
 70
     6
  9
$UCSBASE
  2

  9
$UCSNAME
  2

  9
$UCSORG
 10
0.0
 20
0.0
 30
0.0
  9
$UCSXDIR
 10
1.0
 20
0.0
 30
0.0
  9
$UCSYDIR
 10
0.0
 20
1.0
 30
0.0
  9
$UCSORTHOREF
  2

  9
$UCSORTHOVIEW
 70
     1
  9
$UCSORGTOP
 10
0.0
 20
0.0
 30
0.0
  9
$UCSORGBOTTOM
 10
0.0
 20
0.0
 30
0.0
  9
$UCSORGLEFT
 10
0.0
 20
0.0
 30
0.0
  9
$UCSORGRIGHT
 10
0.0
 20
0.0
 30
0.0
  9
$UCSORGFRONT
 10
0.0
 20
0.0
 30
0.0
  9
$UCSORGBACK
 10
0.0
 20
0.0
 30
0.0
  9
$PUCSBASE
  2

  9
$PUCSNAME
  2

  9
$PUCSORG
 10
0.0
 20
0.0
 30
0.0
  9
$PUCSXDIR
 10
1.0
 20
0.0
 30
0.0
  9
$PUCSYDIR
 10
0.0
 20
1.0
 30
0.0
  9
$PUCSORTHOREF
  2

  9
$PUCSORTHOVIEW
 70
     0
  9
$PUCSORGTOP
 10
0.0
 20
0.0
 30
0.0
  9
$PUCSORGBOTTOM
 10
0.0
 20
0.0
 30
0.0
  9
$PUCSORGLEFT
 10
0.0
 20
0.0
 30
0.0
  9
$PUCSORGRIGHT
 10
0.0
 20
0.0
 30
0.0
  9
$PUCSORGFRONT
 10
0.0
 20
0.0
 30
0.0
  9
$PUCSORGBACK
 10
0.0
 20
0.0
 30
0.0
  9
$USERI1
 70
     0
  9
$USERI2
 70
     0
  9
$USERI3
 70
     0
  9
$USERI4
 70
     0
  9
$USERI5
 70
     0
  9
$USERR1
 40
0.0
  9
$USERR2
 40
0.0
  9
$USERR3
 40
0.0
  9
$USERR4
 40
0.0
  9
$USERR5
 40
0.0
  9
$WORLDVIEW
 70
     1
  9
$SHADEDGE
 70
     3
  9
$SHADEDIF
 70
    70
  9
$TILEMODE
 70
     1
  9
$MAXACTVP
 70
    64
  9
$PINSBASE
 10
0.0
 20
0.0
 30
0.0
  9
$PLIMCHECK
 70
     0
  9
$PEXTMIN
 10
1.000000000000000E+20
 20
1.000000000000000E+20
 30
1.000000000000000E+20
  9
$PEXTMAX
 10
-1.000000000000000E+20
 20
-1.000000000000000E+20
 30
-1.000000000000000E+20
  9
$PLIMMIN
 10
0.0
 20
0.0
  9
$PLIMMAX
 10
12.0
 20
9.0
  9
$UNITMODE
 70
     0
  9
$VISRETAIN
 70
     1
  9
$PLINEGEN
 70
     0
  9
$PSLTSCALE
 70
     1
  9
$TREEDEPTH
 70
  3020
  9
$CMLSTYLE
  2
Standard
  9
$CMLJUST
 70
     0
  9
$CMLSCALE
 40
1.0
  9
$PROXYGRAPHICS
 70
     1
  9
$MEASUREMENT
 70
     0
  9
$CELWEIGHT
370
    -1
  9
$ENDCAPS
280
     0
  9
$JOINSTYLE
280
     0
  9
$LWDISPLAY
290
     0
  9
$INSUNITS
 70
     0
  9
$HYPERLINKBASE
  1

  9
$STYLESHEET
  1

  9
$XEDIT
290
     1
  9
$CEPSNTYPE
380
     0
  9
$PSTYLEMODE
290
     1
  9
$FINGERPRINTGUID
  2
{F642AAB5-A7DD-4764-AE08-7CCFED6727C5}
  9
$VERSIONGUID
  2
{90F06B83-3158-4B3F-AF96-3127EBFA270B}
  9
$EXTNAMES
290
     1
  9
$PSVPSCALE
 40
0.0
  9
$OLESTARTUP
290
     0
  0
ENDSEC
  0
SECTION
  2
CLASSES
  0
CLASS
  1
ACDBDICTIONARYWDFLT
  2
AcDbDictionaryWithDefault
  3
AutoCAD 2000
 90
        0
280
     0
281
     0
  0
CLASS
  1
ACDBPLACEHOLDER
  2
AcDbPlaceHolder
  3
AutoCAD 2000
 90
        0
280
     0
281
     0
  0
CLASS
  1
LAYOUT
  2
AcDbLayout
  3
AutoCAD 2000
 90
        0
280
     0
281
     0
  0
CLASS
  1
DICTIONARYVAR
  2
AcDbDictionaryVar
  3
AutoCAD 2000
 90
        0
280
     0
281
     0
  0
ENDSEC
  0
SECTION
  2
TABLES
  0
TABLE
  2
VPORT
  5
8
330
0
100
AcDbSymbolTable
 70
     3
  0
VPORT
  5
218
330
8
100
AcDbSymbolTableRecord
100
AcDbViewportTableRecord
  2
*Active
 70
     0
 10
0.0
 20
0.0
 11
1.0
 21
1.0
 12
44.0
 22
108.0
 13
0.0
 23
0.0
 14
1.0
 24
1.0
 15
0.0
 25
0.0
 16
0.0
 26
0.0
 36
1.0
 17
0.0
 27
0.0
 37
0.0
 40
217.2166423224351
 41
2.073363431151241
 42
50.0
 43
0.0
 44
0.0
 50
0.0
 51
0.0
 71
     0
 72
   100
 73
     1
 74
     3
 75
     0
 76
     0
 77
     0
 78
     0
281
     0
 65
     1
110
0.0
120
0.0
130
0.0
111
1.0
121
0.0
131
0.0
112
0.0
122
1.0
132
0.0
 79
     1
146
0.0
  0
ENDTAB
  0
TABLE
  2
LTYPE
  5
5
330
0
100
AcDbSymbolTable
 70
     1
  0
LTYPE
  5
13
330
5
100
AcDbSymbolTableRecord
100
AcDbLinetypeTableRecord
  2
ByBlock
 70
     0
  3

 72
    65
 73
     0
 40
0.0
  0
LTYPE
  5
14
330
5
100
AcDbSymbolTableRecord
100
AcDbLinetypeTableRecord
  2
ByLayer
 70
     0
  3

 72
    65
 73
     0
 40
0.0
  0
LTYPE
  5
15
330
5
100
AcDbSymbolTableRecord
100
AcDbLinetypeTableRecord
  2
Continuous
 70
     0
  3
Solid line
 72
    65
 73
     0
 40
0.0
  0
ENDTAB
  0
TABLE
  2
LAYER
  5
2
330
0
100
AcDbSymbolTable
 70
     1
  0
LAYER
  5
10
330
2
100
AcDbSymbolTableRecord
100
AcDbLayerTableRecord
  2
0
 70
     0
 62
     7
  6
Continuous
370
    -3
390
F
  0
ENDTAB
  0
TABLE
  2
STYLE
  5
3
330
0
100
AcDbSymbolTable
 70
     1
  0
STYLE
  5
11
330
3
100
AcDbSymbolTableRecord
100
AcDbTextStyleTableRecord
  2
Standard
 70
     0
 40
0.0
 41
1.0
 50
0.0
 71
     0
 42
0.2
  3
txt
  4

  0
ENDTAB
  0
TABLE
  2
VIEW
  5
6
330
0
100
AcDbSymbolTable
 70
     0
  0
ENDTAB
  0
TABLE
  2
UCS
  5
7
330
0
100
AcDbSymbolTable
 70
     0
  0
ENDTAB
  0
TABLE
  2
APPID
  5
9
330
0
100
AcDbSymbolTable
 70
     1
  0
APPID
  5
12
330
9
100
AcDbSymbolTableRecord
100
AcDbRegAppTableRecord
  2
ACAD
 70
     0
  0
ENDTAB
  0
TABLE
  2
DIMSTYLE
  5
A
330
0
100
AcDbSymbolTable
 70
     1
100
AcDbDimStyleTable
 71
     0
  0
DIMSTYLE
105
201
330
A
100
AcDbSymbolTableRecord
100
AcDbDimStyleTableRecord
  2
Standard
 70
     0
340
11
  0
ENDTAB
  0
TABLE
  2
BLOCK_RECORD
  5
1
330
0
100
AcDbSymbolTable
 70
     0
  0
BLOCK_RECORD
  5
1E
330
1
100
AcDbSymbolTableRecord
100
AcDbBlockTableRecord
  2
*Model_Space
340
21
  0
BLOCK_RECORD
  5
1A
330
1
100
AcDbSymbolTableRecord
100
AcDbBlockTableRecord
  2
*Paper_Space
340
1D
  0
ENDTAB
  0
ENDSEC
  0
SECTION
  2
BLOCKS
  0
BLOCK
  5
1F
330
1E
100
AcDbEntity
  8
0
100
AcDbBlockBegin
  2
*Model_Space
 70
     0
 10
0.0
 20
0.0
 30
0.0
  3
*Model_Space
  1

  0
ENDBLK
  5
20
330
1E
100
AcDbEntity
  8
0
100
AcDbBlockEnd
  0
BLOCK
  5
1B
330
1A
100
AcDbEntity
 67
     1
  8
0
100
AcDbBlockBegin
  2
*Paper_Space
 70
     0
 10
0.0
 20
0.0
 30
0.0
  3
*Paper_Space
  1

  0
ENDBLK
  5
1C
330
1A
100
AcDbEntity
 67
     1
  8
0
100
AcDbBlockEnd
  0
ENDSEC
  0
SECTION
  2
ENTITIES
  0
LINE
  5
23
330
1E
100
AcDbEntity
  8
0
100
AcDbLine
 10
3.7
 20
147.1445899999999
 30
0.0
 11
7.75
 21
141.8195899999999
 31
0.0
  0
LINE
  5
24
330
1E
100
AcDbEntity
  8
0
100
AcDbLine
 10
14.75
 20
35.81959
 30
0.0
 11
14.75
 21
27.83879
 31
0.0
  0
LINE
  5
25
330
1E
100
AcDbEntity
  8
0
100
AcDbLine
 10
14.75
 20
27.83879
 30
0.0
 11
14.75
 21
35.81959
 31
0.0
  0
LINE
  5
26
330
1E
100
AcDbEntity
  8
0
100
AcDbLine
 10
14.75
 20
27.83879
 30
0.0
 11
14.75
 21
20.52119
 31
0.0
  0
LINE
  5
27
330
1E
100
AcDbEntity
  8
0
100
AcDbLine
 10
14.75
 20
20.52119
 30
0.0
 11
14.75
 21
14.42792999999999
 31
0.0
  0
LINE
  5
28
330
1E
100
AcDbEntity
  8
0
100
AcDbLine
 10
14.75
 20
20.52119
 30
0.0
 11
14.75
 21
27.83879
 31
0.0
  0
LINE
  5
29
330
1E
100
AcDbEntity
  8
0
100
AcDbLine
 10
14.75
 20
14.42792999999999
 30
0.0
 11
14.75
 21
20.52119
 31
0.0
  0
LINE
  5
2A
330
1E
100
AcDbEntity
  8
0
100
AcDbLine
 10
14.75
 20
14.42792999999999
 30
0.0
 11
14.75
 21
9.247091000000009
 31
0.0
  0
LINE
  5
2B
330
1E
100
AcDbEntity
  8
0
100
AcDbLine
 10
14.75
 20
9.247091000000009
 30
0.0
 11
14.75
 21
8.539763000000009
 31
0.0
  0
LINE
  5
2C
330
1E
100
AcDbEntity
  8
0
100
AcDbLine
 10
14.75
 20
9.247091000000009
 30
0.0
 11
14.75
 21
14.42792999999999
 31
0.0
  0
LINE
  5
2D
330
1E
100
AcDbEntity
  8
0
100
AcDbLine
 10
25.75
 20
0.121410000000007
 30
0.0
 11
28.566
 21
0.424470000000007
 31
0.0
  0
LINE
  5
2E
330
1E
100
AcDbEntity
  8
0
100
AcDbLine
 10
28.566
 20
0.424470000000007
 30
0.0
 11
31.206
 21
1.232630000000009
 31
0.0
  0
LINE
  5
2F
330
1E
100
AcDbEntity
  8
0
100
AcDbLine
 10
31.206
 20
1.232630000000009
 30
0.0
 11
33.538
 21
2.579570000000009
 31
0.0
  0
LINE
  5
31
330
1E
100
AcDbEntity
  8
0
100
AcDbLine
 10
33.538
 20
2.579570000000009
 30
0.0
 11
35.298
 21
4.364260000000009
 31
0.0
  0
LINE
  5
33
330
1E
100
AcDbEntity
  8
0
100
AcDbLine
 10
22.934
 20
0.424470000000007
 30
0.0
 11
25.75
 21
0.121410000000007
 31
0.0
  0
LINE
  5
34
330
1E
100
AcDbEntity
  8
0
100
AcDbLine
 10
20.294
 20
1.232630000000009
 30
0.0
 11
22.934
 21
0.424470000000007
 31
0.0
  0
LINE
  5
35
330
1E
100
AcDbEntity
  8
0
100
AcDbLine
 10
35.298
 20
4.364260000000009
 30
0.0
 11
36.354
 21
6.384660000000009
 31
0.0
  0
LINE
  5
38
330
1E
100
AcDbEntity
  8
0
100
AcDbLine
 10
36.354
 20
6.384660000000009
 30
0.0
 11
36.75
 21
8.539763000000009
 31
0.0
  0
LINE
  5
3A
330
1E
100
AcDbEntity
  8
0
100
AcDbLine
 10
17.96199999999999
 20
2.579570000000009
 30
0.0
 11
20.294
 21
1.232630000000009
 31
0.0
  0
LINE
  5
3B
330
1E
100
AcDbEntity
  8
0
100
AcDbLine
 10
16.202
 20
4.364260000000009
 30
0.0
 11
17.96199999999999
 21
2.579570000000009
 31
0.0
  0
LINE
  5
3C
330
1E
100
AcDbEntity
  8
0
100
AcDbLine
 10
36.75
 20
8.539763000000009
 30
0.0
 11
36.75
 21
9.247091000000009
 31
0.0
  0
LINE
  5
3E
330
1E
100
AcDbEntity
  8
0
100
AcDbLine
 10
36.75
 20
14.42792999999999
 30
0.0
 11
36.75
 21
20.52119
 31
0.0
  0
LINE
  5
3F
330
1E
100
AcDbEntity
  8
0
100
AcDbLine
 10
36.75
 20
20.52119
 30
0.0
 11
36.75
 21
27.83879
 31
0.0
  0
LINE
  5
40
330
1E
100
AcDbEntity
  8
0
100
AcDbLine
 10
36.75
 20
20.52119
 30
0.0
 11
36.75
 21
14.42792999999999
 31
0.0
  0
LINE
  5
41
330
1E
100
AcDbEntity
  8
0
100
AcDbLine
 10
36.75
 20
27.83879
 30
0.0
 11
36.75
 21
20.52119
 31
0.0
  0
LINE
  5
42
330
1E
100
AcDbEntity
  8
0
100
AcDbLine
 10
36.75
 20
27.83879
 30
0.0
 11
36.75
 21
35.81959
 31
0.0
  0
LINE
  5
43
330
1E
100
AcDbEntity
  8
0
100
AcDbLine
 10
36.75
 20
9.247091000000009
 30
0.0
 11
36.75
 21
14.42792999999999
 31
0.0
  0
LINE
  5
44
330
1E
100
AcDbEntity
  8
0
100
AcDbLine
 10
36.75
 20
9.247091000000009
 30
0.0
 11
36.75
 21
8.539763000000009
 31
0.0
  0
LINE
  5
45
330
1E
100
AcDbEntity
  8
0
100
AcDbLine
 10
36.75
 20
35.81959
 30
0.0
 11
38.75
 21
149.05159
 31
0.0
  0
LINE
  5
46
330
1E
100
AcDbEntity
  8
0
100
AcDbLine
 10
36.75
 20
35.81959
 30
0.0
 11
36.75
 21
27.83879
 31
0.0
  0
LINE
  5
47
330
1E
100
AcDbEntity
  8
0
100
AcDbLine
 10
36.75
 20
35.81959
 30
0.0
 11
38.75
 21
149.05159
 31
0.0
  0
LINE
  5
48
330
1E
100
AcDbEntity
  8
0
100
AcDbLine
 10
38.60766832905229
 20
140.9933401176249
 30
0.0
 11
41.95
 21
143.6195899999999
 31
0.0
  0
LINE
  5
4A
330
1E
100
AcDbEntity
  8
0
100
AcDbLine
 10
43.75
 20
141.8195899999999
 30
0.0
 11
47.8
 21
147.1445899999999
 31
0.0
  0
LINE
  5
4C
330
1E
100
AcDbEntity
  8
0
100
AcDbLine
 10
38.552439698457
 20
137.866515967841
 30
0.0
 11
43.75
 21
141.8195899999999
 31
0.0
  0
LINE
  5
4D
330
1E
100
AcDbEntity
  8
0
100
AcDbLine
 10
15.14599999999999
 20
6.384660000000009
 30
0.0
 11
16.202
 21
4.364260000000009
 31
0.0
  0
LINE
  5
4E
330
1E
100
AcDbEntity
  8
0
100
AcDbLine
 10
14.75
 20
8.539763000000009
 30
0.0
 11
14.75
 21
9.247091000000009
 31
0.0
  0
LINE
  5
4F
330
1E
100
AcDbEntity
  8
0
100
AcDbLine
 10
14.75
 20
8.539763000000009
 30
0.0
 11
15.14599999999999
 21
6.384660000000009
 31
0.0
  0
LINE
  5
50
330
1E
100
AcDbEntity
  8
0
100
AcDbLine
 10
41.95
 20
143.6195899999999
 30
0.0
 11
45.64119999999999
 21
148.3165899999999
 31
0.0
  0
LINE
  5
52
330
1E
100
AcDbEntity
  8
0
100
AcDbLine
 10
7.75
 20
141.8195899999999
 30
0.0
 11
12.94756030154299
 21
137.866515967841
 31
0.0
  0
LINE
  5
53
330
1E
100
AcDbEntity
  8
0
100
AcDbLine
 10
38.75
 20
149.05159
 30
0.0
 11
38.8048
 21
152.1365899999999
 31
0.0
  0
LINE
  5
54
330
1E
100
AcDbEntity
  8
0
100
AcDbLine
 10
12.75
 20
149.05159
 30
0.0
 11
14.75
 21
35.81959
 31
0.0
  0
LINE
  5
55
330
1E
100
AcDbEntity
  8
0
100
AcDbLine
 10
12.75
 20
149.05159
 30
0.0
 11
14.75
 21
35.81959
 31
0.0
  0
LINE
  5
56
330
1E
100
AcDbEntity
  8
0
100
AcDbLine
 10
45.64119999999999
 20
148.3165899999999
 30
0.0
 11
46.05414128822139
 21
149.3195899999999
 31
0.0
  0
LINE
  5
57
330
1E
100
AcDbEntity
  8
0
100
AcDbLine
 10
47.8
 20
147.1445899999999
 30
0.0
 11
48.7018292682927
 21
149.3195899999999
 31
0.0
  0
LINE
  5
58
330
1E
100
AcDbEntity
  8
0
100
AcDbLine
 10
50.1731
 20
149.3195899999999
 30
0.0
 11
50.55769999999999
 21
149.5695899999999
 31
0.0
  0
LINE
  5
59
330
1E
100
AcDbEntity
  8
0
100
AcDbLine
 10
39.3204150943396
 20
149.3195899999999
 30
0.0
 11
50.1731
 21
149.3195899999999
 31
0.0
  0
LINE
  5
5A
330
1E
100
AcDbEntity
  8
0
100
AcDbLine
 10
9.55
 20
143.6195899999999
 30
0.0
 11
12.8923316709477
 21
140.9933401176249
 31
0.0
  0
LINE
  5
5B
330
1E
100
AcDbEntity
  8
0
100
AcDbLine
 10
5.85876
 20
148.3165899999999
 30
0.0
 11
9.55
 21
143.6195899999999
 31
0.0
  0
LINE
  5
5C
330
1E
100
AcDbEntity
  8
0
100
AcDbLine
 10
38.75786238169689
 20
149.494207655748
 30
0.0
 11
38.8140814820171
 21
149.568697963673
 31
0.0
  0
LINE
  5
5D
330
1E
100
AcDbEntity
  8
0
100
AcDbLine
 10
38.8048
 20
152.1365899999999
 30
0.0
 11
38.8809
 21
155.3295899999999
 31
0.0
  0
LINE
  5
5E
330
1E
100
AcDbEntity
  8
0
100
AcDbLine
 10
12.69519999999999
 20
152.1365899999999
 30
0.0
 11
12.75
 21
149.05159
 31
0.0
  0
LINE
  5
5F
330
1E
100
AcDbEntity
  8
0
100
AcDbLine
 10
50.55769999999999
 20
151.8195899999999
 30
0.0
 11
50.55769999999999
 21
154.4695899999999
 31
0.0
  0
LINE
  5
60
330
1E
100
AcDbEntity
  8
0
100
AcDbLine
 10
50.55769999999999
 20
151.8195899999999
 30
0.0
 11
50.55769999999999
 21
150.16959
 31
0.0
  0
LINE
  5
61
330
1E
100
AcDbEntity
  8
0
100
AcDbLine
 10
50.55769999999999
 20
150.16959
 30
0.0
 11
50.55769999999999
 21
151.8195899999999
 31
0.0
  0
LINE
  5
62
330
1E
100
AcDbEntity
  8
0
100
AcDbLine
 10
50.55769999999999
 20
150.16959
 30
0.0
 11
50.55769999999999
 21
149.5695899999999
 31
0.0
  0
LINE
  5
63
330
1E
100
AcDbEntity
  8
0
100
AcDbLine
 10
50.75
 20
152.2695899999999
 30
0.0
 11
50.75
 21
154.8195899999999
 31
0.0
  0
LINE
  5
64
330
1E
100
AcDbEntity
  8
0
100
AcDbLine
 10
50.75
 20
152.2695899999999
 30
0.0
 11
50.75
 21
150.6695899999999
 31
0.0
  0
LINE
  5
65
330
1E
100
AcDbEntity
  8
0
100
AcDbLine
 10
50.75
 20
150.6695899999999
 30
0.0
 11
50.75
 21
152.2695899999999
 31
0.0
  0
LINE
  5
66
330
1E
100
AcDbEntity
  8
0
100
AcDbLine
 10
50.75
 20
150.6695899999999
 30
0.0
 11
50.75
 21
150.0695899999999
 31
0.0
  0
LINE
  5
67
330
1E
100
AcDbEntity
  8
0
100
AcDbLine
 10
50.75
 20
150.0695899999999
 30
0.0
 11
50.75
 21
150.6695899999999
 31
0.0
  0
LINE
  5
68
330
1E
100
AcDbEntity
  8
0
100
AcDbLine
 10
50.55769999999999
 20
149.5695899999999
 30
0.0
 11
50.75
 21
150.0695899999999
 31
0.0
  0
LINE
  5
69
330
1E
100
AcDbEntity
  8
0
100
AcDbLine
 10
50.55769999999999
 20
149.5695899999999
 30
0.0
 11
50.55769999999999
 21
150.16959
 31
0.0
  0
LINE
  5
6A
330
1E
100
AcDbEntity
  8
0
100
AcDbLine
 10
1.149999999999999
 20
153.29459
 30
0.0
 11
3.7
 21
147.1445899999999
 31
0.0
  0
LINE
  5
6B
330
1E
100
AcDbEntity
  8
0
100
AcDbLine
 10
10.12599999999999
 20
152.9605899999999
 30
0.0
 11
12.74213761830309
 21
149.494207655748
 31
0.0
  0
LINE
  5
6C
330
1E
100
AcDbEntity
  8
0
100
AcDbLine
 10
50.75
 20
150.3195899999999
 30
0.0
 11
51.75
 21
150.3195899999999
 31
0.0
  0
LINE
  5
6D
330
1E
100
AcDbEntity
  8
0
100
AcDbLine
 10
51.75
 20
149.4045899999999
 30
0.0
 11
68.75
 21
149.4045899999999
 31
0.0
  0
LINE
  5
6E
330
1E
100
AcDbEntity
  8
0
100
AcDbLine
 10
51.75
 20
149.4045899999999
 30
0.0
 11
51.75
 21
150.3195899999999
 31
0.0
  0
LINE
  5
6F
330
1E
100
AcDbEntity
  8
0
100
AcDbLine
 10
51.75
 20
149.5775899999999
 30
0.0
 11
51.75
 21
149.4045899999999
 31
0.0
  0
LINE
  5
70
330
1E
100
AcDbEntity
  8
0
100
AcDbLine
 10
0.249999999999997
 20
159.8195899999999
 30
0.0
 11
1.149999999999999
 21
153.29459
 31
0.0
  0
LINE
  5
71
330
1E
100
AcDbEntity
  8
0
100
AcDbLine
 10
0.249999999999997
 20
159.8195899999999
 30
0.0
 11
0.249999999999997
 21
172.8195899999999
 31
0.0
  0
LINE
  5
74
330
1E
100
AcDbEntity
  8
0
100
AcDbLine
 10
2.75
 20
159.8195899999999
 30
0.0
 11
3.58325
 21
153.8435899999999
 31
0.0
  0
LINE
  5
75
330
1E
100
AcDbEntity
  8
0
100
AcDbLine
 10
3.58325
 20
153.8435899999999
 30
0.0
 11
5.85876
 21
148.3165899999999
 31
0.0
  0
LINE
  5
76
330
1E
100
AcDbEntity
  8
0
100
AcDbLine
 10
38.8809
 20
155.3295899999999
 30
0.0
 11
38.9769
 21
158.4135899999999
 31
0.0
  0
LINE
  5
77
330
1E
100
AcDbEntity
  8
0
100
AcDbLine
 10
12.6191
 20
155.3295899999999
 30
0.0
 11
12.69519999999999
 21
152.1365899999999
 31
0.0
  0
LINE
  5
78
330
1E
100
AcDbEntity
  8
0
100
AcDbLine
 10
50.75
 20
154.8195899999999
 30
0.0
 11
50.75
 21
158.2195899999999
 31
0.0
  0
LINE
  5
79
330
1E
100
AcDbEntity
  8
0
100
AcDbLine
 10
50.75
 20
154.8195899999999
 30
0.0
 11
50.75
 21
152.2695899999999
 31
0.0
  0
LINE
  5
7A
330
1E
100
AcDbEntity
  8
0
100
AcDbLine
 10
50.55769999999999
 20
154.4695899999999
 30
0.0
 11
50.55769999999999
 21
157.9695899999999
 31
0.0
  0
LINE
  5
7B
330
1E
100
AcDbEntity
  8
0
100
AcDbLine
 10
50.55769999999999
 20
154.4695899999999
 30
0.0
 11
50.55769999999999
 21
151.8195899999999
 31
0.0
  0
LINE
  5
7C
330
1E
100
AcDbEntity
  8
0
100
AcDbLine
 10
38.9769
 20
158.4135899999999
 30
0.0
 11
39.0432
 21
161.2875899999999
 31
0.0
  0
LINE
  5
7D
330
1E
100
AcDbEntity
  8
0
100
AcDbLine
 10
12.5231
 20
158.4135899999999
 30
0.0
 11
12.6191
 21
155.3295899999999
 31
0.0
  0
LINE
  5
7E
330
1E
100
AcDbEntity
  8
0
100
AcDbLine
 10
50.75
 20
158.2195899999999
 30
0.0
 11
50.75
 21
154.8195899999999
 31
0.0
  0
LINE
  5
7F
330
1E
100
AcDbEntity
  8
0
100
AcDbLine
 10
50.55769999999999
 20
157.9695899999999
 30
0.0
 11
50.55769999999999
 21
162.0195899999999
 31
0.0
  0
LINE
  5
80
330
1E
100
AcDbEntity
  8
0
100
AcDbLine
 10
50.55769999999999
 20
157.9695899999999
 30
0.0
 11
50.55769999999999
 21
154.4695899999999
 31
0.0
  0
LINE
  5
81
330
1E
100
AcDbEntity
  8
0
100
AcDbLine
 10
8.397999999999999
 20
157.2805899999999
 30
0.0
 11
10.12599999999999
 21
152.9605899999999
 31
0.0
  0
LINE
  5
85
330
1E
100
AcDbEntity
  8
0
100
AcDbLine
 10
7.75
 20
161.8885899999999
 30
0.0
 11
8.397999999999999
 21
157.2805899999999
 31
0.0
  0
LINE
  5
86
330
1E
100
AcDbEntity
  8
0
100
AcDbLine
 10
39.0432
 20
161.2875899999999
 30
0.0
 11
39.1704
 21
163.8875899999999
 31
0.0
  0
LINE
  5
87
330
1E
100
AcDbEntity
  8
0
100
AcDbLine
 10
39.03167523493419
 20
160.788009686288
 30
0.0
 11
41.37399999999999
 21
163.8915899999999
 31
0.0
  0
LINE
  5
88
330
1E
100
AcDbEntity
  8
0
100
AcDbLine
 10
12.4568
 20
161.2875899999999
 30
0.0
 11
12.5231
 21
158.4135899999999
 31
0.0
  0
LINE
  5
89
330
1E
100
AcDbEntity
  8
0
100
AcDbLine
 10
50.55769999999999
 20
162.0195899999999
 30
0.0
 11
50.55769999999999
 21
166.3195899999999
 31
0.0
  0
LINE
  5
8A
330
1E
100
AcDbEntity
  8
0
100
AcDbLine
 10
50.55769999999999
 20
162.0195899999999
 30
0.0
 11
50.55769999999999
 21
157.9695899999999
 31
0.0
  0
LINE
  5
8C
330
1E
100
AcDbEntity
  8
0
100
AcDbLine
 10
39.1704
 20
163.8875899999999
 30
0.0
 11
39.3293
 21
166.25959
 31
0.0
  0
LINE
  5
8D
330
1E
100
AcDbEntity
  8
0
100
AcDbLine
 10
41.37399999999999
 20
163.8915899999999
 30
0.0
 11
43.102
 21
168.21159
 31
0.0
  0
LINE
  5
8E
330
1E
100
AcDbEntity
  8
0
100
AcDbLine
 10
12.3296
 20
163.8875899999999
 30
0.0
 11
12.4568
 21
161.2875899999999
 31
0.0
  0
LINE
  5
90
330
1E
100
AcDbEntity
  8
0
100
AcDbLine
 10
39.3293
 20
166.25959
 30
0.0
 11
39.4883
 21
168.1905899999999
 31
0.0
  0
LINE
  5
91
330
1E
100
AcDbEntity
  8
0
100
AcDbLine
 10
39.4883
 20
168.1905899999999
 30
0.0
 11
39.6949
 21
169.8295899999999
 31
0.0
  0
LINE
  5
92
330
1E
100
AcDbEntity
  8
0
100
AcDbLine
 10
12.1707
 20
166.25959
 30
0.0
 11
12.3296
 21
163.8875899999999
 31
0.0
  0
LINE
  5
93
330
1E
100
AcDbEntity
  8
0
100
AcDbLine
 10
43.102
 20
168.21159
 30
0.0
 11
43.75
 21
172.8195899999999
 31
0.0
  0
LINE
  5
95
330
1E
100
AcDbEntity
  8
0
100
AcDbLine
 10
12.01179999999999
 20
168.1905899999999
 30
0.0
 11
12.1707
 21
166.25959
 31
0.0
  0
LINE
  5
96
330
1E
100
AcDbEntity
  8
0
100
AcDbLine
 10
50.75
 20
166.3195899999999
 30
0.0
 11
50.75
 21
170.5195899999999
 31
0.0
  0
LINE
  5
97
330
1E
100
AcDbEntity
  8
0
100
AcDbLine
 10
50.75
 20
166.3195899999999
 30
0.0
 11
50.75
 21
158.2195899999999
 31
0.0
  0
LINE
  5
98
330
1E
100
AcDbEntity
  8
0
100
AcDbLine
 10
50.55769999999999
 20
166.3195899999999
 30
0.0
 11
50.55769999999999
 21
170.6195899999999
 31
0.0
  0
LINE
  5
99
330
1E
100
AcDbEntity
  8
0
100
AcDbLine
 10
50.55769999999999
 20
166.3195899999999
 30
0.0
 11
50.55769999999999
 21
162.0195899999999
 31
0.0
  0
LINE
  5
9A
330
1E
100
AcDbEntity
  8
0
100
AcDbLine
 10
10.12599999999999
 20
163.8915899999999
 30
0.0
 11
12.4683247650658
 21
160.788009686288
 31
0.0
  0
LINE
  5
9B
330
1E
100
AcDbEntity
  8
0
100
AcDbLine
 10
8.397999999999999
 20
168.21159
 30
0.0
 11
10.12599999999999
 21
163.8915899999999
 31
0.0
  0
LINE
  5
9C
330
1E
100
AcDbEntity
  8
0
100
AcDbLine
 10
50.75
 20
158.2195899999999
 30
0.0
 11
50.75
 21
166.3195899999999
 31
0.0
  0
LINE
  5
9D
330
1E
100
AcDbEntity
  8
0
100
AcDbLine
 10
51.75
 20
164.8345899999999
 30
0.0
 11
51.75
 21
160.40259
 31
0.0
  0
LINE
  5
9E
330
1E
100
AcDbEntity
  8
0
100
AcDbLine
 10
51.75
 20
160.40259
 30
0.0
 11
51.75
 21
156.58559
 31
0.0
  0
LINE
  5
9F
330
1E
100
AcDbEntity
  8
0
100
AcDbLine
 10
51.75
 20
156.58559
 30
0.0
 11
51.75
 21
153.3365899999999
 31
0.0
  0
LINE
  5
A0
330
1E
100
AcDbEntity
  8
0
100
AcDbLine
 10
51.75
 20
153.3365899999999
 30
0.0
 11
51.75
 21
150.93259
 31
0.0
  0
LINE
  5
A1
330
1E
100
AcDbEntity
  8
0
100
AcDbLine
 10
51.75
 20
150.93259
 30
0.0
 11
51.75
 21
149.5775899999999
 31
0.0
  0
LINE
  5
A2
330
1E
100
AcDbEntity
  8
0
100
AcDbLine
 10
0.249999999999997
 20
172.8195899999999
 30
0.0
 11
1.149999999999999
 21
179.3445899999999
 31
0.0
  0
LINE
  5
A3
330
1E
100
AcDbEntity
  8
0
100
AcDbLine
 10
0.249999999999997
 20
172.8195899999999
 30
0.0
 11
0.249999999999997
 21
159.8195899999999
 31
0.0
  0
LINE
  5
A4
330
1E
100
AcDbEntity
  8
0
100
AcDbLine
 10
2.75
 20
172.8195899999999
 30
0.0
 11
3.58325
 21
178.79559
 31
0.0
  0
LINE
  5
A5
330
1E
100
AcDbEntity
  8
0
100
AcDbLine
 10
2.75
 20
172.8195899999999
 30
0.0
 11
2.75
 21
159.8195899999999
 31
0.0
  0
LINE
  5
A6
330
1E
100
AcDbEntity
  8
0
100
AcDbLine
 10
11.80509999999999
 20
169.8295899999999
 30
0.0
 11
12.01179999999999
 21
168.1905899999999
 31
0.0
  0
LINE
  5
A7
330
1E
100
AcDbEntity
  8
0
100
AcDbLine
 10
50.75
 20
170.5195899999999
 30
0.0
 11
50.75
 21
174.41959
 31
0.0
  0
LINE
  5
A8
330
1E
100
AcDbEntity
  8
0
100
AcDbLine
 10
50.75
 20
170.5195899999999
 30
0.0
 11
50.75
 21
166.3195899999999
 31
0.0
  0
LINE
  5
AD
330
1E
100
AcDbEntity
  8
0
100
AcDbLine
 10
50.75
 20
174.41959
 30
0.0
 11
50.75
 21
177.8195899999999
 31
0.0
  0
LINE
  5
AE
330
1E
100
AcDbEntity
  8
0
100
AcDbLine
 10
50.75
 20
174.41959
 30
0.0
 11
50.75
 21
170.5195899999999
 31
0.0
  0
LINE
  5
AF
330
1E
100
AcDbEntity
  8
0
100
AcDbLine
 10
50.55769999999999
 20
174.6695899999999
 30
0.0
 11
50.55769999999999
 21
178.16959
 31
0.0
  0
LINE
  5
B0
330
1E
100
AcDbEntity
  8
0
100
AcDbLine
 10
50.55769999999999
 20
174.6695899999999
 30
0.0
 11
50.55769999999999
 21
170.6195899999999
 31
0.0
  0
LINE
  5
B1
330
1E
100
AcDbEntity
  8
0
100
AcDbLine
 10
50.55769999999999
 20
170.6195899999999
 30
0.0
 11
50.55769999999999
 21
174.6695899999999
 31
0.0
  0
LINE
  5
B2
330
1E
100
AcDbEntity
  8
0
100
AcDbLine
 10
50.55769999999999
 20
170.6195899999999
 30
0.0
 11
50.55769999999999
 21
166.3195899999999
 31
0.0
  0
LINE
  5
B3
330
1E
100
AcDbEntity
  8
0
100
AcDbLine
 10
7.75
 20
172.8195899999999
 30
0.0
 11
8.397999999999999
 21
168.21159
 31
0.0
  0
LINE
  5
B4
330
1E
100
AcDbEntity
  8
0
100
AcDbLine
 10
7.75
 20
172.8195899999999
 30
0.0
 11
7.75
 21
161.8885899999999
 31
0.0
  0
LINE
  5
B5
330
1E
100
AcDbEntity
  8
0
100
AcDbLine
 10
51.75
 20
169.27159
 30
0.0
 11
53.8221
 21
173.53759
 31
0.0
  0
LINE
  5
B6
330
1E
100
AcDbEntity
  8
0
100
AcDbLine
 10
51.75
 20
169.27159
 30
0.0
 11
51.75
 21
164.8345899999999
 31
0.0
  0
LINE
  5
C1
330
1E
100
AcDbEntity
  8
0
100
AcDbLine
 10
53.8221
 20
173.53759
 30
0.0
 11
55.8105
 21
177.33559
 31
0.0
  0
LINE
  5
C2
330
1E
100
AcDbEntity
  8
0
100
AcDbLine
 10
50.75
 20
177.8195899999999
 30
0.0
 11
50.75
 21
174.41959
 31
0.0
  0
LINE
  5
C3
330
1E
100
AcDbEntity
  8
0
100
AcDbLine
 10
50.75
 20
177.8195899999999
 30
0.0
 11
50.75
 21
182.5695899999999
 31
0.0
  0
LINE
  5
C4
330
1E
100
AcDbEntity
  8
0
100
AcDbLine
 10
50.55769999999999
 20
178.16959
 30
0.0
 11
50.55769999999999
 21
174.6695899999999
 31
0.0
  0
LINE
  5
C5
330
1E
100
AcDbEntity
  8
0
100
AcDbLine
 10
50.55769999999999
 20
178.16959
 30
0.0
 11
50.55769999999999
 21
180.8195899999999
 31
0.0
  0
LINE
  5
C6
330
1E
100
AcDbEntity
  8
0
100
AcDbLine
 10
50.75
 20
182.5695899999999
 30
0.0
 11
50.75
 21
177.8195899999999
 31
0.0
  0
LINE
  5
C7
330
1E
100
AcDbEntity
  8
0
100
AcDbLine
 10
50.55769999999999
 20
180.8195899999999
 30
0.0
 11
50.55769999999999
 21
182.4695899999999
 31
0.0
  0
LINE
  5
C8
330
1E
100
AcDbEntity
  8
0
100
AcDbLine
 10
50.55769999999999
 20
180.8195899999999
 30
0.0
 11
50.55769999999999
 21
178.16959
 31
0.0
  0
LINE
  5
C9
330
1E
100
AcDbEntity
  8
0
100
AcDbLine
 10
1.149999999999999
 20
179.3445899999999
 30
0.0
 11
3.7
 21
185.4945899999999
 31
0.0
  0
LINE
  5
CA
330
1E
100
AcDbEntity
  8
0
100
AcDbLine
 10
3.58325
 20
178.79559
 30
0.0
 11
5.85876
 21
184.32259
 31
0.0
  0
LINE
  5
CB
330
1E
100
AcDbEntity
  8
0
100
AcDbLine
 10
57.25
 20
181.8195899999999
 30
0.0
 11
58.1052635146714
 21
181.391958242664
 31
0.0
  0
LINE
  5
CC
330
1E
100
AcDbEntity
  8
0
100
AcDbLine
 10
55.8105
 20
177.33559
 30
0.0
 11
57.4176
 21
180.2625899999999
 31
0.0
  0
LINE
  5
CD
330
1E
100
AcDbEntity
  8
0
100
AcDbLine
 10
57.4176
 20
180.2625899999999
 30
0.0
 11
58.6433
 21
182.2755899999999
 31
0.0
  0
LINE
  5
CE
330
1E
100
AcDbEntity
  8
0
100
AcDbLine
 10
50.55769999999999
 20
182.4695899999999
 30
0.0
 11
50.55769999999999
 21
183.0695899999999
 31
0.0
  0
LINE
  5
CF
330
1E
100
AcDbEntity
  8
0
100
AcDbLine
 10
50.55769999999999
 20
182.4695899999999
 30
0.0
 11
50.55769999999999
 21
180.8195899999999
 31
0.0
  0
LINE
  5
D0
330
1E
100
AcDbEntity
  8
0
100
AcDbLine
 10
50.55769999999999
 20
183.0695899999999
 30
0.0
 11
50.75
 21
182.5695899999999
 31
0.0
  0
LINE
  5
D1
330
1E
100
AcDbEntity
  8
0
100
AcDbLine
 10
50.55769999999999
 20
183.0695899999999
 30
0.0
 11
50.55769999999999
 21
182.4695899999999
 31
0.0
  0
LINE
  5
D2
330
1E
100
AcDbEntity
  8
0
100
AcDbLine
 10
45.64119999999999
 20
184.32259
 30
0.0
 11
46.05414128822149
 21
183.3195899999999
 31
0.0
  0
LINE
  5
D3
330
1E
100
AcDbEntity
  8
0
100
AcDbLine
 10
50.1731
 20
183.3195899999999
 30
0.0
 11
50.55769999999999
 21
183.0695899999999
 31
0.0
  0
LINE
  5
D4
330
1E
100
AcDbEntity
  8
0
100
AcDbLine
 10
39.7471179321486
 20
183.3195899999999
 30
0.0
 11
50.1731
 21
183.3195899999999
 31
0.0
  0
LINE
  5
D6
330
1E
100
AcDbEntity
  8
0
100
AcDbLine
 10
3.7
 20
185.4945899999999
 30
0.0
 11
7.75
 21
190.8195899999999
 31
0.0
  0
LINE
  5
D8
330
1E
100
AcDbEntity
  8
0
100
AcDbLine
 10
7.75
 20
190.8195899999999
 30
0.0
 11
13.075
 21
194.8695899999999
 31
0.0
  0
LINE
  5
D9
330
1E
100
AcDbEntity
  8
0
100
AcDbLine
 10
27.75
 20
190.0408504166669
 30
0.0
 11
27.75
 21
193.0825899999999
 31
0.0
  0
LINE
  5
DA
330
1E
100
AcDbEntity
  8
0
100
AcDbLine
 10
23.75
 20
190.149451111111
 30
0.0
 11
23.75
 21
193.0825899999999
 31
0.0
  0
LINE
  5
DB
330
1E
100
AcDbEntity
  8
0
100
AcDbLine
 10
41.95
 20
189.0195899999999
 30
0.0
 11
45.64119999999999
 21
184.32259
 31
0.0
  0
LINE
  5
DD
330
1E
100
AcDbEntity
  8
0
100
AcDbLine
 10
37.2526
 20
192.7105899999999
 30
0.0
 11
41.95
 21
189.0195899999999
 31
0.0
  0
LINE
  5
DE
330
1E
100
AcDbEntity
  8
0
100
AcDbLine
 10
43.75
 20
190.8195899999999
 30
0.0
 11
47.8
 21
185.4945899999999
 31
0.0
  0
LINE
  5
DF
330
1E
100
AcDbEntity
  8
0
100
AcDbLine
 10
47.8
 20
185.4945899999999
 30
0.0
 11
48.7018292682927
 21
183.3195899999999
 31
0.0
  0
LINE
  5
E0
330
1E
100
AcDbEntity
  8
0
100
AcDbLine
 10
13.075
 20
194.8695899999999
 30
0.0
 11
19.225
 21
197.4195899999999
 31
0.0
  0
LINE
  5
E1
330
1E
100
AcDbEntity
  8
0
100
AcDbLine
 10
19.225
 20
197.4195899999999
 30
0.0
 11
23.75
 21
198.043727931034
 31
0.0
  0
LINE
  5
E2
330
1E
100
AcDbEntity
  8
0
100
AcDbLine
 10
23.75
 20
193.68159
 30
0.0
 11
23.75
 21
193.0825899999999
 31
0.0
  0
LINE
  5
E3
330
1E
100
AcDbEntity
  8
0
100
AcDbLine
 10
23.75
 20
193.68159
 30
0.0
 11
23.75
 21
194.63559
 31
0.0
  0
LINE
  5
E4
330
1E
100
AcDbEntity
  8
0
100
AcDbLine
 10
27.75
 20
193.68159
 30
0.0
 11
27.75
 21
193.0825899999999
 31
0.0
  0
LINE
  5
E5
330
1E
100
AcDbEntity
  8
0
100
AcDbLine
 10
27.75
 20
193.68159
 30
0.0
 11
27.75
 21
194.63559
 31
0.0
  0
LINE
  5
E6
330
1E
100
AcDbEntity
  8
0
100
AcDbLine
 10
27.75
 20
193.0825899999999
 30
0.0
 11
27.75
 21
190.0408504166669
 31
0.0
  0
LINE
  5
E7
330
1E
100
AcDbEntity
  8
0
100
AcDbLine
 10
27.75
 20
193.0825899999999
 30
0.0
 11
27.75
 21
193.68159
 31
0.0
  0
LINE
  5
E8
330
1E
100
AcDbEntity
  8
0
100
AcDbLine
 10
23.75
 20
193.0825899999999
 30
0.0
 11
23.75
 21
193.68159
 31
0.0
  0
LINE
  5
E9
330
1E
100
AcDbEntity
  8
0
100
AcDbLine
 10
23.75
 20
193.0825899999999
 30
0.0
 11
23.75
 21
190.149451111111
 31
0.0
  0
LINE
  5
EA
330
1E
100
AcDbEntity
  8
0
100
AcDbLine
 10
27.75
 20
194.63559
 30
0.0
 11
27.75
 21
193.68159
 31
0.0
  0
LINE
  5
EB
330
1E
100
AcDbEntity
  8
0
100
AcDbLine
 10
27.75
 20
194.63559
 30
0.0
 11
27.75
 21
195.87859
 31
0.0
  0
LINE
  5
EC
330
1E
100
AcDbEntity
  8
0
100
AcDbLine
 10
23.75
 20
194.63559
 30
0.0
 11
23.75
 21
195.87859
 31
0.0
  0
LINE
  5
ED
330
1E
100
AcDbEntity
  8
0
100
AcDbLine
 10
23.75
 20
194.63559
 30
0.0
 11
23.75
 21
193.68159
 31
0.0
  0
LINE
  5
EE
330
1E
100
AcDbEntity
  8
0
100
AcDbLine
 10
23.75
 20
197.3255899999999
 30
0.0
 11
23.75
 21
198.87859
 31
0.0
  0
LINE
  5
EF
330
1E
100
AcDbEntity
  8
0
100
AcDbLine
 10
23.75
 20
197.3255899999999
 30
0.0
 11
23.75
 21
195.87859
 31
0.0
  0
LINE
  5
F0
330
1E
100
AcDbEntity
  8
0
100
AcDbLine
 10
27.75
 20
195.87859
 30
0.0
 11
27.75
 21
197.3255899999999
 31
0.0
  0
LINE
  5
F1
330
1E
100
AcDbEntity
  8
0
100
AcDbLine
 10
27.75
 20
195.87859
 30
0.0
 11
27.75
 21
194.63559
 31
0.0
  0
LINE
  5
F2
330
1E
100
AcDbEntity
  8
0
100
AcDbLine
 10
27.75
 20
197.3255899999999
 30
0.0
 11
27.75
 21
195.87859
 31
0.0
  0
LINE
  5
F3
330
1E
100
AcDbEntity
  8
0
100
AcDbLine
 10
27.75
 20
197.3255899999999
 30
0.0
 11
27.75
 21
198.87859
 31
0.0
  0
LINE
  5
F4
330
1E
100
AcDbEntity
  8
0
100
AcDbLine
 10
23.75
 20
195.87859
 30
0.0
 11
23.75
 21
194.63559
 31
0.0
  0
LINE
  5
F5
330
1E
100
AcDbEntity
  8
0
100
AcDbLine
 10
23.75
 20
195.87859
 30
0.0
 11
23.75
 21
197.3255899999999
 31
0.0
  0
LINE
  5
F6
330
1E
100
AcDbEntity
  8
0
100
AcDbLine
 10
27.75
 20
195.5408128711029
 30
0.0
 11
31.7261
 21
194.9865899999999
 31
0.0
  0
LINE
  5
F7
330
1E
100
AcDbEntity
  8
0
100
AcDbLine
 10
31.7261
 20
194.9865899999999
 30
0.0
 11
37.2526
 21
192.7105899999999
 31
0.0
  0
LINE
  5
F9
330
1E
100
AcDbEntity
  8
0
100
AcDbLine
 10
38.42499999999999
 20
194.8695899999999
 30
0.0
 11
43.75
 21
190.8195899999999
 31
0.0
  0
LINE
  5
FA
330
1E
100
AcDbEntity
  8
0
100
AcDbLine
 10
23.75
 20
198.87859
 30
0.0
 11
23.75
 21
200.8785899999999
 31
0.0
  0
LINE
  5
FB
330
1E
100
AcDbEntity
  8
0
100
AcDbLine
 10
23.75
 20
198.87859
 30
0.0
 11
23.75
 21
197.3255899999999
 31
0.0
  0
LINE
  5
102
330
1E
100
AcDbEntity
  8
0
100
AcDbLine
 10
25.75
 20
200.8785899999999
 30
0.0
 11
26.27
 21
200.8785899999999
 31
0.0
  0
LINE
  5
106
330
1E
100
AcDbEntity
  8
0
100
AcDbLine
 10
26.27
 20
200.8785899999999
 30
0.0
 11
26.75
 21
200.8785899999999
 31
0.0
  0
LINE
  5
108
330
1E
100
AcDbEntity
  8
0
100
AcDbLine
 10
26.75
 20
200.8785899999999
 30
0.0
 11
27.14999999999999
 21
200.8785899999999
 31
0.0
  0
LINE
  5
109
330
1E
100
AcDbEntity
  8
0
100
AcDbLine
 10
27.75
 20
198.87859
 30
0.0
 11
27.75
 21
200.8785899999999
 31
0.0
  0
LINE
  5
10A
330
1E
100
AcDbEntity
  8
0
100
AcDbLine
 10
27.75
 20
198.87859
 30
0.0
 11
27.75
 21
197.3255899999999
 31
0.0
  0
LINE
  5
10C
330
1E
100
AcDbEntity
  8
0
100
AcDbLine
 10
27.14999999999999
 20
200.8785899999999
 30
0.0
 11
27.46999999999999
 21
200.8785899999999
 31
0.0
  0
LINE
  5
10F
330
1E
100
AcDbEntity
  8
0
100
AcDbLine
 10
27.46999999999999
 20
200.8785899999999
 30
0.0
 11
27.67
 21
200.8785899999999
 31
0.0
  0
LINE
  5
111
330
1E
100
AcDbEntity
  8
0
100
AcDbLine
 10
27.75
 20
200.8785899999999
 30
0.0
 11
29.75
 21
203.87859
 31
0.0
  0
LINE
  5
112
330
1E
100
AcDbEntity
  8
0
100
AcDbLine
 10
27.75
 20
200.8785899999999
 30
0.0
 11
27.75
 21
198.87859
 31
0.0
  0
LINE
  5
114
330
1E
100
AcDbEntity
  8
0
100
AcDbLine
 10
27.67
 20
200.8785899999999
 30
0.0
 11
27.75
 21
200.8785899999999
 31
0.0
  0
LINE
  5
116
330
1E
100
AcDbEntity
  8
0
100
AcDbLine
 10
25.23
 20
200.8785899999999
 30
0.0
 11
25.75
 21
200.8785899999999
 31
0.0
  0
LINE
  5
118
330
1E
100
AcDbEntity
  8
0
100
AcDbLine
 10
24.75
 20
200.8785899999999
 30
0.0
 11
25.23
 21
200.8785899999999
 31
0.0
  0
LINE
  5
11A
330
1E
100
AcDbEntity
  8
0
100
AcDbLine
 10
24.35
 20
200.8785899999999
 30
0.0
 11
24.75
 21
200.8785899999999
 31
0.0
  0
LINE
  5
11B
330
1E
100
AcDbEntity
  8
0
100
AcDbLine
 10
24.03
 20
200.8785899999999
 30
0.0
 11
24.35
 21
200.8785899999999
 31
0.0
  0
LINE
  5
11C
330
1E
100
AcDbEntity
  8
0
100
AcDbLine
 10
23.83
 20
200.8785899999999
 30
0.0
 11
24.03
 21
200.8785899999999
 31
0.0
  0
LINE
  5
12A
330
1E
100
AcDbEntity
  8
0
100
AcDbLine
 10
23.75
 20
200.8785899999999
 30
0.0
 11
23.83
 21
200.8785899999999
 31
0.0
  0
LINE
  5
12B
330
1E
100
AcDbEntity
  8
0
100
AcDbLine
 10
23.75
 20
200.8785899999999
 30
0.0
 11
23.75
 21
198.87859
 31
0.0
  0
LINE
  5
12C
330
1E
100
AcDbEntity
  8
0
100
AcDbLine
 10
21.75
 20
203.87859
 30
0.0
 11
23.75
 21
200.8785899999999
 31
0.0
  0
LINE
  5
12D
330
1E
100
AcDbEntity
  8
0
100
AcDbLine
 10
21.75
 20
203.87859
 30
0.0
 11
21.75
 21
215.6285899999999
 31
0.0
  0
LINE
  5
141
330
1E
100
AcDbEntity
  8
0
100
AcDbLine
 10
21.846
 20
215.87859
 30
0.0
 11
21.98999999999999
 21
215.87859
 31
0.0
  0
LINE
  5
142
330
1E
100
AcDbEntity
  8
0
100
AcDbLine
 10
21.98999999999999
 20
215.87859
 30
0.0
 11
22.374
 21
215.87859
 31
0.0
  0
LINE
  5
143
330
1E
100
AcDbEntity
  8
0
100
AcDbLine
 10
22.374
 20
215.87859
 30
0.0
 11
22.998
 21
215.87859
 31
0.0
  0
LINE
  5
144
330
1E
100
AcDbEntity
  8
0
100
AcDbLine
 10
22.998
 20
215.87859
 30
0.0
 11
23.814
 21
215.87859
 31
0.0
  0
LINE
  5
145
330
1E
100
AcDbEntity
  8
0
100
AcDbLine
 10
23.814
 20
215.87859
 30
0.0
 11
24.74199999999999
 21
215.87859
 31
0.0
  0
LINE
  5
147
330
1E
100
AcDbEntity
  8
0
100
AcDbLine
 10
27.686
 20
215.87859
 30
0.0
 11
28.502
 21
215.87859
 31
0.0
  0
LINE
  5
149
330
1E
100
AcDbEntity
  8
0
100
AcDbLine
 10
26.758
 20
215.87859
 30
0.0
 11
27.686
 21
215.87859
 31
0.0
  0
LINE
  5
14B
330
1E
100
AcDbEntity
  8
0
100
AcDbLine
 10
25.75
 20
215.87859
 30
0.0
 11
26.758
 21
215.87859
 31
0.0
  0
LINE
  5
14C
330
1E
100
AcDbEntity
  8
0
100
AcDbLine
 10
24.74199999999999
 20
215.87859
 30
0.0
 11
25.75
 21
215.87859
 31
0.0
  0
LINE
  5
150
330
1E
100
AcDbEntity
  8
0
100
AcDbLine
 10
21.75
 20
215.6285899999999
 30
0.0
 11
21.846
 21
215.87859
 31
0.0
  0
LINE
  5
151
330
1E
100
AcDbEntity
  8
0
100
AcDbLine
 10
21.75
 20
215.6285899999999
 30
0.0
 11
21.75
 21
203.87859
 31
0.0
  0
LINE
  5
154
330
1E
100
AcDbEntity
  8
0
100
AcDbLine
 10
29.75
 20
203.87859
 30
0.0
 11
29.75
 21
215.6285899999999
 31
0.0
  0
LINE
  5
158
330
1E
100
AcDbEntity
  8
0
100
AcDbLine
 10
28.502
 20
215.87859
 30
0.0
 11
29.12599999999999
 21
215.87859
 31
0.0
  0
LINE
  5
159
330
1E
100
AcDbEntity
  8
0
100
AcDbLine
 10
29.75
 20
215.6285899999999
 30
0.0
 11
29.75
 21
203.87859
 31
0.0
  0
LINE
  5
15C
330
1E
100
AcDbEntity
  8
0
100
AcDbLine
 10
29.654
 20
215.87859
 30
0.0
 11
29.75
 21
215.6285899999999
 31
0.0
  0
LINE
  5
15E
330
1E
100
AcDbEntity
  8
0
100
AcDbLine
 10
29.51
 20
215.87859
 30
0.0
 11
29.654
 21
215.87859
 31
0.0
  0
LINE
  5
160
330
1E
100
AcDbEntity
  8
0
100
AcDbLine
 10
29.12599999999999
 20
215.87859
 30
0.0
 11
29.51
 21
215.87859
 31
0.0
  0
LINE
  5
166
330
1E
100
AcDbEntity
  8
0
100
AcDbLine
 10
27.75
 20
198.043727931034
 30
0.0
 11
32.275
 21
197.4195899999999
 31
0.0
  0
LINE
  5
167
330
1E
100
AcDbEntity
  8
0
100
AcDbLine
 10
32.275
 20
197.4195899999999
 30
0.0
 11
38.42499999999999
 21
194.8695899999999
 31
0.0
  0
LINE
  5
168
330
1E
100
AcDbEntity
  8
0
100
AcDbLine
 10
19.7739
 20
194.9865899999999
 30
0.0
 11
23.75
 21
195.5408128711029
 31
0.0
  0
LINE
  5
169
330
1E
100
AcDbEntity
  8
0
100
AcDbLine
 10
14.2474
 20
192.7105899999999
 30
0.0
 11
19.7739
 21
194.9865899999999
 31
0.0
  0
LINE
  5
16A
330
1E
100
AcDbEntity
  8
0
100
AcDbLine
 10
9.55
 20
189.0195899999999
 30
0.0
 11
14.2474
 21
192.7105899999999
 31
0.0
  0
LINE
  5
16B
330
1E
100
AcDbEntity
  8
0
100
AcDbLine
 10
5.85876
 20
184.32259
 30
0.0
 11
9.55
 21
189.0195899999999
 31
0.0
  0
LINE
  5
16C
330
1E
100
AcDbEntity
  8
0
100
AcDbLine
 10
55.25
 20
182.3195899999999
 30
0.0
 11
57.25
 21
181.8195899999999
 31
0.0
  0
LINE
  5
16D
330
1E
100
AcDbEntity
  8
0
100
AcDbLine
 10
50.75
 20
182.3195899999999
 30
0.0
 11
55.25
 21
182.3195899999999
 31
0.0
  0
LINE
  5
16E
330
1E
100
AcDbEntity
  8
0
100
AcDbLine
 10
58.6433
 20
182.2755899999999
 30
0.0
 11
59.4468
 21
183.2375899999999
 31
0.0
  0
LINE
  5
16F
330
1E
100
AcDbEntity
  8
0
100
AcDbLine
 10
75.52150000000001
 20
144.45459
 30
0.0
 11
75.6722
 21
143.54259
 31
0.0
  0
LINE
  5
170
330
1E
100
AcDbEntity
  8
0
100
AcDbLine
 10
74.5744
 20
146.3205899999999
 30
0.0
 11
75.0419460739875
 21
145.617051674165
 31
0.0
  0
LINE
  5
171
330
1E
100
AcDbEntity
  8
0
100
AcDbLine
 10
73.9717
 20
147.09159
 30
0.0
 11
74.5744
 21
146.3205899999999
 31
0.0
  0
LINE
  5
172
330
1E
100
AcDbEntity
  8
0
100
AcDbLine
 10
73.28079999999999
 20
147.70559
 30
0.0
 11
73.9717
 21
147.09159
 31
0.0
  0
LINE
  5
173
330
1E
100
AcDbEntity
  8
0
100
AcDbLine
 10
71.6233
 20
148.7605899999999
 30
0.0
 11
72.4628
 21
148.3575899999999
 31
0.0
  0
LINE
  5
174
330
1E
100
AcDbEntity
  8
0
100
AcDbLine
 10
72.4628
 20
148.3575899999999
 30
0.0
 11
73.28079999999999
 21
147.70559
 31
0.0
  0
LINE
  5
175
330
1E
100
AcDbEntity
  8
0
100
AcDbLine
 10
70.6978
 20
149.0995899999999
 30
0.0
 11
71.6233
 21
148.7605899999999
 31
0.0
  0
LINE
  5
176
330
1E
100
AcDbEntity
  8
0
100
AcDbLine
 10
69.75069999999999
 20
149.31159
 30
0.0
 11
70.6978
 21
149.0995899999999
 31
0.0
  0
LINE
  5
177
330
1E
100
AcDbEntity
  8
0
100
AcDbLine
 10
68.75
 20
149.4045899999999
 30
0.0
 11
69.75069999999999
 21
149.31159
 31
0.0
  0
LINE
  5
178
330
1E
100
AcDbEntity
  8
0
100
AcDbLine
 10
75.1771
 20
145.3455899999999
 30
0.0
 11
75.52150000000001
 21
144.45459
 31
0.0
  0
LINE
  5
179
330
1E
100
AcDbEntity
  8
0
100
AcDbLine
 10
75.6722
 20
143.54259
 30
0.0
 11
75.75
 21
142.6845899999999
 31
0.0
  0
LINE
  5
17D
330
1E
100
AcDbEntity
  8
0
100
AcDbLine
 10
82.4337
 20
82.96889
 30
0.0
 11
86.05
 21
82.96989000000001
 31
0.0
  0
LINE
  5
17E
330
1E
100
AcDbEntity
  8
0
100
AcDbLine
 10
86.05
 20
82.96989000000001
 30
0.0
 11
87.05
 21
83.46839000000001
 31
0.0
  0
LINE
  5
181
330
1E
100
AcDbEntity
  8
0
100
AcDbLine
 10
81.41490000000001
 20
83.42709000000001
 30
0.0
 11
82.4337
 21
82.96889
 31
0.0
  0
LINE
  5
184
330
1E
100
AcDbEntity
  8
0
100
AcDbLine
 10
87.05
 20
83.46839000000001
 30
0.0
 11
87.55
 21
84.46469
 31
0.0
  0
LINE
  5
189
330
1E
100
AcDbEntity
  8
0
100
AcDbLine
 10
80.87609999999999
 20
84.40329
 30
0.0
 11
81.41490000000001
 21
83.42709000000001
 31
0.0
  0
LINE
  5
18C
330
1E
100
AcDbEntity
  8
0
100
AcDbLine
 10
80.86119999999999
 20
84.47349
 30
0.0
 11
80.87609999999999
 21
84.40329
 31
0.0
  0
LINE
  5
190
330
1E
100
AcDbEntity
  8
0
100
AcDbLine
 10
87.55
 20
84.46469
 30
0.0
 11
87.75
 21
85.95989000000001
 31
0.0
  0
LINE
  5
196
330
1E
100
AcDbEntity
  8
0
100
AcDbLine
 10
80.6046
 20
85.90619000000002
 30
0.0
 11
80.86119999999999
 21
84.47349
 31
0.0
  0
LINE
  5
197
330
1E
100
AcDbEntity
  8
0
100
AcDbLine
 10
80.578
 20
86.45678999999999
 30
0.0
 11
80.59409999999999
 21
86.10719000000001
 31
0.0
  0
LINE
  5
198
330
1E
100
AcDbEntity
  8
0
100
AcDbLine
 10
80.59409999999999
 20
86.10719000000001
 30
0.0
 11
80.6046
 21
85.90619000000002
 31
0.0
  0
LINE
  5
19D
330
1E
100
AcDbEntity
  8
0
100
AcDbLine
 10
80.4939
 20
88.46459000000001
 30
0.0
 11
80.578
 21
86.45678999999999
 31
0.0
  0
LINE
  5
1A0
330
1E
100
AcDbEntity
  8
0
100
AcDbLine
 10
80.41299999999999
 20
90.40079
 30
0.0
 11
80.4939
 21
88.46459000000001
 31
0.0
  0
LINE
  5
1A1
330
1E
100
AcDbEntity
  8
0
100
AcDbLine
 10
80.40689999999999
 20
90.89548999999999
 30
0.0
 11
80.41299999999999
 21
90.40079
 31
0.0
  0
LINE
  5
1A8
330
1E
100
AcDbEntity
  8
0
100
AcDbLine
 10
87.75
 20
87.73858999999999
 30
0.0
 11
87.75
 21
87.07109
 31
0.0
  0
LINE
  5
1A9
330
1E
100
AcDbEntity
  8
0
100
AcDbLine
 10
87.75
 20
88.65159
 30
0.0
 11
87.75
 21
88.34399000000001
 31
0.0
  0
LINE
  5
1AA
330
1E
100
AcDbEntity
  8
0
100
AcDbLine
 10
87.75
 20
87.73858999999999
 30
0.0
 11
87.75
 21
91.15689000000001
 31
0.0
  0
LINE
  5
1AF
330
1E
100
AcDbEntity
  8
0
100
AcDbLine
 10
87.75
 20
87.07109
 30
0.0
 11
87.75
 21
87.73858999999999
 31
0.0
  0
LINE
  5
1B0
330
1E
100
AcDbEntity
  8
0
100
AcDbLine
 10
87.75
 20
87.07109
 30
0.0
 11
87.75
 21
85.95989000000001
 31
0.0
  0
LINE
  5
1B3
330
1E
100
AcDbEntity
  8
0
100
AcDbLine
 10
87.75
 20
85.95989000000001
 30
0.0
 11
87.75
 21
87.07109
 31
0.0
  0
LINE
  5
1B5
330
1E
100
AcDbEntity
  8
0
100
AcDbLine
 10
80.3992
 20
91.51408999999999
 30
0.0
 11
80.40689999999999
 21
90.89548999999999
 31
0.0
  0
LINE
  5
1B6
330
1E
100
AcDbEntity
  8
0
100
AcDbLine
 10
80.38630000000001
 20
92.38379
 30
0.0
 11
80.3992
 21
91.51408999999999
 31
0.0
  0
LINE
  5
1BB
330
1E
100
AcDbEntity
  8
0
100
AcDbLine
 10
87.75
 20
91.15689000000001
 30
0.0
 11
87.75
 21
93.14709
 31
0.0
  0
LINE
  5
1BC
330
1E
100
AcDbEntity
  8
0
100
AcDbLine
 10
87.75
 20
93.14709
 30
0.0
 11
87.75
 21
91.15689000000001
 31
0.0
  0
LINE
  5
1BD
330
1E
100
AcDbEntity
  8
0
100
AcDbLine
 10
87.75
 20
144.4565899999999
 30
0.0
 11
87.75
 21
146.0715899999999
 31
0.0
  0
LINE
  5
1BE
330
1E
100
AcDbEntity
  8
0
100
AcDbLine
 10
87.75
 20
144.4565899999999
 30
0.0
 11
87.75
 21
93.14709
 31
0.0
  0
LINE
  5
1BF
330
1E
100
AcDbEntity
  8
0
100
AcDbLine
 10
87.75
 20
93.14709
 30
0.0
 11
87.75
 21
144.4565899999999
 31
0.0
  0
LINE
  5
1CB
330
1E
100
AcDbEntity
  8
0
100
AcDbLine
 10
78.86
 20
182.90759
 30
0.0
 11
80.83499999999999
 21
181.97959
 31
0.0
  0
LINE
  5
1CC
330
1E
100
AcDbEntity
  8
0
100
AcDbLine
 10
80.83499999999999
 20
181.97959
 30
0.0
 11
82.4657
 21
180.6725899999999
 31
0.0
  0
LINE
  5
1D0
330
1E
100
AcDbEntity
  8
0
100
AcDbLine
 10
82.4657
 20
180.6725899999999
 30
0.0
 11
82.6987
 21
180.42059
 31
0.0
  0
LINE
  5
1D5
330
1E
100
AcDbEntity
  8
0
100
AcDbLine
 10
82.6987
 20
180.42059
 30
0.0
 11
84.0802
 21
178.7965899999999
 31
0.0
  0
LINE
  5
1D6
330
1E
100
AcDbEntity
  8
0
100
AcDbLine
 10
84.0802
 20
178.7965899999999
 30
0.0
 11
85.17329999999999
 21
177.06659
 31
0.0
  0
LINE
  5
1D8
330
1E
100
AcDbEntity
  8
0
100
AcDbLine
 10
85.17329999999999
 20
177.06659
 30
0.0
 11
85.9797
 21
175.4415899999999
 31
0.0
  0
LINE
  5
1DA
330
1E
100
AcDbEntity
  8
0
100
AcDbLine
 10
85.9797
 20
175.4415899999999
 30
0.0
 11
86.6069
 21
173.74659
 31
0.0
  0
LINE
  5
1DE
330
1E
100
AcDbEntity
  8
0
100
AcDbLine
 10
86.6069
 20
173.74659
 30
0.0
 11
87.05490000000001
 21
172.1745899999999
 31
0.0
  0
LINE
  5
1DF
330
1E
100
AcDbEntity
  8
0
100
AcDbLine
 10
87.3595
 20
170.69159
 30
0.0
 11
87.61039999999999
 21
169.1735899999999
 31
0.0
  0
LINE
  5
1E0
330
1E
100
AcDbEntity
  8
0
100
AcDbLine
 10
87.05490000000001
 20
172.1745899999999
 30
0.0
 11
87.3595
 21
170.69159
 31
0.0
  0
LINE
  5
1E1
330
1E
100
AcDbEntity
  8
0
100
AcDbLine
 10
87.61039999999999
 20
169.1735899999999
 30
0.0
 11
87.71790000000001
 21
167.7255899999999
 31
0.0
  0
LINE
  5
1E4
330
1E
100
AcDbEntity
  8
0
100
AcDbLine
 10
87.75
 20
146.0715899999999
 30
0.0
 11
87.75
 21
147.8935899999999
 31
0.0
  0
LINE
  5
1E5
330
1E
100
AcDbEntity
  8
0
100
AcDbLine
 10
87.75
 20
146.0715899999999
 30
0.0
 11
87.75
 21
144.4565899999999
 31
0.0
  0
LINE
  5
1E6
330
1E
100
AcDbEntity
  8
0
100
AcDbLine
 10
87.75
 20
147.8935899999999
 30
0.0
 11
87.75
 21
149.7845899999999
 31
0.0
  0
LINE
  5
1E7
330
1E
100
AcDbEntity
  8
0
100
AcDbLine
 10
87.75
 20
147.8935899999999
 30
0.0
 11
87.75
 21
146.0715899999999
 31
0.0
  0
LINE
  5
1E8
330
1E
100
AcDbEntity
  8
0
100
AcDbLine
 10
87.75
 20
149.7845899999999
 30
0.0
 11
87.75
 21
151.73459
 31
0.0
  0
LINE
  5
1E9
330
1E
100
AcDbEntity
  8
0
100
AcDbLine
 10
87.75
 20
149.7845899999999
 30
0.0
 11
87.75
 21
147.8935899999999
 31
0.0
  0
LINE
  5
1EA
330
1E
100
AcDbEntity
  8
0
100
AcDbLine
 10
87.75
 20
151.73459
 30
0.0
 11
87.75
 21
153.9105899999999
 31
0.0
  0
LINE
  5
1EB
330
1E
100
AcDbEntity
  8
0
100
AcDbLine
 10
87.75
 20
151.73459
 30
0.0
 11
87.75
 21
149.7845899999999
 31
0.0
  0
LINE
  5
1EC
330
1E
100
AcDbEntity
  8
0
100
AcDbLine
 10
87.75
 20
153.9105899999999
 30
0.0
 11
87.75
 21
156.3635899999999
 31
0.0
  0
LINE
  5
1ED
330
1E
100
AcDbEntity
  8
0
100
AcDbLine
 10
87.75
 20
153.9105899999999
 30
0.0
 11
87.75
 21
151.73459
 31
0.0
  0
LINE
  5
1EE
330
1E
100
AcDbEntity
  8
0
100
AcDbLine
 10
87.75
 20
156.3635899999999
 30
0.0
 11
87.75
 21
158.9035899999999
 31
0.0
  0
LINE
  5
1EF
330
1E
100
AcDbEntity
  8
0
100
AcDbLine
 10
87.75
 20
156.3635899999999
 30
0.0
 11
87.75
 21
153.9105899999999
 31
0.0
  0
LINE
  5
1F0
330
1E
100
AcDbEntity
  8
0
100
AcDbLine
 10
87.75
 20
163.85759
 30
0.0
 11
87.75
 21
166.3195899999999
 31
0.0
  0
LINE
  5
1F1
330
1E
100
AcDbEntity
  8
0
100
AcDbLine
 10
87.75
 20
163.85759
 30
0.0
 11
87.75
 21
161.4935899999999
 31
0.0
  0
LINE
  5
1F2
330
1E
100
AcDbEntity
  8
0
100
AcDbLine
 10
87.75
 20
158.9035899999999
 30
0.0
 11
87.75
 21
161.4935899999999
 31
0.0
  0
LINE
  5
1F3
330
1E
100
AcDbEntity
  8
0
100
AcDbLine
 10
87.75
 20
158.9035899999999
 30
0.0
 11
87.75
 21
156.3635899999999
 31
0.0
  0
LINE
  5
1F4
330
1E
100
AcDbEntity
  8
0
100
AcDbLine
 10
87.75
 20
161.4935899999999
 30
0.0
 11
87.75
 21
163.85759
 31
0.0
  0
LINE
  5
1F5
330
1E
100
AcDbEntity
  8
0
100
AcDbLine
 10
87.75
 20
161.4935899999999
 30
0.0
 11
87.75
 21
158.9035899999999
 31
0.0
  0
LINE
  5
1F6
330
1E
100
AcDbEntity
  8
0
100
AcDbLine
 10
87.75
 20
166.3195899999999
 30
0.0
 11
87.75
 21
163.85759
 31
0.0
  0
LINE
  5
1F7
330
1E
100
AcDbEntity
  8
0
100
AcDbLine
 10
87.71790000000001
 20
167.7255899999999
 30
0.0
 11
87.75
 21
166.3195899999999
 31
0.0
  0
LINE
  5
1FF
330
1E
100
AcDbEntity
  8
0
100
AcDbLine
 10
76.75
 20
183.2345899999999
 30
0.0
 11
78.86
 21
182.90759
 31
0.0
  0
LINE
  5
200
330
1E
100
AcDbEntity
  8
0
100
AcDbLine
 10
59.4468
 20
183.2375899999999
 30
0.0
 11
76.75
 21
183.2345899999999
 31
0.0
  0
LINE
  5
205
330
1E
100
AcDbEntity
  8
0
  6
Continuous
100
AcDbLine
 10
7.75
 20
172.8195899999999
 30
0.0
 11
8.519396033731709
 21
177.745556462067
 31
0.0
  0
LINE
  5
206
330
1E
100
AcDbEntity
  8
0
  6
Continuous
100
AcDbLine
 10
8.519396033731709
 20
177.745556462067
 30
0.0
 11
10.69505474511447
 21
182.8808159801968
 31
0.0
  0
LINE
  5
207
330
1E
100
AcDbEntity
  8
0
  6
Continuous
100
AcDbLine
 10
10.69505474511447
 20
182.8808159801968
 30
0.0
 11
13.37991118015861
 21
186.1655318877753
 31
0.0
  0
LINE
  5
208
330
1E
100
AcDbEntity
  8
0
  6
Continuous
100
AcDbLine
 10
13.37991118015861
 20
186.1655318877753
 30
0.0
 11
16.52767292082671
 21
188.3861846250344
 31
0.0
  0
LINE
  5
209
330
1E
100
AcDbEntity
  8
0
  6
Continuous
100
AcDbLine
 10
16.52767292082671
 20
188.3861846250344
 30
0.0
 11
20.74011938106332
 21
189.8666201203716
 31
0.0
  0
LINE
  5
20A
330
1E
100
AcDbEntity
  8
0
  6
Continuous
100
AcDbLine
 10
20.74011938106332
 20
189.8666201203716
 30
0.0
 11
23.74900911060535
 21
190.1442013332188
 31
0.0
  0
LINE
  5
20B
330
1E
100
AcDbEntity
  8
0
  6
Continuous
100
AcDbLine
 10
23.74900911060535
 20
190.1442013332188
 30
0.0
 11
25.69321516917625
 21
190.1904650372756
 31
0.0
  0
LINE
  5
20C
330
1E
100
AcDbEntity
  8
0
  6
Continuous
100
AcDbLine
 10
25.69321516917625
 20
190.1904650372756
 30
0.0
 11
28.97984892097042
 21
189.9128833186815
 31
0.0
  0
LINE
  5
20D
330
1E
100
AcDbEntity
  8
0
  6
Continuous
100
AcDbLine
 10
28.97984892097042
 20
189.9128833186815
 30
0.0
 11
33.099714739521
 21
188.4787120331479
 31
0.0
  0
LINE
  5
20E
330
1E
100
AcDbEntity
  8
0
  6
Continuous
100
AcDbLine
 10
33.099714739521
 20
188.4787120331479
 30
0.0
 11
35.7382798051251
 21
186.905749635444
 31
0.0
  0
LINE
  5
20F
330
1E
100
AcDbEntity
  8
0
  6
Continuous
100
AcDbLine
 10
35.7382798051251
 20
186.905749635444
 30
0.0
 11
38.33055454988607
 21
184.5463057860144
 31
0.0
  0
LINE
  5
210
330
1E
100
AcDbEntity
  8
0
  6
Continuous
100
AcDbLine
 10
38.33055454988607
 20
184.5463057860144
 30
0.0
 11
39.81185425423564
 21
183.2509251069045
 31
0.0
  0
LINE
  5
211
330
1E
100
AcDbEntity
  8
0
  6
Continuous
100
AcDbLine
 10
39.81185425423564
 20
183.2509251069045
 30
0.0
 11
41.57089798083734
 21
180.613899538881
 31
0.0
  0
LINE
  5
212
330
1E
100
AcDbEntity
  8
0
  6
Continuous
100
AcDbLine
 10
41.57089798083734
 20
180.613899538881
 30
0.0
 11
43.19106969631298
 21
177.0053387143984
 31
0.0
  0
LINE
  5
213
330
1E
100
AcDbEntity
  8
0
  6
Continuous
100
AcDbLine
 10
43.19106969631298
 20
177.0053387143984
 30
0.0
 11
43.75
 21
172.8195899999999
 31
0.0
  0
LINE
  5
214
330
1E
100
AcDbEntity
  8
0
  6
Continuous
100
AcDbLine
 10
75.75
 20
142.6845899999999
 30
0.0
 11
80.38630000000001
 21
92.38379
 31
0.0
  0
ENDSEC
  0
SECTION
  2
OBJECTS
  0
DICTIONARY
  5
C
330
0
100
AcDbDictionary
281
     1
  3
ACAD_GROUP
350
D
  3
ACAD_LAYOUT
350
19
  3
ACAD_MLINESTYLE
350
16
  3
ACAD_PLOTSETTINGS
350
18
  3
ACAD_PLOTSTYLENAME
350
E
  3
AcDbVariableDictionary
350
216
  0
DICTIONARY
  5
D
102
{ACAD_REACTORS
330
C
102
}
330
C
100
AcDbDictionary
281
     1
  0
DICTIONARY
  5
19
102
{ACAD_REACTORS
330
C
102
}
330
C
100
AcDbDictionary
281
     1
  3
Layout1
350
1D
  3
Model
350
21
  0
DICTIONARY
  5
16
102
{ACAD_REACTORS
330
C
102
}
330
C
100
AcDbDictionary
281
     1
  3
Standard
350
17
  0
DICTIONARY
  5
18
102
{ACAD_REACTORS
330
C
102
}
330
C
100
AcDbDictionary
281
     1
  0
ACDBDICTIONARYWDFLT
  5
E
102
{ACAD_REACTORS
330
C
102
}
330
C
100
AcDbDictionary
281
     1
  3
Normal
350
F
100
AcDbDictionaryWithDefault
340
F
  0
DICTIONARY
  5
216
102
{ACAD_REACTORS
330
C
102
}
330
C
100
AcDbDictionary
281
     1
  3
DIMASSOC
350
217
  0
LAYOUT
  5
1D
102
{ACAD_REACTORS
330
19
102
}
330
19
100
AcDbPlotSettings
  1

  2
C:\Programme\AutoCAD LT 2002 Deu\plotters\DWF ePlot (optimized for plotting).pc3
  4

  6

 40
0.0
 41
0.0
 42
0.0
 43
0.0
 44
0.0
 45
0.0
 46
0.0
 47
0.0
 48
0.0
 49
0.0
140
0.0
141
0.0
142
1.0
143
1.0
 70
   688
 72
     0
 73
     0
 74
     5
  7

 75
    16
147
1.0
148
0.0
149
0.0
100
AcDbLayout
  1
Layout1
 70
     1
 71
     1
 10
0.0
 20
0.0
 11
12.0
 21
9.0
 12
0.0
 22
0.0
 32
0.0
 14
1.000000000000000E+20
 24
1.000000000000000E+20
 34
1.000000000000000E+20
 15
-1.000000000000000E+20
 25
-1.000000000000000E+20
 35
-1.000000000000000E+20
146
0.0
 13
0.0
 23
0.0
 33
0.0
 16
1.0
 26
0.0
 36
0.0
 17
0.0
 27
1.0
 37
0.0
 76
     0
330
1A
  0
LAYOUT
  5
21
102
{ACAD_REACTORS
330
19
102
}
330
19
100
AcDbPlotSettings
  1

  2
C:\Programme\AutoCAD LT 2002 Deu\plotters\DWF ePlot (optimized for plotting).pc3
  4

  6

 40
0.0
 41
0.0
 42
0.0
 43
0.0
 44
0.0
 45
0.0
 46
0.0
 47
0.0
 48
0.0
 49
0.0
140
0.0
141
0.0
142
1.0
143
1.0
 70
  1712
 72
     0
 73
     0
 74
     0
  7

 75
     0
147
1.0
148
0.0
149
0.0
100
AcDbLayout
  1
Model
 70
     1
 71
     0
 10
0.0
 20
0.0
 11
12.0
 21
9.0
 12
0.0
 22
0.0
 32
0.0
 14
0.0
 24
0.0
 34
0.0
 15
0.0
 25
0.0
 35
0.0
146
0.0
 13
0.0
 23
0.0
 33
0.0
 16
1.0
 26
0.0
 36
0.0
 17
0.0
 27
1.0
 37
0.0
 76
     0
330
1E
  0
MLINESTYLE
  5
17
102
{ACAD_REACTORS
330
16
102
}
330
16
100
AcDbMlineStyle
  2
STANDARD
 70
     0
  3

 62
   256
 51
90.0
 52
90.0
 71
     2
 49
0.5
 62
   256
  6
BYLAYER
 49
-0.5
 62
   256
  6
BYLAYER
  0
ACDBPLACEHOLDER
  5
F
102
{ACAD_REACTORS
330
E
102
}
330
E
  0
DICTIONARYVAR
  5
217
102
{ACAD_REACTORS
330
216
102
}
330
216
100
DictionaryVariables
280
     0
  1
1
  0
ENDSEC
  0
EOF
