  0
SECTION
  2
HEADER
  9
$ACADVER
  1
AC1014
  9
$ACADMAINTVER
 70
     9
  9
$DWGCODEPAGE
  3
ANSI_1252
  9
$INSBASE
 10
0.0
 20
0.0
 30
0.0
  9
$EXTMIN
 10
-0.0000000000000048
 20
-0.0000000000000147
 30
0.0
  9
$EXTMAX
 10
150.0
 20
330.0
 30
0.0
  9
$LIMMIN
 10
0.0
 20
0.0
  9
$LIMMAX
 10
12.0
 20
9.0
  9
$ORTHOMODE
 70
     0
  9
$REGENMODE
 70
     1
  9
$FILLMODE
 70
     1
  9
$QTEXTMODE
 70
     0
  9
$MIRRTEXT
 70
     1
  9
$DRAGMODE
 70
     2
  9
$LTSCALE
 40
1.0
  9
$OSMODE
 70
    37
  9
$ATTMODE
 70
     1
  9
$TEXTSIZE
 40
0.2
  9
$TRACEWID
 40
0.05
  9
$TEXTSTYLE
  7
STANDARD
  9
$CLAYER
  8
0
  9
$CELTYPE
  6
CONTINUOUS
  9
$CECOLOR
 62
   256
  9
$CELTSCALE
 40
1.0
  9
$DELOBJ
 70
     1
  9
$DISPSILH
 70
     0
  9
$DIMSCALE
 40
1.0
  9
$DIMASZ
 40
0.18
  9
$DIMEXO
 40
0.0625
  9
$DIMDLI
 40
0.38
  9
$DIMRND
 40
0.0
  9
$DIMDLE
 40
0.0
  9
$DIMEXE
 40
0.18
  9
$DIMTP
 40
0.0
  9
$DIMTM
 40
0.0
  9
$DIMTXT
 40
0.18
  9
$DIMCEN
 40
0.09
  9
$DIMTSZ
 40
0.0
  9
$DIMTOL
 70
     0
  9
$DIMLIM
 70
     0
  9
$DIMTIH
 70
     1
  9
$DIMTOH
 70
     1
  9
$DIMSE1
 70
     0
  9
$DIMSE2
 70
     0
  9
$DIMTAD
 70
     0
  9
$DIMZIN
 70
     0
  9
$DIMBLK
  1

  9
$DIMASO
 70
     1
  9
$DIMSHO
 70
     1
  9
$DIMPOST
  1

  9
$DIMAPOST
  1

  9
$DIMALT
 70
     0
  9
$DIMALTD
 70
     2
  9
$DIMALTF
 40
25.4
  9
$DIMLFAC
 40
1.0
  9
$DIMTOFL
 70
     0
  9
$DIMTVP
 40
0.0
  9
$DIMTIX
 70
     0
  9
$DIMSOXD
 70
     0
  9
$DIMSAH
 70
     0
  9
$DIMBLK1
  1

  9
$DIMBLK2
  1

  9
$DIMSTYLE
  2
STANDARD
  9
$DIMCLRD
 70
     0
  9
$DIMCLRE
 70
     0
  9
$DIMCLRT
 70
     0
  9
$DIMTFAC
 40
1.0
  9
$DIMGAP
 40
0.09
  9
$DIMJUST
 70
     0
  9
$DIMSD1
 70
     0
  9
$DIMSD2
 70
     0
  9
$DIMTOLJ
 70
     1
  9
$DIMTZIN
 70
     0
  9
$DIMALTZ
 70
     0
  9
$DIMALTTZ
 70
     0
  9
$DIMFIT
 70
     3
  9
$DIMUPT
 70
     0
  9
$DIMUNIT
 70
     2
  9
$DIMDEC
 70
     4
  9
$DIMTDEC
 70
     4
  9
$DIMALTU
 70
     2
  9
$DIMALTTD
 70
     2
  9
$DIMTXSTY
  7
STANDARD
  9
$DIMAUNIT
 70
     0
  9
$LUNITS
 70
     2
  9
$LUPREC
 70
     4
  9
$SKETCHINC
 40
0.1
  9
$FILLETRAD
 40
0.0
  9
$AUNITS
 70
     0
  9
$AUPREC
 70
     0
  9
$MENU
  1
.
  9
$ELEVATION
 40
0.0
  9
$PELEVATION
 40
0.0
  9
$THICKNESS
 40
0.0
  9
$LIMCHECK
 70
     0
  9
$BLIPMODE
 70
     0
  9
$CHAMFERA
 40
0.0
  9
$CHAMFERB
 40
0.0
  9
$CHAMFERC
 40
0.0
  9
$CHAMFERD
 40
0.0
  9
$SKPOLY
 70
     0
  9
$TDCREATE
 40
2454691.844882812
  9
$TDUPDATE
 40
2454691.846730324
  9
$TDINDWG
 40
0.0018476968
  9
$TDUSRTIMER
 40
0.0018476968
  9
$USRTIMER
 70
     1
  9
$ANGBASE
 50
0.0
  9
$ANGDIR
 70
     0
  9
$PDMODE
 70
     0
  9
$PDSIZE
 40
0.0
  9
$PLINEWID
 40
0.0
  9
$COORDS
 70
     1
  9
$SPLFRAME
 70
     0
  9
$SPLINETYPE
 70
     6
  9
$SPLINESEGS
 70
     8
  9
$ATTDIA
 70
     0
  9
$ATTREQ
 70
     1
  9
$HANDLING
 70
 22529
  9
$HANDSEED
  5
249
  9
$SURFTAB1
 70
     6
  9
$SURFTAB2
 70
     6
  9
$SURFTYPE
 70
     6
  9
$SURFU
 70
     6
  9
$SURFV
 70
     6
  9
$UCSNAME
  2

  9
$UCSORG
 10
0.0
 20
0.0
 30
0.0
  9
$UCSXDIR
 10
1.0
 20
0.0
 30
0.0
  9
$UCSYDIR
 10
0.0
 20
1.0
 30
0.0
  9
$PUCSNAME
  2

  9
$PUCSORG
 10
0.0
 20
0.0
 30
0.0
  9
$PUCSXDIR
 10
1.0
 20
0.0
 30
0.0
  9
$PUCSYDIR
 10
0.0
 20
1.0
 30
0.0
  9
$USERI1
 70
     0
  9
$USERI2
 70
     0
  9
$USERI3
 70
     0
  9
$USERI4
 70
     0
  9
$USERI5
 70
     0
  9
$USERR1
 40
0.0
  9
$USERR2
 40
0.0
  9
$USERR3
 40
0.0
  9
$USERR4
 40
0.0
  9
$USERR5
 40
0.0
  9
$WORLDVIEW
 70
     1
  9
$SHADEDGE
 70
     3
  9
$SHADEDIF
 70
    70
  9
$TILEMODE
 70
     1
  9
$MAXACTVP
 70
    64
  9
$PINSBASE
 10
0.0
 20
0.0
 30
0.0
  9
$PLIMCHECK
 70
     0
  9
$PEXTMIN
 10
1.000000000000000E+20
 20
1.000000000000000E+20
 30
1.000000000000000E+20
  9
$PEXTMAX
 10
-1.000000000000000E+20
 20
-1.000000000000000E+20
 30
-1.000000000000000E+20
  9
$PLIMMIN
 10
0.0
 20
0.0
  9
$PLIMMAX
 10
12.0
 20
9.0
  9
$UNITMODE
 70
     0
  9
$VISRETAIN
 70
     1
  9
$PLINEGEN
 70
     0
  9
$PSLTSCALE
 70
     1
  9
$TREEDEPTH
 70
  3020
  9
$PICKSTYLE
 70
     1
  9
$CMLSTYLE
  2
STANDARD
  9
$CMLJUST
 70
     0
  9
$CMLSCALE
 40
1.0
  9
$PROXYGRAPHICS
 70
     1
  9
$MEASUREMENT
 70
     0
  0
ENDSEC
  0
SECTION
  2
CLASSES
  0
CLASS
  1
ACDBDICTIONARYWDFLT
  2
AcDbDictionaryWithDefault
  3
AutoCAD 2000
 90
        0
280
     0
281
     0
  0
CLASS
  1
ACDBPLACEHOLDER
  2
AcDbPlaceHolder
  3
AutoCAD 2000
 90
        0
280
     0
281
     0
  0
CLASS
  1
LAYOUT
  2
AcDbLayout
  3
AutoCAD 2000
 90
        0
280
     0
281
     0
  0
CLASS
  1
DICTIONARYVAR
  2
AcDbDictionaryVar
  3
AutoCAD 2000
 90
        0
280
     0
281
     0
  0
CLASS
  1
LONG_TRANSACTION
  2
AcDbLongTransaction
  3
AutoCAD 2000
 90
        0
280
     0
281
     0
  0
CLASS
  1
LWPOLYLINE
  2
AcDbPolyline
  3
AutoCAD 2000
 90
        0
280
     0
281
     1
  0
CLASS
  1
HATCH
  2
AcDbHatch
  3
AutoCAD 2000
 90
        0
280
     0
281
     1
  0
CLASS
  1
XRECORD
  2
AcDbXrecord
  3
AutoCAD 2000
 90
        0
280
     0
281
     0
  0
ENDSEC
  0
SECTION
  2
TABLES
  0
TABLE
  2
VPORT
  5
8
330
0
100
AcDbSymbolTable
 70
     2
  0
VPORT
  5
224
330
8
100
AcDbSymbolTableRecord
100
AcDbViewportTableRecord
  2
*ACTIVE
 70
     0
 10
0.0
 20
0.0
 11
1.0
 21
1.0
 12
75.0
 22
164.9999999999999
 13
0.0
 23
0.0
 14
1.0
 24
1.0
 15
0.0
 25
0.0
 16
0.0
 26
0.0
 36
1.0
 17
0.0
 27
0.0
 37
0.0
 40
332.5319693094629
 41
2.078104993597951
 42
50.0
 43
0.0
 44
0.0
 50
0.0
 51
0.0
 71
     0
 72
   100
 73
     1
 74
     3
 75
     0
 76
     0
 77
     0
 78
     0
  0
ENDTAB
  0
TABLE
  2
LTYPE
  5
5
330
0
100
AcDbSymbolTable
 70
     1
  0
LTYPE
  5
13
330
5
100
AcDbSymbolTableRecord
100
AcDbLinetypeTableRecord
  2
BYBLOCK
 70
     0
  3

 72
    65
 73
     0
 40
0.0
  0
LTYPE
  5
14
330
5
100
AcDbSymbolTableRecord
100
AcDbLinetypeTableRecord
  2
BYLAYER
 70
     0
  3

 72
    65
 73
     0
 40
0.0
  0
LTYPE
  5
15
330
5
100
AcDbSymbolTableRecord
100
AcDbLinetypeTableRecord
  2
CONTINUOUS
 70
     0
  3
Solid line
 72
    65
 73
     0
 40
0.0
  0
ENDTAB
  0
TABLE
  2
LAYER
  5
2
330
0
100
AcDbSymbolTable
 70
     1
  0
LAYER
  5
10
330
2
100
AcDbSymbolTableRecord
100
AcDbLayerTableRecord
  2
0
 70
     0
 62
     7
  6
CONTINUOUS
  0
ENDTAB
  0
TABLE
  2
STYLE
  5
3
330
0
100
AcDbSymbolTable
 70
     1
  0
STYLE
  5
11
330
3
100
AcDbSymbolTableRecord
100
AcDbTextStyleTableRecord
  2
STANDARD
 70
     0
 40
0.0
 41
1.0
 50
0.0
 71
     0
 42
0.2
  3
txt
  4

  0
ENDTAB
  0
TABLE
  2
VIEW
  5
6
330
0
100
AcDbSymbolTable
 70
     0
  0
ENDTAB
  0
TABLE
  2
UCS
  5
7
330
0
100
AcDbSymbolTable
 70
     0
  0
ENDTAB
  0
TABLE
  2
APPID
  5
9
330
0
100
AcDbSymbolTable
 70
     1
  0
APPID
  5
12
330
9
100
AcDbSymbolTableRecord
100
AcDbRegAppTableRecord
  2
ACAD
 70
     0
  0
ENDTAB
  0
TABLE
  2
DIMSTYLE
  5
A
330
0
100
AcDbSymbolTable
 70
     1
  0
DIMSTYLE
105
21E
330
A
100
AcDbSymbolTableRecord
100
AcDbDimStyleTableRecord
  2
STANDARD
 70
     0
  3

  4

  5

  6

  7

 40
1.0
 41
0.18
 42
0.0625
 43
0.38
 44
0.18
 45
0.0
 46
0.0
 47
0.0
 48
0.0
140
0.18
141
0.09
142
0.0
143
25.4
144
1.0
145
0.0
146
1.0
147
0.09
 71
     0
 72
     0
 73
     1
 74
     1
 75
     0
 76
     0
 77
     0
 78
     0
170
     0
171
     2
172
     0
173
     0
174
     0
175
     0
176
     0
177
     0
178
     0
270
     2
271
     4
272
     4
273
     2
274
     2
340
11
275
     0
280
     0
281
     0
282
     0
283
     1
284
     0
285
     0
286
     0
287
     3
288
     0
  0
ENDTAB
  0
TABLE
  2
BLOCK_RECORD
  5
1
330
0
100
AcDbSymbolTable
 70
     0
  0
BLOCK_RECORD
  5
1E
102
{ACAD_XDICTIONARY
360
247
102
}
330
1
100
AcDbSymbolTableRecord
100
AcDbBlockTableRecord
  2
*MODEL_SPACE
  0
BLOCK_RECORD
  5
1A
102
{ACAD_XDICTIONARY
360
245
102
}
330
1
100
AcDbSymbolTableRecord
100
AcDbBlockTableRecord
  2
*PAPER_SPACE
  0
ENDTAB
  0
ENDSEC
  0
SECTION
  2
BLOCKS
  0
BLOCK
  5
1F
330
1E
100
AcDbEntity
  8
0
100
AcDbBlockBegin
  2
*MODEL_SPACE
 70
     0
 10
0.0
 20
0.0
 30
0.0
  3
*MODEL_SPACE
  1

  0
ENDBLK
  5
20
330
1E
100
AcDbEntity
  8
0
100
AcDbBlockEnd
  0
BLOCK
  5
1B
330
1A
100
AcDbEntity
 67
     1
  8
0
100
AcDbBlockBegin
  2
*PAPER_SPACE
 70
     0
 10
0.0
 20
0.0
 30
0.0
  3
*PAPER_SPACE
  1

  0
ENDBLK
  5
1C
330
1A
100
AcDbEntity
 67
     1
  8
0
100
AcDbBlockEnd
  0
ENDSEC
  0
SECTION
  2
ENTITIES
  0
LINE
  5
22
330
1E
100
AcDbEntity
  8
0
100
AcDbLine
 10
0.5769229999999991
 20
62.0
 30
0.0
 11
39.42309999999999
 21
62.0
 31
0.0
  0
LINE
  5
23
330
1E
100
AcDbEntity
  8
0
100
AcDbLine
 10
0.576922999999995
 20
62.0
 30
0.0
 11
39.42309999999999
 21
62.0
 31
0.0
  0
LINE
  5
24
330
1E
100
AcDbEntity
  8
0
100
AcDbLine
 10
40.12599999999999
 20
62.0
 30
0.0
 11
40.874
 21
62.0
 31
0.0
  0
LINE
  5
25
330
1E
100
AcDbEntity
  8
0
100
AcDbLine
 10
40.12599999999999
 20
62.0
 30
0.0
 11
40.12599999999999
 21
62.50399999999999
 31
0.0
  0
LINE
  5
26
330
1E
100
AcDbEntity
  8
0
100
AcDbLine
 10
40.874
 20
62.0
 30
0.0
 11
41.0
 21
62.336
 31
0.0
  0
LINE
  5
27
330
1E
100
AcDbEntity
  8
0
100
AcDbLine
 10
40.874
 20
62.0
 30
0.0
 11
40.874
 21
62.50399999999999
 31
0.0
  0
LINE
  5
28
330
1E
100
AcDbEntity
  8
0
100
AcDbLine
 10
41.5769
 20
62.0
 30
0.0
 11
59.0
 21
62.0
 31
0.0
  0
LINE
  5
29
330
1E
100
AcDbEntity
  8
0
100
AcDbLine
 10
39.42309999999999
 20
62.0
 30
0.0
 11
40.0
 21
62.336
 31
0.0
  0
LINE
  5
2A
330
1E
100
AcDbEntity
  8
0
100
AcDbLine
 10
53.0
 20
3.99999999999999
 30
0.0
 11
53.792
 21
3.99999999999999
 31
0.0
  0
LINE
  5
2B
330
1E
100
AcDbEntity
  8
0
100
AcDbLine
 10
53.0
 20
3.99999999999999
 30
0.0
 11
53.0
 21
-0.0000000000000132
 31
0.0
  0
LINE
  5
2C
330
1E
100
AcDbEntity
  8
0
100
AcDbLine
 10
55.90399999999999
 20
-0.000000000000014
 30
0.0
 11
59.424
 21
-0.0000000000000143
 31
0.0
  0
LINE
  5
2D
330
1E
100
AcDbEntity
  8
0
100
AcDbLine
 10
53.792
 20
-0.0000000000000137
 30
0.0
 11
55.90399999999999
 21
-0.000000000000014
 31
0.0
  0
LINE
  5
2E
330
1E
100
AcDbEntity
  8
0
100
AcDbLine
 10
55.90399999999999
 20
3.99999999999999
 30
0.0
 11
59.424
 21
3.99999999999999
 31
0.0
  0
LINE
  5
2F
330
1E
100
AcDbEntity
  8
0
100
AcDbLine
 10
53.792
 20
3.99999999999999
 30
0.0
 11
55.90399999999999
 21
3.99999999999999
 31
0.0
  0
LINE
  5
30
330
1E
100
AcDbEntity
  8
0
100
AcDbLine
 10
59.0
 20
3.99999999999999
 30
0.0
 11
59.0
 21
62.0
 31
0.0
  0
LINE
  5
31
330
1E
100
AcDbEntity
  8
0
100
AcDbLine
 10
55.90399999999999
 20
-0.0000000000000127
 30
0.0
 11
59.424
 21
-0.0000000000000124
 31
0.0
  0
LINE
  5
32
330
1E
100
AcDbEntity
  8
0
100
AcDbLine
 10
53.792
 20
-0.000000000000013
 30
0.0
 11
55.90399999999999
 21
-0.0000000000000127
 31
0.0
  0
LINE
  5
33
330
1E
100
AcDbEntity
  8
0
100
AcDbLine
 10
53.0
 20
-0.0000000000000133
 30
0.0
 11
53.792
 21
-0.000000000000013
 31
0.0
  0
LINE
  5
34
330
1E
100
AcDbEntity
  8
0
100
AcDbLine
 10
53.0
 20
-0.0000000000000133
 30
0.0
 11
53.0
 21
3.99999999999999
 31
0.0
  0
LINE
  5
35
330
1E
100
AcDbEntity
  8
0
100
AcDbLine
 10
53.0
 20
-0.0000000000000133
 30
0.0
 11
53.792
 21
-0.0000000000000137
 31
0.0
  0
LINE
  5
36
330
1E
100
AcDbEntity
  8
0
100
AcDbLine
 10
-0.0000000000000048
 20
62.84
 30
0.0
 11
-0.0000000000000048
 21
62.336
 31
0.0
  0
LINE
  5
37
330
1E
100
AcDbEntity
  8
0
100
AcDbLine
 10
-0.0000000000000048
 20
62.84
 30
0.0
 11
-0.0000000000000048
 21
64.184
 31
0.0
  0
LINE
  5
38
330
1E
100
AcDbEntity
  8
0
100
AcDbLine
 10
-0.0000000000000048
 20
62.336
 30
0.0
 11
0.576922999999995
 21
62.0
 31
0.0
  0
LINE
  5
39
330
1E
100
AcDbEntity
  8
0
100
AcDbLine
 10
-0.0000000000000048
 20
62.336
 30
0.0
 11
-0.0000000000000048
 21
62.84
 31
0.0
  0
LINE
  5
3A
330
1E
100
AcDbEntity
  8
0
100
AcDbLine
 10
40.12599999999999
 20
62.50399999999999
 30
0.0
 11
40.12599999999999
 21
62.0
 31
0.0
  0
LINE
  5
3B
330
1E
100
AcDbEntity
  8
0
100
AcDbLine
 10
40.12599999999999
 20
62.50399999999999
 30
0.0
 11
40.12599999999999
 21
63.848
 31
0.0
  0
LINE
  5
3C
330
1E
100
AcDbEntity
  8
0
100
AcDbLine
 10
40.874
 20
62.50399999999999
 30
0.0
 11
40.874
 21
62.0
 31
0.0
  0
LINE
  5
3D
330
1E
100
AcDbEntity
  8
0
100
AcDbLine
 10
40.874
 20
62.50399999999999
 30
0.0
 11
40.874
 21
63.848
 31
0.0
  0
LINE
  5
3E
330
1E
100
AcDbEntity
  8
0
100
AcDbLine
 10
41.0
 20
62.84
 30
0.0
 11
41.0
 21
62.336
 31
0.0
  0
LINE
  5
3F
330
1E
100
AcDbEntity
  8
0
100
AcDbLine
 10
41.0
 20
62.84
 30
0.0
 11
41.0
 21
64.184
 31
0.0
  0
LINE
  5
40
330
1E
100
AcDbEntity
  8
0
100
AcDbLine
 10
41.0
 20
62.336
 30
0.0
 11
41.5769
 21
62.0
 31
0.0
  0
LINE
  5
41
330
1E
100
AcDbEntity
  8
0
100
AcDbLine
 10
41.0
 20
62.336
 30
0.0
 11
41.0
 21
62.84
 31
0.0
  0
LINE
  5
42
330
1E
100
AcDbEntity
  8
0
100
AcDbLine
 10
40.0
 20
62.336
 30
0.0
 11
40.0
 21
62.84
 31
0.0
  0
LINE
  5
43
330
1E
100
AcDbEntity
  8
0
100
AcDbLine
 10
40.0
 20
62.336
 30
0.0
 11
40.12599999999999
 21
62.0
 31
0.0
  0
LINE
  5
44
330
1E
100
AcDbEntity
  8
0
100
AcDbLine
 10
-0.0000000000000048
 20
66.368
 30
0.0
 11
-0.0000000000000048
 21
64.184
 31
0.0
  0
LINE
  5
45
330
1E
100
AcDbEntity
  8
0
100
AcDbLine
 10
-0.0000000000000048
 20
66.368
 30
0.0
 11
-0.0000000000000048
 21
69.22399999999999
 31
0.0
  0
LINE
  5
46
330
1E
100
AcDbEntity
  8
0
100
AcDbLine
 10
-0.0000000000000048
 20
64.184
 30
0.0
 11
-0.0000000000000048
 21
62.84
 31
0.0
  0
LINE
  5
47
330
1E
100
AcDbEntity
  8
0
100
AcDbLine
 10
-0.0000000000000048
 20
64.184
 30
0.0
 11
-0.0000000000000048
 21
66.368
 31
0.0
  0
LINE
  5
48
330
1E
100
AcDbEntity
  8
0
100
AcDbLine
 10
-0.0000000000000048
 20
72.47199999999999
 30
0.0
 11
-0.0000000000000048
 21
69.22399999999999
 31
0.0
  0
LINE
  5
49
330
1E
100
AcDbEntity
  8
0
100
AcDbLine
 10
-0.0000000000000048
 20
72.47199999999999
 30
0.0
 11
-0.0000000000000048
 21
76.0
 31
0.0
  0
LINE
  5
4A
330
1E
100
AcDbEntity
  8
0
100
AcDbLine
 10
-0.0000000000000048
 20
69.22399999999999
 30
0.0
 11
-0.0000000000000048
 21
66.368
 31
0.0
  0
LINE
  5
4B
330
1E
100
AcDbEntity
  8
0
100
AcDbLine
 10
-0.0000000000000048
 20
69.22399999999999
 30
0.0
 11
-0.0000000000000048
 21
72.47199999999999
 31
0.0
  0
LINE
  5
4C
330
1E
100
AcDbEntity
  8
0
100
AcDbLine
 10
-0.0000000000000048
 20
79.528
 30
0.0
 11
-0.0000000000000048
 21
82.77600000000001
 31
0.0
  0
LINE
  5
4D
330
1E
100
AcDbEntity
  8
0
100
AcDbLine
 10
-0.0000000000000048
 20
79.528
 30
0.0
 11
-0.0000000000000048
 21
76.0
 31
0.0
  0
LINE
  5
4E
330
1E
100
AcDbEntity
  8
0
100
AcDbLine
 10
-0.0000000000000048
 20
79.528
 30
0.0
 11
-0.0000000000000048
 21
76.0
 31
0.0
  0
LINE
  5
4F
330
1E
100
AcDbEntity
  8
0
100
AcDbLine
 10
-0.0000000000000048
 20
79.528
 30
0.0
 11
-0.0000000000000048
 21
82.77600000000001
 31
0.0
  0
LINE
  5
50
330
1E
100
AcDbEntity
  8
0
100
AcDbLine
 10
-0.0000000000000048
 20
85.632
 30
0.0
 11
-0.0000000000000048
 21
87.816
 31
0.0
  0
LINE
  5
51
330
1E
100
AcDbEntity
  8
0
100
AcDbLine
 10
-0.0000000000000048
 20
85.632
 30
0.0
 11
-0.0000000000000048
 21
82.77600000000001
 31
0.0
  0
LINE
  5
52
330
1E
100
AcDbEntity
  8
0
100
AcDbLine
 10
-0.0000000000000048
 20
82.77600000000001
 30
0.0
 11
-0.0000000000000048
 21
79.528
 31
0.0
  0
LINE
  5
53
330
1E
100
AcDbEntity
  8
0
100
AcDbLine
 10
-0.0000000000000048
 20
82.77600000000001
 30
0.0
 11
-0.0000000000000048
 21
85.632
 31
0.0
  0
LINE
  5
54
330
1E
100
AcDbEntity
  8
0
100
AcDbLine
 10
-0.0000000000000048
 20
82.77600000000001
 30
0.0
 11
-0.0000000000000048
 21
85.632
 31
0.0
  0
LINE
  5
55
330
1E
100
AcDbEntity
  8
0
100
AcDbLine
 10
-0.0000000000000048
 20
82.77600000000001
 30
0.0
 11
-0.0000000000000048
 21
79.528
 31
0.0
  0
LINE
  5
56
330
1E
100
AcDbEntity
  8
0
100
AcDbLine
 10
-0.0000000000000048
 20
85.632
 30
0.0
 11
-0.0000000000000048
 21
82.77600000000001
 31
0.0
  0
LINE
  5
57
330
1E
100
AcDbEntity
  8
0
100
AcDbLine
 10
-0.0000000000000048
 20
85.632
 30
0.0
 11
-0.0000000000000048
 21
87.816
 31
0.0
  0
LINE
  5
58
330
1E
100
AcDbEntity
  8
0
100
AcDbLine
 10
-0.0000000000000048
 20
87.816
 30
0.0
 11
-0.0000000000000048
 21
85.632
 31
0.0
  0
LINE
  5
59
330
1E
100
AcDbEntity
  8
0
100
AcDbLine
 10
-0.0000000000000048
 20
87.816
 30
0.0
 11
-0.0000000000000048
 21
89.16
 31
0.0
  0
LINE
  5
5A
330
1E
100
AcDbEntity
  8
0
100
AcDbLine
 10
-0.0000000000000048
 20
87.816
 30
0.0
 11
-0.0000000000000048
 21
85.632
 31
0.0
  0
LINE
  5
5B
330
1E
100
AcDbEntity
  8
0
100
AcDbLine
 10
-0.0000000000000048
 20
89.16
 30
0.0
 11
-0.0000000000000048
 21
87.816
 31
0.0
  0
LINE
  5
5C
330
1E
100
AcDbEntity
  8
0
100
AcDbLine
 10
-0.0000000000000048
 20
89.16
 30
0.0
 11
-0.0000000000000048
 21
89.664
 31
0.0
  0
LINE
  5
5D
330
1E
100
AcDbEntity
  8
0
100
AcDbLine
 10
0.576922999999995
 20
90.0
 30
0.0
 11
39.42309999999999
 21
90.0
 31
0.0
  0
LINE
  5
5E
330
1E
100
AcDbEntity
  8
0
100
AcDbLine
 10
-0.0000000000000048
 20
89.664
 30
0.0
 11
-0.0000000000000048
 21
89.16
 31
0.0
  0
LINE
  5
5F
330
1E
100
AcDbEntity
  8
0
100
AcDbLine
 10
-0.0000000000000048
 20
89.664
 30
0.0
 11
0.576922999999995
 21
90.0
 31
0.0
  0
LINE
  5
60
330
1E
100
AcDbEntity
  8
0
100
AcDbLine
 10
40.0
 20
79.528
 30
0.0
 11
40.0
 21
76.0
 31
0.0
  0
LINE
  5
61
330
1E
100
AcDbEntity
  8
0
100
AcDbLine
 10
40.0
 20
79.528
 30
0.0
 11
40.0
 21
82.77600000000001
 31
0.0
  0
LINE
  5
62
330
1E
100
AcDbEntity
  8
0
100
AcDbLine
 10
40.0
 20
82.77600000000001
 30
0.0
 11
40.0
 21
79.528
 31
0.0
  0
LINE
  5
63
330
1E
100
AcDbEntity
  8
0
100
AcDbLine
 10
40.0
 20
82.77600000000001
 30
0.0
 11
40.0
 21
85.632
 31
0.0
  0
LINE
  5
64
330
1E
100
AcDbEntity
  8
0
100
AcDbLine
 10
40.0
 20
85.632
 30
0.0
 11
40.0
 21
82.77600000000001
 31
0.0
  0
LINE
  5
65
330
1E
100
AcDbEntity
  8
0
100
AcDbLine
 10
40.0
 20
85.632
 30
0.0
 11
40.0
 21
87.816
 31
0.0
  0
LINE
  5
66
330
1E
100
AcDbEntity
  8
0
100
AcDbLine
 10
40.0
 20
87.816
 30
0.0
 11
40.0
 21
85.632
 31
0.0
  0
LINE
  5
67
330
1E
100
AcDbEntity
  8
0
100
AcDbLine
 10
40.0
 20
87.816
 30
0.0
 11
40.0
 21
89.16
 31
0.0
  0
LINE
  5
68
330
1E
100
AcDbEntity
  8
0
100
AcDbLine
 10
40.0
 20
89.16
 30
0.0
 11
40.0
 21
87.816
 31
0.0
  0
LINE
  5
69
330
1E
100
AcDbEntity
  8
0
100
AcDbLine
 10
40.0
 20
89.16
 30
0.0
 11
40.0
 21
89.664
 31
0.0
  0
LINE
  5
6A
330
1E
100
AcDbEntity
  8
0
100
AcDbLine
 10
40.0
 20
89.664
 30
0.0
 11
40.0
 21
89.16
 31
0.0
  0
LINE
  5
6B
330
1E
100
AcDbEntity
  8
0
100
AcDbLine
 10
40.0
 20
89.664
 30
0.0
 11
40.12599999999999
 21
90.0
 31
0.0
  0
LINE
  5
6C
330
1E
100
AcDbEntity
  8
0
100
AcDbLine
 10
39.42309999999999
 20
90.0
 30
0.0
 11
40.0
 21
89.664
 31
0.0
  0
LINE
  5
6D
330
1E
100
AcDbEntity
  8
0
100
AcDbLine
 10
0.5769229999999991
 20
90.0
 30
0.0
 11
39.42309999999999
 21
90.0
 31
0.0
  0
LINE
  5
6E
330
1E
100
AcDbEntity
  8
0
100
AcDbLine
 10
-0.0000000000000048
 20
76.0
 30
0.0
 11
-0.0000000000000048
 21
72.47199999999999
 31
0.0
  0
LINE
  5
6F
330
1E
100
AcDbEntity
  8
0
100
AcDbLine
 10
-0.0000000000000048
 20
76.0
 30
0.0
 11
-0.0000000000000048
 21
79.528
 31
0.0
  0
LINE
  5
70
330
1E
100
AcDbEntity
  8
0
100
AcDbLine
 10
-0.0000000000000048
 20
76.0
 30
0.0
 11
-0.0000000000000048
 21
79.528
 31
0.0
  0
LINE
  5
71
330
1E
100
AcDbEntity
  8
0
100
AcDbLine
 10
40.0
 20
76.0
 30
0.0
 11
40.0
 21
72.47199999999999
 31
0.0
  0
LINE
  5
72
330
1E
100
AcDbEntity
  8
0
100
AcDbLine
 10
40.0
 20
76.0
 30
0.0
 11
40.0
 21
79.528
 31
0.0
  0
LINE
  5
73
330
1E
100
AcDbEntity
  8
0
100
AcDbLine
 10
40.0
 20
72.47199999999999
 30
0.0
 11
40.0
 21
69.22399999999999
 31
0.0
  0
LINE
  5
74
330
1E
100
AcDbEntity
  8
0
100
AcDbLine
 10
40.0
 20
72.47199999999999
 30
0.0
 11
40.0
 21
76.0
 31
0.0
  0
LINE
  5
75
330
1E
100
AcDbEntity
  8
0
100
AcDbLine
 10
40.0
 20
69.22399999999999
 30
0.0
 11
40.0
 21
66.368
 31
0.0
  0
LINE
  5
76
330
1E
100
AcDbEntity
  8
0
100
AcDbLine
 10
40.0
 20
69.22399999999999
 30
0.0
 11
40.0
 21
72.47199999999999
 31
0.0
  0
LINE
  5
77
330
1E
100
AcDbEntity
  8
0
100
AcDbLine
 10
40.0
 20
66.368
 30
0.0
 11
40.0
 21
64.184
 31
0.0
  0
LINE
  5
78
330
1E
100
AcDbEntity
  8
0
100
AcDbLine
 10
40.0
 20
66.368
 30
0.0
 11
40.0
 21
69.22399999999999
 31
0.0
  0
LINE
  5
79
330
1E
100
AcDbEntity
  8
0
100
AcDbLine
 10
40.12599999999999
 20
63.848
 30
0.0
 11
40.12599999999999
 21
62.50399999999999
 31
0.0
  0
LINE
  5
7A
330
1E
100
AcDbEntity
  8
0
100
AcDbLine
 10
40.12599999999999
 20
63.848
 30
0.0
 11
40.12599999999999
 21
66.08800000000001
 31
0.0
  0
LINE
  5
7B
330
1E
100
AcDbEntity
  8
0
100
AcDbLine
 10
40.874
 20
63.848
 30
0.0
 11
40.874
 21
62.50399999999999
 31
0.0
  0
LINE
  5
7C
330
1E
100
AcDbEntity
  8
0
100
AcDbLine
 10
40.874
 20
63.848
 30
0.0
 11
40.874
 21
66.08800000000001
 31
0.0
  0
LINE
  5
7D
330
1E
100
AcDbEntity
  8
0
100
AcDbLine
 10
40.12599999999999
 20
69.05599999999999
 30
0.0
 11
40.12599999999999
 21
66.08800000000001
 31
0.0
  0
LINE
  5
7E
330
1E
100
AcDbEntity
  8
0
100
AcDbLine
 10
40.12599999999999
 20
69.05599999999999
 30
0.0
 11
40.12599999999999
 21
72.416
 31
0.0
  0
LINE
  5
7F
330
1E
100
AcDbEntity
  8
0
100
AcDbLine
 10
40.12599999999999
 20
66.08800000000001
 30
0.0
 11
40.12599999999999
 21
63.848
 31
0.0
  0
LINE
  5
80
330
1E
100
AcDbEntity
  8
0
100
AcDbLine
 10
40.12599999999999
 20
66.08800000000001
 30
0.0
 11
40.12599999999999
 21
69.05599999999999
 31
0.0
  0
LINE
  5
81
330
1E
100
AcDbEntity
  8
0
100
AcDbLine
 10
40.874
 20
69.05599999999999
 30
0.0
 11
40.874
 21
66.08800000000001
 31
0.0
  0
LINE
  5
82
330
1E
100
AcDbEntity
  8
0
100
AcDbLine
 10
40.874
 20
69.05599999999999
 30
0.0
 11
40.874
 21
72.416
 31
0.0
  0
LINE
  5
83
330
1E
100
AcDbEntity
  8
0
100
AcDbLine
 10
40.874
 20
66.08800000000001
 30
0.0
 11
40.874
 21
63.848
 31
0.0
  0
LINE
  5
84
330
1E
100
AcDbEntity
  8
0
100
AcDbLine
 10
40.874
 20
66.08800000000001
 30
0.0
 11
40.874
 21
69.05599999999999
 31
0.0
  0
LINE
  5
85
330
1E
100
AcDbEntity
  8
0
100
AcDbLine
 10
40.12599999999999
 20
76.0
 30
0.0
 11
40.12599999999999
 21
72.416
 31
0.0
  0
LINE
  5
86
330
1E
100
AcDbEntity
  8
0
100
AcDbLine
 10
40.12599999999999
 20
76.0
 30
0.0
 11
40.12599999999999
 21
79.58400000000001
 31
0.0
  0
LINE
  5
87
330
1E
100
AcDbEntity
  8
0
100
AcDbLine
 10
40.12599999999999
 20
72.416
 30
0.0
 11
40.12599999999999
 21
69.05599999999999
 31
0.0
  0
LINE
  5
88
330
1E
100
AcDbEntity
  8
0
100
AcDbLine
 10
40.12599999999999
 20
72.416
 30
0.0
 11
40.12599999999999
 21
76.0
 31
0.0
  0
LINE
  5
89
330
1E
100
AcDbEntity
  8
0
100
AcDbLine
 10
40.874
 20
76.0
 30
0.0
 11
40.874
 21
72.416
 31
0.0
  0
LINE
  5
8A
330
1E
100
AcDbEntity
  8
0
100
AcDbLine
 10
40.874
 20
76.0
 30
0.0
 11
40.874
 21
79.58400000000001
 31
0.0
  0
LINE
  5
8B
330
1E
100
AcDbEntity
  8
0
100
AcDbLine
 10
40.874
 20
72.416
 30
0.0
 11
40.874
 21
69.05599999999999
 31
0.0
  0
LINE
  5
8C
330
1E
100
AcDbEntity
  8
0
100
AcDbLine
 10
40.874
 20
72.416
 30
0.0
 11
40.874
 21
76.0
 31
0.0
  0
LINE
  5
8D
330
1E
100
AcDbEntity
  8
0
100
AcDbLine
 10
40.12599999999999
 20
79.58400000000001
 30
0.0
 11
40.12599999999999
 21
76.0
 31
0.0
  0
LINE
  5
8E
330
1E
100
AcDbEntity
  8
0
100
AcDbLine
 10
40.12599999999999
 20
79.58400000000001
 30
0.0
 11
40.12599999999999
 21
82.94400000000001
 31
0.0
  0
LINE
  5
8F
330
1E
100
AcDbEntity
  8
0
100
AcDbLine
 10
40.874
 20
79.58400000000001
 30
0.0
 11
40.874
 21
82.94400000000001
 31
0.0
  0
LINE
  5
90
330
1E
100
AcDbEntity
  8
0
100
AcDbLine
 10
40.874
 20
79.58400000000001
 30
0.0
 11
40.874
 21
76.0
 31
0.0
  0
LINE
  5
91
330
1E
100
AcDbEntity
  8
0
100
AcDbLine
 10
40.12599999999999
 20
82.94400000000001
 30
0.0
 11
40.12599999999999
 21
79.58400000000001
 31
0.0
  0
LINE
  5
92
330
1E
100
AcDbEntity
  8
0
100
AcDbLine
 10
40.12599999999999
 20
82.94400000000001
 30
0.0
 11
40.12599999999999
 21
85.912
 31
0.0
  0
LINE
  5
93
330
1E
100
AcDbEntity
  8
0
100
AcDbLine
 10
40.874
 20
82.94400000000001
 30
0.0
 11
40.874
 21
85.912
 31
0.0
  0
LINE
  5
94
330
1E
100
AcDbEntity
  8
0
100
AcDbLine
 10
40.874
 20
82.94400000000001
 30
0.0
 11
40.874
 21
79.58400000000001
 31
0.0
  0
LINE
  5
95
330
1E
100
AcDbEntity
  8
0
100
AcDbLine
 10
41.0
 20
79.528
 30
0.0
 11
41.0
 21
76.0
 31
0.0
  0
LINE
  5
96
330
1E
100
AcDbEntity
  8
0
100
AcDbLine
 10
41.0
 20
79.528
 30
0.0
 11
41.0
 21
82.77600000000001
 31
0.0
  0
LINE
  5
97
330
1E
100
AcDbEntity
  8
0
100
AcDbLine
 10
41.0
 20
82.77600000000001
 30
0.0
 11
41.0
 21
79.528
 31
0.0
  0
LINE
  5
98
330
1E
100
AcDbEntity
  8
0
100
AcDbLine
 10
41.0
 20
82.77600000000001
 30
0.0
 11
41.0
 21
85.632
 31
0.0
  0
LINE
  5
99
330
1E
100
AcDbEntity
  8
0
100
AcDbLine
 10
40.12599999999999
 20
85.912
 30
0.0
 11
40.12599999999999
 21
82.94400000000001
 31
0.0
  0
LINE
  5
9A
330
1E
100
AcDbEntity
  8
0
100
AcDbLine
 10
40.12599999999999
 20
85.912
 30
0.0
 11
40.12599999999999
 21
88.152
 31
0.0
  0
LINE
  5
9B
330
1E
100
AcDbEntity
  8
0
100
AcDbLine
 10
40.12599999999999
 20
88.152
 30
0.0
 11
40.12599999999999
 21
85.912
 31
0.0
  0
LINE
  5
9C
330
1E
100
AcDbEntity
  8
0
100
AcDbLine
 10
40.12599999999999
 20
88.152
 30
0.0
 11
40.12599999999999
 21
89.49600000000001
 31
0.0
  0
LINE
  5
9D
330
1E
100
AcDbEntity
  8
0
100
AcDbLine
 10
40.874
 20
85.912
 30
0.0
 11
40.874
 21
88.152
 31
0.0
  0
LINE
  5
9E
330
1E
100
AcDbEntity
  8
0
100
AcDbLine
 10
40.874
 20
85.912
 30
0.0
 11
40.874
 21
82.94400000000001
 31
0.0
  0
LINE
  5
9F
330
1E
100
AcDbEntity
  8
0
100
AcDbLine
 10
40.874
 20
88.152
 30
0.0
 11
40.874
 21
89.49600000000001
 31
0.0
  0
LINE
  5
A0
330
1E
100
AcDbEntity
  8
0
100
AcDbLine
 10
40.874
 20
88.152
 30
0.0
 11
40.874
 21
85.912
 31
0.0
  0
LINE
  5
A1
330
1E
100
AcDbEntity
  8
0
100
AcDbLine
 10
41.0
 20
85.632
 30
0.0
 11
41.0
 21
82.77600000000001
 31
0.0
  0
LINE
  5
A2
330
1E
100
AcDbEntity
  8
0
100
AcDbLine
 10
41.0
 20
85.632
 30
0.0
 11
41.0
 21
87.816
 31
0.0
  0
LINE
  5
A3
330
1E
100
AcDbEntity
  8
0
100
AcDbLine
 10
41.0
 20
87.816
 30
0.0
 11
41.0
 21
85.632
 31
0.0
  0
LINE
  5
A4
330
1E
100
AcDbEntity
  8
0
100
AcDbLine
 10
41.0
 20
87.816
 30
0.0
 11
41.0
 21
89.16
 31
0.0
  0
LINE
  5
A5
330
1E
100
AcDbEntity
  8
0
100
AcDbLine
 10
40.12599999999999
 20
89.49600000000001
 30
0.0
 11
40.12599999999999
 21
88.152
 31
0.0
  0
LINE
  5
A6
330
1E
100
AcDbEntity
  8
0
100
AcDbLine
 10
40.12599999999999
 20
89.49600000000001
 30
0.0
 11
40.12599999999999
 21
90.0
 31
0.0
  0
LINE
  5
A7
330
1E
100
AcDbEntity
  8
0
100
AcDbLine
 10
40.874
 20
90.0
 30
0.0
 11
41.0
 21
89.664
 31
0.0
  0
LINE
  5
A8
330
1E
100
AcDbEntity
  8
0
100
AcDbLine
 10
40.874
 20
90.0
 30
0.0
 11
40.874
 21
89.49600000000001
 31
0.0
  0
LINE
  5
A9
330
1E
100
AcDbEntity
  8
0
100
AcDbLine
 10
40.874
 20
89.49600000000001
 30
0.0
 11
40.874
 21
90.0
 31
0.0
  0
LINE
  5
AA
330
1E
100
AcDbEntity
  8
0
100
AcDbLine
 10
40.874
 20
89.49600000000001
 30
0.0
 11
40.874
 21
88.152
 31
0.0
  0
LINE
  5
AB
330
1E
100
AcDbEntity
  8
0
100
AcDbLine
 10
40.12599999999999
 20
90.0
 30
0.0
 11
40.874
 21
90.0
 31
0.0
  0
LINE
  5
AC
330
1E
100
AcDbEntity
  8
0
100
AcDbLine
 10
40.12599999999999
 20
90.0
 30
0.0
 11
40.12599999999999
 21
89.49600000000001
 31
0.0
  0
LINE
  5
AD
330
1E
100
AcDbEntity
  8
0
100
AcDbLine
 10
41.0
 20
89.16
 30
0.0
 11
41.0
 21
87.816
 31
0.0
  0
LINE
  5
AE
330
1E
100
AcDbEntity
  8
0
100
AcDbLine
 10
41.0
 20
89.16
 30
0.0
 11
41.0
 21
89.664
 31
0.0
  0
LINE
  5
AF
330
1E
100
AcDbEntity
  8
0
100
AcDbLine
 10
41.0
 20
89.664
 30
0.0
 11
41.5769
 21
90.0
 31
0.0
  0
LINE
  5
B0
330
1E
100
AcDbEntity
  8
0
100
AcDbLine
 10
41.0
 20
89.664
 30
0.0
 11
41.0
 21
89.16
 31
0.0
  0
LINE
  5
B1
330
1E
100
AcDbEntity
  8
0
100
AcDbLine
 10
41.0
 20
76.0
 30
0.0
 11
41.0
 21
72.47199999999999
 31
0.0
  0
LINE
  5
B2
330
1E
100
AcDbEntity
  8
0
100
AcDbLine
 10
41.0
 20
76.0
 30
0.0
 11
41.0
 21
79.528
 31
0.0
  0
LINE
  5
B3
330
1E
100
AcDbEntity
  8
0
100
AcDbLine
 10
41.0
 20
72.47199999999999
 30
0.0
 11
41.0
 21
69.22399999999999
 31
0.0
  0
LINE
  5
B4
330
1E
100
AcDbEntity
  8
0
100
AcDbLine
 10
41.0
 20
72.47199999999999
 30
0.0
 11
41.0
 21
76.0
 31
0.0
  0
LINE
  5
B5
330
1E
100
AcDbEntity
  8
0
100
AcDbLine
 10
41.0
 20
69.22399999999999
 30
0.0
 11
41.0
 21
66.368
 31
0.0
  0
LINE
  5
B6
330
1E
100
AcDbEntity
  8
0
100
AcDbLine
 10
41.0
 20
69.22399999999999
 30
0.0
 11
41.0
 21
72.47199999999999
 31
0.0
  0
LINE
  5
B7
330
1E
100
AcDbEntity
  8
0
100
AcDbLine
 10
41.5769
 20
90.0
 30
0.0
 11
59.0
 21
90.0
 31
0.0
  0
LINE
  5
B8
330
1E
100
AcDbEntity
  8
0
100
AcDbLine
 10
41.0
 20
66.368
 30
0.0
 11
41.0
 21
64.184
 31
0.0
  0
LINE
  5
B9
330
1E
100
AcDbEntity
  8
0
100
AcDbLine
 10
41.0
 20
66.368
 30
0.0
 11
41.0
 21
69.22399999999999
 31
0.0
  0
LINE
  5
BA
330
1E
100
AcDbEntity
  8
0
100
AcDbLine
 10
41.0
 20
64.184
 30
0.0
 11
41.0
 21
62.84
 31
0.0
  0
LINE
  5
BB
330
1E
100
AcDbEntity
  8
0
100
AcDbLine
 10
41.0
 20
64.184
 30
0.0
 11
41.0
 21
66.368
 31
0.0
  0
LINE
  5
BC
330
1E
100
AcDbEntity
  8
0
100
AcDbLine
 10
40.0
 20
64.184
 30
0.0
 11
40.0
 21
62.84
 31
0.0
  0
LINE
  5
BD
330
1E
100
AcDbEntity
  8
0
100
AcDbLine
 10
40.0
 20
64.184
 30
0.0
 11
40.0
 21
66.368
 31
0.0
  0
LINE
  5
BE
330
1E
100
AcDbEntity
  8
0
100
AcDbLine
 10
40.0
 20
62.84
 30
0.0
 11
40.0
 21
62.336
 31
0.0
  0
LINE
  5
BF
330
1E
100
AcDbEntity
  8
0
100
AcDbLine
 10
40.0
 20
62.84
 30
0.0
 11
40.0
 21
64.184
 31
0.0
  0
LINE
  5
C0
330
1E
100
AcDbEntity
  8
0
100
AcDbLine
 10
59.0
 20
90.0
 30
0.0
 11
59.0
 21
109.3329999999999
 31
0.0
  0
LINE
  5
C1
330
1E
100
AcDbEntity
  8
0
100
AcDbLine
 10
59.0
 20
62.0
 30
0.0
 11
59.0
 21
3.99999999999999
 31
0.0
  0
LINE
  5
C2
330
1E
100
AcDbEntity
  8
0
100
AcDbLine
 10
59.424
 20
-0.0000000000000143
 30
0.0
 11
64.08800000000001
 21
-0.0000000000000145
 31
0.0
  0
LINE
  5
C3
330
1E
100
AcDbEntity
  8
0
100
AcDbLine
 10
59.424
 20
3.99999999999999
 30
0.0
 11
64.08800000000001
 21
3.99999999999999
 31
0.0
  0
LINE
  5
C4
330
1E
100
AcDbEntity
  8
0
100
AcDbLine
 10
59.424
 20
-0.0000000000000124
 30
0.0
 11
64.08800000000001
 21
-0.0000000000000122
 31
0.0
  0
LINE
  5
C5
330
1E
100
AcDbEntity
  8
0
100
AcDbLine
 10
59.0
 20
109.3329999999999
 30
0.0
 11
59.0
 21
90.0
 31
0.0
  0
LINE
  5
C6
330
1E
100
AcDbEntity
  8
0
100
AcDbLine
 10
59.0
 20
109.3329999999999
 30
0.0
 11
59.6095
 21
109.3329999999999
 31
0.0
  0
LINE
  5
C7
330
1E
100
AcDbEntity
  8
0
100
AcDbLine
 10
59.0
 20
109.3329999999999
 30
0.0
 11
59.76189999999999
 21
110.0
 31
0.0
  0
LINE
  5
C8
330
1E
100
AcDbEntity
  8
0
100
AcDbLine
 10
59.6095
 20
109.3329999999999
 30
0.0
 11
61.1333
 21
109.3329999999999
 31
0.0
  0
LINE
  5
C9
330
1E
100
AcDbEntity
  8
0
100
AcDbLine
 10
64.08800000000001
 20
-0.0000000000000145
 30
0.0
 11
69.36799999999999
 21
-0.0000000000000146
 31
0.0
  0
LINE
  5
CA
330
1E
100
AcDbEntity
  8
0
100
AcDbLine
 10
64.08800000000001
 20
3.99999999999999
 30
0.0
 11
69.36799999999999
 21
3.99999999999999
 31
0.0
  0
LINE
  5
CB
330
1E
100
AcDbEntity
  8
0
100
AcDbLine
 10
64.08800000000001
 20
-0.0000000000000122
 30
0.0
 11
69.36799999999999
 21
-0.000000000000012
 31
0.0
  0
LINE
  5
CC
330
1E
100
AcDbEntity
  8
0
100
AcDbLine
 10
61.1333
 20
109.3329999999999
 30
0.0
 11
63.72379999999999
 21
109.3329999999999
 31
0.0
  0
LINE
  5
CD
330
1E
100
AcDbEntity
  8
0
100
AcDbLine
 10
59.76189999999999
 20
110.0
 30
0.0
 11
60.2952
 21
110.0
 31
0.0
  0
LINE
  5
CE
330
1E
100
AcDbEntity
  8
0
100
AcDbLine
 10
64.0
 20
110.0
 30
0.0
 11
64.0
 21
214.5
 31
0.0
  0
LINE
  5
CF
330
1E
100
AcDbEntity
  8
0
100
AcDbLine
 10
60.2952
 20
110.0
 30
0.0
 11
61.81899999999999
 21
110.0
 31
0.0
  0
LINE
  5
D0
330
1E
100
AcDbEntity
  8
0
100
AcDbLine
 10
64.0
 20
214.5
 30
0.0
 11
64.0
 21
228.14
 31
0.0
  0
LINE
  5
D1
330
1E
100
AcDbEntity
  8
0
100
AcDbLine
 10
64.0
 20
214.5
 30
0.0
 11
64.0
 21
110.0
 31
0.0
  0
LINE
  5
D2
330
1E
100
AcDbEntity
  8
0
100
AcDbLine
 10
61.81899999999999
 20
110.0
 30
0.0
 11
64.25709999999999
 21
110.0
 31
0.0
  0
LINE
  5
D3
330
1E
100
AcDbEntity
  8
0
100
AcDbLine
 10
64.25709999999999
 20
110.0
 30
0.0
 11
67.45709999999999
 21
110.0
 31
0.0
  0
LINE
  5
D4
330
1E
100
AcDbEntity
  8
0
100
AcDbLine
 10
63.72379999999999
 20
109.3329999999999
 30
0.0
 11
67.0762
 21
109.3329999999999
 31
0.0
  0
LINE
  5
D5
330
1E
100
AcDbEntity
  8
0
100
AcDbLine
 10
64.40000000000001
 20
225.042
 30
0.0
 11
64.90000000000001
 21
224.567
 31
0.0
  0
LINE
  5
D6
330
1E
100
AcDbEntity
  8
0
100
AcDbLine
 10
64.40000000000001
 20
225.042
 30
0.0
 11
64.4918110236221
 21
225.00285511811
 31
0.0
  0
LINE
  5
D7
330
1E
100
AcDbEntity
  8
0
100
AcDbLine
 10
64.0
 20
228.14
 30
0.0
 11
64.0
 21
214.5
 31
0.0
  0
LINE
  5
D8
330
1E
100
AcDbEntity
  8
0
100
AcDbLine
 10
64.0
 20
228.14
 30
0.0
 11
64.0
 21
241.547
 31
0.0
  0
LINE
  5
D9
330
1E
100
AcDbEntity
  8
0
100
AcDbLine
 10
64.0
 20
241.547
 30
0.0
 11
64.0
 21
254.49
 31
0.0
  0
LINE
  5
DA
330
1E
100
AcDbEntity
  8
0
100
AcDbLine
 10
64.0
 20
241.547
 30
0.0
 11
64.0
 21
236.262
 31
0.0
  0
LINE
  5
DB
330
1E
100
AcDbEntity
  8
0
100
AcDbLine
 10
64.0
 20
315.439
 30
0.0
 11
64.0
 21
311.045
 31
0.0
  0
LINE
  5
DC
330
1E
100
AcDbEntity
  8
0
100
AcDbLine
 10
64.0
 20
315.439
 30
0.0
 11
64.0
 21
318.1059999999999
 31
0.0
  0
LINE
  5
DD
330
1E
100
AcDbEntity
  8
0
100
AcDbLine
 10
64.0
 20
318.1059999999999
 30
0.0
 11
64.0
 21
319.0
 31
0.0
  0
LINE
  5
DE
330
1E
100
AcDbEntity
  8
0
100
AcDbLine
 10
64.0
 20
318.1059999999999
 30
0.0
 11
64.0
 21
315.439
 31
0.0
  0
LINE
  5
DF
330
1E
100
AcDbEntity
  8
0
100
AcDbLine
 10
64.0
 20
319.0
 30
0.0
 11
64.0
 21
318.1059999999999
 31
0.0
  0
LINE
  5
E0
330
1E
100
AcDbEntity
  8
0
100
AcDbLine
 10
64.0
 20
319.0
 30
0.0
 11
64.396
 21
321.8159999999999
 31
0.0
  0
LINE
  5
E1
330
1E
100
AcDbEntity
  8
0
100
AcDbLine
 10
64.0
 20
311.045
 30
0.0
 11
64.0
 21
305.0
 31
0.0
  0
LINE
  5
E2
330
1E
100
AcDbEntity
  8
0
100
AcDbLine
 10
64.0
 20
311.045
 30
0.0
 11
64.0
 21
315.439
 31
0.0
  0
LINE
  5
E3
330
1E
100
AcDbEntity
  8
0
100
AcDbLine
 10
64.0
 20
297.4049999999999
 30
0.0
 11
64.0
 21
305.0
 31
0.0
  0
LINE
  5
E4
330
1E
100
AcDbEntity
  8
0
100
AcDbLine
 10
64.0
 20
297.4049999999999
 30
0.0
 11
64.0
 21
288.3929999999999
 31
0.0
  0
LINE
  5
E5
330
1E
100
AcDbEntity
  8
0
100
AcDbLine
 10
64.0
 20
305.0
 30
0.0
 11
64.0
 21
297.4049999999999
 31
0.0
  0
LINE
  5
E6
330
1E
100
AcDbEntity
  8
0
100
AcDbLine
 10
64.0
 20
305.0
 30
0.0
 11
64.0
 21
311.045
 31
0.0
  0
LINE
  5
E7
330
1E
100
AcDbEntity
  8
0
100
AcDbLine
 10
64.0
 20
278.1159999999999
 30
0.0
 11
64.0
 21
288.3929999999999
 31
0.0
  0
LINE
  5
E8
330
1E
100
AcDbEntity
  8
0
100
AcDbLine
 10
64.0
 20
278.1159999999999
 30
0.0
 11
64.0
 21
266.7499999999999
 31
0.0
  0
LINE
  5
E9
330
1E
100
AcDbEntity
  8
0
100
AcDbLine
 10
64.0
 20
288.3929999999999
 30
0.0
 11
64.0
 21
278.1159999999999
 31
0.0
  0
LINE
  5
EA
330
1E
100
AcDbEntity
  8
0
100
AcDbLine
 10
64.0
 20
288.3929999999999
 30
0.0
 11
64.0
 21
297.4049999999999
 31
0.0
  0
LINE
  5
EB
330
1E
100
AcDbEntity
  8
0
100
AcDbLine
 10
64.0
 20
266.7499999999999
 30
0.0
 11
64.0
 21
254.49
 31
0.0
  0
LINE
  5
EC
330
1E
100
AcDbEntity
  8
0
100
AcDbLine
 10
64.0
 20
266.7499999999999
 30
0.0
 11
64.0
 21
278.1159999999999
 31
0.0
  0
LINE
  5
ED
330
1E
100
AcDbEntity
  8
0
100
AcDbLine
 10
64.396
 20
321.8159999999999
 30
0.0
 11
65.452
 21
324.4559999999999
 31
0.0
  0
LINE
  5
EE
330
1E
100
AcDbEntity
  8
0
100
AcDbLine
 10
64.0
 20
254.49
 30
0.0
 11
64.0
 21
241.547
 31
0.0
  0
LINE
  5
EF
330
1E
100
AcDbEntity
  8
0
100
AcDbLine
 10
64.0
 20
254.49
 30
0.0
 11
64.0
 21
266.7499999999999
 31
0.0
  0
LINE
  5
F0
330
1E
100
AcDbEntity
  8
0
100
AcDbLine
 10
64.0
 20
254.49
 30
0.0
 11
64.0
 21
241.547
 31
0.0
  0
LINE
  5
F1
330
1E
100
AcDbEntity
  8
0
100
AcDbLine
 10
64.0
 20
241.547
 30
0.0
 11
64.0
 21
228.14
 31
0.0
  0
LINE
  5
F2
330
1E
100
AcDbEntity
  8
0
100
AcDbLine
 10
64.0
 20
241.547
 30
0.0
 11
64.0
 21
254.49
 31
0.0
  0
LINE
  5
F3
330
1E
100
AcDbEntity
  8
0
100
AcDbLine
 10
64.40000000000001
 20
236.749
 30
0.0
 11
65.5
 21
237.217
 31
0.0
  0
LINE
  5
F4
330
1E
100
AcDbEntity
  8
0
100
AcDbLine
 10
64.0
 20
236.262
 30
0.0
 11
64.40000000000001
 21
236.749
 31
0.0
  0
LINE
  5
F5
330
1E
100
AcDbEntity
  8
0
100
AcDbLine
 10
64.0
 20
236.262
 30
0.0
 11
64.1617283950617
 21
236.0654999999999
 31
0.0
  0
LINE
  5
F6
330
1E
100
AcDbEntity
  8
0
100
AcDbLine
 10
64.0
 20
236.262
 30
0.0
 11
64.0
 21
241.547
 31
0.0
  0
LINE
  5
F7
330
1E
100
AcDbEntity
  8
0
100
AcDbLine
 10
64.40000000000001
 20
236.355
 30
0.0
 11
65.5
 21
236.824
 31
0.0
  0
LINE
  5
F8
330
1E
100
AcDbEntity
  8
0
100
AcDbLine
 10
64.0
 20
235.869
 30
0.0
 11
64.0
 21
225.5279999999999
 31
0.0
  0
LINE
  5
F9
330
1E
100
AcDbEntity
  8
0
100
AcDbLine
 10
64.0
 20
235.869
 30
0.0
 11
64.40000000000001
 21
236.355
 31
0.0
  0
LINE
  5
FA
330
1E
100
AcDbEntity
  8
0
100
AcDbLine
 10
64.40000000000001
 20
226.014
 30
0.0
 11
65.5
 21
226.4829999999999
 31
0.0
  0
LINE
  5
FB
330
1E
100
AcDbEntity
  8
0
100
AcDbLine
 10
64.0
 20
225.5279999999999
 30
0.0
 11
64.40000000000001
 21
226.014
 31
0.0
  0
LINE
  5
FC
330
1E
100
AcDbEntity
  8
0
100
AcDbLine
 10
64.0
 20
225.5279999999999
 30
0.0
 11
64.40000000000001
 21
225.042
 31
0.0
  0
LINE
  5
FD
330
1E
100
AcDbEntity
  8
0
100
AcDbLine
 10
64.0
 20
225.5279999999999
 30
0.0
 11
64.0
 21
235.869
 31
0.0
  0
LINE
  5
FE
330
1E
100
AcDbEntity
  8
0
100
AcDbLine
 10
67.45709999999999
 20
110.0
 30
0.0
 11
71.1143
 21
110.0
 31
0.0
  0
LINE
  5
FF
330
1E
100
AcDbEntity
  8
0
100
AcDbLine
 10
67.0762
 20
109.3329999999999
 30
0.0
 11
70.8857
 21
109.3329999999999
 31
0.0
  0
LINE
  5
100
330
1E
100
AcDbEntity
  8
0
100
AcDbLine
 10
69.36799999999999
 20
-0.0000000000000146
 30
0.0
 11
75.0
 21
-0.0000000000000147
 31
0.0
  0
LINE
  5
101
330
1E
100
AcDbEntity
  8
0
100
AcDbLine
 10
69.36799999999999
 20
3.99999999999999
 30
0.0
 11
75.0
 21
3.99999999999999
 31
0.0
  0
LINE
  5
102
330
1E
100
AcDbEntity
  8
0
100
AcDbLine
 10
69.36799999999999
 20
-0.000000000000012
 30
0.0
 11
75.0
 21
-0.000000000000012
 31
0.0
  0
LINE
  5
103
330
1E
100
AcDbEntity
  8
0
100
AcDbLine
 10
71.1143
 20
110.0
 30
0.0
 11
75.0
 21
110.0
 31
0.0
  0
LINE
  5
104
330
1E
100
AcDbEntity
  8
0
100
AcDbLine
 10
70.8857
 20
109.3329999999999
 30
0.0
 11
75.0
 21
109.3329999999999
 31
0.0
  0
LINE
  5
105
330
1E
100
AcDbEntity
  8
0
100
AcDbLine
 10
75.0
 20
-0.0000000000000147
 30
0.0
 11
80.632
 21
-0.0000000000000146
 31
0.0
  0
LINE
  5
106
330
1E
100
AcDbEntity
  8
0
100
AcDbLine
 10
75.0
 20
3.99999999999999
 30
0.0
 11
80.632
 21
3.99999999999999
 31
0.0
  0
LINE
  5
107
330
1E
100
AcDbEntity
  8
0
100
AcDbLine
 10
75.0
 20
-0.000000000000012
 30
0.0
 11
80.632
 21
-0.000000000000012
 31
0.0
  0
LINE
  5
108
330
1E
100
AcDbEntity
  8
0
100
AcDbLine
 10
80.632
 20
-0.0000000000000146
 30
0.0
 11
85.912
 21
-0.0000000000000145
 31
0.0
  0
LINE
  5
109
330
1E
100
AcDbEntity
  8
0
100
AcDbLine
 10
85.912
 20
-0.0000000000000145
 30
0.0
 11
90.576
 21
-0.0000000000000143
 31
0.0
  0
LINE
  5
10A
330
1E
100
AcDbEntity
  8
0
100
AcDbLine
 10
80.632
 20
3.99999999999999
 30
0.0
 11
85.912
 21
3.99999999999999
 31
0.0
  0
LINE
  5
10B
330
1E
100
AcDbEntity
  8
0
100
AcDbLine
 10
85.912
 20
3.99999999999999
 30
0.0
 11
90.576
 21
3.99999999999999
 31
0.0
  0
LINE
  5
10C
330
1E
100
AcDbEntity
  8
0
100
AcDbLine
 10
80.632
 20
-0.000000000000012
 30
0.0
 11
85.912
 21
-0.0000000000000122
 31
0.0
  0
LINE
  5
10D
330
1E
100
AcDbEntity
  8
0
100
AcDbLine
 10
85.912
 20
-0.0000000000000122
 30
0.0
 11
90.576
 21
-0.0000000000000124
 31
0.0
  0
LINE
  5
10E
330
1E
100
AcDbEntity
  8
0
100
AcDbLine
 10
90.576
 20
-0.0000000000000143
 30
0.0
 11
94.09600000000001
 21
-0.000000000000014
 31
0.0
  0
LINE
  5
10F
330
1E
100
AcDbEntity
  8
0
100
AcDbLine
 10
90.576
 20
3.99999999999999
 30
0.0
 11
94.09600000000001
 21
3.99999999999999
 31
0.0
  0
LINE
  5
110
330
1E
100
AcDbEntity
  8
0
100
AcDbLine
 10
91.0
 20
62.0
 30
0.0
 11
91.0
 21
3.99999999999999
 31
0.0
  0
LINE
  5
111
330
1E
100
AcDbEntity
  8
0
100
AcDbLine
 10
91.0
 20
62.0
 30
0.0
 11
108.4229999999999
 21
62.0
 31
0.0
  0
LINE
  5
112
330
1E
100
AcDbEntity
  8
0
100
AcDbLine
 10
90.576
 20
-0.0000000000000124
 30
0.0
 11
94.09600000000001
 21
-0.0000000000000127
 31
0.0
  0
LINE
  5
113
330
1E
100
AcDbEntity
  8
0
100
AcDbLine
 10
91.0
 20
109.3329999999999
 30
0.0
 11
91.0
 21
90.0
 31
0.0
  0
LINE
  5
114
330
1E
100
AcDbEntity
  8
0
100
AcDbLine
 10
90.39050000000001
 20
109.3329999999999
 30
0.0
 11
91.0
 21
109.3329999999999
 31
0.0
  0
LINE
  5
115
330
1E
100
AcDbEntity
  8
0
100
AcDbLine
 10
91.0
 20
90.0
 30
0.0
 11
91.0
 21
109.3329999999999
 31
0.0
  0
LINE
  5
116
330
1E
100
AcDbEntity
  8
0
100
AcDbLine
 10
91.0
 20
90.0
 30
0.0
 11
108.4229999999999
 21
90.0
 31
0.0
  0
LINE
  5
117
330
1E
100
AcDbEntity
  8
0
100
AcDbLine
 10
94.09600000000001
 20
-0.000000000000014
 30
0.0
 11
96.208
 21
-0.0000000000000137
 31
0.0
  0
LINE
  5
118
330
1E
100
AcDbEntity
  8
0
100
AcDbLine
 10
97.0
 20
-0.0000000000000133
 30
0.0
 11
97.0
 21
3.99999999999999
 31
0.0
  0
LINE
  5
119
330
1E
100
AcDbEntity
  8
0
100
AcDbLine
 10
96.208
 20
-0.0000000000000137
 30
0.0
 11
97.0
 21
-0.0000000000000133
 31
0.0
  0
LINE
  5
11A
330
1E
100
AcDbEntity
  8
0
100
AcDbLine
 10
94.09600000000001
 20
3.99999999999999
 30
0.0
 11
96.208
 21
3.99999999999999
 31
0.0
  0
LINE
  5
11B
330
1E
100
AcDbEntity
  8
0
100
AcDbLine
 10
96.208
 20
3.99999999999999
 30
0.0
 11
97.0
 21
3.99999999999999
 31
0.0
  0
LINE
  5
11C
330
1E
100
AcDbEntity
  8
0
100
AcDbLine
 10
109.874
 20
62.0
 30
0.0
 11
110.0
 21
62.336
 31
0.0
  0
LINE
  5
11D
330
1E
100
AcDbEntity
  8
0
100
AcDbLine
 10
109.874
 20
62.0
 30
0.0
 11
109.874
 21
62.50399999999999
 31
0.0
  0
LINE
  5
11E
330
1E
100
AcDbEntity
  8
0
100
AcDbLine
 10
109.874
 20
62.50399999999999
 30
0.0
 11
109.874
 21
63.848
 31
0.0
  0
LINE
  5
11F
330
1E
100
AcDbEntity
  8
0
100
AcDbLine
 10
109.874
 20
62.50399999999999
 30
0.0
 11
109.874
 21
62.0
 31
0.0
  0
LINE
  5
120
330
1E
100
AcDbEntity
  8
0
100
AcDbLine
 10
109.126
 20
62.50399999999999
 30
0.0
 11
109.126
 21
63.848
 31
0.0
  0
LINE
  5
121
330
1E
100
AcDbEntity
  8
0
100
AcDbLine
 10
109.126
 20
62.50399999999999
 30
0.0
 11
109.126
 21
62.0
 31
0.0
  0
LINE
  5
122
330
1E
100
AcDbEntity
  8
0
100
AcDbLine
 10
109.126
 20
62.0
 30
0.0
 11
109.126
 21
62.50399999999999
 31
0.0
  0
LINE
  5
123
330
1E
100
AcDbEntity
  8
0
100
AcDbLine
 10
109.126
 20
62.0
 30
0.0
 11
109.874
 21
62.0
 31
0.0
  0
LINE
  5
124
330
1E
100
AcDbEntity
  8
0
100
AcDbLine
 10
109.0
 20
62.336
 30
0.0
 11
109.0
 21
62.84
 31
0.0
  0
LINE
  5
125
330
1E
100
AcDbEntity
  8
0
100
AcDbLine
 10
109.0
 20
62.336
 30
0.0
 11
109.126
 21
62.0
 31
0.0
  0
LINE
  5
126
330
1E
100
AcDbEntity
  8
0
100
AcDbLine
 10
109.0
 20
62.84
 30
0.0
 11
109.0
 21
62.336
 31
0.0
  0
LINE
  5
127
330
1E
100
AcDbEntity
  8
0
100
AcDbLine
 10
109.0
 20
62.84
 30
0.0
 11
109.0
 21
64.184
 31
0.0
  0
LINE
  5
128
330
1E
100
AcDbEntity
  8
0
100
AcDbLine
 10
108.4229999999999
 20
62.0
 30
0.0
 11
109.0
 21
62.336
 31
0.0
  0
LINE
  5
129
330
1E
100
AcDbEntity
  8
0
100
AcDbLine
 10
109.0
 20
66.368
 30
0.0
 11
109.0
 21
64.184
 31
0.0
  0
LINE
  5
12A
330
1E
100
AcDbEntity
  8
0
100
AcDbLine
 10
109.0
 20
66.368
 30
0.0
 11
109.0
 21
69.22399999999999
 31
0.0
  0
LINE
  5
12B
330
1E
100
AcDbEntity
  8
0
100
AcDbLine
 10
109.874
 20
63.848
 30
0.0
 11
109.874
 21
66.08800000000001
 31
0.0
  0
LINE
  5
12C
330
1E
100
AcDbEntity
  8
0
100
AcDbLine
 10
109.874
 20
63.848
 30
0.0
 11
109.874
 21
62.50399999999999
 31
0.0
  0
LINE
  5
12D
330
1E
100
AcDbEntity
  8
0
100
AcDbLine
 10
109.874
 20
66.08800000000001
 30
0.0
 11
109.874
 21
69.05599999999999
 31
0.0
  0
LINE
  5
12E
330
1E
100
AcDbEntity
  8
0
100
AcDbLine
 10
109.874
 20
66.08800000000001
 30
0.0
 11
109.874
 21
63.848
 31
0.0
  0
LINE
  5
12F
330
1E
100
AcDbEntity
  8
0
100
AcDbLine
 10
109.126
 20
66.08800000000001
 30
0.0
 11
109.126
 21
69.05599999999999
 31
0.0
  0
LINE
  5
130
330
1E
100
AcDbEntity
  8
0
100
AcDbLine
 10
109.126
 20
66.08800000000001
 30
0.0
 11
109.126
 21
63.848
 31
0.0
  0
LINE
  5
131
330
1E
100
AcDbEntity
  8
0
100
AcDbLine
 10
109.126
 20
63.848
 30
0.0
 11
109.126
 21
66.08800000000001
 31
0.0
  0
LINE
  5
132
330
1E
100
AcDbEntity
  8
0
100
AcDbLine
 10
109.126
 20
63.848
 30
0.0
 11
109.126
 21
62.50399999999999
 31
0.0
  0
LINE
  5
133
330
1E
100
AcDbEntity
  8
0
100
AcDbLine
 10
109.0
 20
64.184
 30
0.0
 11
109.0
 21
62.84
 31
0.0
  0
LINE
  5
134
330
1E
100
AcDbEntity
  8
0
100
AcDbLine
 10
109.0
 20
64.184
 30
0.0
 11
109.0
 21
66.368
 31
0.0
  0
LINE
  5
135
330
1E
100
AcDbEntity
  8
0
100
AcDbLine
 10
109.0
 20
72.47199999999999
 30
0.0
 11
109.0
 21
69.22399999999999
 31
0.0
  0
LINE
  5
136
330
1E
100
AcDbEntity
  8
0
100
AcDbLine
 10
109.0
 20
72.47199999999999
 30
0.0
 11
109.0
 21
76.0
 31
0.0
  0
LINE
  5
137
330
1E
100
AcDbEntity
  8
0
100
AcDbLine
 10
109.874
 20
69.05599999999999
 30
0.0
 11
109.874
 21
72.416
 31
0.0
  0
LINE
  5
138
330
1E
100
AcDbEntity
  8
0
100
AcDbLine
 10
109.874
 20
69.05599999999999
 30
0.0
 11
109.874
 21
66.08800000000001
 31
0.0
  0
LINE
  5
139
330
1E
100
AcDbEntity
  8
0
100
AcDbLine
 10
109.874
 20
72.416
 30
0.0
 11
109.874
 21
76.0
 31
0.0
  0
LINE
  5
13A
330
1E
100
AcDbEntity
  8
0
100
AcDbLine
 10
109.874
 20
72.416
 30
0.0
 11
109.874
 21
69.05599999999999
 31
0.0
  0
LINE
  5
13B
330
1E
100
AcDbEntity
  8
0
100
AcDbLine
 10
109.126
 20
72.416
 30
0.0
 11
109.126
 21
76.0
 31
0.0
  0
LINE
  5
13C
330
1E
100
AcDbEntity
  8
0
100
AcDbLine
 10
109.126
 20
72.416
 30
0.0
 11
109.126
 21
69.05599999999999
 31
0.0
  0
LINE
  5
13D
330
1E
100
AcDbEntity
  8
0
100
AcDbLine
 10
109.126
 20
69.05599999999999
 30
0.0
 11
109.126
 21
72.416
 31
0.0
  0
LINE
  5
13E
330
1E
100
AcDbEntity
  8
0
100
AcDbLine
 10
109.126
 20
69.05599999999999
 30
0.0
 11
109.126
 21
66.08800000000001
 31
0.0
  0
LINE
  5
13F
330
1E
100
AcDbEntity
  8
0
100
AcDbLine
 10
109.0
 20
69.22399999999999
 30
0.0
 11
109.0
 21
66.368
 31
0.0
  0
LINE
  5
140
330
1E
100
AcDbEntity
  8
0
100
AcDbLine
 10
109.0
 20
69.22399999999999
 30
0.0
 11
109.0
 21
72.47199999999999
 31
0.0
  0
LINE
  5
141
330
1E
100
AcDbEntity
  8
0
100
AcDbLine
 10
109.874
 20
76.0
 30
0.0
 11
109.874
 21
72.416
 31
0.0
  0
LINE
  5
142
330
1E
100
AcDbEntity
  8
0
100
AcDbLine
 10
109.874
 20
76.0
 30
0.0
 11
109.874
 21
79.58400000000001
 31
0.0
  0
LINE
  5
143
330
1E
100
AcDbEntity
  8
0
100
AcDbLine
 10
109.126
 20
76.0
 30
0.0
 11
109.126
 21
72.416
 31
0.0
  0
LINE
  5
144
330
1E
100
AcDbEntity
  8
0
100
AcDbLine
 10
109.126
 20
76.0
 30
0.0
 11
109.126
 21
79.58400000000001
 31
0.0
  0
LINE
  5
145
330
1E
100
AcDbEntity
  8
0
100
AcDbLine
 10
109.0
 20
79.528
 30
0.0
 11
109.0
 21
76.0
 31
0.0
  0
LINE
  5
146
330
1E
100
AcDbEntity
  8
0
100
AcDbLine
 10
109.0
 20
79.528
 30
0.0
 11
109.0
 21
82.77600000000001
 31
0.0
  0
LINE
  5
147
330
1E
100
AcDbEntity
  8
0
100
AcDbLine
 10
109.126
 20
79.58400000000001
 30
0.0
 11
109.126
 21
76.0
 31
0.0
  0
LINE
  5
148
330
1E
100
AcDbEntity
  8
0
100
AcDbLine
 10
109.126
 20
79.58400000000001
 30
0.0
 11
109.126
 21
82.94400000000001
 31
0.0
  0
LINE
  5
149
330
1E
100
AcDbEntity
  8
0
100
AcDbLine
 10
109.874
 20
79.58400000000001
 30
0.0
 11
109.874
 21
82.94400000000001
 31
0.0
  0
LINE
  5
14A
330
1E
100
AcDbEntity
  8
0
100
AcDbLine
 10
109.874
 20
79.58400000000001
 30
0.0
 11
109.874
 21
76.0
 31
0.0
  0
LINE
  5
14B
330
1E
100
AcDbEntity
  8
0
100
AcDbLine
 10
109.0
 20
82.77600000000001
 30
0.0
 11
109.0
 21
79.528
 31
0.0
  0
LINE
  5
14C
330
1E
100
AcDbEntity
  8
0
100
AcDbLine
 10
109.0
 20
82.77600000000001
 30
0.0
 11
109.0
 21
85.632
 31
0.0
  0
LINE
  5
14D
330
1E
100
AcDbEntity
  8
0
100
AcDbLine
 10
109.0
 20
76.0
 30
0.0
 11
109.0
 21
72.47199999999999
 31
0.0
  0
LINE
  5
14E
330
1E
100
AcDbEntity
  8
0
100
AcDbLine
 10
109.0
 20
76.0
 30
0.0
 11
109.0
 21
79.528
 31
0.0
  0
LINE
  5
14F
330
1E
100
AcDbEntity
  8
0
100
AcDbLine
 10
110.0
 20
79.528
 30
0.0
 11
110.0
 21
76.0
 31
0.0
  0
LINE
  5
150
330
1E
100
AcDbEntity
  8
0
100
AcDbLine
 10
110.0
 20
79.528
 30
0.0
 11
110.0
 21
82.77600000000001
 31
0.0
  0
LINE
  5
151
330
1E
100
AcDbEntity
  8
0
100
AcDbLine
 10
109.0
 20
85.632
 30
0.0
 11
109.0
 21
82.77600000000001
 31
0.0
  0
LINE
  5
152
330
1E
100
AcDbEntity
  8
0
100
AcDbLine
 10
109.0
 20
85.632
 30
0.0
 11
109.0
 21
87.816
 31
0.0
  0
LINE
  5
153
330
1E
100
AcDbEntity
  8
0
100
AcDbLine
 10
109.126
 20
82.94400000000001
 30
0.0
 11
109.126
 21
79.58400000000001
 31
0.0
  0
LINE
  5
154
330
1E
100
AcDbEntity
  8
0
100
AcDbLine
 10
109.126
 20
82.94400000000001
 30
0.0
 11
109.126
 21
85.912
 31
0.0
  0
LINE
  5
155
330
1E
100
AcDbEntity
  8
0
100
AcDbLine
 10
109.874
 20
82.94400000000001
 30
0.0
 11
109.874
 21
85.912
 31
0.0
  0
LINE
  5
156
330
1E
100
AcDbEntity
  8
0
100
AcDbLine
 10
109.874
 20
82.94400000000001
 30
0.0
 11
109.874
 21
79.58400000000001
 31
0.0
  0
LINE
  5
157
330
1E
100
AcDbEntity
  8
0
100
AcDbLine
 10
109.126
 20
85.912
 30
0.0
 11
109.126
 21
82.94400000000001
 31
0.0
  0
LINE
  5
158
330
1E
100
AcDbEntity
  8
0
100
AcDbLine
 10
109.126
 20
85.912
 30
0.0
 11
109.126
 21
88.152
 31
0.0
  0
LINE
  5
159
330
1E
100
AcDbEntity
  8
0
100
AcDbLine
 10
109.874
 20
85.912
 30
0.0
 11
109.874
 21
88.152
 31
0.0
  0
LINE
  5
15A
330
1E
100
AcDbEntity
  8
0
100
AcDbLine
 10
109.874
 20
85.912
 30
0.0
 11
109.874
 21
82.94400000000001
 31
0.0
  0
LINE
  5
15B
330
1E
100
AcDbEntity
  8
0
100
AcDbLine
 10
109.0
 20
87.816
 30
0.0
 11
109.0
 21
85.632
 31
0.0
  0
LINE
  5
15C
330
1E
100
AcDbEntity
  8
0
100
AcDbLine
 10
109.0
 20
87.816
 30
0.0
 11
109.0
 21
89.16
 31
0.0
  0
LINE
  5
15D
330
1E
100
AcDbEntity
  8
0
100
AcDbLine
 10
110.0
 20
82.77600000000001
 30
0.0
 11
110.0
 21
79.528
 31
0.0
  0
LINE
  5
15E
330
1E
100
AcDbEntity
  8
0
100
AcDbLine
 10
110.0
 20
82.77600000000001
 30
0.0
 11
110.0
 21
85.632
 31
0.0
  0
LINE
  5
15F
330
1E
100
AcDbEntity
  8
0
100
AcDbLine
 10
110.0
 20
85.632
 30
0.0
 11
110.0
 21
82.77600000000001
 31
0.0
  0
LINE
  5
160
330
1E
100
AcDbEntity
  8
0
100
AcDbLine
 10
110.0
 20
85.632
 30
0.0
 11
110.0
 21
87.816
 31
0.0
  0
LINE
  5
161
330
1E
100
AcDbEntity
  8
0
100
AcDbLine
 10
109.0
 20
89.16
 30
0.0
 11
109.0
 21
87.816
 31
0.0
  0
LINE
  5
162
330
1E
100
AcDbEntity
  8
0
100
AcDbLine
 10
109.0
 20
89.16
 30
0.0
 11
109.0
 21
89.664
 31
0.0
  0
LINE
  5
163
330
1E
100
AcDbEntity
  8
0
100
AcDbLine
 10
109.126
 20
88.152
 30
0.0
 11
109.126
 21
85.912
 31
0.0
  0
LINE
  5
164
330
1E
100
AcDbEntity
  8
0
100
AcDbLine
 10
109.126
 20
88.152
 30
0.0
 11
109.126
 21
89.49600000000001
 31
0.0
  0
LINE
  5
165
330
1E
100
AcDbEntity
  8
0
100
AcDbLine
 10
109.126
 20
89.49600000000001
 30
0.0
 11
109.126
 21
88.152
 31
0.0
  0
LINE
  5
166
330
1E
100
AcDbEntity
  8
0
100
AcDbLine
 10
109.126
 20
89.49600000000001
 30
0.0
 11
109.126
 21
90.0
 31
0.0
  0
LINE
  5
167
330
1E
100
AcDbEntity
  8
0
100
AcDbLine
 10
109.874
 20
88.152
 30
0.0
 11
109.874
 21
89.49600000000001
 31
0.0
  0
LINE
  5
168
330
1E
100
AcDbEntity
  8
0
100
AcDbLine
 10
109.874
 20
88.152
 30
0.0
 11
109.874
 21
85.912
 31
0.0
  0
LINE
  5
169
330
1E
100
AcDbEntity
  8
0
100
AcDbLine
 10
109.874
 20
89.49600000000001
 30
0.0
 11
109.874
 21
90.0
 31
0.0
  0
LINE
  5
16A
330
1E
100
AcDbEntity
  8
0
100
AcDbLine
 10
109.874
 20
89.49600000000001
 30
0.0
 11
109.874
 21
88.152
 31
0.0
  0
LINE
  5
16B
330
1E
100
AcDbEntity
  8
0
100
AcDbLine
 10
109.0
 20
89.664
 30
0.0
 11
109.0
 21
89.16
 31
0.0
  0
LINE
  5
16C
330
1E
100
AcDbEntity
  8
0
100
AcDbLine
 10
109.0
 20
89.664
 30
0.0
 11
109.126
 21
90.0
 31
0.0
  0
LINE
  5
16D
330
1E
100
AcDbEntity
  8
0
100
AcDbLine
 10
110.0
 20
87.816
 30
0.0
 11
110.0
 21
85.632
 31
0.0
  0
LINE
  5
16E
330
1E
100
AcDbEntity
  8
0
100
AcDbLine
 10
110.0
 20
87.816
 30
0.0
 11
110.0
 21
89.16
 31
0.0
  0
LINE
  5
16F
330
1E
100
AcDbEntity
  8
0
100
AcDbLine
 10
110.0
 20
89.16
 30
0.0
 11
110.0
 21
87.816
 31
0.0
  0
LINE
  5
170
330
1E
100
AcDbEntity
  8
0
100
AcDbLine
 10
110.0
 20
89.16
 30
0.0
 11
110.0
 21
89.664
 31
0.0
  0
LINE
  5
171
330
1E
100
AcDbEntity
  8
0
100
AcDbLine
 10
109.874
 20
90.0
 30
0.0
 11
110.0
 21
89.664
 31
0.0
  0
LINE
  5
172
330
1E
100
AcDbEntity
  8
0
100
AcDbLine
 10
109.874
 20
90.0
 30
0.0
 11
109.874
 21
89.49600000000001
 31
0.0
  0
LINE
  5
173
330
1E
100
AcDbEntity
  8
0
100
AcDbLine
 10
109.126
 20
90.0
 30
0.0
 11
109.874
 21
90.0
 31
0.0
  0
LINE
  5
174
330
1E
100
AcDbEntity
  8
0
100
AcDbLine
 10
109.126
 20
90.0
 30
0.0
 11
109.126
 21
89.49600000000001
 31
0.0
  0
LINE
  5
175
330
1E
100
AcDbEntity
  8
0
100
AcDbLine
 10
108.4229999999999
 20
90.0
 30
0.0
 11
109.0
 21
89.664
 31
0.0
  0
LINE
  5
176
330
1E
100
AcDbEntity
  8
0
100
AcDbLine
 10
110.0
 20
89.664
 30
0.0
 11
110.577
 21
90.0
 31
0.0
  0
LINE
  5
177
330
1E
100
AcDbEntity
  8
0
100
AcDbLine
 10
110.0
 20
89.664
 30
0.0
 11
110.0
 21
89.16
 31
0.0
  0
LINE
  5
178
330
1E
100
AcDbEntity
  8
0
100
AcDbLine
 10
110.0
 20
76.0
 30
0.0
 11
110.0
 21
72.47199999999999
 31
0.0
  0
LINE
  5
179
330
1E
100
AcDbEntity
  8
0
100
AcDbLine
 10
110.0
 20
76.0
 30
0.0
 11
110.0
 21
79.528
 31
0.0
  0
LINE
  5
17A
330
1E
100
AcDbEntity
  8
0
100
AcDbLine
 10
110.0
 20
72.47199999999999
 30
0.0
 11
110.0
 21
69.22399999999999
 31
0.0
  0
LINE
  5
17B
330
1E
100
AcDbEntity
  8
0
100
AcDbLine
 10
110.0
 20
72.47199999999999
 30
0.0
 11
110.0
 21
76.0
 31
0.0
  0
LINE
  5
17C
330
1E
100
AcDbEntity
  8
0
100
AcDbLine
 10
110.0
 20
69.22399999999999
 30
0.0
 11
110.0
 21
66.368
 31
0.0
  0
LINE
  5
17D
330
1E
100
AcDbEntity
  8
0
100
AcDbLine
 10
110.0
 20
69.22399999999999
 30
0.0
 11
110.0
 21
72.47199999999999
 31
0.0
  0
LINE
  5
17E
330
1E
100
AcDbEntity
  8
0
100
AcDbLine
 10
110.0
 20
66.368
 30
0.0
 11
110.0
 21
64.184
 31
0.0
  0
LINE
  5
17F
330
1E
100
AcDbEntity
  8
0
100
AcDbLine
 10
110.0
 20
66.368
 30
0.0
 11
110.0
 21
69.22399999999999
 31
0.0
  0
LINE
  5
180
330
1E
100
AcDbEntity
  8
0
100
AcDbLine
 10
110.0
 20
64.184
 30
0.0
 11
110.0
 21
62.84
 31
0.0
  0
LINE
  5
181
330
1E
100
AcDbEntity
  8
0
100
AcDbLine
 10
110.0
 20
64.184
 30
0.0
 11
110.0
 21
66.368
 31
0.0
  0
LINE
  5
182
330
1E
100
AcDbEntity
  8
0
100
AcDbLine
 10
110.0
 20
62.84
 30
0.0
 11
110.0
 21
62.336
 31
0.0
  0
LINE
  5
183
330
1E
100
AcDbEntity
  8
0
100
AcDbLine
 10
110.0
 20
62.84
 30
0.0
 11
110.0
 21
64.184
 31
0.0
  0
LINE
  5
184
330
1E
100
AcDbEntity
  8
0
100
AcDbLine
 10
149.4229999999999
 20
62.0
 30
0.0
 11
150.0
 21
62.336
 31
0.0
  0
LINE
  5
185
330
1E
100
AcDbEntity
  8
0
100
AcDbLine
 10
150.0
 20
79.528
 30
0.0
 11
150.0
 21
82.77600000000001
 31
0.0
  0
LINE
  5
186
330
1E
100
AcDbEntity
  8
0
100
AcDbLine
 10
150.0
 20
79.528
 30
0.0
 11
150.0
 21
76.0
 31
0.0
  0
LINE
  5
187
330
1E
100
AcDbEntity
  8
0
100
AcDbLine
 10
150.0
 20
82.77600000000001
 30
0.0
 11
150.0
 21
85.632
 31
0.0
  0
LINE
  5
188
330
1E
100
AcDbEntity
  8
0
100
AcDbLine
 10
150.0
 20
82.77600000000001
 30
0.0
 11
150.0
 21
79.528
 31
0.0
  0
LINE
  5
189
330
1E
100
AcDbEntity
  8
0
100
AcDbLine
 10
150.0
 20
85.632
 30
0.0
 11
150.0
 21
87.816
 31
0.0
  0
LINE
  5
18A
330
1E
100
AcDbEntity
  8
0
100
AcDbLine
 10
150.0
 20
85.632
 30
0.0
 11
150.0
 21
82.77600000000001
 31
0.0
  0
LINE
  5
18B
330
1E
100
AcDbEntity
  8
0
100
AcDbLine
 10
150.0
 20
87.816
 30
0.0
 11
150.0
 21
89.16
 31
0.0
  0
LINE
  5
18C
330
1E
100
AcDbEntity
  8
0
100
AcDbLine
 10
150.0
 20
87.816
 30
0.0
 11
150.0
 21
85.632
 31
0.0
  0
LINE
  5
18D
330
1E
100
AcDbEntity
  8
0
100
AcDbLine
 10
150.0
 20
89.664
 30
0.0
 11
150.0
 21
89.16
 31
0.0
  0
LINE
  5
18E
330
1E
100
AcDbEntity
  8
0
100
AcDbLine
 10
150.0
 20
89.16
 30
0.0
 11
150.0
 21
89.664
 31
0.0
  0
LINE
  5
18F
330
1E
100
AcDbEntity
  8
0
100
AcDbLine
 10
150.0
 20
89.16
 30
0.0
 11
150.0
 21
87.816
 31
0.0
  0
LINE
  5
190
330
1E
100
AcDbEntity
  8
0
100
AcDbLine
 10
149.4229999999999
 20
90.0
 30
0.0
 11
150.0
 21
89.664
 31
0.0
  0
LINE
  5
191
330
1E
100
AcDbEntity
  8
0
100
AcDbLine
 10
110.577
 20
90.0
 30
0.0
 11
149.4229999999999
 21
90.0
 31
0.0
  0
LINE
  5
192
330
1E
100
AcDbEntity
  8
0
100
AcDbLine
 10
150.0
 20
76.0
 30
0.0
 11
150.0
 21
72.47199999999999
 31
0.0
  0
LINE
  5
193
330
1E
100
AcDbEntity
  8
0
100
AcDbLine
 10
150.0
 20
76.0
 30
0.0
 11
150.0
 21
79.528
 31
0.0
  0
LINE
  5
194
330
1E
100
AcDbEntity
  8
0
100
AcDbLine
 10
150.0
 20
72.47199999999999
 30
0.0
 11
150.0
 21
76.0
 31
0.0
  0
LINE
  5
195
330
1E
100
AcDbEntity
  8
0
100
AcDbLine
 10
150.0
 20
72.47199999999999
 30
0.0
 11
150.0
 21
69.22399999999999
 31
0.0
  0
LINE
  5
196
330
1E
100
AcDbEntity
  8
0
100
AcDbLine
 10
150.0
 20
69.22399999999999
 30
0.0
 11
150.0
 21
72.47199999999999
 31
0.0
  0
LINE
  5
197
330
1E
100
AcDbEntity
  8
0
100
AcDbLine
 10
150.0
 20
69.22399999999999
 30
0.0
 11
150.0
 21
66.368
 31
0.0
  0
LINE
  5
198
330
1E
100
AcDbEntity
  8
0
100
AcDbLine
 10
150.0
 20
66.368
 30
0.0
 11
150.0
 21
69.22399999999999
 31
0.0
  0
LINE
  5
199
330
1E
100
AcDbEntity
  8
0
100
AcDbLine
 10
150.0
 20
66.368
 30
0.0
 11
150.0
 21
64.184
 31
0.0
  0
LINE
  5
19A
330
1E
100
AcDbEntity
  8
0
100
AcDbLine
 10
150.0
 20
64.184
 30
0.0
 11
150.0
 21
66.368
 31
0.0
  0
LINE
  5
19B
330
1E
100
AcDbEntity
  8
0
100
AcDbLine
 10
150.0
 20
64.184
 30
0.0
 11
150.0
 21
62.84
 31
0.0
  0
LINE
  5
19C
330
1E
100
AcDbEntity
  8
0
100
AcDbLine
 10
150.0
 20
62.84
 30
0.0
 11
150.0
 21
64.184
 31
0.0
  0
LINE
  5
19D
330
1E
100
AcDbEntity
  8
0
100
AcDbLine
 10
150.0
 20
62.84
 30
0.0
 11
150.0
 21
62.336
 31
0.0
  0
LINE
  5
19E
330
1E
100
AcDbEntity
  8
0
100
AcDbLine
 10
150.0
 20
62.336
 30
0.0
 11
150.0
 21
62.84
 31
0.0
  0
LINE
  5
19F
330
1E
100
AcDbEntity
  8
0
100
AcDbLine
 10
110.577
 20
62.0
 30
0.0
 11
149.4229999999999
 21
62.0
 31
0.0
  0
LINE
  5
1A0
330
1E
100
AcDbEntity
  8
0
100
AcDbLine
 10
110.0
 20
62.336
 30
0.0
 11
110.577
 21
62.0
 31
0.0
  0
LINE
  5
1A1
330
1E
100
AcDbEntity
  8
0
100
AcDbLine
 10
110.0
 20
62.336
 30
0.0
 11
110.0
 21
62.84
 31
0.0
  0
LINE
  5
1A2
330
1E
100
AcDbEntity
  8
0
100
AcDbLine
 10
97.0
 20
3.99999999999999
 30
0.0
 11
97.0
 21
-0.0000000000000132
 31
0.0
  0
LINE
  5
1A3
330
1E
100
AcDbEntity
  8
0
100
AcDbLine
 10
94.09600000000001
 20
-0.0000000000000127
 30
0.0
 11
96.208
 21
-0.000000000000013
 31
0.0
  0
LINE
  5
1A4
330
1E
100
AcDbEntity
  8
0
100
AcDbLine
 10
96.208
 20
-0.000000000000013
 30
0.0
 11
97.0
 21
-0.0000000000000133
 31
0.0
  0
LINE
  5
1A5
330
1E
100
AcDbEntity
  8
0
100
AcDbLine
 10
91.0
 20
3.99999999999999
 30
0.0
 11
91.0
 21
62.0
 31
0.0
  0
LINE
  5
1A6
330
1E
100
AcDbEntity
  8
0
100
AcDbLine
 10
88.8667
 20
109.3329999999999
 30
0.0
 11
90.39050000000001
 21
109.3329999999999
 31
0.0
  0
LINE
  5
1A7
330
1E
100
AcDbEntity
  8
0
100
AcDbLine
 10
86.2762
 20
109.3329999999999
 30
0.0
 11
88.8667
 21
109.3329999999999
 31
0.0
  0
LINE
  5
1A8
330
1E
100
AcDbEntity
  8
0
100
AcDbLine
 10
82.92379999999999
 20
109.3329999999999
 30
0.0
 11
86.2762
 21
109.3329999999999
 31
0.0
  0
LINE
  5
1A9
330
1E
100
AcDbEntity
  8
0
100
AcDbLine
 10
79.1143
 20
109.3329999999999
 30
0.0
 11
82.92379999999999
 21
109.3329999999999
 31
0.0
  0
LINE
  5
1AA
330
1E
100
AcDbEntity
  8
0
100
AcDbLine
 10
75.0
 20
223.212
 30
0.0
 11
77.7
 21
223.282
 31
0.0
  0
LINE
  5
1AB
330
1E
100
AcDbEntity
  8
0
100
AcDbLine
 10
86.0
 20
110.0
 30
0.0
 11
86.0
 21
214.5
 31
0.0
  0
LINE
  5
1AC
330
1E
100
AcDbEntity
  8
0
100
AcDbLine
 10
90.2381
 20
110.0
 30
0.0
 11
91.0
 21
109.3329999999999
 31
0.0
  0
LINE
  5
1AD
330
1E
100
AcDbEntity
  8
0
100
AcDbLine
 10
89.7048
 20
110.0
 30
0.0
 11
90.2381
 21
110.0
 31
0.0
  0
LINE
  5
1AE
330
1E
100
AcDbEntity
  8
0
100
AcDbLine
 10
88.18089999999999
 20
110.0
 30
0.0
 11
89.7048
 21
110.0
 31
0.0
  0
LINE
  5
1AF
330
1E
100
AcDbEntity
  8
0
100
AcDbLine
 10
85.74290000000001
 20
110.0
 30
0.0
 11
88.18089999999999
 21
110.0
 31
0.0
  0
LINE
  5
1B0
330
1E
100
AcDbEntity
  8
0
100
AcDbLine
 10
82.54290000000001
 20
110.0
 30
0.0
 11
85.74290000000001
 21
110.0
 31
0.0
  0
LINE
  5
1B1
330
1E
100
AcDbEntity
  8
0
100
AcDbLine
 10
77.7
 20
223.282
 30
0.0
 11
80.20000000000001
 21
223.455
 31
0.0
  0
LINE
  5
1B2
330
1E
100
AcDbEntity
  8
0
100
AcDbLine
 10
80.20000000000001
 20
223.455
 30
0.0
 11
82.4
 21
223.7509999999999
 31
0.0
  0
LINE
  5
1B3
330
1E
100
AcDbEntity
  8
0
100
AcDbLine
 10
86.0
 20
214.5
 30
0.0
 11
86.0
 21
110.0
 31
0.0
  0
LINE
  5
1B4
330
1E
100
AcDbEntity
  8
0
100
AcDbLine
 10
86.0
 20
214.5
 30
0.0
 11
86.0
 21
225.5279999999999
 31
0.0
  0
LINE
  5
1B5
330
1E
100
AcDbEntity
  8
0
100
AcDbLine
 10
78.8857
 20
110.0
 30
0.0
 11
82.54290000000001
 21
110.0
 31
0.0
  0
LINE
  5
1B6
330
1E
100
AcDbEntity
  8
0
100
AcDbLine
 10
75.0
 20
110.0
 30
0.0
 11
78.8857
 21
110.0
 31
0.0
  0
LINE
  5
1B7
330
1E
100
AcDbEntity
  8
0
100
AcDbLine
 10
75.0
 20
109.3329999999999
 30
0.0
 11
79.1143
 21
109.3329999999999
 31
0.0
  0
LINE
  5
1B8
330
1E
100
AcDbEntity
  8
0
100
AcDbLine
 10
72.3
 20
223.282
 30
0.0
 11
75.0
 21
223.212
 31
0.0
  0
LINE
  5
1B9
330
1E
100
AcDbEntity
  8
0
100
AcDbLine
 10
82.4
 20
223.7509999999999
 30
0.0
 11
84.1
 21
224.133
 31
0.0
  0
LINE
  5
1BA
330
1E
100
AcDbEntity
  8
0
100
AcDbLine
 10
84.1
 20
224.133
 30
0.0
 11
85.09999999999999
 21
224.567
 31
0.0
  0
LINE
  5
1BB
330
1E
100
AcDbEntity
  8
0
100
AcDbLine
 10
69.8
 20
223.455
 30
0.0
 11
72.3
 21
223.282
 31
0.0
  0
LINE
  5
1BC
330
1E
100
AcDbEntity
  8
0
100
AcDbLine
 10
67.59999999999999
 20
223.7509999999999
 30
0.0
 11
69.8
 21
223.455
 31
0.0
  0
LINE
  5
1BD
330
1E
100
AcDbEntity
  8
0
100
AcDbLine
 10
85.09999999999999
 20
225.504
 30
0.0
 11
85.5
 21
225.0359999999999
 31
0.0
  0
LINE
  5
1BE
330
1E
100
AcDbEntity
  8
0
100
AcDbLine
 10
85.50818897637791
 20
225.00285511811
 30
0.0
 11
85.6
 21
225.042
 31
0.0
  0
LINE
  5
1BF
330
1E
100
AcDbEntity
  8
0
100
AcDbLine
 10
85.6
 20
225.042
 30
0.0
 11
86.0
 21
225.5279999999999
 31
0.0
  0
LINE
  5
1C0
330
1E
100
AcDbEntity
  8
0
100
AcDbLine
 10
85.09999999999999
 20
224.567
 30
0.0
 11
85.5
 21
225.0359999999999
 31
0.0
  0
LINE
  5
1C1
330
1E
100
AcDbEntity
  8
0
100
AcDbLine
 10
85.09999999999999
 20
224.567
 30
0.0
 11
85.6
 21
225.042
 31
0.0
  0
LINE
  5
1C2
330
1E
100
AcDbEntity
  8
0
100
AcDbLine
 10
65.9
 20
224.133
 30
0.0
 11
67.59999999999999
 21
223.7509999999999
 31
0.0
  0
LINE
  5
1C3
330
1E
100
AcDbEntity
  8
0
100
AcDbLine
 10
64.90000000000001
 20
224.567
 30
0.0
 11
65.9
 21
224.133
 31
0.0
  0
LINE
  5
1C4
330
1E
100
AcDbEntity
  8
0
100
AcDbLine
 10
65.452
 20
324.4559999999999
 30
0.0
 11
67.212
 21
326.788
 31
0.0
  0
LINE
  5
1C5
330
1E
100
AcDbEntity
  8
0
100
AcDbLine
 10
65.5
 20
237.217
 30
0.0
 11
67.2
 21
237.617
 31
0.0
  0
LINE
  5
1C6
330
1E
100
AcDbEntity
  8
0
100
AcDbLine
 10
65.9
 20
236.9679999999999
 30
0.0
 11
67.59999999999999
 21
237.3499999999999
 31
0.0
  0
LINE
  5
1C7
330
1E
100
AcDbEntity
  8
0
100
AcDbLine
 10
65.5
 20
236.824
 30
0.0
 11
67.2
 21
237.223
 31
0.0
  0
LINE
  5
1C8
330
1E
100
AcDbEntity
  8
0
100
AcDbLine
 10
65.5
 20
236.824
 30
0.0
 11
65.9
 21
236.9679999999999
 31
0.0
  0
LINE
  5
1C9
330
1E
100
AcDbEntity
  8
0
100
AcDbLine
 10
65.5
 20
226.4829999999999
 30
0.0
 11
67.2
 21
226.882
 31
0.0
  0
LINE
  5
1CA
330
1E
100
AcDbEntity
  8
0
100
AcDbLine
 10
85.6
 20
226.014
 30
0.0
 11
86.0
 21
225.5279999999999
 31
0.0
  0
LINE
  5
1CB
330
1E
100
AcDbEntity
  8
0
100
AcDbLine
 10
82.4
 20
226.3209999999999
 30
0.0
 11
84.1
 21
225.939
 31
0.0
  0
LINE
  5
1CC
330
1E
100
AcDbEntity
  8
0
100
AcDbLine
 10
84.1
 20
225.939
 30
0.0
 11
85.09999999999999
 21
225.504
 31
0.0
  0
LINE
  5
1CD
330
1E
100
AcDbEntity
  8
0
100
AcDbLine
 10
86.0
 20
225.5279999999999
 30
0.0
 11
86.0
 21
214.5
 31
0.0
  0
LINE
  5
1CE
330
1E
100
AcDbEntity
  8
0
100
AcDbLine
 10
86.0
 20
225.5279999999999
 30
0.0
 11
86.0
 21
235.869
 31
0.0
  0
LINE
  5
1CF
330
1E
100
AcDbEntity
  8
0
100
AcDbLine
 10
67.212
 20
326.788
 30
0.0
 11
69.54399999999999
 21
328.548
 31
0.0
  0
LINE
  5
1D0
330
1E
100
AcDbEntity
  8
0
100
AcDbLine
 10
69.5
 20
237.9119999999999
 30
0.0
 11
72.2
 21
238.1029999999999
 31
0.0
  0
LINE
  5
1D1
330
1E
100
AcDbEntity
  8
0
100
AcDbLine
 10
67.2
 20
237.617
 30
0.0
 11
69.5
 21
237.9119999999999
 31
0.0
  0
LINE
  5
1D2
330
1E
100
AcDbEntity
  8
0
100
AcDbLine
 10
67.59999999999999
 20
237.3499999999999
 30
0.0
 11
69.8
 21
237.6459999999999
 31
0.0
  0
LINE
  5
1D3
330
1E
100
AcDbEntity
  8
0
100
AcDbLine
 10
69.5
 20
237.5179999999999
 30
0.0
 11
72.2
 21
237.7089999999999
 31
0.0
  0
LINE
  5
1D4
330
1E
100
AcDbEntity
  8
0
100
AcDbLine
 10
67.2
 20
237.223
 30
0.0
 11
69.5
 21
237.5179999999999
 31
0.0
  0
LINE
  5
1D5
330
1E
100
AcDbEntity
  8
0
100
AcDbLine
 10
69.54399999999999
 20
328.548
 30
0.0
 11
72.18399999999999
 21
329.604
 31
0.0
  0
LINE
  5
1D6
330
1E
100
AcDbEntity
  8
0
100
AcDbLine
 10
69.8
 20
237.6459999999999
 30
0.0
 11
72.3
 21
237.819
 31
0.0
  0
LINE
  5
1D7
330
1E
100
AcDbEntity
  8
0
100
AcDbLine
 10
69.5
 20
227.178
 30
0.0
 11
72.2
 21
227.369
 31
0.0
  0
LINE
  5
1D8
330
1E
100
AcDbEntity
  8
0
100
AcDbLine
 10
67.2
 20
226.882
 30
0.0
 11
69.5
 21
227.178
 31
0.0
  0
LINE
  5
1D9
330
1E
100
AcDbEntity
  8
0
100
AcDbLine
 10
77.7
 20
226.789
 30
0.0
 11
80.20000000000001
 21
226.6159999999999
 31
0.0
  0
LINE
  5
1DA
330
1E
100
AcDbEntity
  8
0
100
AcDbLine
 10
84.50000000000001
 20
226.4829999999999
 30
0.0
 11
85.6
 21
226.014
 31
0.0
  0
LINE
  5
1DB
330
1E
100
AcDbEntity
  8
0
100
AcDbLine
 10
80.20000000000001
 20
226.6159999999999
 30
0.0
 11
82.4
 21
226.3209999999999
 31
0.0
  0
LINE
  5
1DC
330
1E
100
AcDbEntity
  8
0
100
AcDbLine
 10
72.18399999999999
 20
329.604
 30
0.0
 11
75.0
 21
330.0
 31
0.0
  0
LINE
  5
1DD
330
1E
100
AcDbEntity
  8
0
100
AcDbLine
 10
72.2
 20
238.1029999999999
 30
0.0
 11
75.0
 21
238.173
 31
0.0
  0
LINE
  5
1DE
330
1E
100
AcDbEntity
  8
0
100
AcDbLine
 10
72.2
 20
237.7089999999999
 30
0.0
 11
75.0
 21
237.779
 31
0.0
  0
LINE
  5
1DF
330
1E
100
AcDbEntity
  8
0
100
AcDbLine
 10
75.0
 20
227.4379999999999
 30
0.0
 11
77.8
 21
227.369
 31
0.0
  0
LINE
  5
1E0
330
1E
100
AcDbEntity
  8
0
100
AcDbLine
 10
77.8
 20
227.369
 30
0.0
 11
80.5
 21
227.178
 31
0.0
  0
LINE
  5
1E1
330
1E
100
AcDbEntity
  8
0
100
AcDbLine
 10
80.5
 20
227.178
 30
0.0
 11
82.79999999999999
 21
226.882
 31
0.0
  0
LINE
  5
1E2
330
1E
100
AcDbEntity
  8
0
100
AcDbLine
 10
82.79999999999999
 20
226.882
 30
0.0
 11
84.50000000000001
 21
226.4829999999999
 31
0.0
  0
LINE
  5
1E3
330
1E
100
AcDbEntity
  8
0
100
AcDbLine
 10
75.0
 20
226.859
 30
0.0
 11
77.7
 21
226.789
 31
0.0
  0
LINE
  5
1E4
330
1E
100
AcDbEntity
  8
0
100
AcDbLine
 10
85.8382716049383
 20
236.0654999999999
 30
0.0
 11
86.0
 21
236.262
 31
0.0
  0
LINE
  5
1E5
330
1E
100
AcDbEntity
  8
0
100
AcDbLine
 10
84.1
 20
236.9679999999999
 30
0.0
 11
84.50000000000001
 21
236.824
 31
0.0
  0
LINE
  5
1E6
330
1E
100
AcDbEntity
  8
0
100
AcDbLine
 10
84.50000000000001
 20
236.824
 30
0.0
 11
85.6
 21
236.355
 31
0.0
  0
LINE
  5
1E7
330
1E
100
AcDbEntity
  8
0
100
AcDbLine
 10
85.6
 20
236.355
 30
0.0
 11
86.0
 21
235.869
 31
0.0
  0
LINE
  5
1E8
330
1E
100
AcDbEntity
  8
0
100
AcDbLine
 10
80.20000000000001
 20
237.6459999999999
 30
0.0
 11
82.4
 21
237.3499999999999
 31
0.0
  0
LINE
  5
1E9
330
1E
100
AcDbEntity
  8
0
100
AcDbLine
 10
77.7
 20
237.819
 30
0.0
 11
80.20000000000001
 21
237.6459999999999
 31
0.0
  0
LINE
  5
1EA
330
1E
100
AcDbEntity
  8
0
100
AcDbLine
 10
75.0
 20
237.779
 30
0.0
 11
77.8
 21
237.7089999999999
 31
0.0
  0
LINE
  5
1EB
330
1E
100
AcDbEntity
  8
0
100
AcDbLine
 10
77.8
 20
237.7089999999999
 30
0.0
 11
80.5
 21
237.5179999999999
 31
0.0
  0
LINE
  5
1EC
330
1E
100
AcDbEntity
  8
0
100
AcDbLine
 10
82.4
 20
237.3499999999999
 30
0.0
 11
84.1
 21
236.9679999999999
 31
0.0
  0
LINE
  5
1ED
330
1E
100
AcDbEntity
  8
0
100
AcDbLine
 10
80.5
 20
237.5179999999999
 30
0.0
 11
82.79999999999999
 21
237.223
 31
0.0
  0
LINE
  5
1EE
330
1E
100
AcDbEntity
  8
0
100
AcDbLine
 10
82.79999999999999
 20
237.223
 30
0.0
 11
84.50000000000001
 21
236.824
 31
0.0
  0
LINE
  5
1EF
330
1E
100
AcDbEntity
  8
0
100
AcDbLine
 10
82.79999999999999
 20
237.617
 30
0.0
 11
84.50000000000001
 21
237.217
 31
0.0
  0
LINE
  5
1F0
330
1E
100
AcDbEntity
  8
0
100
AcDbLine
 10
84.50000000000001
 20
237.217
 30
0.0
 11
85.6
 21
236.749
 31
0.0
  0
LINE
  5
1F1
330
1E
100
AcDbEntity
  8
0
100
AcDbLine
 10
85.6
 20
236.749
 30
0.0
 11
86.0
 21
236.262
 31
0.0
  0
LINE
  5
1F2
330
1E
100
AcDbEntity
  8
0
100
AcDbLine
 10
86.0
 20
236.262
 30
0.0
 11
86.0
 21
235.869
 31
0.0
  0
LINE
  5
1F3
330
1E
100
AcDbEntity
  8
0
100
AcDbLine
 10
86.0
 20
236.262
 30
0.0
 11
86.0
 21
241.547
 31
0.0
  0
LINE
  5
1F4
330
1E
100
AcDbEntity
  8
0
100
AcDbLine
 10
86.0
 20
235.869
 30
0.0
 11
86.0
 21
236.262
 31
0.0
  0
LINE
  5
1F5
330
1E
100
AcDbEntity
  8
0
100
AcDbLine
 10
86.0
 20
235.869
 30
0.0
 11
86.0
 21
225.5279999999999
 31
0.0
  0
LINE
  5
1F6
330
1E
100
AcDbEntity
  8
0
100
AcDbLine
 10
75.0
 20
237.889
 30
0.0
 11
77.7
 21
237.819
 31
0.0
  0
LINE
  5
1F7
330
1E
100
AcDbEntity
  8
0
100
AcDbLine
 10
75.0
 20
238.173
 30
0.0
 11
77.8
 21
238.1029999999999
 31
0.0
  0
LINE
  5
1F8
330
1E
100
AcDbEntity
  8
0
100
AcDbLine
 10
77.8
 20
238.1029999999999
 30
0.0
 11
80.5
 21
237.9119999999999
 31
0.0
  0
LINE
  5
1F9
330
1E
100
AcDbEntity
  8
0
100
AcDbLine
 10
80.5
 20
237.9119999999999
 30
0.0
 11
82.79999999999999
 21
237.617
 31
0.0
  0
LINE
  5
1FA
330
1E
100
AcDbEntity
  8
0
100
AcDbLine
 10
75.0
 20
330.0
 30
0.0
 11
77.816
 21
329.604
 31
0.0
  0
LINE
  5
1FB
330
1E
100
AcDbEntity
  8
0
100
AcDbLine
 10
77.816
 20
329.604
 30
0.0
 11
80.456
 21
328.548
 31
0.0
  0
LINE
  5
1FC
330
1E
100
AcDbEntity
  8
0
100
AcDbLine
 10
80.456
 20
328.548
 30
0.0
 11
82.788
 21
326.788
 31
0.0
  0
LINE
  5
1FD
330
1E
100
AcDbEntity
  8
0
100
AcDbLine
 10
82.788
 20
326.788
 30
0.0
 11
84.54799999999998
 21
324.4559999999999
 31
0.0
  0
LINE
  5
1FE
330
1E
100
AcDbEntity
  8
0
100
AcDbLine
 10
84.54799999999998
 20
324.4559999999999
 30
0.0
 11
85.60399999999999
 21
321.8159999999999
 31
0.0
  0
LINE
  5
1FF
330
1E
100
AcDbEntity
  8
0
100
AcDbLine
 10
86.0
 20
266.7499999999999
 30
0.0
 11
86.0
 21
278.1159999999999
 31
0.0
  0
LINE
  5
200
330
1E
100
AcDbEntity
  8
0
100
AcDbLine
 10
86.0
 20
266.7499999999999
 30
0.0
 11
86.0
 21
254.49
 31
0.0
  0
LINE
  5
201
330
1E
100
AcDbEntity
  8
0
100
AcDbLine
 10
86.0
 20
254.49
 30
0.0
 11
86.0
 21
241.547
 31
0.0
  0
LINE
  5
202
330
1E
100
AcDbEntity
  8
0
100
AcDbLine
 10
86.0
 20
254.49
 30
0.0
 11
86.0
 21
266.7499999999999
 31
0.0
  0
LINE
  5
203
330
1E
100
AcDbEntity
  8
0
100
AcDbLine
 10
86.0
 20
278.1159999999999
 30
0.0
 11
86.0
 21
288.3929999999999
 31
0.0
  0
LINE
  5
204
330
1E
100
AcDbEntity
  8
0
100
AcDbLine
 10
86.0
 20
278.1159999999999
 30
0.0
 11
86.0
 21
266.7499999999999
 31
0.0
  0
LINE
  5
205
330
1E
100
AcDbEntity
  8
0
100
AcDbLine
 10
86.0
 20
288.3929999999999
 30
0.0
 11
86.0
 21
278.1159999999999
 31
0.0
  0
LINE
  5
206
330
1E
100
AcDbEntity
  8
0
100
AcDbLine
 10
86.0
 20
288.3929999999999
 30
0.0
 11
86.0
 21
297.4049999999999
 31
0.0
  0
LINE
  5
207
330
1E
100
AcDbEntity
  8
0
100
AcDbLine
 10
86.0
 20
241.547
 30
0.0
 11
86.0
 21
236.262
 31
0.0
  0
LINE
  5
208
330
1E
100
AcDbEntity
  8
0
100
AcDbLine
 10
86.0
 20
241.547
 30
0.0
 11
86.0
 21
254.49
 31
0.0
  0
LINE
  5
209
330
1E
100
AcDbEntity
  8
0
100
AcDbLine
 10
86.0
 20
297.4049999999999
 30
0.0
 11
86.0
 21
305.0
 31
0.0
  0
LINE
  5
20A
330
1E
100
AcDbEntity
  8
0
100
AcDbLine
 10
86.0
 20
297.4049999999999
 30
0.0
 11
86.0
 21
288.3929999999999
 31
0.0
  0
LINE
  5
20B
330
1E
100
AcDbEntity
  8
0
100
AcDbLine
 10
86.0
 20
311.045
 30
0.0
 11
86.0
 21
315.439
 31
0.0
  0
LINE
  5
20C
330
1E
100
AcDbEntity
  8
0
100
AcDbLine
 10
86.0
 20
311.045
 30
0.0
 11
86.0
 21
305.0
 31
0.0
  0
LINE
  5
20D
330
1E
100
AcDbEntity
  8
0
100
AcDbLine
 10
86.0
 20
315.439
 30
0.0
 11
86.0
 21
318.1059999999999
 31
0.0
  0
LINE
  5
20E
330
1E
100
AcDbEntity
  8
0
100
AcDbLine
 10
86.0
 20
315.439
 30
0.0
 11
86.0
 21
311.045
 31
0.0
  0
LINE
  5
20F
330
1E
100
AcDbEntity
  8
0
100
AcDbLine
 10
86.0
 20
318.1059999999999
 30
0.0
 11
86.0
 21
319.0
 31
0.0
  0
LINE
  5
210
330
1E
100
AcDbEntity
  8
0
100
AcDbLine
 10
86.0
 20
318.1059999999999
 30
0.0
 11
86.0
 21
315.439
 31
0.0
  0
LINE
  5
211
330
1E
100
AcDbEntity
  8
0
100
AcDbLine
 10
86.0
 20
319.0
 30
0.0
 11
86.0
 21
318.1059999999999
 31
0.0
  0
LINE
  5
212
330
1E
100
AcDbEntity
  8
0
100
AcDbLine
 10
86.0
 20
305.0
 30
0.0
 11
86.0
 21
297.4049999999999
 31
0.0
  0
LINE
  5
213
330
1E
100
AcDbEntity
  8
0
100
AcDbLine
 10
86.0
 20
305.0
 30
0.0
 11
86.0
 21
311.045
 31
0.0
  0
LINE
  5
214
330
1E
100
AcDbEntity
  8
0
100
AcDbLine
 10
85.60399999999999
 20
321.8159999999999
 30
0.0
 11
86.0
 21
319.0
 31
0.0
  0
LINE
  5
215
330
1E
100
AcDbEntity
  8
0
100
AcDbLine
 10
72.3
 20
237.819
 30
0.0
 11
75.0
 21
237.889
 31
0.0
  0
LINE
  5
216
330
1E
100
AcDbEntity
  8
0
100
AcDbLine
 10
72.2
 20
227.369
 30
0.0
 11
75.0
 21
227.4379999999999
 31
0.0
  0
LINE
  5
217
330
1E
100
AcDbEntity
  8
0
100
AcDbLine
 10
72.3
 20
226.789
 30
0.0
 11
75.0
 21
226.859
 31
0.0
  0
LINE
  5
218
330
1E
100
AcDbEntity
  8
0
100
AcDbLine
 10
69.8
 20
226.6159999999999
 30
0.0
 11
72.3
 21
226.789
 31
0.0
  0
LINE
  5
219
330
1E
100
AcDbEntity
  8
0
100
AcDbLine
 10
67.59999999999999
 20
226.3209999999999
 30
0.0
 11
69.8
 21
226.6159999999999
 31
0.0
  0
LINE
  5
21A
330
1E
100
AcDbEntity
  8
0
100
AcDbLine
 10
65.9
 20
225.939
 30
0.0
 11
67.59999999999999
 21
226.3209999999999
 31
0.0
  0
LINE
  5
21B
330
1E
100
AcDbEntity
  8
0
100
AcDbLine
 10
64.90000000000001
 20
225.504
 30
0.0
 11
65.9
 21
225.939
 31
0.0
  0
LINE
  5
21C
330
1E
100
AcDbEntity
  8
0
100
AcDbLine
 10
64.5
 20
225.0359999999999
 30
0.0
 11
64.90000000000001
 21
225.504
 31
0.0
  0
LINE
  5
21D
330
1E
100
AcDbEntity
  8
0
100
AcDbLine
 10
64.5
 20
225.0359999999999
 30
0.0
 11
64.90000000000001
 21
224.567
 31
0.0
  0
ENDSEC
  0
SECTION
  2
OBJECTS
  0
DICTIONARY
  5
C
330
0
100
AcDbDictionary
  3
ACAD_GROUP
350
D
  3
ACAD_LAYOUT
350
19
  3
ACAD_MLINESTYLE
350
16
  3
ACAD_PLOTSETTINGS
350
18
  3
ACAD_PLOTSTYLENAME
350
E
  3
ACDBHEADERROUNDTRIPXREC
350
225
  3
ACDBVARIABLEDICTIONARY
350
222
  0
DICTIONARY
  5
247
330
1E
100
AcDbDictionary
280
     1
  3
ACAD_LAYOUTSELFREF
360
248
  0
DICTIONARY
  5
245
330
1A
100
AcDbDictionary
280
     1
  3
ACAD_LAYOUTSELFREF
360
246
  0
DICTIONARY
  5
D
102
{ACAD_REACTORS
330
C
102
}
330
C
100
AcDbDictionary
  0
DICTIONARY
  5
19
102
{ACAD_REACTORS
330
C
102
}
330
C
100
AcDbDictionary
  0
DICTIONARY
  5
16
102
{ACAD_REACTORS
330
C
102
}
330
C
100
AcDbDictionary
  3
STANDARD
350
17
  0
DICTIONARY
  5
18
102
{ACAD_REACTORS
330
C
102
}
330
C
100
AcDbDictionary
  0
ACDBDICTIONARYWDFLT
  5
E
102
{ACAD_REACTORS
330
C
102
}
330
C
100
AcDbDictionary
281
     1
  3
Normal
350
F
100
AcDbDictionaryWithDefault
340
F
  0
DICTIONARY
  5
225
102
{ACAD_REACTORS
330
C
102
}
330
C
100
AcDbDictionary
  3
CEPSNTYPE
350
22F
  3
FINGERPRINTGUID
350
230
  3
HYPERLINKBASE
350
228
  3
INSUNITS
350
22E
  3
LAYOUTDICT
350
22A
  3
LWETCUNION
350
22D
  3
PLOTSETDICT
350
22B
  3
PLOTSTYLNAMDICT
350
22C
  3
PSVPSCALE
350
232
  3
PUCSBASE
350
235
  3
PUCSORGBACK
350
23B
  3
PUCSORGBOTTOM
350
237
  3
PUCSORGFRONT
350
23A
  3
PUCSORGLEFT
350
238
  3
PUCSORGRIGHT
350
239
  3
PUCSORGTOP
350
236
  3
PUCSORTHOREF
350
233
  3
PUCSORTHOVIEW
350
234
  3
STYLESHEET
350
229
  3
TSTACKALIGN
350
226
  3
TSTACKSIZE
350
227
  3
UCSBASE
350
23E
  3
UCSORGBACK
350
244
  3
UCSORGBOTTOM
350
240
  3
UCSORGFRONT
350
243
  3
UCSORGLEFT
350
241
  3
UCSORGRIGHT
350
242
  3
UCSORGTOP
350
23F
  3
UCSORTHOREF
350
23C
  3
UCSORTHOVIEW
350
23D
  3
VERSIONGUID
350
231
  0
DICTIONARY
  5
222
102
{ACAD_REACTORS
330
C
102
}
330
C
100
AcDbDictionary
  3
DIMASSOC
350
223
  0
XRECORD
  5
248
102
{ACAD_REACTORS
330
247
102
}
330
247
100
AcDbXrecord
340
1E
  0
XRECORD
  5
246
102
{ACAD_REACTORS
330
245
102
}
330
245
100
AcDbXrecord
340
1A
  0
MLINESTYLE
  5
17
102
{ACAD_REACTORS
330
16
102
}
330
16
100
AcDbMlineStyle
  2
STANDARD
 70
     0
  3

 62
   256
 51
90.0
 52
90.0
 71
     2
 49
0.5
 62
   256
  6
BYLAYER
 49
-0.5
 62
   256
  6
BYLAYER
  0
ACDBPLACEHOLDER
  5
F
102
{ACAD_REACTORS
330
E
102
}
330
E
100
AcDbPlaceHolder
280
     0
  0
XRECORD
  5
22F
102
{ACAD_REACTORS
330
225
102
}
330
225
100
AcDbXrecord
 90
        0
  0
XRECORD
  5
230
102
{ACAD_REACTORS
330
225
102
}
330
225
100
AcDbXrecord
  1
{14E24052-5F99-4D2E-8D21-217353B23C13}
  0
XRECORD
  5
228
102
{ACAD_REACTORS
330
225
102
}
330
225
100
AcDbXrecord
  1

  0
XRECORD
  5
22E
102
{ACAD_REACTORS
330
225
102
}
330
225
100
AcDbXrecord
 90
        0
  0
XRECORD
  5
22A
102
{ACAD_REACTORS
330
225
102
}
330
225
100
AcDbXrecord
340
19
  0
XRECORD
  5
22D
102
{ACAD_REACTORS
330
225
102
}
330
225
100
AcDbXrecord
 90
    10781
  0
XRECORD
  5
22B
102
{ACAD_REACTORS
330
225
102
}
330
225
100
AcDbXrecord
340
18
  0
XRECORD
  5
22C
102
{ACAD_REACTORS
330
225
102
}
330
225
100
AcDbXrecord
340
E
  0
XRECORD
  5
232
102
{ACAD_REACTORS
330
225
102
}
330
225
100
AcDbXrecord
 40
0.0
  0
XRECORD
  5
235
102
{ACAD_REACTORS
330
225
102
}
330
225
100
AcDbXrecord
340
0
  0
XRECORD
  5
23B
102
{ACAD_REACTORS
330
225
102
}
330
225
100
AcDbXrecord
 10
0.0
 20
0.0
 30
0.0
  0
XRECORD
  5
237
102
{ACAD_REACTORS
330
225
102
}
330
225
100
AcDbXrecord
 10
0.0
 20
0.0
 30
0.0
  0
XRECORD
  5
23A
102
{ACAD_REACTORS
330
225
102
}
330
225
100
AcDbXrecord
 10
0.0
 20
0.0
 30
0.0
  0
XRECORD
  5
238
102
{ACAD_REACTORS
330
225
102
}
330
225
100
AcDbXrecord
 10
0.0
 20
0.0
 30
0.0
  0
XRECORD
  5
239
102
{ACAD_REACTORS
330
225
102
}
330
225
100
AcDbXrecord
 10
0.0
 20
0.0
 30
0.0
  0
XRECORD
  5
236
102
{ACAD_REACTORS
330
225
102
}
330
225
100
AcDbXrecord
 10
0.0
 20
0.0
 30
0.0
  0
XRECORD
  5
233
102
{ACAD_REACTORS
330
225
102
}
330
225
100
AcDbXrecord
340
0
  0
XRECORD
  5
234
102
{ACAD_REACTORS
330
225
102
}
330
225
100
AcDbXrecord
 70
     0
  0
XRECORD
  5
229
102
{ACAD_REACTORS
330
225
102
}
330
225
100
AcDbXrecord
  1

  0
XRECORD
  5
226
102
{ACAD_REACTORS
330
225
102
}
330
225
100
AcDbXrecord
 90
        1
  0
XRECORD
  5
227
102
{ACAD_REACTORS
330
225
102
}
330
225
100
AcDbXrecord
 90
       70
  0
XRECORD
  5
23E
102
{ACAD_REACTORS
330
225
102
}
330
225
100
AcDbXrecord
340
0
  0
XRECORD
  5
244
102
{ACAD_REACTORS
330
225
102
}
330
225
100
AcDbXrecord
 10
0.0
 20
0.0
 30
0.0
  0
XRECORD
  5
240
102
{ACAD_REACTORS
330
225
102
}
330
225
100
AcDbXrecord
 10
0.0
 20
0.0
 30
0.0
  0
XRECORD
  5
243
102
{ACAD_REACTORS
330
225
102
}
330
225
100
AcDbXrecord
 10
0.0
 20
0.0
 30
0.0
  0
XRECORD
  5
241
102
{ACAD_REACTORS
330
225
102
}
330
225
100
AcDbXrecord
 10
0.0
 20
0.0
 30
0.0
  0
XRECORD
  5
242
102
{ACAD_REACTORS
330
225
102
}
330
225
100
AcDbXrecord
 10
0.0
 20
0.0
 30
0.0
  0
XRECORD
  5
23F
102
{ACAD_REACTORS
330
225
102
}
330
225
100
AcDbXrecord
 10
0.0
 20
0.0
 30
0.0
  0
XRECORD
  5
23C
102
{ACAD_REACTORS
330
225
102
}
330
225
100
AcDbXrecord
340
0
  0
XRECORD
  5
23D
102
{ACAD_REACTORS
330
225
102
}
330
225
100
AcDbXrecord
 70
     1
  0
XRECORD
  5
231
102
{ACAD_REACTORS
330
225
102
}
330
225
100
AcDbXrecord
  1
{03068E74-3DAC-47AF-95ED-1802C1BAAACF}
  0
DICTIONARYVAR
  5
223
102
{ACAD_REACTORS
330
222
102
}
330
222
100
DictionaryVariables
280
     0
  1
1
  0
ENDSEC
  0
EOF
