  0
SECTION
  2
HEADER
  9
$SPLINETYPE
 70
     6
  9
$FILLMODE
 70
     1
  9
$LTSCALE
 40
10.000000
  0
ENDSEC
  0
SECTION
  2
TABLES
  0
TABLE
  2
LTYPE
 70
     8
  0
LTYPE
  2
SOLID
 70
    64
  3

 72
    65
 73
     0
 40
0.000000
  0
LTYPE
  2
DASH
 70
    64
  3

 72
    65
 73
     2
 40
8.000000
 49
5.000000
 49
-3.000000
  0
LTYPE
  2
CENTER
 70
    64
  3

 72
    65
 73
     4
 40
8.000000
 49
4.500000
 49
-1.500000
 49
0.500000
 49
-1.500000
  0
LTYPE
  2
L_DASH
 70
    64
  3

 72
    65
 73
     2
 40
8.000000
 49
6.500000
 49
-1.500000
  0
LTYPE
  2
FONT_5
 70
    64
  3

 72
    65
 73
     8
 40
8.000000
 49
1.000000
 49
-1.000000
 49
1.000000
 49
-1.000000
 49
1.000000
 49
-1.000000
 49
1.000000
 49
-1.000000
  0
LTYPE
  2
FONT_6
 70
    64
  3

 72
    65
 73
     4
 40
8.000000
 49
2.000000
 49
-2.000000
 49
2.000000
 49
-2.000000
  0
LTYPE
  2
FONT_7
 70
    64
  3

 72
    65
 73
     6
 40
8.000000
 49
4.000000
 49
-1.000000
 49
0.500000
 49
-1.000000
 49
0.500000
 49
-1.000000
  0
LTYPE
  2
FONT_8
 70
    64
  3

 72
    65
 73
     4
 40
8.000000
 49
2.000000
 49
-1.000000
 49
2.000000
 49
-3.000000
  0
ENDTAB
  0
TABLE
  2
LAYER
 70
   100
  0
LAYER
  2
1
 70
    64
 62
     7
  6
SOLID
  0
LAYER
  2
_____2
 70
    64
 62
     7
  6
SOLID
  0
LAYER
  2
_____3
 70
    64
 62
     7
  6
SOLID
  0
LAYER
  2
_____4
 70
    64
 62
     7
  6
SOLID
  0
LAYER
  2
_____5
 70
    64
 62
     7
  6
SOLID
  0
LAYER
  2
_____6
 70
    64
 62
     7
  6
SOLID
  0
LAYER
  2
_____7
 70
    64
 62
     7
  6
SOLID
  0
LAYER
  2
_____8
 70
    64
 62
     7
  6
SOLID
  0
LAYER
  2
_____9
 70
    64
 62
     7
  6
SOLID
  0
LAYER
  2
____10
 70
    64
 62
     7
  6
SOLID
  0
LAYER
  2
____11
 70
    64
 62
     7
  6
SOLID
  0
LAYER
  2
____12
 70
    64
 62
     7
  6
SOLID
  0
LAYER
  2
____13
 70
    64
 62
     7
  6
SOLID
  0
LAYER
  2
____14
 70
    64
 62
     7
  6
SOLID
  0
LAYER
  2
____15
 70
    64
 62
     7
  6
SOLID
  0
LAYER
  2
____16
 70
    64
 62
     7
  6
SOLID
  0
LAYER
  2
____17
 70
    64
 62
     7
  6
SOLID
  0
LAYER
  2
____18
 70
    64
 62
     7
  6
SOLID
  0
LAYER
  2
____19
 70
    64
 62
     7
  6
SOLID
  0
LAYER
  2
____20
 70
    64
 62
     7
  6
SOLID
  0
LAYER
  2
____21
 70
    64
 62
     7
  6
SOLID
  0
LAYER
  2
____22
 70
    64
 62
     7
  6
SOLID
  0
LAYER
  2
____23
 70
    64
 62
     7
  6
SOLID
  0
LAYER
  2
____24
 70
    64
 62
     7
  6
SOLID
  0
LAYER
  2
____25
 70
    64
 62
     7
  6
SOLID
  0
LAYER
  2
____26
 70
    64
 62
     7
  6
SOLID
  0
LAYER
  2
____27
 70
    64
 62
     7
  6
SOLID
  0
LAYER
  2
____28
 70
    64
 62
     7
  6
SOLID
  0
LAYER
  2
____29
 70
    64
 62
     7
  6
SOLID
  0
LAYER
  2
____30
 70
    64
 62
     7
  6
SOLID
  0
LAYER
  2
____31
 70
    64
 62
     7
  6
SOLID
  0
LAYER
  2
____32
 70
    64
 62
     7
  6
SOLID
  0
LAYER
  2
____33
 70
    64
 62
     7
  6
SOLID
  0
LAYER
  2
____34
 70
    64
 62
     7
  6
SOLID
  0
LAYER
  2
____35
 70
    64
 62
     7
  6
SOLID
  0
LAYER
  2
____36
 70
    64
 62
     7
  6
SOLID
  0
LAYER
  2
____37
 70
    64
 62
     7
  6
SOLID
  0
LAYER
  2
____38
 70
    64
 62
     7
  6
SOLID
  0
LAYER
  2
____39
 70
    64
 62
     7
  6
SOLID
  0
LAYER
  2
____40
 70
    64
 62
     7
  6
SOLID
  0
LAYER
  2
____41
 70
    64
 62
     7
  6
SOLID
  0
LAYER
  2
____42
 70
    64
 62
     7
  6
SOLID
  0
LAYER
  2
____43
 70
    64
 62
     7
  6
SOLID
  0
LAYER
  2
____44
 70
    64
 62
     7
  6
SOLID
  0
LAYER
  2
____45
 70
    64
 62
     7
  6
SOLID
  0
LAYER
  2
____46
 70
    64
 62
     7
  6
SOLID
  0
LAYER
  2
____47
 70
    64
 62
     7
  6
SOLID
  0
LAYER
  2
____48
 70
    64
 62
     7
  6
SOLID
  0
LAYER
  2
____49
 70
    64
 62
     7
  6
SOLID
  0
LAYER
  2
____50
 70
    64
 62
     7
  6
SOLID
  0
LAYER
  2
____51
 70
    64
 62
     7
  6
SOLID
  0
LAYER
  2
____52
 70
    64
 62
     7
  6
SOLID
  0
LAYER
  2
____53
 70
    64
 62
     7
  6
SOLID
  0
LAYER
  2
____54
 70
    64
 62
     7
  6
SOLID
  0
LAYER
  2
____55
 70
    64
 62
     7
  6
SOLID
  0
LAYER
  2
____56
 70
    64
 62
     7
  6
SOLID
  0
LAYER
  2
____57
 70
    64
 62
     7
  6
SOLID
  0
LAYER
  2
____58
 70
    64
 62
     7
  6
SOLID
  0
LAYER
  2
____59
 70
    64
 62
     7
  6
SOLID
  0
LAYER
  2
____60
 70
    64
 62
     7
  6
SOLID
  0
LAYER
  2
____61
 70
    64
 62
     7
  6
SOLID
  0
LAYER
  2
____62
 70
    64
 62
     7
  6
SOLID
  0
LAYER
  2
____63
 70
    64
 62
     7
  6
SOLID
  0
LAYER
  2
____64
 70
    64
 62
     7
  6
SOLID
  0
LAYER
  2
____65
 70
    64
 62
     7
  6
SOLID
  0
LAYER
  2
____66
 70
    64
 62
     7
  6
SOLID
  0
LAYER
  2
____67
 70
    64
 62
     7
  6
SOLID
  0
LAYER
  2
____68
 70
    64
 62
     7
  6
SOLID
  0
LAYER
  2
____69
 70
    64
 62
     7
  6
SOLID
  0
LAYER
  2
____70
 70
    64
 62
     7
  6
SOLID
  0
LAYER
  2
____71
 70
    64
 62
     7
  6
SOLID
  0
LAYER
  2
____72
 70
    64
 62
     7
  6
SOLID
  0
LAYER
  2
____73
 70
    64
 62
     7
  6
SOLID
  0
LAYER
  2
____74
 70
    64
 62
     7
  6
SOLID
  0
LAYER
  2
____75
 70
    64
 62
     7
  6
SOLID
  0
LAYER
  2
____76
 70
    64
 62
     7
  6
SOLID
  0
LAYER
  2
____77
 70
    64
 62
     7
  6
SOLID
  0
LAYER
  2
____78
 70
    64
 62
     7
  6
SOLID
  0
LAYER
  2
____79
 70
    64
 62
     7
  6
SOLID
  0
LAYER
  2
____80
 70
    64
 62
     7
  6
SOLID
  0
LAYER
  2
____81
 70
    64
 62
     7
  6
SOLID
  0
LAYER
  2
____82
 70
    64
 62
     7
  6
SOLID
  0
LAYER
  2
____83
 70
    64
 62
     7
  6
SOLID
  0
LAYER
  2
____84
 70
    64
 62
     7
  6
SOLID
  0
LAYER
  2
____85
 70
    64
 62
     7
  6
SOLID
  0
LAYER
  2
____86
 70
    64
 62
     7
  6
SOLID
  0
LAYER
  2
____87
 70
    64
 62
     7
  6
SOLID
  0
LAYER
  2
____88
 70
    64
 62
     7
  6
SOLID
  0
LAYER
  2
____89
 70
    64
 62
     7
  6
SOLID
  0
LAYER
  2
____90
 70
    64
 62
     7
  6
SOLID
  0
LAYER
  2
____91
 70
    64
 62
     7
  6
SOLID
  0
LAYER
  2
____92
 70
    64
 62
     7
  6
SOLID
  0
LAYER
  2
____93
 70
    64
 62
     7
  6
SOLID
  0
LAYER
  2
____94
 70
    64
 62
     7
  6
SOLID
  0
LAYER
  2
____95
 70
    64
 62
     7
  6
SOLID
  0
LAYER
  2
____96
 70
    64
 62
     7
  6
SOLID
  0
LAYER
  2
____97
 70
    64
 62
     7
  6
SOLID
  0
LAYER
  2
____98
 70
    64
 62
     7
  6
SOLID
  0
LAYER
  2
____99
 70
    64
 62
     7
  6
SOLID
  0
LAYER
  2
___100
 70
    64
 62
     7
  6
SOLID
  0
ENDTAB
  0
TABLE
  2
STYLE
 70
     1
  0
STYLE
  2
DEFAULT
 70
    64
 40
0.000000
 41
1.000000
 50
0.000000
 71
     0
 42
0.000000
  3
DEFAULT
  4

  0
STYLE
  2
STANDARD
 70
    64
 40
0.000000
 41
1.000000
 50
0.000000
 71
     0
 42
0.000000
  3
txt
  4

  0
ENDTAB
  0
TABLE
  2
UCS
 70
     2
  0
UCS
  2
XZ
 70
    64
 10
0.000000
 20
0.000000
 30
0.000000
 11
1.000000
 21
0.000000
 31
0.000000
 12
0.000000
 22
0.000000
 32
1.000000
  0
UCS
  2
YZ
 70
    64
 10
0.000000
 20
0.000000
 30
0.000000
 11
0.000000
 21
1.000000
 31
0.000000
 12
0.000000
 22
0.000000
 32
1.000000
  0
ENDTAB
  0
ENDSEC
  0
SECTION
  2
BLOCKS
  0
BLOCK
  2
*D39
  8
1
 70
    65
 10
0.000000
 20
0.000000
 30
0.000000
  3
*D39
  0
LINE
  8
1
  6
SOLID
 62
     7
 10
437.631134
 20
0.349403
 30
0.000000
 11
404.979004
 21
62.140347
 31
0.000000
  0
LINE
  8
1
  6
SOLID
 62
     7
 10
422.267334
 20
20.506565
 30
0.000000
 11
437.631134
 21
0.349403
 31
0.000000
  0
LINE
  8
1
  6
SOLID
 62
     7
 10
437.631134
 20
0.349403
 30
0.000000
 11
429.634460
 21
24.399586
 31
0.000000
  0
LINE
  8
1
  6
SOLID
 62
     7
 10
429.634460
 20
24.399586
 30
0.000000
 11
422.267334
 21
20.506565
 31
0.000000
  0
TEXT
  8
1
  6
SOLID
 62
     7
 10
367.822784
 20
159.209442
 30
0.000000
 40
25.000000
  1
R 
 50
-62.146723
  0
TEXT
  8
1
  6
SOLID
 62
     7
 10
367.822784
 20
159.209442
 30
0.000000
 40
25.000000
  1
  5
 50
-62.146723
  0
TEXT
  8
1
  6
SOLID
 62
     7
 10
407.029388
 20
85.014801
 30
0.000000
 40
20.000000
  1
INCH
 50
-62.146723
  0
ENDBLK
  0
BLOCK
  2
*D40
  8
1
 70
    65
 10
0.000000
 20
0.000000
 30
0.000000
  3
*D40
  0
LINE
  8
1
  6
SOLID
 62
     7
 10
64.333702
 20
415.689240
 30
0.000000
 11
149.782440
 21
289.930023
 31
0.000000
  0
LINE
  8
1
  6
SOLID
 62
     7
 10
81.829903
 20
397.352386
 30
0.000000
 11
64.333702
 21
415.689240
 31
0.000000
  0
LINE
  8
1
  6
SOLID
 62
     7
 10
64.333702
 20
415.689240
 30
0.000000
 11
74.937813
 21
392.669464
 31
0.000000
  0
LINE
  8
1
  6
SOLID
 62
     7
 10
74.937813
 20
392.669464
 30
0.000000
 11
81.829903
 21
397.352386
 31
0.000000
  0
TEXT
  8
1
  6
SOLID
 62
     7
 10
83.711464
 20
409.411743
 30
0.000000
 40
25.000000
  1
R 
 50
-55.805333
  0
TEXT
  8
1
  6
SOLID
 62
     7
 10
83.711464
 20
409.411743
 30
0.000000
 40
25.000000
  1
  7.76
 50
-55.805333
  0
TEXT
  8
1
  6
SOLID
 62
     7
 10
168.106064
 20
285.204010
 30
0.000000
 40
20.000000
  1
INCH
 50
-55.805333
  0
ENDBLK
  0
BLOCK
  2
*D43
  8
1
 70
    65
 10
0.000000
 20
0.000000
 30
0.000000
  3
*D43
  0
LINE
  8
1
  6
SOLID
 62
     7
 10
-24.420139
 20
182.515320
 30
0.000000
 11
-24.420135
 21
-158.484680
 31
0.000000
  0
LINE
  8
1
  6
SOLID
 62
     7
 10
241.579849
 20
-38.484680
 30
0.000000
 11
241.579865
 21
-158.484680
 31
0.000000
  0
LINE
  8
1
  6
SOLID
 62
     7
 10
-24.420135
 20
-143.484680
 30
0.000000
 11
241.579865
 21
-143.484680
 31
0.000000
  0
LINE
  8
1
  6
SOLID
 62
     7
 10
0.579864
 20
-139.318436
 30
0.000000
 11
-24.420135
 21
-143.484680
 31
0.000000
  0
LINE
  8
1
  6
SOLID
 62
     7
 10
-24.420135
 20
-143.484680
 30
0.000000
 11
0.579864
 21
-147.650925
 31
0.000000
  0
LINE
  8
1
  6
SOLID
 62
     7
 10
0.579864
 20
-147.650925
 30
0.000000
 11
0.579864
 21
-139.318436
 31
0.000000
  0
LINE
  8
1
  6
SOLID
 62
     7
 10
241.579865
 20
-143.484680
 30
0.000000
 11
-24.420135
 21
-143.484680
 31
0.000000
  0
LINE
  8
1
  6
SOLID
 62
     7
 10
216.579865
 20
-147.650925
 30
0.000000
 11
241.579865
 21
-143.484680
 31
0.000000
  0
LINE
  8
1
  6
SOLID
 62
     7
 10
241.579865
 20
-143.484680
 30
0.000000
 11
216.579865
 21
-139.318436
 31
0.000000
  0
LINE
  8
1
  6
SOLID
 62
     7
 10
216.579865
 20
-139.318436
 30
0.000000
 11
216.579865
 21
-147.650925
 31
0.000000
  0
TEXT
  8
1
  6
SOLID
 62
     7
 10
12.204878
 20
-130.984680
 30
0.000000
 40
25.000000
  1
10.47
 50
0.000000
  0
TEXT
  8
1
  6
SOLID
 62
     7
 10
140.288162
 20
-130.984680
 30
0.000000
 40
20.000000
  1
INCH
 50
0.000000
  0
ENDBLK
  0
BLOCK
  2
*D47
  8
1
 70
    65
 10
0.000000
 20
0.000000
 30
0.000000
  3
*D47
  0
LINE
  8
1
  6
SOLID
 62
     7
 10
241.579849
 20
-38.484680
 30
0.000000
 11
241.579849
 21
-158.484680
 31
0.000000
  0
LINE
  8
1
  6
SOLID
 62
     7
 10
507.579865
 20
182.515320
 30
0.000000
 11
507.579834
 21
-158.484680
 31
0.000000
  0
LINE
  8
1
  6
SOLID
 62
     7
 10
241.579849
 20
-143.484680
 30
0.000000
 11
507.579834
 21
-143.484680
 31
0.000000
  0
LINE
  8
1
  6
SOLID
 62
     7
 10
266.579834
 20
-139.318436
 30
0.000000
 11
241.579849
 21
-143.484680
 31
0.000000
  0
LINE
  8
1
  6
SOLID
 62
     7
 10
241.579849
 20
-143.484680
 30
0.000000
 11
266.579834
 21
-147.650925
 31
0.000000
  0
LINE
  8
1
  6
SOLID
 62
     7
 10
266.579834
 20
-147.650925
 30
0.000000
 11
266.579834
 21
-139.318436
 31
0.000000
  0
LINE
  8
1
  6
SOLID
 62
     7
 10
507.579834
 20
-143.484680
 30
0.000000
 11
241.579849
 21
-143.484680
 31
0.000000
  0
LINE
  8
1
  6
SOLID
 62
     7
 10
482.579834
 20
-147.650925
 30
0.000000
 11
507.579834
 21
-143.484680
 31
0.000000
  0
LINE
  8
1
  6
SOLID
 62
     7
 10
507.579834
 20
-143.484680
 30
0.000000
 11
482.579834
 21
-139.318436
 31
0.000000
  0
LINE
  8
1
  6
SOLID
 62
     7
 10
482.579834
 20
-139.318436
 30
0.000000
 11
482.579834
 21
-147.650925
 31
0.000000
  0
TEXT
  8
1
  6
SOLID
 62
     7
 10
278.204865
 20
-130.984680
 30
0.000000
 40
25.000000
  1
10.47
 50
0.000000
  0
TEXT
  8
1
  6
SOLID
 62
     7
 10
406.288147
 20
-130.984680
 30
0.000000
 40
20.000000
  1
INCH
 50
0.000000
  0
ENDBLK
  0
BLOCK
  2
*D53
  8
1
 70
    65
 10
0.000000
 20
0.000000
 30
0.000000
  3
*D53
  0
LINE
  8
1
  6
SOLID
 62
     7
 10
-43.916748
 20
217.515320
 30
0.000000
 11
-163.908340
 21
217.515320
 31
0.000000
  0
LINE
  8
1
  6
SOLID
 62
     7
 10
241.579849
 20
452.515320
 30
0.000000
 11
-163.908340
 21
452.515320
 31
0.000000
  0
LINE
  8
1
  6
SOLID
 62
     7
 10
-148.908340
 20
217.515320
 30
0.000000
 11
-148.908340
 21
452.515320
 31
0.000000
  0
LINE
  8
1
  6
SOLID
 62
     7
 10
-153.074585
 20
242.515320
 30
0.000000
 11
-148.908340
 21
217.515320
 31
0.000000
  0
LINE
  8
1
  6
SOLID
 62
     7
 10
-148.908340
 20
217.515320
 30
0.000000
 11
-144.742096
 21
242.515320
 31
0.000000
  0
LINE
  8
1
  6
SOLID
 62
     7
 10
-144.742096
 20
242.515320
 30
0.000000
 11
-153.074585
 21
242.515320
 31
0.000000
  0
LINE
  8
1
  6
SOLID
 62
     7
 10
-148.908340
 20
452.515320
 30
0.000000
 11
-148.908340
 21
217.515320
 31
0.000000
  0
LINE
  8
1
  6
SOLID
 62
     7
 10
-144.742096
 20
427.515320
 30
0.000000
 11
-148.908340
 21
452.515320
 31
0.000000
  0
LINE
  8
1
  6
SOLID
 62
     7
 10
-148.908340
 20
452.515320
 30
0.000000
 11
-153.074585
 21
427.515320
 31
0.000000
  0
LINE
  8
1
  6
SOLID
 62
     7
 10
-153.074585
 20
427.515320
 30
0.000000
 11
-144.742096
 21
427.515320
 31
0.000000
  0
TEXT
  8
1
  6
SOLID
 62
     7
 10
-161.408340
 20
249.682007
 30
0.000000
 40
25.000000
  1
9.25
 50
90.000003
  0
TEXT
  8
1
  6
SOLID
 62
     7
 10
-161.408340
 20
355.681976
 30
0.000000
 40
20.000000
  1
INCH
 50
90.000003
  0
ENDBLK
  0
BLOCK
  2
*D60
  8
1
 70
    65
 10
0.000000
 20
0.000000
 30
0.000000
  3
*D60
  0
LINE
  8
1
  6
SOLID
 62
     7
 10
241.579849
 20
-18.484680
 30
0.000000
 11
-165.569489
 21
-18.484673
 31
0.000000
  0
LINE
  8
1
  6
SOLID
 62
     7
 10
-43.916748
 20
217.515320
 30
0.000000
 11
-165.569489
 21
217.515320
 31
0.000000
  0
LINE
  8
1
  6
SOLID
 62
     7
 10
-150.569489
 20
-18.484673
 30
0.000000
 11
-150.569489
 21
217.515320
 31
0.000000
  0
LINE
  8
1
  6
SOLID
 62
     7
 10
-154.735733
 20
6.515320
 30
0.000000
 11
-150.569489
 21
-18.484673
 31
0.000000
  0
LINE
  8
1
  6
SOLID
 62
     7
 10
-150.569489
 20
-18.484673
 30
0.000000
 11
-146.403244
 21
6.515320
 31
0.000000
  0
LINE
  8
1
  6
SOLID
 62
     7
 10
-146.403244
 20
6.515320
 30
0.000000
 11
-154.735733
 21
6.515320
 31
0.000000
  0
LINE
  8
1
  6
SOLID
 62
     7
 10
-150.569489
 20
217.515320
 30
0.000000
 11
-150.569489
 21
-18.484673
 31
0.000000
  0
LINE
  8
1
  6
SOLID
 62
     7
 10
-146.403244
 20
192.515320
 30
0.000000
 11
-150.569489
 21
217.515320
 31
0.000000
  0
LINE
  8
1
  6
SOLID
 62
     7
 10
-150.569489
 20
217.515320
 30
0.000000
 11
-154.735733
 21
192.515320
 31
0.000000
  0
LINE
  8
1
  6
SOLID
 62
     7
 10
-154.735733
 20
192.515320
 30
0.000000
 11
-146.403244
 21
192.515320
 31
0.000000
  0
TEXT
  8
1
  6
SOLID
 62
     7
 10
-163.069489
 20
36.893684
 30
0.000000
 40
25.000000
  1
9.29
 50
90.000003
  0
TEXT
  8
1
  6
SOLID
 62
     7
 10
-163.069489
 20
142.893646
 30
0.000000
 40
20.000000
  1
INCH
 50
90.000003
  0
ENDBLK
  0
BLOCK
  2
*D84
  8
1
 70
    65
 10
0.000000
 20
0.000000
 30
0.000000
  3
*D84
  0
LINE
  8
1
  6
SOLID
 62
     7
 10
-24.416498
 20
185.467224
 30
0.000000
 11
-24.416504
 21
-233.484680
 31
0.000000
  0
LINE
  8
1
  6
SOLID
 62
     7
 10
507.576202
 20
185.467331
 30
0.000000
 11
507.576172
 21
-233.484680
 31
0.000000
  0
LINE
  8
1
  6
SOLID
 62
     7
 10
-24.416504
 20
-218.484680
 30
0.000000
 11
507.576172
 21
-218.484680
 31
0.000000
  0
LINE
  8
1
  6
SOLID
 62
     7
 10
0.583500
 20
-214.318436
 30
0.000000
 11
-24.416504
 21
-218.484680
 31
0.000000
  0
LINE
  8
1
  6
SOLID
 62
     7
 10
-24.416504
 20
-218.484680
 30
0.000000
 11
0.583500
 21
-222.650925
 31
0.000000
  0
LINE
  8
1
  6
SOLID
 62
     7
 10
0.583500
 20
-222.650925
 30
0.000000
 11
0.583500
 21
-214.318436
 31
0.000000
  0
LINE
  8
1
  6
SOLID
 62
     7
 10
507.576172
 20
-218.484680
 30
0.000000
 11
-24.416504
 21
-218.484680
 31
0.000000
  0
LINE
  8
1
  6
SOLID
 62
     7
 10
482.576172
 20
-222.650925
 30
0.000000
 11
507.576172
 21
-218.484680
 31
0.000000
  0
LINE
  8
1
  6
SOLID
 62
     7
 10
507.576172
 20
-218.484680
 30
0.000000
 11
482.576172
 21
-214.318436
 31
0.000000
  0
LINE
  8
1
  6
SOLID
 62
     7
 10
482.576172
 20
-214.318436
 30
0.000000
 11
482.576172
 21
-222.650925
 31
0.000000
  0
TEXT
  8
1
  6
SOLID
 62
     7
 10
156.246552
 20
-205.984680
 30
0.000000
 40
25.000000
  1
20.9
 50
0.000000
  0
TEXT
  8
1
  6
SOLID
 62
     7
 10
262.246521
 20
-205.984680
 30
0.000000
 40
20.000000
  1
INCH
 50
0.000000
  0
ENDBLK
  0
BLOCK
  2
*D105
  8
1
 70
    65
 10
0.000000
 20
0.000000
 30
0.000000
  3
*D105
  0
LINE
  8
1
  6
SOLID
 62
     7
 10
241.579849
 20
-18.484680
 30
0.000000
 11
-238.908340
 21
-18.484680
 31
0.000000
  0
LINE
  8
1
  6
SOLID
 62
     7
 10
241.579865
 20
452.515320
 30
0.000000
 11
-238.908340
 21
452.515320
 31
0.000000
  0
LINE
  8
1
  6
SOLID
 62
     7
 10
-223.908340
 20
-18.484680
 30
0.000000
 11
-223.908340
 21
452.515320
 31
0.000000
  0
LINE
  8
1
  6
SOLID
 62
     7
 10
-228.074585
 20
6.515308
 30
0.000000
 11
-223.908340
 21
-18.484680
 31
0.000000
  0
LINE
  8
1
  6
SOLID
 62
     7
 10
-223.908340
 20
-18.484680
 30
0.000000
 11
-219.742096
 21
6.515308
 31
0.000000
  0
LINE
  8
1
  6
SOLID
 62
     7
 10
-219.742096
 20
6.515308
 30
0.000000
 11
-228.074585
 21
6.515308
 31
0.000000
  0
LINE
  8
1
  6
SOLID
 62
     7
 10
-223.908340
 20
452.515320
 30
0.000000
 11
-223.908340
 21
-18.484680
 31
0.000000
  0
LINE
  8
1
  6
SOLID
 62
     7
 10
-219.742096
 20
427.515320
 30
0.000000
 11
-223.908340
 21
452.515320
 31
0.000000
  0
LINE
  8
1
  6
SOLID
 62
     7
 10
-223.908340
 20
452.515320
 30
0.000000
 11
-228.074585
 21
427.515320
 31
0.000000
  0
LINE
  8
1
  6
SOLID
 62
     7
 10
-228.074585
 20
427.515320
 30
0.000000
 11
-219.742096
 21
427.515320
 31
0.000000
  0
TEXT
  8
1
  6
SOLID
 62
     7
 10
-236.408340
 20
131.682007
 30
0.000000
 40
25.000000
  1
18.5
 50
90.000003
  0
TEXT
  8
1
  6
SOLID
 62
     7
 10
-236.408340
 20
237.681961
 30
0.000000
 40
20.000000
  1
INCH
 50
90.000003
  0
ENDBLK
  0
BLOCK
  2
*D108
  8
1
 70
    65
 10
0.000000
 20
0.000000
 30
0.000000
  3
*D108
  0
LINE
  8
1
  6
SOLID
 62
     7
 10
527.579834
 20
182.515320
 30
0.000000
 11
637.649109
 21
182.515320
 31
0.000000
  0
LINE
  8
1
  6
SOLID
 62
     7
 10
527.076477
 20
217.515320
 30
0.000000
 11
637.649109
 21
217.515320
 31
0.000000
  0
LINE
  8
1
  6
SOLID
 62
     7
 10
622.649109
 20
182.515320
 30
0.000000
 11
622.649109
 21
385.586578
 31
0.000000
  0
LINE
  8
1
  6
SOLID
 62
     7
 10
622.649109
 20
385.586578
 30
0.000000
 11
622.649109
 21
145.015320
 31
0.000000
  0
LINE
  8
1
  6
SOLID
 62
     7
 10
618.482849
 20
207.515320
 30
0.000000
 11
622.649109
 21
182.515320
 31
0.000000
  0
LINE
  8
1
  6
SOLID
 62
     7
 10
622.649109
 20
182.515320
 30
0.000000
 11
626.815369
 21
207.515320
 31
0.000000
  0
LINE
  8
1
  6
SOLID
 62
     7
 10
626.815369
 20
207.515320
 30
0.000000
 11
618.482849
 21
207.515320
 31
0.000000
  0
LINE
  8
1
  6
SOLID
 62
     7
 10
622.649109
 20
217.515320
 30
0.000000
 11
622.649109
 21
145.015320
 31
0.000000
  0
LINE
  8
1
  6
SOLID
 62
     7
 10
622.649109
 20
145.015320
 30
0.000000
 11
622.649109
 21
385.586578
 31
0.000000
  0
LINE
  8
1
  6
SOLID
 62
     7
 10
626.815369
 20
192.515320
 30
0.000000
 11
622.649109
 21
217.515320
 31
0.000000
  0
LINE
  8
1
  6
SOLID
 62
     7
 10
622.649109
 20
217.515320
 30
0.000000
 11
618.482849
 21
192.515320
 31
0.000000
  0
LINE
  8
1
  6
SOLID
 62
     7
 10
618.482849
 20
192.515320
 30
0.000000
 11
626.815369
 21
192.515320
 31
0.000000
  0
TEXT
  8
1
  6
SOLID
 62
     7
 10
610.149109
 20
225.961609
 30
0.000000
 40
25.000000
  1
1.4
 50
90.000003
  0
TEXT
  8
1
  6
SOLID
 62
     7
 10
610.149109
 20
309.878235
 30
0.000000
 40
20.000000
  1
INCH
 50
90.000003
  0
ENDBLK
  0
BLOCK
  2
*D117
  8
1
 70
    65
 10
0.000000
 20
0.000000
 30
0.000000
  3
*D117
  0
LINE
  8
1
  6
SOLID
 62
     7
 10
-23.406185
 20
231.773514
 30
0.000000
 11
185.189667
 21
223.182236
 31
0.000000
  0
LINE
  8
1
  6
SOLID
 62
     7
 10
1.744084
 20
234.907455
 30
0.000000
 11
-23.406185
 21
231.773514
 31
0.000000
  0
LINE
  8
1
  6
SOLID
 62
     7
 10
-23.406185
 20
231.773514
 30
0.000000
 11
1.401192
 21
226.582016
 31
0.000000
  0
LINE
  8
1
  6
SOLID
 62
     7
 10
1.401192
 20
226.582016
 30
0.000000
 11
1.744084
 21
234.907455
 31
0.000000
  0
TEXT
  8
1
  6
SOLID
 62
     7
 10
-62.044186
 20
245.875473
 30
0.000000
 40
25.000000
  1
R 
 50
-2.358466
  0
TEXT
  8
1
  6
SOLID
 62
     7
 10
-62.044186
 20
245.875473
 30
0.000000
 40
25.000000
  1
  47.13
 50
-2.358466
  0
TEXT
  8
1
  6
SOLID
 62
     7
 10
110.059845
 20
238.787155
 30
0.000000
 40
20.000000
  1
INCH
 50
-2.358466
  0
ENDBLK
  0
BLOCK
  2
*D118
  8
1
 70
    65
 10
0.000000
 20
0.000000
 30
0.000000
  3
*D118
  0
LINE
  8
1
  6
SOLID
 62
     7
 10
183.896606
 20
-17.790403
 30
0.000000
 11
189.999695
 21
235.746994
 31
0.000000
  0
LINE
  8
1
  6
SOLID
 62
     7
 10
180.333191
 20
7.302623
 30
0.000000
 11
183.896606
 21
-17.790403
 31
0.000000
  0
LINE
  8
1
  6
SOLID
 62
     7
 10
183.896606
 20
-17.790403
 30
0.000000
 11
188.663269
 21
7.102101
 31
0.000000
  0
LINE
  8
1
  6
SOLID
 62
     7
 10
188.663269
 20
7.102101
 30
0.000000
 11
180.333191
 21
7.302623
 31
0.000000
  0
TEXT
  8
1
  6
SOLID
 62
     7
 10
171.536240
 20
-11.838681
 30
0.000000
 40
25.000000
  1
R 
 50
88.621056
  0
TEXT
  8
1
  6
SOLID
 62
     7
 10
171.536240
 20
-11.838681
 30
0.000000
 40
25.000000
  1
  94.37
 50
88.621056
  0
TEXT
  8
1
  6
SOLID
 62
     7
 10
175.681396
 20
160.361374
 30
0.000000
 40
20.000000
  1
INCH
 50
88.621056
  0
ENDBLK
  0
BLOCK
  2
*D120
  8
1
 70
    65
 10
0.000000
 20
0.000000
 30
0.000000
  3
*D120
  0
LINE
  8
1
  6
SOLID
 62
     7
 10
309.366272
 20
450.208221
 30
0.000000
 11
292.334229
 21
200.281204
 31
0.000000
  0
LINE
  8
1
  6
SOLID
 62
     7
 10
311.823120
 20
424.982819
 30
0.000000
 11
309.366272
 21
450.208221
 31
0.000000
  0
LINE
  8
1
  6
SOLID
 62
     7
 10
309.366272
 20
450.208221
 30
0.000000
 11
303.509888
 21
425.549347
 31
0.000000
  0
LINE
  8
1
  6
SOLID
 62
     7
 10
303.509888
 20
425.549347
 30
0.000000
 11
311.823120
 21
424.982819
 31
0.000000
  0
TEXT
  8
1
  6
SOLID
 62
     7
 10
280.613892
 20
212.147186
 30
0.000000
 40
25.000000
  1
R 
 50
86.101426
  0
TEXT
  8
1
  6
SOLID
 62
     7
 10
280.613892
 20
212.147186
 30
0.000000
 40
25.000000
  1
  39.25
 50
86.101426
  0
TEXT
  8
1
  6
SOLID
 62
     7
 10
292.325256
 20
383.998566
 30
0.000000
 40
20.000000
  1
INCH
 50
86.101426
  0
ENDBLK
  0
BLOCK
  2
*H86
  8
1
 70
    65
 10
0.000000
 20
0.000000
 30
0.000000
  3
*H86
  0
LINE
  8
1
  6
SOLID
 62
     7
 10
241.579834
 20
207.565292
 30
0.000000
 11
242.105042
 21
207.565292
 31
0.000000
  0
LINE
  8
1
  6
SOLID
 62
     7
 10
243.155518
 20
207.665268
 30
0.000000
 11
241.579834
 21
207.665268
 31
0.000000
  0
LINE
  8
1
  6
SOLID
 62
     7
 10
241.579834
 20
207.765244
 30
0.000000
 11
243.706726
 21
207.765244
 31
0.000000
  0
LINE
  8
1
  6
SOLID
 62
     7
 10
244.048462
 20
207.865219
 30
0.000000
 11
241.579834
 21
207.865219
 31
0.000000
  0
LINE
  8
1
  6
SOLID
 62
     7
 10
241.579834
 20
207.965195
 30
0.000000
 11
244.390198
 21
207.965195
 31
0.000000
  0
LINE
  8
1
  6
SOLID
 62
     7
 10
244.731934
 20
208.065170
 30
0.000000
 11
241.579834
 21
208.065170
 31
0.000000
  0
LINE
  8
1
  6
SOLID
 62
     7
 10
241.579834
 20
208.165146
 30
0.000000
 11
245.073669
 21
208.165146
 31
0.000000
  0
LINE
  8
1
  6
SOLID
 62
     7
 10
245.359009
 20
208.265121
 30
0.000000
 11
241.579834
 21
208.265121
 31
0.000000
  0
LINE
  8
1
  6
SOLID
 62
     7
 10
241.579834
 20
208.365097
 30
0.000000
 11
245.553711
 21
208.365097
 31
0.000000
  0
LINE
  8
1
  6
SOLID
 62
     7
 10
245.748413
 20
208.465073
 30
0.000000
 11
241.579834
 21
208.465073
 31
0.000000
  0
LINE
  8
1
  6
SOLID
 62
     7
 10
241.579834
 20
208.565048
 30
0.000000
 11
245.943115
 21
208.565048
 31
0.000000
  0
LINE
  8
1
  6
SOLID
 62
     7
 10
246.137817
 20
208.665024
 30
0.000000
 11
241.579834
 21
208.665024
 31
0.000000
  0
LINE
  8
1
  6
SOLID
 62
     7
 10
241.579834
 20
208.764999
 30
0.000000
 11
246.332520
 21
208.764999
 31
0.000000
  0
LINE
  8
1
  6
SOLID
 62
     7
 10
246.527222
 20
208.864975
 30
0.000000
 11
241.579834
 21
208.864975
 31
0.000000
  0
LINE
  8
1
  6
SOLID
 62
     7
 10
241.579834
 20
208.964951
 30
0.000000
 11
246.721924
 21
208.964951
 31
0.000000
  0
LINE
  8
1
  6
SOLID
 62
     7
 10
246.916565
 20
209.064926
 30
0.000000
 11
241.579834
 21
209.064926
 31
0.000000
  0
LINE
  8
1
  6
SOLID
 62
     7
 10
241.579834
 20
209.164902
 30
0.000000
 11
247.062622
 21
209.164902
 31
0.000000
  0
LINE
  8
1
  6
SOLID
 62
     7
 10
247.190308
 20
209.264877
 30
0.000000
 11
241.579834
 21
209.264877
 31
0.000000
  0
LINE
  8
1
  6
SOLID
 62
     7
 10
241.579834
 20
209.364853
 30
0.000000
 11
247.318054
 21
209.364853
 31
0.000000
  0
LINE
  8
1
  6
SOLID
 62
     7
 10
247.445801
 20
209.464828
 30
0.000000
 11
241.579834
 21
209.464828
 31
0.000000
  0
LINE
  8
1
  6
SOLID
 62
     7
 10
241.579834
 20
209.564804
 30
0.000000
 11
247.573486
 21
209.564804
 31
0.000000
  0
LINE
  8
1
  6
SOLID
 62
     7
 10
247.701233
 20
209.664780
 30
0.000000
 11
241.579834
 21
209.664780
 31
0.000000
  0
LINE
  8
1
  6
SOLID
 62
     7
 10
241.579834
 20
209.764755
 30
0.000000
 11
247.828979
 21
209.764755
 31
0.000000
  0
LINE
  8
1
  6
SOLID
 62
     7
 10
247.956665
 20
209.864731
 30
0.000000
 11
241.579834
 21
209.864731
 31
0.000000
  0
LINE
  8
1
  6
SOLID
 62
     7
 10
241.579834
 20
209.964706
 30
0.000000
 11
248.084412
 21
209.964706
 31
0.000000
  0
LINE
  8
1
  6
SOLID
 62
     7
 10
248.212158
 20
210.064682
 30
0.000000
 11
241.579834
 21
210.064682
 31
0.000000
  0
LINE
  8
1
  6
SOLID
 62
     7
 10
241.579834
 20
210.164658
 30
0.000000
 11
248.339844
 21
210.164658
 31
0.000000
  0
LINE
  8
1
  6
SOLID
 62
     7
 10
248.465698
 20
210.264633
 30
0.000000
 11
241.579834
 21
210.264633
 31
0.000000
  0
LINE
  8
1
  6
SOLID
 62
     7
 10
241.579834
 20
210.364609
 30
0.000000
 11
248.552856
 21
210.364609
 31
0.000000
  0
LINE
  8
1
  6
SOLID
 62
     7
 10
248.640015
 20
210.464584
 30
0.000000
 11
241.579834
 21
210.464584
 31
0.000000
  0
LINE
  8
1
  6
SOLID
 62
     7
 10
241.579834
 20
210.564560
 30
0.000000
 11
248.727173
 21
210.564560
 31
0.000000
  0
LINE
  8
1
  6
SOLID
 62
     7
 10
248.814270
 20
210.664536
 30
0.000000
 11
241.579834
 21
210.664536
 31
0.000000
  0
LINE
  8
1
  6
SOLID
 62
     7
 10
241.579834
 20
210.764511
 30
0.000000
 11
248.901428
 21
210.764511
 31
0.000000
  0
LINE
  8
1
  6
SOLID
 62
     7
 10
248.988586
 20
210.864487
 30
0.000000
 11
241.579834
 21
210.864487
 31
0.000000
  0
LINE
  8
1
  6
SOLID
 62
     7
 10
241.579834
 20
210.964462
 30
0.000000
 11
249.075745
 21
210.964462
 31
0.000000
  0
LINE
  8
1
  6
SOLID
 62
     7
 10
249.162903
 20
211.064438
 30
0.000000
 11
241.579834
 21
211.064438
 31
0.000000
  0
LINE
  8
1
  6
SOLID
 62
     7
 10
241.579834
 20
211.164413
 30
0.000000
 11
249.250000
 21
211.164413
 31
0.000000
  0
LINE
  8
1
  6
SOLID
 62
     7
 10
249.337158
 20
211.264389
 30
0.000000
 11
241.579834
 21
211.264389
 31
0.000000
  0
LINE
  8
1
  6
SOLID
 62
     7
 10
241.579834
 20
211.364365
 30
0.000000
 11
249.424316
 21
211.364365
 31
0.000000
  0
LINE
  8
1
  6
SOLID
 62
     7
 10
249.511475
 20
211.464340
 30
0.000000
 11
241.579834
 21
211.464340
 31
0.000000
  0
LINE
  8
1
  6
SOLID
 62
     7
 10
241.579834
 20
211.564316
 30
0.000000
 11
249.598633
 21
211.564316
 31
0.000000
  0
LINE
  8
1
  6
SOLID
 62
     7
 10
249.685730
 20
211.664291
 30
0.000000
 11
241.579834
 21
211.664291
 31
0.000000
  0
LINE
  8
1
  6
SOLID
 62
     7
 10
241.579834
 20
211.764267
 30
0.000000
 11
249.750854
 21
211.764267
 31
0.000000
  0
LINE
  8
1
  6
SOLID
 62
     7
 10
249.809082
 20
211.864243
 30
0.000000
 11
241.579834
 21
211.864243
 31
0.000000
  0
LINE
  8
1
  6
SOLID
 62
     7
 10
241.579834
 20
211.964218
 30
0.000000
 11
249.867310
 21
211.964218
 31
0.000000
  0
LINE
  8
1
  6
SOLID
 62
     7
 10
249.925476
 20
212.064194
 30
0.000000
 11
241.579834
 21
212.064194
 31
0.000000
  0
LINE
  8
1
  6
SOLID
 62
     7
 10
241.579834
 20
212.164169
 30
0.000000
 11
249.983704
 21
212.164169
 31
0.000000
  0
LINE
  8
1
  6
SOLID
 62
     7
 10
250.041870
 20
212.264145
 30
0.000000
 11
241.579834
 21
212.264145
 31
0.000000
  0
LINE
  8
1
  6
SOLID
 62
     7
 10
241.579834
 20
212.364120
 30
0.000000
 11
250.100098
 21
212.364120
 31
0.000000
  0
LINE
  8
1
  6
SOLID
 62
     7
 10
250.158264
 20
212.464096
 30
0.000000
 11
241.579834
 21
212.464096
 31
0.000000
  0
LINE
  8
1
  6
SOLID
 62
     7
 10
241.579834
 20
212.564072
 30
0.000000
 11
250.216492
 21
212.564072
 31
0.000000
  0
LINE
  8
1
  6
SOLID
 62
     7
 10
250.274719
 20
212.664047
 30
0.000000
 11
241.579834
 21
212.664047
 31
0.000000
  0
LINE
  8
1
  6
SOLID
 62
     7
 10
241.579834
 20
212.764023
 30
0.000000
 11
250.332886
 21
212.764023
 31
0.000000
  0
LINE
  8
1
  6
SOLID
 62
     7
 10
250.391113
 20
212.863998
 30
0.000000
 11
241.579834
 21
212.863998
 31
0.000000
  0
LINE
  8
1
  6
SOLID
 62
     7
 10
241.579834
 20
212.963974
 30
0.000000
 11
250.449280
 21
212.963974
 31
0.000000
  0
LINE
  8
1
  6
SOLID
 62
     7
 10
250.507507
 20
213.063950
 30
0.000000
 11
241.579834
 21
213.063950
 31
0.000000
  0
LINE
  8
1
  6
SOLID
 62
     7
 10
241.579834
 20
213.163925
 30
0.000000
 11
250.565674
 21
213.163925
 31
0.000000
  0
LINE
  8
1
  6
SOLID
 62
     7
 10
250.623901
 20
213.263901
 30
0.000000
 11
241.579834
 21
213.263901
 31
0.000000
  0
LINE
  8
1
  6
SOLID
 62
     7
 10
241.579834
 20
213.363876
 30
0.000000
 11
250.675842
 21
213.363876
 31
0.000000
  0
LINE
  8
1
  6
SOLID
 62
     7
 10
250.717651
 20
213.463852
 30
0.000000
 11
241.579834
 21
213.463852
 31
0.000000
  0
LINE
  8
1
  6
SOLID
 62
     7
 10
241.579834
 20
213.563828
 30
0.000000
 11
250.759521
 21
213.563828
 31
0.000000
  0
LINE
  8
1
  6
SOLID
 62
     7
 10
250.801331
 20
213.663803
 30
0.000000
 11
241.579834
 21
213.663803
 31
0.000000
  0
LINE
  8
1
  6
SOLID
 62
     7
 10
241.579834
 20
213.763779
 30
0.000000
 11
250.843140
 21
213.763779
 31
0.000000
  0
LINE
  8
1
  6
SOLID
 62
     7
 10
250.885010
 20
213.863754
 30
0.000000
 11
241.579834
 21
213.863754
 31
0.000000
  0
LINE
  8
1
  6
SOLID
 62
     7
 10
241.579834
 20
213.963730
 30
0.000000
 11
250.926819
 21
213.963730
 31
0.000000
  0
LINE
  8
1
  6
SOLID
 62
     7
 10
250.962585
 20
214.063705
 30
0.000000
 11
241.579834
 21
214.063705
 31
0.000000
  0
LINE
  8
1
  6
SOLID
 62
     7
 10
241.579834
 20
214.163681
 30
0.000000
 11
250.996216
 21
214.163681
 31
0.000000
  0
LINE
  8
1
  6
SOLID
 62
     7
 10
251.029785
 20
214.263657
 30
0.000000
 11
241.579834
 21
214.263657
 31
0.000000
  0
LINE
  8
1
  6
SOLID
 62
     7
 10
241.579834
 20
214.363632
 30
0.000000
 11
251.063416
 21
214.363632
 31
0.000000
  0
LINE
  8
1
  6
SOLID
 62
     7
 10
251.096985
 20
214.463608
 30
0.000000
 11
241.579834
 21
214.463608
 31
0.000000
  0
LINE
  8
1
  6
SOLID
 62
     7
 10
241.579834
 20
214.563583
 30
0.000000
 11
251.130615
 21
214.563583
 31
0.000000
  0
LINE
  8
1
  6
SOLID
 62
     7
 10
251.164185
 20
214.663559
 30
0.000000
 11
241.579834
 21
214.663559
 31
0.000000
  0
LINE
  8
1
  6
SOLID
 62
     7
 10
241.579834
 20
214.763535
 30
0.000000
 11
251.190674
 21
214.763535
 31
0.000000
  0
LINE
  8
1
  6
SOLID
 62
     7
 10
251.216431
 20
214.863510
 30
0.000000
 11
241.579834
 21
214.863510
 31
0.000000
  0
LINE
  8
1
  6
SOLID
 62
     7
 10
241.579834
 20
214.963486
 30
0.000000
 11
251.242249
 21
214.963486
 31
0.000000
  0
LINE
  8
1
  6
SOLID
 62
     7
 10
251.268005
 20
215.063461
 30
0.000000
 11
241.579834
 21
215.063461
 31
0.000000
  0
LINE
  8
1
  6
SOLID
 62
     7
 10
241.579834
 20
215.163437
 30
0.000000
 11
251.293762
 21
215.163437
 31
0.000000
  0
LINE
  8
1
  6
SOLID
 62
     7
 10
251.319519
 20
215.263412
 30
0.000000
 11
241.579834
 21
215.263412
 31
0.000000
  0
LINE
  8
1
  6
SOLID
 62
     7
 10
241.579834
 20
215.363388
 30
0.000000
 11
251.345276
 21
215.363388
 31
0.000000
  0
LINE
  8
1
  6
SOLID
 62
     7
 10
251.364014
 20
215.463364
 30
0.000000
 11
241.579834
 21
215.463364
 31
0.000000
  0
LINE
  8
1
  6
SOLID
 62
     7
 10
241.579834
 20
215.563339
 30
0.000000
 11
251.382202
 21
215.563339
 31
0.000000
  0
LINE
  8
1
  6
SOLID
 62
     7
 10
251.400452
 20
215.663315
 30
0.000000
 11
241.579834
 21
215.663315
 31
0.000000
  0
LINE
  8
1
  6
SOLID
 62
     7
 10
241.579834
 20
215.763290
 30
0.000000
 11
251.418640
 21
215.763290
 31
0.000000
  0
LINE
  8
1
  6
SOLID
 62
     7
 10
251.436829
 20
215.863266
 30
0.000000
 11
241.579834
 21
215.863266
 31
0.000000
  0
LINE
  8
1
  6
SOLID
 62
     7
 10
241.579834
 20
215.963242
 30
0.000000
 11
251.455078
 21
215.963242
 31
0.000000
  0
LINE
  8
1
  6
SOLID
 62
     7
 10
251.473267
 20
216.063217
 30
0.000000
 11
241.579834
 21
216.063217
 31
0.000000
  0
LINE
  8
1
  6
SOLID
 62
     7
 10
241.579834
 20
216.163193
 30
0.000000
 11
251.485291
 21
216.163193
 31
0.000000
  0
LINE
  8
1
  6
SOLID
 62
     7
 10
251.496155
 20
216.263168
 30
0.000000
 11
241.579834
 21
216.263168
 31
0.000000
  0
LINE
  8
1
  6
SOLID
 62
     7
 10
241.579834
 20
216.363144
 30
0.000000
 11
251.507019
 21
216.363144
 31
0.000000
  0
LINE
  8
1
  6
SOLID
 62
     7
 10
251.517822
 20
216.463120
 30
0.000000
 11
241.579834
 21
216.463120
 31
0.000000
  0
LINE
  8
1
  6
SOLID
 62
     7
 10
241.579834
 20
216.563095
 30
0.000000
 11
251.528687
 21
216.563095
 31
0.000000
  0
LINE
  8
1
  6
SOLID
 62
     7
 10
251.539551
 20
216.663071
 30
0.000000
 11
241.579834
 21
216.663071
 31
0.000000
  0
LINE
  8
1
  6
SOLID
 62
     7
 10
241.579834
 20
216.763046
 30
0.000000
 11
251.550354
 21
216.763046
 31
0.000000
  0
LINE
  8
1
  6
SOLID
 62
     7
 10
251.556335
 20
216.863022
 30
0.000000
 11
241.579834
 21
216.863022
 31
0.000000
  0
LINE
  8
1
  6
SOLID
 62
     7
 10
241.579834
 20
216.962997
 30
0.000000
 11
251.559937
 21
216.962997
 31
0.000000
  0
LINE
  8
1
  6
SOLID
 62
     7
 10
251.563538
 20
217.062973
 30
0.000000
 11
241.579834
 21
217.062973
 31
0.000000
  0
LINE
  8
1
  6
SOLID
 62
     7
 10
241.579834
 20
217.162949
 30
0.000000
 11
251.567139
 21
217.162949
 31
0.000000
  0
LINE
  8
1
  6
SOLID
 62
     7
 10
251.570740
 20
217.262924
 30
0.000000
 11
241.579834
 21
217.262924
 31
0.000000
  0
LINE
  8
1
  6
SOLID
 62
     7
 10
241.579834
 20
217.362900
 30
0.000000
 11
251.574341
 21
217.362900
 31
0.000000
  0
LINE
  8
1
  6
SOLID
 62
     7
 10
251.577942
 20
217.462875
 30
0.000000
 11
241.579834
 21
217.462875
 31
0.000000
  0
ENDBLK
  0
BLOCK
  2
*H51
  8
1
 70
    65
 10
0.000000
 20
0.000000
 30
0.000000
  3
*H51
  0
LINE
  8
1
  6
SOLID
 62
     7
 10
231.586426
 20
217.565292
 30
0.000000
 11
241.579834
 21
217.565292
 31
0.000000
  0
LINE
  8
1
  6
SOLID
 62
     7
 10
241.579834
 20
217.665268
 30
0.000000
 11
231.599548
 21
217.665268
 31
0.000000
  0
LINE
  8
1
  6
SOLID
 62
     7
 10
231.612732
 20
217.765244
 30
0.000000
 11
241.579834
 21
217.765244
 31
0.000000
  0
LINE
  8
1
  6
SOLID
 62
     7
 10
241.579834
 20
217.865219
 30
0.000000
 11
231.625916
 21
217.865219
 31
0.000000
  0
LINE
  8
1
  6
SOLID
 62
     7
 10
231.639038
 20
217.965195
 30
0.000000
 11
241.579834
 21
217.965195
 31
0.000000
  0
LINE
  8
1
  6
SOLID
 62
     7
 10
241.579834
 20
218.065170
 30
0.000000
 11
231.652222
 21
218.065170
 31
0.000000
  0
LINE
  8
1
  6
SOLID
 62
     7
 10
231.665405
 20
218.165146
 30
0.000000
 11
241.579834
 21
218.165146
 31
0.000000
  0
LINE
  8
1
  6
SOLID
 62
     7
 10
241.579834
 20
218.265121
 30
0.000000
 11
231.678528
 21
218.265121
 31
0.000000
  0
LINE
  8
1
  6
SOLID
 62
     7
 10
231.691711
 20
218.365097
 30
0.000000
 11
241.579834
 21
218.365097
 31
0.000000
  0
LINE
  8
1
  6
SOLID
 62
     7
 10
241.579834
 20
218.465073
 30
0.000000
 11
231.704834
 21
218.465073
 31
0.000000
  0
LINE
  8
1
  6
SOLID
 62
     7
 10
231.718018
 20
218.565048
 30
0.000000
 11
241.579834
 21
218.565048
 31
0.000000
  0
LINE
  8
1
  6
SOLID
 62
     7
 10
241.579834
 20
218.665024
 30
0.000000
 11
231.731201
 21
218.665024
 31
0.000000
  0
LINE
  8
1
  6
SOLID
 62
     7
 10
231.744324
 20
218.764999
 30
0.000000
 11
241.579834
 21
218.764999
 31
0.000000
  0
LINE
  8
1
  6
SOLID
 62
     7
 10
241.579834
 20
218.864975
 30
0.000000
 11
231.757507
 21
218.864975
 31
0.000000
  0
LINE
  8
1
  6
SOLID
 62
     7
 10
231.770630
 20
218.964951
 30
0.000000
 11
241.579834
 21
218.964951
 31
0.000000
  0
LINE
  8
1
  6
SOLID
 62
     7
 10
241.579834
 20
219.064926
 30
0.000000
 11
231.783813
 21
219.064926
 31
0.000000
  0
LINE
  8
1
  6
SOLID
 62
     7
 10
231.796997
 20
219.164902
 30
0.000000
 11
241.579834
 21
219.164902
 31
0.000000
  0
LINE
  8
1
  6
SOLID
 62
     7
 10
241.579834
 20
219.264877
 30
0.000000
 11
231.810120
 21
219.264877
 31
0.000000
  0
LINE
  8
1
  6
SOLID
 62
     7
 10
231.823303
 20
219.364853
 30
0.000000
 11
241.579834
 21
219.364853
 31
0.000000
  0
LINE
  8
1
  6
SOLID
 62
     7
 10
241.579834
 20
219.464828
 30
0.000000
 11
231.836487
 21
219.464828
 31
0.000000
  0
LINE
  8
1
  6
SOLID
 62
     7
 10
231.849609
 20
219.564804
 30
0.000000
 11
241.579834
 21
219.564804
 31
0.000000
  0
LINE
  8
1
  6
SOLID
 62
     7
 10
241.579834
 20
219.664780
 30
0.000000
 11
231.862793
 21
219.664780
 31
0.000000
  0
LINE
  8
1
  6
SOLID
 62
     7
 10
231.875916
 20
219.764755
 30
0.000000
 11
241.579834
 21
219.764755
 31
0.000000
  0
LINE
  8
1
  6
SOLID
 62
     7
 10
241.579834
 20
219.864731
 30
0.000000
 11
231.889099
 21
219.864731
 31
0.000000
  0
LINE
  8
1
  6
SOLID
 62
     7
 10
231.902283
 20
219.964706
 30
0.000000
 11
241.579834
 21
219.964706
 31
0.000000
  0
LINE
  8
1
  6
SOLID
 62
     7
 10
241.579834
 20
220.064682
 30
0.000000
 11
231.915405
 21
220.064682
 31
0.000000
  0
LINE
  8
1
  6
SOLID
 62
     7
 10
231.945862
 20
220.164658
 30
0.000000
 11
241.579834
 21
220.164658
 31
0.000000
  0
LINE
  8
1
  6
SOLID
 62
     7
 10
241.579834
 20
220.264633
 30
0.000000
 11
231.987305
 21
220.264633
 31
0.000000
  0
LINE
  8
1
  6
SOLID
 62
     7
 10
232.028687
 20
220.364609
 30
0.000000
 11
241.579834
 21
220.364609
 31
0.000000
  0
LINE
  8
1
  6
SOLID
 62
     7
 10
241.579834
 20
220.464584
 30
0.000000
 11
232.070129
 21
220.464584
 31
0.000000
  0
LINE
  8
1
  6
SOLID
 62
     7
 10
232.111511
 20
220.564560
 30
0.000000
 11
241.579834
 21
220.564560
 31
0.000000
  0
LINE
  8
1
  6
SOLID
 62
     7
 10
241.579834
 20
220.664536
 30
0.000000
 11
232.152954
 21
220.664536
 31
0.000000
  0
LINE
  8
1
  6
SOLID
 62
     7
 10
232.194336
 20
220.764511
 30
0.000000
 11
241.579834
 21
220.764511
 31
0.000000
  0
LINE
  8
1
  6
SOLID
 62
     7
 10
241.579834
 20
220.864487
 30
0.000000
 11
232.235779
 21
220.864487
 31
0.000000
  0
LINE
  8
1
  6
SOLID
 62
     7
 10
232.277161
 20
220.964462
 30
0.000000
 11
241.579834
 21
220.964462
 31
0.000000
  0
LINE
  8
1
  6
SOLID
 62
     7
 10
241.579834
 20
221.064438
 30
0.000000
 11
232.318604
 21
221.064438
 31
0.000000
  0
LINE
  8
1
  6
SOLID
 62
     7
 10
232.359985
 20
221.164413
 30
0.000000
 11
241.579834
 21
221.164413
 31
0.000000
  0
LINE
  8
1
  6
SOLID
 62
     7
 10
241.579834
 20
221.264389
 30
0.000000
 11
232.401428
 21
221.264389
 31
0.000000
  0
LINE
  8
1
  6
SOLID
 62
     7
 10
232.442810
 20
221.364365
 30
0.000000
 11
241.579834
 21
221.364365
 31
0.000000
  0
LINE
  8
1
  6
SOLID
 62
     7
 10
241.579834
 20
221.464340
 30
0.000000
 11
232.484253
 21
221.464340
 31
0.000000
  0
LINE
  8
1
  6
SOLID
 62
     7
 10
232.525635
 20
221.564316
 30
0.000000
 11
241.579834
 21
221.564316
 31
0.000000
  0
LINE
  8
1
  6
SOLID
 62
     7
 10
241.579834
 20
221.664291
 30
0.000000
 11
232.567017
 21
221.664291
 31
0.000000
  0
LINE
  8
1
  6
SOLID
 62
     7
 10
232.608459
 20
221.764267
 30
0.000000
 11
241.579834
 21
221.764267
 31
0.000000
  0
LINE
  8
1
  6
SOLID
 62
     7
 10
241.579834
 20
221.864243
 30
0.000000
 11
232.649841
 21
221.864243
 31
0.000000
  0
LINE
  8
1
  6
SOLID
 62
     7
 10
232.691284
 20
221.964218
 30
0.000000
 11
241.579834
 21
221.964218
 31
0.000000
  0
LINE
  8
1
  6
SOLID
 62
     7
 10
241.579834
 20
222.064194
 30
0.000000
 11
232.732666
 21
222.064194
 31
0.000000
  0
LINE
  8
1
  6
SOLID
 62
     7
 10
232.774109
 20
222.164169
 30
0.000000
 11
241.579834
 21
222.164169
 31
0.000000
  0
LINE
  8
1
  6
SOLID
 62
     7
 10
241.579834
 20
222.264145
 30
0.000000
 11
232.815491
 21
222.264145
 31
0.000000
  0
LINE
  8
1
  6
SOLID
 62
     7
 10
232.856934
 20
222.364120
 30
0.000000
 11
241.579834
 21
222.364120
 31
0.000000
  0
LINE
  8
1
  6
SOLID
 62
     7
 10
241.579834
 20
222.464096
 30
0.000000
 11
232.898315
 21
222.464096
 31
0.000000
  0
LINE
  8
1
  6
SOLID
 62
     7
 10
232.956970
 20
222.564072
 30
0.000000
 11
241.579834
 21
222.564072
 31
0.000000
  0
LINE
  8
1
  6
SOLID
 62
     7
 10
241.579834
 20
222.664047
 30
0.000000
 11
233.033691
 21
222.664047
 31
0.000000
  0
LINE
  8
1
  6
SOLID
 62
     7
 10
233.110413
 20
222.764023
 30
0.000000
 11
241.579834
 21
222.764023
 31
0.000000
  0
LINE
  8
1
  6
SOLID
 62
     7
 10
241.579834
 20
222.863998
 30
0.000000
 11
233.187134
 21
222.863998
 31
0.000000
  0
LINE
  8
1
  6
SOLID
 62
     7
 10
233.263855
 20
222.963974
 30
0.000000
 11
241.579834
 21
222.963974
 31
0.000000
  0
LINE
  8
1
  6
SOLID
 62
     7
 10
241.579834
 20
223.063950
 30
0.000000
 11
233.340576
 21
223.063950
 31
0.000000
  0
LINE
  8
1
  6
SOLID
 62
     7
 10
233.417236
 20
223.163925
 30
0.000000
 11
241.579834
 21
223.163925
 31
0.000000
  0
LINE
  8
1
  6
SOLID
 62
     7
 10
241.579834
 20
223.263901
 30
0.000000
 11
233.493958
 21
223.263901
 31
0.000000
  0
LINE
  8
1
  6
SOLID
 62
     7
 10
233.570679
 20
223.363876
 30
0.000000
 11
241.579834
 21
223.363876
 31
0.000000
  0
LINE
  8
1
  6
SOLID
 62
     7
 10
241.579834
 20
223.463852
 30
0.000000
 11
233.647400
 21
223.463852
 31
0.000000
  0
LINE
  8
1
  6
SOLID
 62
     7
 10
233.724121
 20
223.563828
 30
0.000000
 11
241.579834
 21
223.563828
 31
0.000000
  0
LINE
  8
1
  6
SOLID
 62
     7
 10
241.579834
 20
223.663803
 30
0.000000
 11
233.800842
 21
223.663803
 31
0.000000
  0
LINE
  8
1
  6
SOLID
 62
     7
 10
233.877563
 20
223.763779
 30
0.000000
 11
241.579834
 21
223.763779
 31
0.000000
  0
LINE
  8
1
  6
SOLID
 62
     7
 10
241.579834
 20
223.863754
 30
0.000000
 11
233.954285
 21
223.863754
 31
0.000000
  0
LINE
  8
1
  6
SOLID
 62
     7
 10
234.030945
 20
223.963730
 30
0.000000
 11
241.579834
 21
223.963730
 31
0.000000
  0
LINE
  8
1
  6
SOLID
 62
     7
 10
241.579834
 20
224.063705
 30
0.000000
 11
234.107666
 21
224.063705
 31
0.000000
  0
LINE
  8
1
  6
SOLID
 62
     7
 10
234.184387
 20
224.163681
 30
0.000000
 11
241.579834
 21
224.163681
 31
0.000000
  0
LINE
  8
1
  6
SOLID
 62
     7
 10
241.579834
 20
224.263657
 30
0.000000
 11
234.261108
 21
224.263657
 31
0.000000
  0
LINE
  8
1
  6
SOLID
 62
     7
 10
234.337830
 20
224.363632
 30
0.000000
 11
241.579834
 21
224.363632
 31
0.000000
  0
LINE
  8
1
  6
SOLID
 62
     7
 10
241.579834
 20
224.463608
 30
0.000000
 11
234.414551
 21
224.463608
 31
0.000000
  0
LINE
  8
1
  6
SOLID
 62
     7
 10
234.491272
 20
224.563583
 30
0.000000
 11
241.579834
 21
224.563583
 31
0.000000
  0
LINE
  8
1
  6
SOLID
 62
     7
 10
241.579834
 20
224.663559
 30
0.000000
 11
234.609375
 21
224.663559
 31
0.000000
  0
LINE
  8
1
  6
SOLID
 62
     7
 10
234.739624
 20
224.763535
 30
0.000000
 11
241.579834
 21
224.763535
 31
0.000000
  0
LINE
  8
1
  6
SOLID
 62
     7
 10
241.579834
 20
224.863510
 30
0.000000
 11
234.869934
 21
224.863510
 31
0.000000
  0
LINE
  8
1
  6
SOLID
 62
     7
 10
235.000244
 20
224.963486
 30
0.000000
 11
241.579834
 21
224.963486
 31
0.000000
  0
LINE
  8
1
  6
SOLID
 62
     7
 10
241.579834
 20
225.063461
 30
0.000000
 11
235.130493
 21
225.063461
 31
0.000000
  0
LINE
  8
1
  6
SOLID
 62
     7
 10
235.260803
 20
225.163437
 30
0.000000
 11
241.579834
 21
225.163437
 31
0.000000
  0
LINE
  8
1
  6
SOLID
 62
     7
 10
241.579834
 20
225.263412
 30
0.000000
 11
235.391113
 21
225.263412
 31
0.000000
  0
LINE
  8
1
  6
SOLID
 62
     7
 10
235.521362
 20
225.363388
 30
0.000000
 11
241.579834
 21
225.363388
 31
0.000000
  0
LINE
  8
1
  6
SOLID
 62
     7
 10
241.579834
 20
225.463364
 30
0.000000
 11
235.651672
 21
225.463364
 31
0.000000
  0
LINE
  8
1
  6
SOLID
 62
     7
 10
235.781921
 20
225.563339
 30
0.000000
 11
241.579834
 21
225.563339
 31
0.000000
  0
LINE
  8
1
  6
SOLID
 62
     7
 10
241.579834
 20
225.663315
 30
0.000000
 11
235.912231
 21
225.663315
 31
0.000000
  0
LINE
  8
1
  6
SOLID
 62
     7
 10
236.042542
 20
225.763290
 30
0.000000
 11
241.579834
 21
225.763290
 31
0.000000
  0
LINE
  8
1
  6
SOLID
 62
     7
 10
241.579834
 20
225.863266
 30
0.000000
 11
236.172791
 21
225.863266
 31
0.000000
  0
LINE
  8
1
  6
SOLID
 62
     7
 10
236.303101
 20
225.963242
 30
0.000000
 11
241.579834
 21
225.963242
 31
0.000000
  0
LINE
  8
1
  6
SOLID
 62
     7
 10
241.579834
 20
226.063217
 30
0.000000
 11
236.433411
 21
226.063217
 31
0.000000
  0
LINE
  8
1
  6
SOLID
 62
     7
 10
236.563660
 20
226.163193
 30
0.000000
 11
241.579834
 21
226.163193
 31
0.000000
  0
LINE
  8
1
  6
SOLID
 62
     7
 10
241.579834
 20
226.263168
 30
0.000000
 11
236.791321
 21
226.263168
 31
0.000000
  0
LINE
  8
1
  6
SOLID
 62
     7
 10
237.032654
 20
226.363144
 30
0.000000
 11
241.579834
 21
226.363144
 31
0.000000
  0
LINE
  8
1
  6
SOLID
 62
     7
 10
241.579834
 20
226.463120
 30
0.000000
 11
237.274048
 21
226.463120
 31
0.000000
  0
LINE
  8
1
  6
SOLID
 62
     7
 10
237.515381
 20
226.563095
 30
0.000000
 11
241.579834
 21
226.563095
 31
0.000000
  0
LINE
  8
1
  6
SOLID
 62
     7
 10
241.579834
 20
226.663071
 30
0.000000
 11
237.756775
 21
226.663071
 31
0.000000
  0
LINE
  8
1
  6
SOLID
 62
     7
 10
237.998169
 20
226.763046
 30
0.000000
 11
241.579834
 21
226.763046
 31
0.000000
  0
LINE
  8
1
  6
SOLID
 62
     7
 10
241.579834
 20
226.863022
 30
0.000000
 11
238.239502
 21
226.863022
 31
0.000000
  0
LINE
  8
1
  6
SOLID
 62
     7
 10
238.480896
 20
226.962997
 30
0.000000
 11
241.579834
 21
226.962997
 31
0.000000
  0
LINE
  8
1
  6
SOLID
 62
     7
 10
241.579834
 20
227.062973
 30
0.000000
 11
238.722290
 21
227.062973
 31
0.000000
  0
LINE
  8
1
  6
SOLID
 62
     7
 10
238.963623
 20
227.162949
 30
0.000000
 11
241.579834
 21
227.162949
 31
0.000000
  0
LINE
  8
1
  6
SOLID
 62
     7
 10
241.579834
 20
227.262924
 30
0.000000
 11
239.662903
 21
227.262924
 31
0.000000
  0
LINE
  8
1
  6
SOLID
 62
     7
 10
240.422241
 20
227.362900
 30
0.000000
 11
241.579834
 21
227.362900
 31
0.000000
  0
LINE
  8
1
  6
SOLID
 62
     7
 10
241.579834
 20
227.462875
 30
0.000000
 11
241.181641
 21
227.462875
 31
0.000000
  0
ENDBLK
  0
ENDSEC
  0
SECTION
  2
ENTITIES
  0
INSERT
  2
*D39
  8
1
 41
1.000000
 50
0.000000
 10
0.000000
 20
0.000000
 30
0.000000
  0
INSERT
  2
*D40
  8
1
 41
1.000000
 50
0.000000
 10
0.000000
 20
0.000000
 30
0.000000
  0
INSERT
  2
*D43
  8
1
 41
1.000000
 50
0.000000
 10
0.000000
 20
0.000000
 30
0.000000
  0
INSERT
  2
*D47
  8
1
 41
1.000000
 50
0.000000
 10
0.000000
 20
0.000000
 30
0.000000
  0
INSERT
  2
*D53
  8
1
 41
1.000000
 50
0.000000
 10
0.000000
 20
0.000000
 30
0.000000
  0
ARC
  8
1
  6
SOLID
 62
     7
 10
241.579842
 20
-544.484680
 30
0.000000
 40
997.000000
 50
85.229564
 51
94.770434
  0
ARC
  8
1
  6
SOLID
 62
     7
 10
241.579867
 20
2378.515320
 30
0.000000
 40
2397.000000
 50
266.547146
 51
273.452853
  0
ARC
  8
1
  6
SOLID
 62
     7
 10
1172.579861
 20
182.515320
 30
0.000000
 40
1197.000000
 50
175.972875
 51
183.744532
  0
ARC
  8
1
  6
SOLID
 62
     7
 10
-689.420149
 20
182.515320
 30
0.000000
 40
1197.000000
 50
356.255478
 51
4.027124
  0
INSERT
  2
*D60
  8
1
 41
1.000000
 50
0.000000
 10
0.000000
 20
0.000000
 30
0.000000
  0
ARC
  8
1
  6
SOLID
 62
     7
 10
175.048946
 20
252.744045
 30
0.000000
 40
197.000000
 50
94.770434
 51
175.972875
  0
ARC
  8
1
  6
SOLID
 62
     7
 10
308.110767
 20
252.744042
 30
0.000000
 40
197.000000
 50
4.027124
 51
85.229564
  0
ARC
  8
1
  6
SOLID
 62
     7
 10
104.864127
 20
112.636063
 30
0.000000
 40
127.000000
 50
183.744616
 51
266.547146
  0
ARC
  8
1
  6
SOLID
 62
     7
 10
378.295586
 20
112.636062
 30
0.000000
 40
127.000000
 50
273.452853
 51
356.255478
  0
LINE
  8
1
  6
CENTER
 62
     7
 10
-43.916748
 20
217.515320
 30
0.000000
 11
527.076461
 21
217.515320
 31
0.000000
  0
LINE
  8
1
  6
CENTER
 62
     7
 10
527.579851
 20
182.515320
 30
0.000000
 11
-44.420139
 21
182.515320
 31
0.000000
  0
INSERT
  2
*D84
  8
1
 41
1.000000
 50
0.000000
 10
0.000000
 20
0.000000
 30
0.000000
  0
INSERT
  2
*D105
  8
1
 41
1.000000
 50
0.000000
 10
0.000000
 20
0.000000
 30
0.000000
  0
INSERT
  2
*D108
  8
1
 41
1.000000
 50
0.000000
 10
0.000000
 20
0.000000
 30
0.000000
  0
INSERT
  2
*D117
  8
1
 41
1.000000
 50
0.000000
 10
0.000000
 20
0.000000
 30
0.000000
  0
INSERT
  2
*D118
  8
1
 41
1.000000
 50
0.000000
 10
0.000000
 20
0.000000
 30
0.000000
  0
INSERT
  2
*D120
  8
1
 41
1.000000
 50
0.000000
 10
0.000000
 20
0.000000
 30
0.000000
  0
LINE
  8
1
  6
CENTER
 62
     7
 10
241.579854
 20
-38.484680
 30
0.000000
 11
241.579854
 21
472.515320
 31
0.000000
  0
LINE
  8
1
  6
SOLID
 62
     7
 10
231.579836
 20
217.515320
 30
0.000000
 11
251.579836
 21
217.515320
 31
0.000000
  0
CIRCLE
  8
1
  6
SOLID
 62
     7
 10
241.579836
 20
217.515322
 30
0.000000
 40
10.000000
  0
LINE
  8
1
  6
SOLID
 62
     7
 10
241.579849
 20
207.515322
 30
0.000000
 11
241.579849
 21
227.515322
 31
0.000000
  0
INSERT
  2
*H86
  8
1
 41
1.000000
 50
0.000000
 10
0.000000
 20
0.000000
 30
0.000000
  0
INSERT
  2
*H51
  8
1
 41
1.000000
 50
0.000000
 10
0.000000
 20
0.000000
 30
0.000000
  0
ENDSEC
  0
EOF
