  0
SECTION
  2
HEADER
  9
$SPLINETYPE
 70
     6
  9
$FILLMODE
 70
     1
  9
$LTSCALE
 40
10.000000
  0
ENDSEC
  0
SECTION
  2
TABLES
  0
TABLE
  2
LTYPE
 70
     8
  0
LTYPE
  2
SOLID
 70
    64
  3

 72
    65
 73
     0
 40
0.000000
  0
LTYPE
  2
DASH
 70
    64
  3

 72
    65
 73
     2
 40
8.000000
 49
5.000000
 49
-3.000000
  0
LTYPE
  2
CENTER
 70
    64
  3

 72
    65
 73
     4
 40
8.000000
 49
4.500000
 49
-1.500000
 49
0.500000
 49
-1.500000
  0
LTYPE
  2
L_DASH
 70
    64
  3

 72
    65
 73
     2
 40
8.000000
 49
6.500000
 49
-1.500000
  0
LTYPE
  2
FONT_5
 70
    64
  3

 72
    65
 73
     8
 40
8.000000
 49
1.000000
 49
-1.000000
 49
1.000000
 49
-1.000000
 49
1.000000
 49
-1.000000
 49
1.000000
 49
-1.000000
  0
LTYPE
  2
FONT_6
 70
    64
  3

 72
    65
 73
     4
 40
8.000000
 49
2.000000
 49
-2.000000
 49
2.000000
 49
-2.000000
  0
LTYPE
  2
FONT_7
 70
    64
  3

 72
    65
 73
     6
 40
8.000000
 49
4.000000
 49
-1.000000
 49
0.500000
 49
-1.000000
 49
0.500000
 49
-1.000000
  0
LTYPE
  2
FONT_8
 70
    64
  3

 72
    65
 73
     4
 40
8.000000
 49
2.000000
 49
-1.000000
 49
2.000000
 49
-3.000000
  0
ENDTAB
  0
TABLE
  2
LAYER
 70
   100
  0
LAYER
  2
1
 70
    64
 62
     7
  6
SOLID
  0
LAYER
  2
_____2
 70
    64
 62
     7
  6
SOLID
  0
LAYER
  2
_____3
 70
    64
 62
     7
  6
SOLID
  0
LAYER
  2
_____4
 70
    64
 62
     7
  6
SOLID
  0
LAYER
  2
_____5
 70
    64
 62
     7
  6
SOLID
  0
LAYER
  2
_____6
 70
    64
 62
     7
  6
SOLID
  0
LAYER
  2
_____7
 70
    64
 62
     7
  6
SOLID
  0
LAYER
  2
_____8
 70
    64
 62
     7
  6
SOLID
  0
LAYER
  2
_____9
 70
    64
 62
     7
  6
SOLID
  0
LAYER
  2
____10
 70
    64
 62
     7
  6
SOLID
  0
LAYER
  2
____11
 70
    64
 62
     7
  6
SOLID
  0
LAYER
  2
____12
 70
    64
 62
     7
  6
SOLID
  0
LAYER
  2
____13
 70
    64
 62
     7
  6
SOLID
  0
LAYER
  2
____14
 70
    64
 62
     7
  6
SOLID
  0
LAYER
  2
____15
 70
    64
 62
     7
  6
SOLID
  0
LAYER
  2
____16
 70
    64
 62
     7
  6
SOLID
  0
LAYER
  2
____17
 70
    64
 62
     7
  6
SOLID
  0
LAYER
  2
____18
 70
    64
 62
     7
  6
SOLID
  0
LAYER
  2
____19
 70
    64
 62
     7
  6
SOLID
  0
LAYER
  2
____20
 70
    64
 62
     7
  6
SOLID
  0
LAYER
  2
____21
 70
    64
 62
     7
  6
SOLID
  0
LAYER
  2
____22
 70
    64
 62
     7
  6
SOLID
  0
LAYER
  2
____23
 70
    64
 62
     7
  6
SOLID
  0
LAYER
  2
____24
 70
    64
 62
     7
  6
SOLID
  0
LAYER
  2
____25
 70
    64
 62
     7
  6
SOLID
  0
LAYER
  2
____26
 70
    64
 62
     7
  6
SOLID
  0
LAYER
  2
____27
 70
    64
 62
     7
  6
SOLID
  0
LAYER
  2
____28
 70
    64
 62
     7
  6
SOLID
  0
LAYER
  2
____29
 70
    64
 62
     7
  6
SOLID
  0
LAYER
  2
____30
 70
    64
 62
     7
  6
SOLID
  0
LAYER
  2
____31
 70
    64
 62
     7
  6
SOLID
  0
LAYER
  2
____32
 70
    64
 62
     7
  6
SOLID
  0
LAYER
  2
____33
 70
    64
 62
     7
  6
SOLID
  0
LAYER
  2
____34
 70
    64
 62
     7
  6
SOLID
  0
LAYER
  2
____35
 70
    64
 62
     7
  6
SOLID
  0
LAYER
  2
____36
 70
    64
 62
     7
  6
SOLID
  0
LAYER
  2
____37
 70
    64
 62
     7
  6
SOLID
  0
LAYER
  2
____38
 70
    64
 62
     7
  6
SOLID
  0
LAYER
  2
____39
 70
    64
 62
     7
  6
SOLID
  0
LAYER
  2
____40
 70
    64
 62
     7
  6
SOLID
  0
LAYER
  2
____41
 70
    64
 62
     7
  6
SOLID
  0
LAYER
  2
____42
 70
    64
 62
     7
  6
SOLID
  0
LAYER
  2
____43
 70
    64
 62
     7
  6
SOLID
  0
LAYER
  2
____44
 70
    64
 62
     7
  6
SOLID
  0
LAYER
  2
____45
 70
    64
 62
     7
  6
SOLID
  0
LAYER
  2
____46
 70
    64
 62
     7
  6
SOLID
  0
LAYER
  2
____47
 70
    64
 62
     7
  6
SOLID
  0
LAYER
  2
____48
 70
    64
 62
     7
  6
SOLID
  0
LAYER
  2
____49
 70
    64
 62
     7
  6
SOLID
  0
LAYER
  2
____50
 70
    64
 62
     7
  6
SOLID
  0
LAYER
  2
____51
 70
    64
 62
     7
  6
SOLID
  0
LAYER
  2
____52
 70
    64
 62
     7
  6
SOLID
  0
LAYER
  2
____53
 70
    64
 62
     7
  6
SOLID
  0
LAYER
  2
____54
 70
    64
 62
     7
  6
SOLID
  0
LAYER
  2
____55
 70
    64
 62
     7
  6
SOLID
  0
LAYER
  2
____56
 70
    64
 62
     7
  6
SOLID
  0
LAYER
  2
____57
 70
    64
 62
     7
  6
SOLID
  0
LAYER
  2
____58
 70
    64
 62
     7
  6
SOLID
  0
LAYER
  2
____59
 70
    64
 62
     7
  6
SOLID
  0
LAYER
  2
____60
 70
    64
 62
     7
  6
SOLID
  0
LAYER
  2
____61
 70
    64
 62
     7
  6
SOLID
  0
LAYER
  2
____62
 70
    64
 62
     7
  6
SOLID
  0
LAYER
  2
____63
 70
    64
 62
     7
  6
SOLID
  0
LAYER
  2
____64
 70
    64
 62
     7
  6
SOLID
  0
LAYER
  2
____65
 70
    64
 62
     7
  6
SOLID
  0
LAYER
  2
____66
 70
    64
 62
     7
  6
SOLID
  0
LAYER
  2
____67
 70
    64
 62
     7
  6
SOLID
  0
LAYER
  2
____68
 70
    64
 62
     7
  6
SOLID
  0
LAYER
  2
____69
 70
    64
 62
     7
  6
SOLID
  0
LAYER
  2
____70
 70
    64
 62
     7
  6
SOLID
  0
LAYER
  2
____71
 70
    64
 62
     7
  6
SOLID
  0
LAYER
  2
____72
 70
    64
 62
     7
  6
SOLID
  0
LAYER
  2
____73
 70
    64
 62
     7
  6
SOLID
  0
LAYER
  2
____74
 70
    64
 62
     7
  6
SOLID
  0
LAYER
  2
____75
 70
    64
 62
     7
  6
SOLID
  0
LAYER
  2
____76
 70
    64
 62
     7
  6
SOLID
  0
LAYER
  2
____77
 70
    64
 62
     7
  6
SOLID
  0
LAYER
  2
____78
 70
    64
 62
     7
  6
SOLID
  0
LAYER
  2
____79
 70
    64
 62
     7
  6
SOLID
  0
LAYER
  2
____80
 70
    64
 62
     7
  6
SOLID
  0
LAYER
  2
____81
 70
    64
 62
     7
  6
SOLID
  0
LAYER
  2
____82
 70
    64
 62
     7
  6
SOLID
  0
LAYER
  2
____83
 70
    64
 62
     7
  6
SOLID
  0
LAYER
  2
____84
 70
    64
 62
     7
  6
SOLID
  0
LAYER
  2
____85
 70
    64
 62
     7
  6
SOLID
  0
LAYER
  2
____86
 70
    64
 62
     7
  6
SOLID
  0
LAYER
  2
____87
 70
    64
 62
     7
  6
SOLID
  0
LAYER
  2
____88
 70
    64
 62
     7
  6
SOLID
  0
LAYER
  2
____89
 70
    64
 62
     7
  6
SOLID
  0
LAYER
  2
____90
 70
    64
 62
     7
  6
SOLID
  0
LAYER
  2
____91
 70
    64
 62
     7
  6
SOLID
  0
LAYER
  2
____92
 70
    64
 62
     7
  6
SOLID
  0
LAYER
  2
____93
 70
    64
 62
     7
  6
SOLID
  0
LAYER
  2
____94
 70
    64
 62
     7
  6
SOLID
  0
LAYER
  2
____95
 70
    64
 62
     7
  6
SOLID
  0
LAYER
  2
____96
 70
    64
 62
     7
  6
SOLID
  0
LAYER
  2
____97
 70
    64
 62
     7
  6
SOLID
  0
LAYER
  2
____98
 70
    64
 62
     7
  6
SOLID
  0
LAYER
  2
____99
 70
    64
 62
     7
  6
SOLID
  0
LAYER
  2
___100
 70
    64
 62
     7
  6
SOLID
  0
ENDTAB
  0
TABLE
  2
STYLE
 70
     1
  0
STYLE
  2
DEFAULT
 70
    64
 40
0.000000
 41
1.000000
 50
0.000000
 71
     0
 42
0.000000
  3
DEFAULT
  4

  0
STYLE
  2
STANDARD
 70
    64
 40
0.000000
 41
1.000000
 50
0.000000
 71
     0
 42
0.000000
  3
txt
  4

  0
ENDTAB
  0
TABLE
  2
UCS
 70
     2
  0
UCS
  2
XZ
 70
    64
 10
0.000000
 20
0.000000
 30
0.000000
 11
1.000000
 21
0.000000
 31
0.000000
 12
0.000000
 22
0.000000
 32
1.000000
  0
UCS
  2
YZ
 70
    64
 10
0.000000
 20
0.000000
 30
0.000000
 11
0.000000
 21
1.000000
 31
0.000000
 12
0.000000
 22
0.000000
 32
1.000000
  0
ENDTAB
  0
ENDSEC
  0
SECTION
  2
BLOCKS
  0
BLOCK
  2
*D59
  8
1
 70
    65
 10
0.000000
 20
0.000000
 30
0.000000
  3
*D59
  0
LINE
  8
1
  6
SOLID
 62
     7
 10
-59.675106
 20
-278.597229
 30
0.000000
 11
-59.675110
 21
-430.481079
 31
0.000000
  0
LINE
  8
1
  6
SOLID
 62
     7
 10
364.324890
 20
-278.597229
 30
0.000000
 11
364.324890
 21
-430.481079
 31
0.000000
  0
LINE
  8
1
  6
SOLID
 62
     7
 10
-59.675110
 20
-429.481079
 30
0.000000
 11
364.324890
 21
-429.481079
 31
0.000000
  0
LINE
  8
1
  6
SOLID
 62
     7
 10
-47.175117
 20
-427.397949
 30
0.000000
 11
-59.675110
 21
-429.481079
 31
0.000000
  0
LINE
  8
1
  6
SOLID
 62
     7
 10
-59.675110
 20
-429.481079
 30
0.000000
 11
-47.175117
 21
-431.564209
 31
0.000000
  0
LINE
  8
1
  6
SOLID
 62
     7
 10
-47.175117
 20
-431.564209
 30
0.000000
 11
-47.175117
 21
-427.397949
 31
0.000000
  0
LINE
  8
1
  6
SOLID
 62
     7
 10
364.324890
 20
-429.481079
 30
0.000000
 11
-59.675110
 21
-429.481079
 31
0.000000
  0
LINE
  8
1
  6
SOLID
 62
     7
 10
351.824890
 20
-431.564209
 30
0.000000
 11
364.324890
 21
-429.481079
 31
0.000000
  0
LINE
  8
1
  6
SOLID
 62
     7
 10
364.324890
 20
-429.481079
 30
0.000000
 11
351.824890
 21
-427.397949
 31
0.000000
  0
LINE
  8
1
  6
SOLID
 62
     7
 10
351.824890
 20
-427.397949
 30
0.000000
 11
351.824890
 21
-431.564209
 31
0.000000
  0
TEXT
  8
1
  6
SOLID
 62
     7
 10
103.080032
 20
-423.231079
 30
0.000000
 40
12.500000
  1
16.69
 50
0.000000
  0
TEXT
  8
1
  6
SOLID
 62
     7
 10
167.121674
 20
-423.231079
 30
0.000000
 40
10.000000
  1
INCH
 50
0.000000
  0
ENDBLK
  0
BLOCK
  2
*D67
  8
1
 70
    65
 10
0.000000
 20
0.000000
 30
0.000000
  3
*D67
  0
LINE
  8
1
  6
SOLID
 62
     7
 10
254.324890
 20
-388.597229
 30
0.000000
 11
415.650940
 21
-388.597229
 31
0.000000
  0
LINE
  8
1
  6
SOLID
 62
     7
 10
254.324890
 20
35.402760
 30
0.000000
 11
415.650940
 21
35.402771
 31
0.000000
  0
LINE
  8
1
  6
SOLID
 62
     7
 10
414.650940
 20
-388.597229
 30
0.000000
 11
414.650940
 21
35.402771
 31
0.000000
  0
LINE
  8
1
  6
SOLID
 62
     7
 10
412.567810
 20
-376.097229
 30
0.000000
 11
414.650940
 21
-388.597229
 31
0.000000
  0
LINE
  8
1
  6
SOLID
 62
     7
 10
414.650940
 20
-388.597229
 30
0.000000
 11
416.734070
 21
-376.097229
 31
0.000000
  0
LINE
  8
1
  6
SOLID
 62
     7
 10
416.734070
 20
-376.097229
 30
0.000000
 11
412.567810
 21
-376.097229
 31
0.000000
  0
LINE
  8
1
  6
SOLID
 62
     7
 10
414.650940
 20
35.402771
 30
0.000000
 11
414.650940
 21
-388.597229
 31
0.000000
  0
LINE
  8
1
  6
SOLID
 62
     7
 10
416.734070
 20
22.902779
 30
0.000000
 11
414.650940
 21
35.402771
 31
0.000000
  0
LINE
  8
1
  6
SOLID
 62
     7
 10
414.650940
 20
35.402771
 30
0.000000
 11
412.567810
 21
22.902779
 31
0.000000
  0
LINE
  8
1
  6
SOLID
 62
     7
 10
412.567810
 20
22.902779
 30
0.000000
 11
416.734070
 21
22.902779
 31
0.000000
  0
TEXT
  8
1
  6
SOLID
 62
     7
 10
408.400940
 20
-223.183228
 30
0.000000
 40
12.500000
  1
16.69
 50
90.000003
  0
TEXT
  8
1
  6
SOLID
 62
     7
 10
408.400940
 20
-159.141586
 30
0.000000
 40
10.000000
  1
INCH
 50
90.000003
  0
ENDBLK
  0
BLOCK
  2
*D72
  8
1
 70
    65
 10
0.000000
 20
0.000000
 30
0.000000
  3
*D72
  0
LINE
  8
1
  6
SOLID
 62
     7
 10
318.684204
 20
14.609699
 30
0.000000
 11
405.637543
 21
135.133682
 31
0.000000
  0
LINE
  8
1
  6
SOLID
 62
     7
 10
324.308411
 20
25.965658
 30
0.000000
 11
318.684204
 21
14.609699
 31
0.000000
  0
LINE
  8
1
  6
SOLID
 62
     7
 10
318.684204
 20
14.609699
 30
0.000000
 11
327.687134
 21
23.528048
 31
0.000000
  0
LINE
  8
1
  6
SOLID
 62
     7
 10
327.687134
 20
23.528048
 30
0.000000
 11
324.308411
 21
25.965658
 31
0.000000
  0
TEXT
  8
1
  6
SOLID
 62
     7
 10
334.490997
 20
47.201328
 30
0.000000
 40
12.500000
  1
R 
 50
54.191025
  0
TEXT
  8
1
  6
SOLID
 62
     7
 10
334.490997
 20
47.201328
 30
0.000000
 40
12.500000
  1
  4.33
 50
54.191025
  0
TEXT
  8
1
  6
SOLID
 62
     7
 10
378.421082
 20
108.091797
 30
0.000000
 40
10.000000
  1
INCH
 50
54.191025
  0
ENDBLK
  0
ENDSEC
  0
SECTION
  2
ENTITIES
  0
LINE
  8
1
  6
SOLID
 62
     7
 10
254.324896
 20
35.402759
 30
0.000000
 11
50.324896
 21
35.402759
 31
0.000000
  0
LINE
  8
1
  6
SOLID
 62
     7
 10
-59.675104
 20
-74.597241
 30
0.000000
 11
-59.675104
 21
-278.597241
 31
0.000000
  0
LINE
  8
1
  6
SOLID
 62
     7
 10
364.324896
 20
-74.597241
 30
0.000000
 11
364.324896
 21
-278.597241
 31
0.000000
  0
LINE
  8
1
  6
SOLID
 62
     7
 10
254.324896
 20
-388.597241
 30
0.000000
 11
50.324896
 21
-388.597241
 31
0.000000
  0
ARC
  8
1
  6
SOLID
 62
     7
 10
50.324896
 20
-74.597241
 30
0.000000
 40
110.000000
 50
90.000000
 51
180.000000
  0
ARC
  8
1
  6
SOLID
 62
     7
 10
50.324896
 20
-278.597241
 30
0.000000
 40
110.000000
 50
180.000000
 51
270.000000
  0
ARC
  8
1
  6
SOLID
 62
     7
 10
254.324896
 20
-278.597241
 30
0.000000
 40
110.000000
 50
270.000000
 51
0.000000
  0
ARC
  8
1
  6
SOLID
 62
     7
 10
254.324896
 20
-74.597241
 30
0.000000
 40
110.000000
 50
0.000000
 51
90.000000
  0
INSERT
  2
*D59
  8
1
 41
1.000000
 50
0.000000
 10
0.000000
 20
0.000000
 30
0.000000
  0
INSERT
  2
*D67
  8
1
 41
1.000000
 50
0.000000
 10
0.000000
 20
0.000000
 30
0.000000
  0
INSERT
  2
*D72
  8
1
 41
1.000000
 50
0.000000
 10
0.000000
 20
0.000000
 30
0.000000
  0
ENDSEC
  0
EOF
