  0
SECTION
  2
HEADER
  9
$SPLINETYPE
 70
     6
  9
$FILLMODE
 70
     1
  9
$LTSCALE
 40
10.000000
  0
ENDSEC
  0
SECTION
  2
TABLES
  0
TABLE
  2
LTYPE
 70
     8
  0
LTYPE
  2
SOLID
 70
    64
  3

 72
    65
 73
     0
 40
0.000000
  0
LTYPE
  2
DASH
 70
    64
  3

 72
    65
 73
     2
 40
8.000000
 49
5.000000
 49
-3.000000
  0
LTYPE
  2
CENTER
 70
    64
  3

 72
    65
 73
     4
 40
8.000000
 49
4.500000
 49
-1.500000
 49
0.500000
 49
-1.500000
  0
LTYPE
  2
L_DASH
 70
    64
  3

 72
    65
 73
     2
 40
8.000000
 49
6.500000
 49
-1.500000
  0
LTYPE
  2
FONT_5
 70
    64
  3

 72
    65
 73
     8
 40
8.000000
 49
1.000000
 49
-1.000000
 49
1.000000
 49
-1.000000
 49
1.000000
 49
-1.000000
 49
1.000000
 49
-1.000000
  0
LTYPE
  2
FONT_6
 70
    64
  3

 72
    65
 73
     4
 40
8.000000
 49
2.000000
 49
-2.000000
 49
2.000000
 49
-2.000000
  0
LTYPE
  2
FONT_7
 70
    64
  3

 72
    65
 73
     6
 40
8.000000
 49
4.000000
 49
-1.000000
 49
0.500000
 49
-1.000000
 49
0.500000
 49
-1.000000
  0
LTYPE
  2
FONT_8
 70
    64
  3

 72
    65
 73
     4
 40
8.000000
 49
2.000000
 49
-1.000000
 49
2.000000
 49
-3.000000
  0
ENDTAB
  0
TABLE
  2
LAYER
 70
   100
  0
LAYER
  2
1
 70
    64
 62
     7
  6
SOLID
  0
LAYER
  2
_____2
 70
    64
 62
     7
  6
SOLID
  0
LAYER
  2
_____3
 70
    64
 62
     7
  6
SOLID
  0
LAYER
  2
_____4
 70
    64
 62
     7
  6
SOLID
  0
LAYER
  2
_____5
 70
    64
 62
     7
  6
SOLID
  0
LAYER
  2
_____6
 70
    64
 62
     7
  6
SOLID
  0
LAYER
  2
_____7
 70
    64
 62
     7
  6
SOLID
  0
LAYER
  2
_____8
 70
    64
 62
     7
  6
SOLID
  0
LAYER
  2
_____9
 70
    64
 62
     7
  6
SOLID
  0
LAYER
  2
____10
 70
    64
 62
     7
  6
SOLID
  0
LAYER
  2
____11
 70
    64
 62
     7
  6
SOLID
  0
LAYER
  2
____12
 70
    64
 62
     7
  6
SOLID
  0
LAYER
  2
____13
 70
    64
 62
     7
  6
SOLID
  0
LAYER
  2
____14
 70
    64
 62
     7
  6
SOLID
  0
LAYER
  2
____15
 70
    64
 62
     7
  6
SOLID
  0
LAYER
  2
____16
 70
    64
 62
     7
  6
SOLID
  0
LAYER
  2
____17
 70
    64
 62
     7
  6
SOLID
  0
LAYER
  2
____18
 70
    64
 62
     7
  6
SOLID
  0
LAYER
  2
____19
 70
    64
 62
     7
  6
SOLID
  0
LAYER
  2
____20
 70
    64
 62
     7
  6
SOLID
  0
LAYER
  2
____21
 70
    64
 62
     7
  6
SOLID
  0
LAYER
  2
____22
 70
    64
 62
     7
  6
SOLID
  0
LAYER
  2
____23
 70
    64
 62
     7
  6
SOLID
  0
LAYER
  2
____24
 70
    64
 62
     7
  6
SOLID
  0
LAYER
  2
____25
 70
    64
 62
     7
  6
SOLID
  0
LAYER
  2
____26
 70
    64
 62
     7
  6
SOLID
  0
LAYER
  2
____27
 70
    64
 62
     7
  6
SOLID
  0
LAYER
  2
____28
 70
    64
 62
     7
  6
SOLID
  0
LAYER
  2
____29
 70
    64
 62
     7
  6
SOLID
  0
LAYER
  2
____30
 70
    64
 62
     7
  6
SOLID
  0
LAYER
  2
____31
 70
    64
 62
     7
  6
SOLID
  0
LAYER
  2
____32
 70
    64
 62
     7
  6
SOLID
  0
LAYER
  2
____33
 70
    64
 62
     7
  6
SOLID
  0
LAYER
  2
____34
 70
    64
 62
     7
  6
SOLID
  0
LAYER
  2
____35
 70
    64
 62
     7
  6
SOLID
  0
LAYER
  2
____36
 70
    64
 62
     7
  6
SOLID
  0
LAYER
  2
____37
 70
    64
 62
     7
  6
SOLID
  0
LAYER
  2
____38
 70
    64
 62
     7
  6
SOLID
  0
LAYER
  2
____39
 70
    64
 62
     7
  6
SOLID
  0
LAYER
  2
____40
 70
    64
 62
     7
  6
SOLID
  0
LAYER
  2
____41
 70
    64
 62
     7
  6
SOLID
  0
LAYER
  2
____42
 70
    64
 62
     7
  6
SOLID
  0
LAYER
  2
____43
 70
    64
 62
     7
  6
SOLID
  0
LAYER
  2
____44
 70
    64
 62
     7
  6
SOLID
  0
LAYER
  2
____45
 70
    64
 62
     7
  6
SOLID
  0
LAYER
  2
____46
 70
    64
 62
     7
  6
SOLID
  0
LAYER
  2
____47
 70
    64
 62
     7
  6
SOLID
  0
LAYER
  2
____48
 70
    64
 62
     7
  6
SOLID
  0
LAYER
  2
____49
 70
    64
 62
     7
  6
SOLID
  0
LAYER
  2
____50
 70
    64
 62
     7
  6
SOLID
  0
LAYER
  2
____51
 70
    64
 62
     7
  6
SOLID
  0
LAYER
  2
____52
 70
    64
 62
     7
  6
SOLID
  0
LAYER
  2
____53
 70
    64
 62
     7
  6
SOLID
  0
LAYER
  2
____54
 70
    64
 62
     7
  6
SOLID
  0
LAYER
  2
____55
 70
    64
 62
     7
  6
SOLID
  0
LAYER
  2
____56
 70
    64
 62
     7
  6
SOLID
  0
LAYER
  2
____57
 70
    64
 62
     7
  6
SOLID
  0
LAYER
  2
____58
 70
    64
 62
     7
  6
SOLID
  0
LAYER
  2
____59
 70
    64
 62
     7
  6
SOLID
  0
LAYER
  2
____60
 70
    64
 62
     7
  6
SOLID
  0
LAYER
  2
____61
 70
    64
 62
     7
  6
SOLID
  0
LAYER
  2
____62
 70
    64
 62
     7
  6
SOLID
  0
LAYER
  2
____63
 70
    64
 62
     7
  6
SOLID
  0
LAYER
  2
____64
 70
    64
 62
     7
  6
SOLID
  0
LAYER
  2
____65
 70
    64
 62
     7
  6
SOLID
  0
LAYER
  2
____66
 70
    64
 62
     7
  6
SOLID
  0
LAYER
  2
____67
 70
    64
 62
     7
  6
SOLID
  0
LAYER
  2
____68
 70
    64
 62
     7
  6
SOLID
  0
LAYER
  2
____69
 70
    64
 62
     7
  6
SOLID
  0
LAYER
  2
____70
 70
    64
 62
     7
  6
SOLID
  0
LAYER
  2
____71
 70
    64
 62
     7
  6
SOLID
  0
LAYER
  2
____72
 70
    64
 62
     7
  6
SOLID
  0
LAYER
  2
____73
 70
    64
 62
     7
  6
SOLID
  0
LAYER
  2
____74
 70
    64
 62
     7
  6
SOLID
  0
LAYER
  2
____75
 70
    64
 62
     7
  6
SOLID
  0
LAYER
  2
____76
 70
    64
 62
     7
  6
SOLID
  0
LAYER
  2
____77
 70
    64
 62
     7
  6
SOLID
  0
LAYER
  2
____78
 70
    64
 62
     7
  6
SOLID
  0
LAYER
  2
____79
 70
    64
 62
     7
  6
SOLID
  0
LAYER
  2
____80
 70
    64
 62
     7
  6
SOLID
  0
LAYER
  2
____81
 70
    64
 62
     7
  6
SOLID
  0
LAYER
  2
____82
 70
    64
 62
     7
  6
SOLID
  0
LAYER
  2
____83
 70
    64
 62
     7
  6
SOLID
  0
LAYER
  2
____84
 70
    64
 62
     7
  6
SOLID
  0
LAYER
  2
____85
 70
    64
 62
     7
  6
SOLID
  0
LAYER
  2
____86
 70
    64
 62
     7
  6
SOLID
  0
LAYER
  2
____87
 70
    64
 62
     7
  6
SOLID
  0
LAYER
  2
____88
 70
    64
 62
     7
  6
SOLID
  0
LAYER
  2
____89
 70
    64
 62
     7
  6
SOLID
  0
LAYER
  2
____90
 70
    64
 62
     7
  6
SOLID
  0
LAYER
  2
____91
 70
    64
 62
     7
  6
SOLID
  0
LAYER
  2
____92
 70
    64
 62
     7
  6
SOLID
  0
LAYER
  2
____93
 70
    64
 62
     7
  6
SOLID
  0
LAYER
  2
____94
 70
    64
 62
     7
  6
SOLID
  0
LAYER
  2
____95
 70
    64
 62
     7
  6
SOLID
  0
LAYER
  2
____96
 70
    64
 62
     7
  6
SOLID
  0
LAYER
  2
____97
 70
    64
 62
     7
  6
SOLID
  0
LAYER
  2
____98
 70
    64
 62
     7
  6
SOLID
  0
LAYER
  2
____99
 70
    64
 62
     7
  6
SOLID
  0
LAYER
  2
___100
 70
    64
 62
     7
  6
SOLID
  0
ENDTAB
  0
TABLE
  2
STYLE
 70
     1
  0
STYLE
  2
DEFAULT
 70
    64
 40
0.000000
 41
1.000000
 50
0.000000
 71
     0
 42
0.000000
  3
DEFAULT
  4

  0
STYLE
  2
STANDARD
 70
    64
 40
0.000000
 41
1.000000
 50
0.000000
 71
     0
 42
0.000000
  3
txt
  4

  0
ENDTAB
  0
TABLE
  2
UCS
 70
     2
  0
UCS
  2
XZ
 70
    64
 10
0.000000
 20
0.000000
 30
0.000000
 11
1.000000
 21
0.000000
 31
0.000000
 12
0.000000
 22
0.000000
 32
1.000000
  0
UCS
  2
YZ
 70
    64
 10
0.000000
 20
0.000000
 30
0.000000
 11
0.000000
 21
1.000000
 31
0.000000
 12
0.000000
 22
0.000000
 32
1.000000
  0
ENDTAB
  0
ENDSEC
  0
SECTION
  2
BLOCKS
  0
BLOCK
  2
*D53
  8
1
 70
    65
 10
0.000000
 20
0.000000
 30
0.000000
  3
*D53
  0
LINE
  8
1
  6
SOLID
 62
     7
 10
292.500000
 20
-365.548706
 30
0.000000
 11
432.500000
 21
-365.548706
 31
0.000000
  0
LINE
  8
1
  6
SOLID
 62
     7
 10
30.000000
 20
-295.548706
 30
0.000000
 11
432.500000
 21
-295.548706
 31
0.000000
  0
LINE
  8
1
  6
SOLID
 62
     7
 10
417.500000
 20
-365.548706
 30
0.000000
 11
417.500000
 21
-258.048706
 31
0.000000
  0
LINE
  8
1
  6
SOLID
 62
     7
 10
417.500000
 20
-258.048706
 30
0.000000
 11
417.500000
 21
-532.792480
 31
0.000000
  0
LINE
  8
1
  6
SOLID
 62
     7
 10
413.333740
 20
-340.548706
 30
0.000000
 11
417.500000
 21
-365.548706
 31
0.000000
  0
LINE
  8
1
  6
SOLID
 62
     7
 10
417.500000
 20
-365.548706
 30
0.000000
 11
421.666260
 21
-340.548706
 31
0.000000
  0
LINE
  8
1
  6
SOLID
 62
     7
 10
421.666260
 20
-340.548706
 30
0.000000
 11
413.333740
 21
-340.548706
 31
0.000000
  0
LINE
  8
1
  6
SOLID
 62
     7
 10
417.500000
 20
-295.548706
 30
0.000000
 11
417.500000
 21
-532.792480
 31
0.000000
  0
LINE
  8
1
  6
SOLID
 62
     7
 10
417.500000
 20
-532.792480
 30
0.000000
 11
417.500000
 21
-258.048706
 31
0.000000
  0
LINE
  8
1
  6
SOLID
 62
     7
 10
421.666260
 20
-320.548706
 30
0.000000
 11
417.500000
 21
-295.548706
 31
0.000000
  0
LINE
  8
1
  6
SOLID
 62
     7
 10
417.500000
 20
-295.548706
 30
0.000000
 11
413.333740
 21
-320.548706
 31
0.000000
  0
LINE
  8
1
  6
SOLID
 62
     7
 10
413.333740
 20
-320.548706
 30
0.000000
 11
421.666260
 21
-320.548706
 31
0.000000
  0
TEXT
  8
1
  6
SOLID
 62
     7
 10
405.000000
 20
-521.750793
 30
0.000000
 40
25.000000
  1
2 3/4"
 50
90.000003
  0
ENDBLK
  0
BLOCK
  2
*D56
  8
1
 70
    65
 10
0.000000
 20
0.000000
 30
0.000000
  3
*D56
  0
LINE
  8
1
  6
SOLID
 62
     7
 10
292.500000
 20
-365.548706
 30
0.000000
 11
507.500000
 21
-365.548706
 31
0.000000
  0
LINE
  8
1
  6
SOLID
 62
     7
 10
-140.250000
 20
-245.548706
 30
0.000000
 11
507.500000
 21
-245.548706
 31
0.000000
  0
LINE
  8
1
  6
SOLID
 62
     7
 10
492.500000
 20
-365.548706
 30
0.000000
 11
492.500000
 21
-208.048706
 31
0.000000
  0
LINE
  8
1
  6
SOLID
 62
     7
 10
492.500000
 20
-208.048706
 30
0.000000
 11
492.500000
 21
-574.654175
 31
0.000000
  0
LINE
  8
1
  6
SOLID
 62
     7
 10
488.333740
 20
-340.548706
 30
0.000000
 11
492.500000
 21
-365.548706
 31
0.000000
  0
LINE
  8
1
  6
SOLID
 62
     7
 10
492.500000
 20
-365.548706
 30
0.000000
 11
496.666260
 21
-340.548706
 31
0.000000
  0
LINE
  8
1
  6
SOLID
 62
     7
 10
496.666260
 20
-340.548706
 30
0.000000
 11
488.333740
 21
-340.548706
 31
0.000000
  0
LINE
  8
1
  6
SOLID
 62
     7
 10
492.500000
 20
-245.548706
 30
0.000000
 11
492.500000
 21
-574.654175
 31
0.000000
  0
LINE
  8
1
  6
SOLID
 62
     7
 10
492.500000
 20
-574.654175
 30
0.000000
 11
492.500000
 21
-208.048706
 31
0.000000
  0
LINE
  8
1
  6
SOLID
 62
     7
 10
496.666260
 20
-270.548706
 30
0.000000
 11
492.500000
 21
-245.548706
 31
0.000000
  0
LINE
  8
1
  6
SOLID
 62
     7
 10
492.500000
 20
-245.548706
 30
0.000000
 11
488.333740
 21
-270.548706
 31
0.000000
  0
LINE
  8
1
  6
SOLID
 62
     7
 10
488.333740
 20
-270.548706
 30
0.000000
 11
496.666260
 21
-270.548706
 31
0.000000
  0
TEXT
  8
1
  6
SOLID
 62
     7
 10
480.000000
 20
-563.612488
 30
0.000000
 40
25.000000
  1
4 23/32"
 50
90.000003
  0
ENDBLK
  0
BLOCK
  2
*D62
  8
1
 70
    65
 10
0.000000
 20
0.000000
 30
0.000000
  3
*D62
  0
LINE
  8
1
  6
SOLID
 62
     7
 10
292.500000
 20
-365.548706
 30
0.000000
 11
582.500000
 21
-365.548706
 31
0.000000
  0
LINE
  8
1
  6
SOLID
 62
     7
 10
251.000000
 20
-105.548706
 30
0.000000
 11
582.500000
 21
-105.548706
 31
0.000000
  0
LINE
  8
1
  6
SOLID
 62
     7
 10
567.500000
 20
-365.548706
 30
0.000000
 11
567.500000
 21
-105.548706
 31
0.000000
  0
LINE
  8
1
  6
SOLID
 62
     7
 10
563.333740
 20
-340.548706
 30
0.000000
 11
567.500000
 21
-365.548706
 31
0.000000
  0
LINE
  8
1
  6
SOLID
 62
     7
 10
567.500000
 20
-365.548706
 30
0.000000
 11
571.666260
 21
-340.548706
 31
0.000000
  0
LINE
  8
1
  6
SOLID
 62
     7
 10
571.666260
 20
-340.548706
 30
0.000000
 11
563.333740
 21
-340.548706
 31
0.000000
  0
LINE
  8
1
  6
SOLID
 62
     7
 10
567.500000
 20
-105.548706
 30
0.000000
 11
567.500000
 21
-365.548706
 31
0.000000
  0
LINE
  8
1
  6
SOLID
 62
     7
 10
571.666260
 20
-130.548706
 30
0.000000
 11
567.500000
 21
-105.548706
 31
0.000000
  0
LINE
  8
1
  6
SOLID
 62
     7
 10
567.500000
 20
-105.548706
 30
0.000000
 11
563.333740
 21
-130.548706
 31
0.000000
  0
LINE
  8
1
  6
SOLID
 62
     7
 10
563.333740
 20
-130.548706
 30
0.000000
 11
571.666260
 21
-130.548706
 31
0.000000
  0
TEXT
  8
1
  6
SOLID
 62
     7
 10
555.000000
 20
-317.535736
 30
0.000000
 40
25.000000
  1
10 15/64"
 50
90.000003
  0
ENDBLK
  0
BLOCK
  2
*D101
  8
1
 70
    65
 10
0.000000
 20
0.000000
 30
0.000000
  3
*D101
  0
LINE
  8
1
  6
SOLID
 62
     7
 10
292.500000
 20
-365.548706
 30
0.000000
 11
657.500000
 21
-365.548706
 31
0.000000
  0
LINE
  8
1
  6
SOLID
 62
     7
 10
-194.875000
 20
84.451302
 30
0.000000
 11
657.500000
 21
84.451294
 31
0.000000
  0
LINE
  8
1
  6
SOLID
 62
     7
 10
642.500000
 20
-365.548706
 30
0.000000
 11
642.500000
 21
84.451294
 31
0.000000
  0
LINE
  8
1
  6
SOLID
 62
     7
 10
638.333740
 20
-340.548706
 30
0.000000
 11
642.500000
 21
-365.548706
 31
0.000000
  0
LINE
  8
1
  6
SOLID
 62
     7
 10
642.500000
 20
-365.548706
 30
0.000000
 11
646.666260
 21
-340.548706
 31
0.000000
  0
LINE
  8
1
  6
SOLID
 62
     7
 10
646.666260
 20
-340.548706
 30
0.000000
 11
638.333740
 21
-340.548706
 31
0.000000
  0
LINE
  8
1
  6
SOLID
 62
     7
 10
642.500000
 20
84.451294
 30
0.000000
 11
642.500000
 21
-365.548706
 31
0.000000
  0
LINE
  8
1
  6
SOLID
 62
     7
 10
646.666260
 20
59.451283
 30
0.000000
 11
642.500000
 21
84.451294
 31
0.000000
  0
LINE
  8
1
  6
SOLID
 62
     7
 10
642.500000
 20
84.451294
 30
0.000000
 11
638.333740
 21
59.451283
 31
0.000000
  0
LINE
  8
1
  6
SOLID
 62
     7
 10
638.333740
 20
59.451283
 30
0.000000
 11
646.666260
 21
59.451283
 31
0.000000
  0
TEXT
  8
1
  6
SOLID
 62
     7
 10
630.000000
 20
-224.295013
 30
0.000000
 40
25.000000
  1
17 23/32"
 50
90.000003
  0
ENDBLK
  0
BLOCK
  2
*D124
  8
1
 70
    65
 10
0.000000
 20
0.000000
 30
0.000000
  3
*D124
  0
LINE
  8
1
  6
SOLID
 62
     7
 10
-681.000000
 20
-298.048706
 30
0.000000
 11
-862.500000
 21
-298.048706
 31
0.000000
  0
LINE
  8
1
  6
SOLID
 62
     7
 10
-681.000000
 20
86.951294
 30
0.000000
 11
-862.500000
 21
86.951294
 31
0.000000
  0
LINE
  8
1
  6
SOLID
 62
     7
 10
-847.500000
 20
-298.048706
 30
0.000000
 11
-847.500000
 21
86.951294
 31
0.000000
  0
LINE
  8
1
  6
SOLID
 62
     7
 10
-851.666260
 20
-273.048706
 30
0.000000
 11
-847.500000
 21
-298.048706
 31
0.000000
  0
LINE
  8
1
  6
SOLID
 62
     7
 10
-847.500000
 20
-298.048706
 30
0.000000
 11
-843.333740
 21
-273.048706
 31
0.000000
  0
LINE
  8
1
  6
SOLID
 62
     7
 10
-843.333740
 20
-273.048706
 30
0.000000
 11
-851.666260
 21
-273.048706
 31
0.000000
  0
LINE
  8
1
  6
SOLID
 62
     7
 10
-847.500000
 20
86.951294
 30
0.000000
 11
-847.500000
 21
-298.048706
 31
0.000000
  0
LINE
  8
1
  6
SOLID
 62
     7
 10
-843.333740
 20
61.951286
 30
0.000000
 11
-847.500000
 21
86.951294
 31
0.000000
  0
LINE
  8
1
  6
SOLID
 62
     7
 10
-847.500000
 20
86.951294
 30
0.000000
 11
-851.666260
 21
61.951286
 31
0.000000
  0
LINE
  8
1
  6
SOLID
 62
     7
 10
-851.666260
 20
61.951286
 30
0.000000
 11
-843.333740
 21
61.951286
 31
0.000000
  0
TEXT
  8
1
  6
SOLID
 62
     7
 10
-860.000000
 20
-190.132034
 30
0.000000
 40
25.000000
  1
15 5/32"
 50
90.000003
  0
ENDBLK
  0
BLOCK
  2
*D134
  8
1
 70
    65
 10
0.000000
 20
0.000000
 30
0.000000
  3
*D134
  0
LINE
  8
1
  6
SOLID
 62
     7
 10
-232.500000
 20
84.451302
 30
0.000000
 11
-232.500000
 21
374.451294
 31
0.000000
  0
LINE
  8
1
  6
SOLID
 62
     7
 10
-197.500015
 20
84.451302
 30
0.000000
 11
-197.500015
 21
374.451294
 31
0.000000
  0
LINE
  8
1
  6
SOLID
 62
     7
 10
-232.500000
 20
359.451294
 30
0.000000
 11
-14.048111
 21
359.451294
 31
0.000000
  0
LINE
  8
1
  6
SOLID
 62
     7
 10
-14.048111
 20
359.451294
 30
0.000000
 11
-270.000000
 21
359.451294
 31
0.000000
  0
LINE
  8
1
  6
SOLID
 62
     7
 10
-207.500000
 20
363.617554
 30
0.000000
 11
-232.500000
 21
359.451294
 31
0.000000
  0
LINE
  8
1
  6
SOLID
 62
     7
 10
-232.500000
 20
359.451294
 30
0.000000
 11
-207.500000
 21
355.285034
 31
0.000000
  0
LINE
  8
1
  6
SOLID
 62
     7
 10
-207.500000
 20
355.285034
 30
0.000000
 11
-207.500000
 21
363.617554
 31
0.000000
  0
LINE
  8
1
  6
SOLID
 62
     7
 10
-197.500015
 20
359.451294
 30
0.000000
 11
-270.000000
 21
359.451294
 31
0.000000
  0
LINE
  8
1
  6
SOLID
 62
     7
 10
-270.000000
 20
359.451294
 30
0.000000
 11
-14.048111
 21
359.451294
 31
0.000000
  0
LINE
  8
1
  6
SOLID
 62
     7
 10
-222.500015
 20
355.285034
 30
0.000000
 11
-197.500015
 21
359.451294
 31
0.000000
  0
LINE
  8
1
  6
SOLID
 62
     7
 10
-197.500015
 20
359.451294
 30
0.000000
 11
-222.500015
 21
363.617554
 31
0.000000
  0
LINE
  8
1
  6
SOLID
 62
     7
 10
-222.500015
 20
363.617554
 30
0.000000
 11
-222.500015
 21
355.285034
 31
0.000000
  0
TEXT
  8
1
  6
SOLID
 62
     7
 10
-150.089767
 20
371.951294
 30
0.000000
 40
25.000000
  1
1 3/8"
 50
0.000000
  0
ENDBLK
  0
BLOCK
  2
*D135
  8
1
 70
    65
 10
0.000000
 20
0.000000
 30
0.000000
  3
*D135
  0
LINE
  8
1
  6
SOLID
 62
     7
 10
-650.000000
 20
-105.548706
 30
0.000000
 11
-650.000000
 21
-505.548706
 31
0.000000
  0
LINE
  8
1
  6
SOLID
 62
     7
 10
-270.000000
 20
-105.548706
 30
0.000000
 11
-270.000000
 21
-505.548706
 31
0.000000
  0
LINE
  8
1
  6
SOLID
 62
     7
 10
-650.000000
 20
-490.548706
 30
0.000000
 11
-270.000000
 21
-490.548706
 31
0.000000
  0
LINE
  8
1
  6
SOLID
 62
     7
 10
-625.000000
 20
-486.382446
 30
0.000000
 11
-650.000000
 21
-490.548706
 31
0.000000
  0
LINE
  8
1
  6
SOLID
 62
     7
 10
-650.000000
 20
-490.548706
 30
0.000000
 11
-625.000000
 21
-494.714966
 31
0.000000
  0
LINE
  8
1
  6
SOLID
 62
     7
 10
-625.000000
 20
-494.714966
 30
0.000000
 11
-625.000000
 21
-486.382446
 31
0.000000
  0
LINE
  8
1
  6
SOLID
 62
     7
 10
-270.000000
 20
-490.548706
 30
0.000000
 11
-650.000000
 21
-490.548706
 31
0.000000
  0
LINE
  8
1
  6
SOLID
 62
     7
 10
-295.000000
 20
-494.714966
 30
0.000000
 11
-270.000000
 21
-490.548706
 31
0.000000
  0
LINE
  8
1
  6
SOLID
 62
     7
 10
-270.000000
 20
-490.548706
 30
0.000000
 11
-295.000000
 21
-486.382446
 31
0.000000
  0
LINE
  8
1
  6
SOLID
 62
     7
 10
-295.000000
 20
-486.382446
 30
0.000000
 11
-295.000000
 21
-494.714966
 31
0.000000
  0
TEXT
  8
1
  6
SOLID
 62
     7
 10
-555.625000
 20
-478.048706
 30
0.000000
 40
25.000000
  1
14 61/64"
 50
0.000000
  0
ENDBLK
  0
BLOCK
  2
*D141
  8
1
 70
    65
 10
0.000000
 20
0.000000
 30
0.000000
  3
*D141
  0
LINE
  8
1
  6
SOLID
 62
     7
 10
-265.000000
 20
-245.548706
 30
0.000000
 11
-265.000000
 21
-580.548706
 31
0.000000
  0
LINE
  8
1
  6
SOLID
 62
     7
 10
-165.000000
 20
-245.548706
 30
0.000000
 11
-165.000000
 21
-580.548706
 31
0.000000
  0
LINE
  8
1
  6
SOLID
 62
     7
 10
-265.000000
 20
-565.548706
 30
0.000000
 11
58.893799
 21
-565.548706
 31
0.000000
  0
LINE
  8
1
  6
SOLID
 62
     7
 10
58.893799
 20
-565.548706
 30
0.000000
 11
-302.500000
 21
-565.548706
 31
0.000000
  0
LINE
  8
1
  6
SOLID
 62
     7
 10
-240.000000
 20
-561.382446
 30
0.000000
 11
-265.000000
 21
-565.548706
 31
0.000000
  0
LINE
  8
1
  6
SOLID
 62
     7
 10
-265.000000
 20
-565.548706
 30
0.000000
 11
-240.000000
 21
-569.714966
 31
0.000000
  0
LINE
  8
1
  6
SOLID
 62
     7
 10
-240.000000
 20
-569.714966
 30
0.000000
 11
-240.000000
 21
-561.382446
 31
0.000000
  0
LINE
  8
1
  6
SOLID
 62
     7
 10
-165.000000
 20
-565.548706
 30
0.000000
 11
-302.500000
 21
-565.548706
 31
0.000000
  0
LINE
  8
1
  6
SOLID
 62
     7
 10
-302.500000
 20
-565.548706
 30
0.000000
 11
58.893799
 21
-565.548706
 31
0.000000
  0
LINE
  8
1
  6
SOLID
 62
     7
 10
-190.000000
 20
-569.714966
 30
0.000000
 11
-165.000000
 21
-565.548706
 31
0.000000
  0
LINE
  8
1
  6
SOLID
 62
     7
 10
-165.000000
 20
-565.548706
 30
0.000000
 11
-190.000000
 21
-561.382446
 31
0.000000
  0
LINE
  8
1
  6
SOLID
 62
     7
 10
-190.000000
 20
-561.382446
 30
0.000000
 11
-190.000000
 21
-569.714966
 31
0.000000
  0
TEXT
  8
1
  6
SOLID
 62
     7
 10
-121.314522
 20
-553.048706
 30
0.000000
 40
25.000000
  1
3 15/16"
 50
0.000000
  0
ENDBLK
  0
BLOCK
  2
*D146
  8
1
 70
    65
 10
0.000000
 20
0.000000
 30
0.000000
  3
*D146
  0
LINE
  8
1
  6
SOLID
 62
     7
 10
-280.000000
 20
-245.548706
 30
0.000000
 11
-280.000000
 21
-655.548706
 31
0.000000
  0
LINE
  8
1
  6
SOLID
 62
     7
 10
-150.000000
 20
-245.548706
 30
0.000000
 11
-150.000000
 21
-655.548706
 31
0.000000
  0
LINE
  8
1
  6
SOLID
 62
     7
 10
-280.000000
 20
-640.548706
 30
0.000000
 11
33.984955
 21
-640.548706
 31
0.000000
  0
LINE
  8
1
  6
SOLID
 62
     7
 10
33.984955
 20
-640.548706
 30
0.000000
 11
-317.500000
 21
-640.548706
 31
0.000000
  0
LINE
  8
1
  6
SOLID
 62
     7
 10
-255.000000
 20
-636.382446
 30
0.000000
 11
-280.000000
 21
-640.548706
 31
0.000000
  0
LINE
  8
1
  6
SOLID
 62
     7
 10
-280.000000
 20
-640.548706
 30
0.000000
 11
-255.000000
 21
-644.714966
 31
0.000000
  0
LINE
  8
1
  6
SOLID
 62
     7
 10
-255.000000
 20
-644.714966
 30
0.000000
 11
-255.000000
 21
-636.382446
 31
0.000000
  0
LINE
  8
1
  6
SOLID
 62
     7
 10
-150.000000
 20
-640.548706
 30
0.000000
 11
-317.500000
 21
-640.548706
 31
0.000000
  0
LINE
  8
1
  6
SOLID
 62
     7
 10
-317.500000
 20
-640.548706
 30
0.000000
 11
33.984955
 21
-640.548706
 31
0.000000
  0
LINE
  8
1
  6
SOLID
 62
     7
 10
-175.000000
 20
-644.714966
 30
0.000000
 11
-150.000000
 21
-640.548706
 31
0.000000
  0
LINE
  8
1
  6
SOLID
 62
     7
 10
-150.000000
 20
-640.548706
 30
0.000000
 11
-175.000000
 21
-636.382446
 31
0.000000
  0
LINE
  8
1
  6
SOLID
 62
     7
 10
-175.000000
 20
-636.382446
 30
0.000000
 11
-175.000000
 21
-644.714966
 31
0.000000
  0
TEXT
  8
1
  6
SOLID
 62
     7
 10
-102.056694
 20
-628.048706
 30
0.000000
 40
25.000000
  1
5 1/8"
 50
0.000000
  0
ENDBLK
  0
BLOCK
  2
*D149
  8
1
 70
    65
 10
0.000000
 20
0.000000
 30
0.000000
  3
*D149
  0
LINE
  8
1
  6
SOLID
 62
     7
 10
-160.000000
 20
-105.548706
 30
0.000000
 11
-160.000000
 21
-505.548706
 31
0.000000
  0
LINE
  8
1
  6
SOLID
 62
     7
 10
220.000000
 20
-105.548706
 30
0.000000
 11
220.000000
 21
-505.548706
 31
0.000000
  0
LINE
  8
1
  6
SOLID
 62
     7
 10
-160.000000
 20
-490.548706
 30
0.000000
 11
220.000000
 21
-490.548706
 31
0.000000
  0
LINE
  8
1
  6
SOLID
 62
     7
 10
-135.000000
 20
-486.382446
 30
0.000000
 11
-160.000000
 21
-490.548706
 31
0.000000
  0
LINE
  8
1
  6
SOLID
 62
     7
 10
-160.000000
 20
-490.548706
 30
0.000000
 11
-135.000000
 21
-494.714966
 31
0.000000
  0
LINE
  8
1
  6
SOLID
 62
     7
 10
-135.000000
 20
-494.714966
 30
0.000000
 11
-135.000000
 21
-486.382446
 31
0.000000
  0
LINE
  8
1
  6
SOLID
 62
     7
 10
220.000000
 20
-490.548706
 30
0.000000
 11
-160.000000
 21
-490.548706
 31
0.000000
  0
LINE
  8
1
  6
SOLID
 62
     7
 10
195.000000
 20
-494.714966
 30
0.000000
 11
220.000000
 21
-490.548706
 31
0.000000
  0
LINE
  8
1
  6
SOLID
 62
     7
 10
220.000000
 20
-490.548706
 30
0.000000
 11
195.000000
 21
-486.382446
 31
0.000000
  0
LINE
  8
1
  6
SOLID
 62
     7
 10
195.000000
 20
-486.382446
 30
0.000000
 11
195.000000
 21
-494.714966
 31
0.000000
  0
TEXT
  8
1
  6
SOLID
 62
     7
 10
-65.624992
 20
-478.048706
 30
0.000000
 40
25.000000
  1
14 61/64"
 50
0.000000
  0
ENDBLK
  0
BLOCK
  2
*D156
  8
1
 70
    65
 10
0.000000
 20
0.000000
 30
0.000000
  3
*D156
  0
LINE
  8
1
  6
SOLID
 62
     7
 10
-215.000000
 20
-170.798706
 30
0.000000
 11
-215.000000
 21
524.451294
 31
0.000000
  0
LINE
  8
1
  6
SOLID
 62
     7
 10
-215.000000
 20
509.451294
 30
0.000000
 11
30.000000
 21
509.451294
 31
0.000000
  0
LINE
  8
1
  6
SOLID
 62
     7
 10
-190.000000
 20
513.617554
 30
0.000000
 11
-215.000000
 21
509.451294
 31
0.000000
  0
LINE
  8
1
  6
SOLID
 62
     7
 10
-215.000000
 20
509.451294
 30
0.000000
 11
-190.000000
 21
505.285034
 31
0.000000
  0
LINE
  8
1
  6
SOLID
 62
     7
 10
-190.000000
 20
505.285034
 30
0.000000
 11
-190.000000
 21
513.617554
 31
0.000000
  0
LINE
  8
1
  6
SOLID
 62
     7
 10
30.000000
 20
509.451294
 30
0.000000
 11
-215.000000
 21
509.451294
 31
0.000000
  0
LINE
  8
1
  6
SOLID
 62
     7
 10
4.999998
 20
505.285034
 30
0.000000
 11
30.000000
 21
509.451294
 31
0.000000
  0
LINE
  8
1
  6
SOLID
 62
     7
 10
30.000000
 20
509.451294
 30
0.000000
 11
4.999998
 21
513.617554
 31
0.000000
  0
LINE
  8
1
  6
SOLID
 62
     7
 10
4.999998
 20
513.617554
 30
0.000000
 11
4.999998
 21
505.285034
 31
0.000000
  0
TEXT
  8
1
  6
SOLID
 62
     7
 10
-177.083328
 20
521.951294
 30
0.000000
 40
25.000000
  1
9 41/64"
 50
0.000000
  0
ENDBLK
  0
BLOCK
  2
*D207
  8
1
 70
    65
 10
0.000000
 20
0.000000
 30
0.000000
  3
*D207
  0
LINE
  8
1
  6
SOLID
 62
     7
 10
-460.000000
 20
112.951302
 30
0.000000
 11
-460.000000
 21
524.451294
 31
0.000000
  0
LINE
  8
1
  6
SOLID
 62
     7
 10
-460.000000
 20
509.451294
 30
0.000000
 11
-215.000000
 21
509.451294
 31
0.000000
  0
LINE
  8
1
  6
SOLID
 62
     7
 10
-435.000000
 20
513.617554
 30
0.000000
 11
-460.000000
 21
509.451294
 31
0.000000
  0
LINE
  8
1
  6
SOLID
 62
     7
 10
-460.000000
 20
509.451294
 30
0.000000
 11
-435.000000
 21
505.285034
 31
0.000000
  0
LINE
  8
1
  6
SOLID
 62
     7
 10
-435.000000
 20
505.285034
 30
0.000000
 11
-435.000000
 21
513.617554
 31
0.000000
  0
LINE
  8
1
  6
SOLID
 62
     7
 10
-215.000000
 20
509.451294
 30
0.000000
 11
-460.000000
 21
509.451294
 31
0.000000
  0
LINE
  8
1
  6
SOLID
 62
     7
 10
-240.000000
 20
505.285034
 30
0.000000
 11
-215.000000
 21
509.451294
 31
0.000000
  0
LINE
  8
1
  6
SOLID
 62
     7
 10
-215.000000
 20
509.451294
 30
0.000000
 11
-240.000000
 21
513.617554
 31
0.000000
  0
LINE
  8
1
  6
SOLID
 62
     7
 10
-240.000000
 20
513.617554
 30
0.000000
 11
-240.000000
 21
505.285034
 31
0.000000
  0
TEXT
  8
1
  6
SOLID
 62
     7
 10
-422.083313
 20
521.951294
 30
0.000000
 40
25.000000
  1
9 41/64"
 50
0.000000
  0
ENDBLK
  0
BLOCK
  2
*D221
  8
1
 70
    65
 10
0.000000
 20
0.000000
 30
0.000000
  3
*D221
  0
LINE
  8
1
  6
SOLID
 62
     7
 10
-270.000000
 20
-105.548706
 30
0.000000
 11
-270.000000
 21
449.451294
 31
0.000000
  0
LINE
  8
1
  6
SOLID
 62
     7
 10
-160.000000
 20
-105.548706
 30
0.000000
 11
-160.000000
 21
449.451294
 31
0.000000
  0
LINE
  8
1
  6
SOLID
 62
     7
 10
-270.000000
 20
434.451294
 30
0.000000
 11
64.376282
 21
434.451294
 31
0.000000
  0
LINE
  8
1
  6
SOLID
 62
     7
 10
64.376282
 20
434.451294
 30
0.000000
 11
-307.500000
 21
434.451294
 31
0.000000
  0
LINE
  8
1
  6
SOLID
 62
     7
 10
-245.000000
 20
438.617554
 30
0.000000
 11
-270.000000
 21
434.451294
 31
0.000000
  0
LINE
  8
1
  6
SOLID
 62
     7
 10
-270.000000
 20
434.451294
 30
0.000000
 11
-245.000000
 21
430.285034
 31
0.000000
  0
LINE
  8
1
  6
SOLID
 62
     7
 10
-245.000000
 20
430.285034
 30
0.000000
 11
-245.000000
 21
438.617554
 31
0.000000
  0
LINE
  8
1
  6
SOLID
 62
     7
 10
-160.000000
 20
434.451294
 30
0.000000
 11
-307.500000
 21
434.451294
 31
0.000000
  0
LINE
  8
1
  6
SOLID
 62
     7
 10
-307.500000
 20
434.451294
 30
0.000000
 11
64.376282
 21
434.451294
 31
0.000000
  0
LINE
  8
1
  6
SOLID
 62
     7
 10
-185.000000
 20
430.285034
 30
0.000000
 11
-160.000000
 21
434.451294
 31
0.000000
  0
LINE
  8
1
  6
SOLID
 62
     7
 10
-160.000000
 20
434.451294
 30
0.000000
 11
-185.000000
 21
438.617554
 31
0.000000
  0
LINE
  8
1
  6
SOLID
 62
     7
 10
-185.000000
 20
438.617554
 30
0.000000
 11
-185.000000
 21
430.285034
 31
0.000000
  0
TEXT
  8
1
  6
SOLID
 62
     7
 10
-115.832024
 20
446.951294
 30
0.000000
 40
25.000000
  1
4 21/64"
 50
0.000000
  0
ENDBLK
  0
ENDSEC
  0
SECTION
  2
ENTITIES
  0
LINE
  8
1
  6
CENTER
 62
     7
 10
-678.500000
 20
-105.548706
 30
0.000000
 11
-241.500000
 21
-105.548706
 31
0.000000
  0
LINE
  8
1
  6
CENTER
 62
     7
 10
30.000000
 20
-324.048698
 30
0.000000
 11
30.000000
 21
112.951302
 31
0.000000
  0
LINE
  8
1
  6
CENTER
 62
     7
 10
-460.000008
 20
-324.048698
 30
0.000000
 11
-460.000008
 21
112.951302
 31
0.000000
  0
LINE
  8
1
  6
CENTER
 62
     7
 10
-36.125000
 20
-5.548698
 30
0.000000
 11
96.125000
 21
-5.548698
 31
0.000000
  0
LINE
  8
1
  6
CENTER
 62
     7
 10
-235.125008
 20
84.451302
 30
0.000000
 11
-194.875008
 21
84.451302
 31
0.000000
  0
INSERT
  2
*D53
  8
1
 41
1.000000
 50
0.000000
 10
0.000000
 20
0.000000
 30
0.000000
  0
INSERT
  2
*D56
  8
1
 41
1.000000
 50
0.000000
 10
0.000000
 20
0.000000
 30
0.000000
  0
CIRCLE
  8
1
  6
SOLID
 62
     7
 10
-320.000008
 20
-105.548706
 30
0.000000
 40
30.000000
  0
CIRCLE
  8
1
  6
SOLID
 62
     7
 10
-320.000008
 20
-105.548706
 30
0.000000
 40
35.000000
  0
LINE
  8
1
  6
CENTER
 62
     7
 10
-320.000008
 20
-145.798706
 30
0.000000
 11
-320.000008
 21
-65.298706
 31
0.000000
  0
INSERT
  2
*D62
  8
1
 41
1.000000
 50
0.000000
 10
0.000000
 20
0.000000
 30
0.000000
  0
LINE
  8
1
  6
CENTER
 62
     7
 10
-188.500000
 20
-105.548706
 30
0.000000
 11
248.500000
 21
-105.548706
 31
0.000000
  0
CIRCLE
  8
1
  6
SOLID
 62
     7
 10
-215.000008
 20
84.451294
 30
0.000000
 40
17.500000
  0
CIRCLE
  8
1
  6
SOLID
 62
     7
 10
-460.000008
 20
-105.548706
 30
0.000000
 40
190.000000
  0
CIRCLE
  8
1
  6
SOLID
 62
     7
 10
30.000000
 20
-105.548706
 30
0.000000
 40
190.000000
  0
CIRCLE
  8
1
  6
SOLID
 62
     7
 10
30.000000
 20
-5.548706
 30
0.000000
 40
57.500000
  0
CIRCLE
  8
1
  6
SOLID
 62
     7
 10
30.000000
 20
-5.548706
 30
0.000000
 40
47.500000
  0
LINE
  8
1
  6
SOLID
 62
     7
 10
-722.500008
 20
-365.548698
 30
0.000000
 11
292.499992
 21
-365.548698
 31
0.000000
  0
LINE
  8
1
  6
SOLID
 62
     7
 10
-722.500008
 20
234.451302
 30
0.000000
 11
292.499992
 21
234.451302
 31
0.000000
  0
POLYLINE
  8
1
  6
SOLID
 62
     7
 66
     1
 10
0.000000
 20
0.000000
 30
0.000000
  0
VERTEX
  8
1
 10
292.500000
 20
234.451296
 30
0.000000
  0
VERTEX
  8
1
 10
289.856091
 20
226.039491
 30
0.000000
  0
VERTEX
  8
1
 10
288.570460
 20
221.835075
 30
0.000000
  0
VERTEX
  8
1
 10
287.328418
 20
217.632442
 30
0.000000
  0
VERTEX
  8
1
 10
286.144495
 20
213.432187
 30
0.000000
  0
VERTEX
  8
1
 10
285.033220
 20
209.234904
 30
0.000000
  0
VERTEX
  8
1
 10
284.509366
 20
207.137563
 30
0.000000
  0
VERTEX
  8
1
 10
284.009123
 20
205.041189
 30
0.000000
  0
VERTEX
  8
1
 10
283.534307
 20
202.945854
 30
0.000000
  0
VERTEX
  8
1
 10
283.086733
 20
200.851634
 30
0.000000
  0
VERTEX
  8
1
 10
282.668219
 20
198.758603
 30
0.000000
  0
VERTEX
  8
1
 10
282.280581
 20
196.666836
 30
0.000000
  0
VERTEX
  8
1
 10
281.925634
 20
194.576406
 30
0.000000
  0
VERTEX
  8
1
 10
281.605195
 20
192.487388
 30
0.000000
  0
VERTEX
  8
1
 10
281.321080
 20
190.399856
 30
0.000000
  0
VERTEX
  8
1
 10
281.075105
 20
188.313884
 30
0.000000
  0
VERTEX
  8
1
 10
280.869087
 20
186.229548
 30
0.000000
  0
VERTEX
  8
1
 10
280.704841
 20
184.146920
 30
0.000000
  0
VERTEX
  8
1
 10
280.584185
 20
182.066076
 30
0.000000
  0
VERTEX
  8
1
 10
280.508933
 20
179.987090
 30
0.000000
  0
VERTEX
  8
1
 10
280.480903
 20
177.910035
 30
0.000000
  0
VERTEX
  8
1
 10
280.501910
 20
175.834987
 30
0.000000
  0
VERTEX
  8
1
 10
280.573771
 20
173.762020
 30
0.000000
  0
VERTEX
  8
1
 10
280.698302
 20
171.691208
 30
0.000000
  0
VERTEX
  8
1
 10
280.877319
 20
169.622625
 30
0.000000
  0
VERTEX
  8
1
 10
281.112639
 20
167.556346
 30
0.000000
  0
VERTEX
  8
1
 10
281.352378
 20
165.836958
 30
0.000000
  0
VERTEX
  8
1
 10
281.630083
 20
164.119085
 30
0.000000
  0
VERTEX
  8
1
 10
281.943392
 20
162.402588
 30
0.000000
  0
VERTEX
  8
1
 10
282.289945
 20
160.687332
 30
0.000000
  0
VERTEX
  8
1
 10
282.667381
 20
158.973180
 30
0.000000
  0
VERTEX
  8
1
 10
283.073339
 20
157.259996
 30
0.000000
  0
VERTEX
  8
1
 10
283.505459
 20
155.547644
 30
0.000000
  0
VERTEX
  8
1
 10
283.961380
 20
153.835986
 30
0.000000
  0
VERTEX
  8
1
 10
284.935181
 20
150.414209
 30
0.000000
  0
VERTEX
  8
1
 10
285.975858
 20
146.993575
 30
0.000000
  0
VERTEX
  8
1
 10
287.064524
 20
143.572992
 30
0.000000
  0
VERTEX
  8
1
 10
290.429601
 20
133.300633
 30
0.000000
  0
VERTEX
  8
1
 10
291.521367
 20
129.869339
 30
0.000000
  0
VERTEX
  8
1
 10
292.566695
 20
126.432638
 30
0.000000
  0
VERTEX
  8
1
 10
293.546698
 20
122.989440
 30
0.000000
  0
VERTEX
  8
1
 10
294.006301
 20
121.265063
 30
0.000000
  0
VERTEX
  8
1
 10
294.442490
 20
119.538652
 30
0.000000
  0
VERTEX
  8
1
 10
294.852906
 20
117.810072
 30
0.000000
  0
VERTEX
  8
1
 10
295.235186
 20
116.079184
 30
0.000000
  0
VERTEX
  8
1
 10
295.586972
 20
114.345854
 30
0.000000
  0
VERTEX
  8
1
 10
295.905901
 20
112.609944
 30
0.000000
  0
VERTEX
  8
1
 10
296.260633
 20
110.404370
 30
0.000000
  0
VERTEX
  8
1
 10
296.561007
 20
108.194590
 30
0.000000
  0
VERTEX
  8
1
 10
296.809319
 20
105.980769
 30
0.000000
  0
VERTEX
  8
1
 10
297.007863
 20
103.763069
 30
0.000000
  0
VERTEX
  8
1
 10
297.158934
 20
101.541655
 30
0.000000
  0
VERTEX
  8
1
 10
297.264827
 20
99.316689
 30
0.000000
  0
VERTEX
  8
1
 10
297.327838
 20
97.088336
 30
0.000000
  0
VERTEX
  8
1
 10
297.350261
 20
94.856759
 30
0.000000
  0
VERTEX
  8
1
 10
297.334392
 20
92.622121
 30
0.000000
  0
VERTEX
  8
1
 10
297.282525
 20
90.384586
 30
0.000000
  0
VERTEX
  8
1
 10
297.196956
 20
88.144318
 30
0.000000
  0
VERTEX
  8
1
 10
297.079980
 20
85.901480
 30
0.000000
  0
VERTEX
  8
1
 10
296.933891
 20
83.656236
 30
0.000000
  0
VERTEX
  8
1
 10
296.760984
 20
81.408749
 30
0.000000
  0
VERTEX
  8
1
 10
296.563556
 20
79.159183
 30
0.000000
  0
VERTEX
  8
1
 10
296.343900
 20
76.907701
 30
0.000000
  0
VERTEX
  8
1
 10
295.847087
 20
72.399646
 30
0.000000
  0
VERTEX
  8
1
 10
295.288905
 20
67.885891
 30
0.000000
  0
VERTEX
  8
1
 10
294.687715
 20
63.367746
 30
0.000000
  0
VERTEX
  8
1
 10
292.809700
 20
49.800051
 30
0.000000
  0
VERTEX
  8
1
 10
292.220081
 20
45.277428
 30
0.000000
  0
VERTEX
  8
1
 10
291.679255
 20
40.756957
 30
0.000000
  0
VERTEX
  8
1
 10
291.405552
 20
38.242047
 30
0.000000
  0
VERTEX
  8
1
 10
291.152371
 20
35.728144
 30
0.000000
  0
VERTEX
  8
1
 10
290.706426
 20
30.703092
 30
0.000000
  0
VERTEX
  8
1
 10
290.339131
 20
25.681269
 30
0.000000
  0
VERTEX
  8
1
 10
290.048195
 20
20.662148
 30
0.000000
  0
VERTEX
  8
1
 10
289.831327
 20
15.645198
 30
0.000000
  0
VERTEX
  8
1
 10
289.686237
 20
10.629890
 30
0.000000
  0
VERTEX
  8
1
 10
289.610635
 20
5.615695
 30
0.000000
  0
VERTEX
  8
1
 10
289.602230
 20
0.602084
 30
0.000000
  0
VERTEX
  8
1
 10
289.658732
 20
-4.411473
 30
0.000000
  0
VERTEX
  8
1
 10
289.777851
 20
-9.425506
 30
0.000000
  0
VERTEX
  8
1
 10
289.957296
 20
-14.440543
 30
0.000000
  0
VERTEX
  8
1
 10
290.194777
 20
-19.457114
 30
0.000000
  0
VERTEX
  8
1
 10
290.488004
 20
-24.475748
 30
0.000000
  0
VERTEX
  8
1
 10
290.834686
 20
-29.496974
 30
0.000000
  0
VERTEX
  8
1
 10
291.232533
 20
-34.521323
 30
0.000000
  0
VERTEX
  8
1
 10
291.679255
 20
-39.549323
 30
0.000000
  0
VERTEX
  8
1
 10
292.157740
 20
-44.458971
 30
0.000000
  0
VERTEX
  8
1
 10
293.699521
 20
-59.199458
 30
0.000000
  0
VERTEX
  8
1
 10
294.195633
 20
-64.112688
 30
0.000000
  0
VERTEX
  8
1
 10
294.656210
 20
-69.023729
 30
0.000000
  0
VERTEX
  8
1
 10
295.065274
 20
-73.931346
 30
0.000000
  0
VERTEX
  8
1
 10
295.406848
 20
-78.834307
 30
0.000000
  0
VERTEX
  8
1
 10
295.547334
 20
-81.283655
 30
0.000000
  0
VERTEX
  8
1
 10
295.664956
 20
-83.731377
 30
0.000000
  0
VERTEX
  8
1
 10
295.757717
 20
-86.177317
 30
0.000000
  0
VERTEX
  8
1
 10
295.823620
 20
-88.621322
 30
0.000000
  0
VERTEX
  8
1
 10
295.860668
 20
-91.063237
 30
0.000000
  0
VERTEX
  8
1
 10
295.866864
 20
-93.502909
 30
0.000000
  0
VERTEX
  8
1
 10
295.840210
 20
-95.940182
 30
0.000000
  0
VERTEX
  8
1
 10
295.778710
 20
-98.374903
 30
0.000000
  0
VERTEX
  8
1
 10
295.680366
 20
-100.806918
 30
0.000000
  0
VERTEX
  8
1
 10
295.543181
 20
-103.236071
 30
0.000000
  0
VERTEX
  8
1
 10
295.365158
 20
-105.662210
 30
0.000000
  0
VERTEX
  8
1
 10
295.144301
 20
-108.085179
 30
0.000000
  0
VERTEX
  8
1
 10
294.878611
 20
-110.504825
 30
0.000000
  0
VERTEX
  8
1
 10
294.566092
 20
-112.920993
 30
0.000000
  0
VERTEX
  8
1
 10
294.204747
 20
-115.333530
 30
0.000000
  0
VERTEX
  8
1
 10
293.792578
 20
-117.742280
 30
0.000000
  0
VERTEX
  8
1
 10
293.463979
 20
-119.472752
 30
0.000000
  0
VERTEX
  8
1
 10
293.110132
 20
-121.201291
 30
0.000000
  0
VERTEX
  8
1
 10
292.733125
 20
-122.928005
 30
0.000000
  0
VERTEX
  8
1
 10
292.335046
 20
-124.653000
 30
0.000000
  0
VERTEX
  8
1
 10
291.484025
 20
-128.098261
 30
0.000000
  0
VERTEX
  8
1
 10
290.573778
 20
-131.537928
 30
0.000000
  0
VERTEX
  8
1
 10
289.621012
 20
-134.972856
 30
0.000000
  0
VERTEX
  8
1
 10
286.674673
 20
-145.257750
 30
0.000000
  0
VERTEX
  8
1
 10
285.718904
 20
-148.682267
 30
0.000000
  0
VERTEX
  8
1
 10
284.804154
 20
-152.106317
 30
0.000000
  0
VERTEX
  8
1
 10
283.947128
 20
-155.530756
 30
0.000000
  0
VERTEX
  8
1
 10
283.545484
 20
-157.243387
 30
0.000000
  0
VERTEX
  8
1
 10
283.164535
 20
-158.956437
 30
0.000000
  0
VERTEX
  8
1
 10
282.806372
 20
-160.670011
 30
0.000000
  0
VERTEX
  8
1
 10
282.473083
 20
-162.384216
 30
0.000000
  0
VERTEX
  8
1
 10
282.166755
 20
-164.099159
 30
0.000000
  0
VERTEX
  8
1
 10
281.889477
 20
-165.814946
 30
0.000000
  0
VERTEX
  8
1
 10
281.643339
 20
-167.531686
 30
0.000000
  0
VERTEX
  8
1
 10
281.430427
 20
-169.249483
 30
0.000000
  0
VERTEX
  8
1
 10
281.252831
 20
-170.968446
 30
0.000000
  0
VERTEX
  8
1
 10
281.112639
 20
-172.688681
 30
0.000000
  0
VERTEX
  8
1
 10
281.027169
 20
-174.091795
 30
0.000000
  0
VERTEX
  8
1
 10
280.967140
 20
-175.495806
 30
0.000000
  0
VERTEX
  8
1
 10
280.931757
 20
-176.900699
 30
0.000000
  0
VERTEX
  8
1
 10
280.920224
 20
-178.306454
 30
0.000000
  0
VERTEX
  8
1
 10
280.931745
 20
-179.713055
 30
0.000000
  0
VERTEX
  8
1
 10
280.965526
 20
-181.120483
 30
0.000000
  0
VERTEX
  8
1
 10
281.020771
 20
-182.528721
 30
0.000000
  0
VERTEX
  8
1
 10
281.096685
 20
-183.937751
 30
0.000000
  0
VERTEX
  8
1
 10
281.307336
 20
-186.758117
 30
0.000000
  0
VERTEX
  8
1
 10
281.591117
 20
-189.581439
 30
0.000000
  0
VERTEX
  8
1
 10
281.941665
 20
-192.407575
 30
0.000000
  0
VERTEX
  8
1
 10
282.352617
 20
-195.236385
 30
0.000000
  0
VERTEX
  8
1
 10
282.817610
 20
-198.067726
 30
0.000000
  0
VERTEX
  8
1
 10
283.330280
 20
-200.901457
 30
0.000000
  0
VERTEX
  8
1
 10
283.884264
 20
-203.737437
 30
0.000000
  0
VERTEX
  8
1
 10
284.473200
 20
-206.575523
 30
0.000000
  0
VERTEX
  8
1
 10
285.090724
 20
-209.415574
 30
0.000000
  0
VERTEX
  8
1
 10
285.730474
 20
-212.257448
 30
0.000000
  0
VERTEX
  8
1
 10
288.384463
 20
-223.640348
 30
0.000000
  0
VERTEX
  8
1
 10
289.679369
 20
-229.339058
 30
0.000000
  0
VERTEX
  8
1
 10
290.296529
 20
-232.189731
 30
0.000000
  0
VERTEX
  8
1
 10
290.885010
 20
-235.041096
 30
0.000000
  0
VERTEX
  8
1
 10
291.438449
 20
-237.893009
 30
0.000000
  0
VERTEX
  8
1
 10
291.950481
 20
-240.745331
 30
0.000000
  0
VERTEX
  8
1
 10
292.414746
 20
-243.597918
 30
0.000000
  0
VERTEX
  8
1
 10
292.824878
 20
-246.450629
 30
0.000000
  0
VERTEX
  8
1
 10
293.174516
 20
-249.303323
 30
0.000000
  0
VERTEX
  8
1
 10
293.457297
 20
-252.155858
 30
0.000000
  0
VERTEX
  8
1
 10
293.666856
 20
-255.008092
 30
0.000000
  0
VERTEX
  8
1
 10
293.742189
 20
-256.434053
 30
0.000000
  0
VERTEX
  8
1
 10
293.796831
 20
-257.859885
 30
0.000000
  0
VERTEX
  8
1
 10
293.829986
 20
-259.285571
 30
0.000000
  0
VERTEX
  8
1
 10
293.840860
 20
-260.711093
 30
0.000000
  0
VERTEX
  8
1
 10
293.828655
 20
-262.136435
 30
0.000000
  0
VERTEX
  8
1
 10
293.792578
 20
-263.561577
 30
0.000000
  0
VERTEX
  8
1
 10
293.712987
 20
-265.349513
 30
0.000000
  0
VERTEX
  8
1
 10
293.597004
 20
-267.137110
 30
0.000000
  0
VERTEX
  8
1
 10
293.447079
 20
-268.924372
 30
0.000000
  0
VERTEX
  8
1
 10
293.265660
 20
-270.711301
 30
0.000000
  0
VERTEX
  8
1
 10
293.055194
 20
-272.497899
 30
0.000000
  0
VERTEX
  8
1
 10
292.818130
 20
-274.284170
 30
0.000000
  0
VERTEX
  8
1
 10
292.556917
 20
-276.070117
 30
0.000000
  0
VERTEX
  8
1
 10
292.274002
 20
-277.855741
 30
0.000000
  0
VERTEX
  8
1
 10
291.652862
 20
-281.426035
 30
0.000000
  0
VERTEX
  8
1
 10
290.974297
 20
-284.995074
 30
0.000000
  0
VERTEX
  8
1
 10
288.789914
 20
-295.694884
 30
0.000000
  0
VERTEX
  8
1
 10
288.077513
 20
-299.259125
 30
0.000000
  0
VERTEX
  8
1
 10
287.405618
 20
-302.822220
 30
0.000000
  0
VERTEX
  8
1
 10
286.793818
 20
-306.384194
 30
0.000000
  0
VERTEX
  8
1
 10
286.516574
 20
-308.164766
 30
0.000000
  0
VERTEX
  8
1
 10
286.261698
 20
-309.945067
 30
0.000000
  0
VERTEX
  8
1
 10
286.031639
 20
-311.725097
 30
0.000000
  0
VERTEX
  8
1
 10
285.828845
 20
-313.504861
 30
0.000000
  0
VERTEX
  8
1
 10
285.655764
 20
-315.284360
 30
0.000000
  0
VERTEX
  8
1
 10
285.514845
 20
-317.063599
 30
0.000000
  0
VERTEX
  8
1
 10
285.408536
 20
-318.842578
 30
0.000000
  0
VERTEX
  8
1
 10
285.339285
 20
-320.621302
 30
0.000000
  0
VERTEX
  8
1
 10
285.312053
 20
-322.026891
 30
0.000000
  0
VERTEX
  8
1
 10
285.308726
 20
-323.432328
 30
0.000000
  0
VERTEX
  8
1
 10
285.328534
 20
-324.837616
 30
0.000000
  0
VERTEX
  8
1
 10
285.370704
 20
-326.242761
 30
0.000000
  0
VERTEX
  8
1
 10
285.434466
 20
-327.647767
 30
0.000000
  0
VERTEX
  8
1
 10
285.519048
 20
-329.052640
 30
0.000000
  0
VERTEX
  8
1
 10
285.747591
 20
-331.862006
 30
0.000000
  0
VERTEX
  8
1
 10
286.050162
 20
-334.670897
 30
0.000000
  0
VERTEX
  8
1
 10
286.420594
 20
-337.479354
 30
0.000000
  0
VERTEX
  8
1
 10
286.852716
 20
-340.287415
 30
0.000000
  0
VERTEX
  8
1
 10
287.340359
 20
-343.095121
 30
0.000000
  0
VERTEX
  8
1
 10
287.877356
 20
-345.902511
 30
0.000000
  0
VERTEX
  8
1
 10
288.457535
 20
-348.709624
 30
0.000000
  0
VERTEX
  8
1
 10
289.074730
 20
-351.516499
 30
0.000000
  0
VERTEX
  8
1
 10
289.722769
 20
-354.323177
 30
0.000000
  0
VERTEX
  8
1
 10
291.086708
 20
-359.936099
 30
0.000000
  0
VERTEX
  8
1
 10
292.500000
 20
-365.548704
 30
0.000000
  0
SEQEND
  0
POLYLINE
  8
1
  6
SOLID
 62
     7
 66
     1
 10
0.000000
 20
0.000000
 30
0.000000
  0
VERTEX
  8
1
 10
-722.500004
 20
234.451296
 30
0.000000
  0
VERTEX
  8
1
 10
-718.555949
 20
217.298524
 30
0.000000
  0
VERTEX
  8
1
 10
-716.605353
 20
208.709727
 30
0.000000
  0
VERTEX
  8
1
 10
-714.680474
 20
200.106034
 30
0.000000
  0
VERTEX
  8
1
 10
-712.789884
 20
191.482482
 30
0.000000
  0
VERTEX
  8
1
 10
-710.942157
 20
182.834106
 30
0.000000
  0
VERTEX
  8
1
 10
-709.145864
 20
174.155941
 30
0.000000
  0
VERTEX
  8
1
 10
-707.409577
 20
165.443022
 30
0.000000
  0
VERTEX
  8
1
 10
-706.204040
 20
159.116982
 30
0.000000
  0
VERTEX
  8
1
 10
-705.631145
 20
155.947919
 30
0.000000
  0
VERTEX
  8
1
 10
-705.086923
 20
152.775759
 30
0.000000
  0
VERTEX
  8
1
 10
-704.577939
 20
149.601205
 30
0.000000
  0
VERTEX
  8
1
 10
-704.110760
 20
146.424955
 30
0.000000
  0
VERTEX
  8
1
 10
-703.691953
 20
143.247710
 30
0.000000
  0
VERTEX
  8
1
 10
-703.328084
 20
140.070171
 30
0.000000
  0
VERTEX
  8
1
 10
-703.025721
 20
136.893037
 30
0.000000
  0
VERTEX
  8
1
 10
-702.791430
 20
133.717009
 30
0.000000
  0
VERTEX
  8
1
 10
-702.631778
 20
130.542786
 30
0.000000
  0
VERTEX
  8
1
 10
-702.581993
 20
128.956571
 30
0.000000
  0
VERTEX
  8
1
 10
-702.553331
 20
127.371069
 30
0.000000
  0
VERTEX
  8
1
 10
-702.546611
 20
125.786370
 30
0.000000
  0
VERTEX
  8
1
 10
-702.562656
 20
124.202559
 30
0.000000
  0
VERTEX
  8
1
 10
-702.602285
 20
122.619725
 30
0.000000
  0
VERTEX
  8
1
 10
-702.666320
 20
121.037955
 30
0.000000
  0
VERTEX
  8
1
 10
-702.755581
 20
119.457337
 30
0.000000
  0
VERTEX
  8
1
 10
-702.870889
 20
117.877957
 30
0.000000
  0
VERTEX
  8
1
 10
-703.013066
 20
116.299905
 30
0.000000
  0
VERTEX
  8
1
 10
-703.182931
 20
114.723267
 30
0.000000
  0
VERTEX
  8
1
 10
-703.467531
 20
112.520175
 30
0.000000
  0
VERTEX
  8
1
 10
-703.803892
 20
110.319895
 30
0.000000
  0
VERTEX
  8
1
 10
-704.187986
 20
108.122297
 30
0.000000
  0
VERTEX
  8
1
 10
-704.615783
 20
105.927254
 30
0.000000
  0
VERTEX
  8
1
 10
-705.083252
 20
103.734638
 30
0.000000
  0
VERTEX
  8
1
 10
-705.586363
 20
101.544320
 30
0.000000
  0
VERTEX
  8
1
 10
-706.121088
 20
99.356174
 30
0.000000
  0
VERTEX
  8
1
 10
-706.683396
 20
97.170070
 30
0.000000
  0
VERTEX
  8
1
 10
-707.874641
 20
92.803478
 30
0.000000
  0
VERTEX
  8
1
 10
-709.127861
 20
88.443522
 30
0.000000
  0
VERTEX
  8
1
 10
-711.691271
 20
79.739419
 30
0.000000
  0
VERTEX
  8
1
 10
-712.936984
 20
75.393223
 30
0.000000
  0
VERTEX
  8
1
 10
-714.115718
 20
71.049567
 30
0.000000
  0
VERTEX
  8
1
 10
-714.669892
 20
68.878371
 30
0.000000
  0
VERTEX
  8
1
 10
-715.195233
 20
66.707426
 30
0.000000
  0
VERTEX
  8
1
 10
-715.687710
 20
64.536603
 30
0.000000
  0
VERTEX
  8
1
 10
-716.143292
 20
62.365776
 30
0.000000
  0
VERTEX
  8
1
 10
-716.557951
 20
60.194814
 30
0.000000
  0
VERTEX
  8
1
 10
-716.927656
 20
58.023592
 30
0.000000
  0
VERTEX
  8
1
 10
-717.248378
 20
55.851980
 30
0.000000
  0
VERTEX
  8
1
 10
-717.516087
 20
53.679852
 30
0.000000
  0
VERTEX
  8
1
 10
-717.726752
 20
51.507077
 30
0.000000
  0
VERTEX
  8
1
 10
-717.876345
 20
49.333530
 30
0.000000
  0
VERTEX
  8
1
 10
-717.960835
 20
47.159081
 30
0.000000
  0
VERTEX
  8
1
 10
-717.976193
 20
44.983603
 30
0.000000
  0
VERTEX
  8
1
 10
-717.937980
 20
43.276916
 30
0.000000
  0
VERTEX
  8
1
 10
-717.857158
 20
41.569522
 30
0.000000
  0
VERTEX
  8
1
 10
-717.736104
 20
39.861423
 30
0.000000
  0
VERTEX
  8
1
 10
-717.577194
 20
38.152624
 30
0.000000
  0
VERTEX
  8
1
 10
-717.382807
 20
36.443129
 30
0.000000
  0
VERTEX
  8
1
 10
-717.155318
 20
34.732941
 30
0.000000
  0
VERTEX
  8
1
 10
-716.897106
 20
33.022063
 30
0.000000
  0
VERTEX
  8
1
 10
-716.610546
 20
31.310501
 30
0.000000
  0
VERTEX
  8
1
 10
-716.298018
 20
29.598257
 30
0.000000
  0
VERTEX
  8
1
 10
-715.961896
 20
27.885335
 30
0.000000
  0
VERTEX
  8
1
 10
-715.228384
 20
24.457473
 30
0.000000
  0
VERTEX
  8
1
 10
-714.429028
 20
21.026946
 30
0.000000
  0
VERTEX
  8
1
 10
-713.582843
 20
17.593782
 30
0.000000
  0
VERTEX
  8
1
 10
-710.953489
 20
7.278779
 30
0.000000
  0
VERTEX
  8
1
 10
-710.110161
 20
3.835374
 30
0.000000
  0
VERTEX
  8
1
 10
-709.315088
 20
0.389483
 30
0.000000
  0
VERTEX
  8
1
 10
-708.587289
 20
-3.058863
 30
0.000000
  0
VERTEX
  8
1
 10
-708.254560
 20
-4.783947
 30
0.000000
  0
VERTEX
  8
1
 10
-707.945780
 20
-6.509633
 30
0.000000
  0
VERTEX
  8
1
 10
-707.663327
 20
-8.235919
 30
0.000000
  0
VERTEX
  8
1
 10
-707.409577
 20
-9.962799
 30
0.000000
  0
VERTEX
  8
1
 10
-707.112087
 20
-12.324061
 30
0.000000
  0
VERTEX
  8
1
 10
-706.870290
 20
-14.686423
 30
0.000000
  0
VERTEX
  8
1
 10
-706.681813
 20
-17.049879
 30
0.000000
  0
VERTEX
  8
1
 10
-706.544284
 20
-19.414423
 30
0.000000
  0
VERTEX
  8
1
 10
-706.455333
 20
-21.780051
 30
0.000000
  0
VERTEX
  8
1
 10
-706.412586
 20
-24.146757
 30
0.000000
  0
VERTEX
  8
1
 10
-706.413674
 20
-26.514536
 30
0.000000
  0
VERTEX
  8
1
 10
-706.456223
 20
-28.883383
 30
0.000000
  0
VERTEX
  8
1
 10
-706.537863
 20
-31.253293
 30
0.000000
  0
VERTEX
  8
1
 10
-706.656221
 20
-33.624260
 30
0.000000
  0
VERTEX
  8
1
 10
-706.808926
 20
-35.996279
 30
0.000000
  0
VERTEX
  8
1
 10
-706.993606
 20
-38.369345
 30
0.000000
  0
VERTEX
  8
1
 10
-707.207889
 20
-40.743452
 30
0.000000
  0
VERTEX
  8
1
 10
-707.449404
 20
-43.118596
 30
0.000000
  0
VERTEX
  8
1
 10
-707.715779
 20
-45.494771
 30
0.000000
  0
VERTEX
  8
1
 10
-708.004642
 20
-47.871972
 30
0.000000
  0
VERTEX
  8
1
 10
-708.640346
 20
-52.629430
 30
0.000000
  0
VERTEX
  8
1
 10
-709.337543
 20
-57.390929
 30
0.000000
  0
VERTEX
  8
1
 10
-710.077259
 20
-62.156427
 30
0.000000
  0
VERTEX
  8
1
 10
-712.361785
 20
-76.476495
 30
0.000000
  0
VERTEX
  8
1
 10
-713.081840
 20
-81.257569
 30
0.000000
  0
VERTEX
  8
1
 10
-713.749547
 20
-86.042432
 30
0.000000
  0
VERTEX
  8
1
 10
-714.332000
 20
-90.692876
 30
0.000000
  0
VERTEX
  8
1
 10
-714.842238
 20
-95.345583
 30
0.000000
  0
VERTEX
  8
1
 10
-715.275321
 20
-99.999281
 30
0.000000
  0
VERTEX
  8
1
 10
-715.461386
 20
-102.326103
 30
0.000000
  0
VERTEX
  8
1
 10
-715.626308
 20
-104.652697
 30
0.000000
  0
VERTEX
  8
1
 10
-715.769472
 20
-106.978902
 30
0.000000
  0
VERTEX
  8
1
 10
-715.890258
 20
-109.304559
 30
0.000000
  0
VERTEX
  8
1
 10
-715.988051
 20
-111.629511
 30
0.000000
  0
VERTEX
  8
1
 10
-716.062231
 20
-113.953597
 30
0.000000
  0
VERTEX
  8
1
 10
-716.112182
 20
-116.276659
 30
0.000000
  0
VERTEX
  8
1
 10
-716.137285
 20
-118.598537
 30
0.000000
  0
VERTEX
  8
1
 10
-716.136924
 20
-120.919073
 30
0.000000
  0
VERTEX
  8
1
 10
-716.110480
 20
-123.238108
 30
0.000000
  0
VERTEX
  8
1
 10
-716.057336
 20
-125.555482
 30
0.000000
  0
VERTEX
  8
1
 10
-715.976875
 20
-127.871037
 30
0.000000
  0
VERTEX
  8
1
 10
-715.868479
 20
-130.184614
 30
0.000000
  0
VERTEX
  8
1
 10
-715.731530
 20
-132.496054
 30
0.000000
  0
VERTEX
  8
1
 10
-715.565410
 20
-134.805197
 30
0.000000
  0
VERTEX
  8
1
 10
-715.369503
 20
-137.111885
 30
0.000000
  0
VERTEX
  8
1
 10
-715.143190
 20
-139.415959
 30
0.000000
  0
VERTEX
  8
1
 10
-714.885854
 20
-141.717259
 30
0.000000
  0
VERTEX
  8
1
 10
-714.596878
 20
-144.015627
 30
0.000000
  0
VERTEX
  8
1
 10
-714.275643
 20
-146.310904
 30
0.000000
  0
VERTEX
  8
1
 10
-713.921532
 20
-148.602930
 30
0.000000
  0
VERTEX
  8
1
 10
-713.533927
 20
-150.891547
 30
0.000000
  0
VERTEX
  8
1
 10
-713.112212
 20
-153.176596
 30
0.000000
  0
VERTEX
  8
1
 10
-712.655768
 20
-155.457917
 30
0.000000
  0
VERTEX
  8
1
 10
-712.163978
 20
-157.735353
 30
0.000000
  0
VERTEX
  8
1
 10
-711.636223
 20
-160.008743
 30
0.000000
  0
VERTEX
  8
1
 10
-711.109340
 20
-162.136021
 30
0.000000
  0
VERTEX
  8
1
 10
-710.555951
 20
-164.259928
 30
0.000000
  0
VERTEX
  8
1
 10
-709.392213
 20
-168.498925
 30
0.000000
  0
VERTEX
  8
1
 10
-706.994762
 20
-176.950709
 30
0.000000
  0
VERTEX
  8
1
 10
-705.851261
 20
-181.168672
 30
0.000000
  0
VERTEX
  8
1
 10
-705.313051
 20
-183.276805
 30
0.000000
  0
VERTEX
  8
1
 10
-704.804719
 20
-185.384802
 30
0.000000
  0
VERTEX
  8
1
 10
-704.331902
 20
-187.492988
 30
0.000000
  0
VERTEX
  8
1
 10
-703.900240
 20
-189.601686
 30
0.000000
  0
VERTEX
  8
1
 10
-703.515370
 20
-191.711220
 30
0.000000
  0
VERTEX
  8
1
 10
-703.182931
 20
-193.821913
 30
0.000000
  0
VERTEX
  8
1
 10
-702.993569
 20
-195.224071
 30
0.000000
  0
VERTEX
  8
1
 10
-702.829239
 20
-196.626878
 30
0.000000
  0
VERTEX
  8
1
 10
-702.689377
 20
-198.030330
 30
0.000000
  0
VERTEX
  8
1
 10
-702.573417
 20
-199.434424
 30
0.000000
  0
VERTEX
  8
1
 10
-702.480793
 20
-200.839154
 30
0.000000
  0
VERTEX
  8
1
 10
-702.410940
 20
-202.244517
 30
0.000000
  0
VERTEX
  8
1
 10
-702.363294
 20
-203.650509
 30
0.000000
  0
VERTEX
  8
1
 10
-702.337288
 20
-205.057125
 30
0.000000
  0
VERTEX
  8
1
 10
-702.332357
 20
-206.464361
 30
0.000000
  0
VERTEX
  8
1
 10
-702.347937
 20
-207.872214
 30
0.000000
  0
VERTEX
  8
1
 10
-702.438364
 20
-210.689749
 30
0.000000
  0
VERTEX
  8
1
 10
-702.604048
 20
-213.509698
 30
0.000000
  0
VERTEX
  8
1
 10
-702.840466
 20
-216.332027
 30
0.000000
  0
VERTEX
  8
1
 10
-703.143095
 20
-219.156703
 30
0.000000
  0
VERTEX
  8
1
 10
-703.507412
 20
-221.983692
 30
0.000000
  0
VERTEX
  8
1
 10
-703.928897
 20
-224.812960
 30
0.000000
  0
VERTEX
  8
1
 10
-704.403025
 20
-227.644475
 30
0.000000
  0
VERTEX
  8
1
 10
-704.925275
 20
-230.478202
 30
0.000000
  0
VERTEX
  8
1
 10
-705.491123
 20
-233.314107
 30
0.000000
  0
VERTEX
  8
1
 10
-706.096048
 20
-236.152159
 30
0.000000
  0
VERTEX
  8
1
 10
-706.735528
 20
-238.992322
 30
0.000000
  0
VERTEX
  8
1
 10
-707.405038
 20
-241.834564
 30
0.000000
  0
VERTEX
  8
1
 10
-708.100058
 20
-244.678850
 30
0.000000
  0
VERTEX
  8
1
 10
-709.548534
 20
-250.373424
 30
0.000000
  0
VERTEX
  8
1
 10
-712.552607
 20
-261.785636
 30
0.000000
  0
VERTEX
  8
1
 10
-714.035843
 20
-267.502738
 30
0.000000
  0
VERTEX
  8
1
 10
-715.458306
 20
-273.226812
 30
0.000000
  0
VERTEX
  8
1
 10
-716.135441
 20
-276.091381
 30
0.000000
  0
VERTEX
  8
1
 10
-716.783816
 20
-278.957592
 30
0.000000
  0
VERTEX
  8
1
 10
-717.398907
 20
-281.825412
 30
0.000000
  0
VERTEX
  8
1
 10
-717.976193
 20
-284.694808
 30
0.000000
  0
VERTEX
  8
1
 10
-718.447906
 20
-287.209457
 30
0.000000
  0
VERTEX
  8
1
 10
-718.888158
 20
-289.725252
 30
0.000000
  0
VERTEX
  8
1
 10
-719.297964
 20
-292.242156
 30
0.000000
  0
VERTEX
  8
1
 10
-719.678338
 20
-294.760133
 30
0.000000
  0
VERTEX
  8
1
 10
-720.030295
 20
-297.279145
 30
0.000000
  0
VERTEX
  8
1
 10
-720.354851
 20
-299.799155
 30
0.000000
  0
VERTEX
  8
1
 10
-720.653019
 20
-302.320126
 30
0.000000
  0
VERTEX
  8
1
 10
-720.925816
 20
-304.842022
 30
0.000000
  0
VERTEX
  8
1
 10
-721.174255
 20
-307.364805
 30
0.000000
  0
VERTEX
  8
1
 10
-721.399352
 20
-309.888439
 30
0.000000
  0
VERTEX
  8
1
 10
-721.602121
 20
-312.412886
 30
0.000000
  0
VERTEX
  8
1
 10
-721.783578
 20
-314.938110
 30
0.000000
  0
VERTEX
  8
1
 10
-722.086614
 20
-319.990739
 30
0.000000
  0
VERTEX
  8
1
 10
-722.316578
 20
-325.046030
 30
0.000000
  0
VERTEX
  8
1
 10
-722.481590
 20
-330.103688
 30
0.000000
  0
VERTEX
  8
1
 10
-722.589769
 20
-335.163416
 30
0.000000
  0
VERTEX
  8
1
 10
-722.649233
 20
-340.224919
 30
0.000000
  0
VERTEX
  8
1
 10
-722.668101
 20
-345.287902
 30
0.000000
  0
VERTEX
  8
1
 10
-722.654494
 20
-350.352067
 30
0.000000
  0
VERTEX
  8
1
 10
-722.616529
 20
-355.417120
 30
0.000000
  0
VERTEX
  8
1
 10
-722.500004
 20
-365.548704
 30
0.000000
  0
SEQEND
  0
LINE
  8
1
  6
CENTER
 62
     7
 10
-289.750008
 20
-245.548698
 30
0.000000
 11
-140.250008
 21
-245.548698
 31
0.000000
  0
LINE
  8
1
  6
CENTER
 62
     7
 10
-215.000008
 20
-320.298698
 30
0.000000
 11
-215.000008
 21
-170.798698
 31
0.000000
  0
CIRCLE
  8
1
  6
SOLID
 62
     7
 10
-215.000000
 20
-245.548706
 30
0.000000
 40
50.000000
  0
LINE
  8
1
  6
CENTER
 62
     7
 10
-215.000008
 20
64.326302
 30
0.000000
 11
-215.000008
 21
104.576302
 31
0.000000
  0
INSERT
  2
*D101
  8
1
 41
1.000000
 50
0.000000
 10
0.000000
 20
0.000000
 30
0.000000
  0
INSERT
  2
*D124
  8
1
 41
1.000000
 50
0.000000
 10
0.000000
 20
0.000000
 30
0.000000
  0
INSERT
  2
*D134
  8
1
 41
1.000000
 50
0.000000
 10
0.000000
 20
0.000000
 30
0.000000
  0
INSERT
  2
*D135
  8
1
 41
1.000000
 50
0.000000
 10
0.000000
 20
0.000000
 30
0.000000
  0
INSERT
  2
*D141
  8
1
 41
1.000000
 50
0.000000
 10
0.000000
 20
0.000000
 30
0.000000
  0
CIRCLE
  8
1
  6
SOLID
 62
     7
 10
-215.000008
 20
-245.548698
 30
0.000000
 40
65.000000
  0
INSERT
  2
*D146
  8
1
 41
1.000000
 50
0.000000
 10
0.000000
 20
0.000000
 30
0.000000
  0
INSERT
  2
*D149
  8
1
 41
1.000000
 50
0.000000
 10
0.000000
 20
0.000000
 30
0.000000
  0
CIRCLE
  8
1
  6
SOLID
 62
     7
 10
-215.000008
 20
-245.548698
 30
0.000000
 40
57.500000
  0
CIRCLE
  8
1
  6
SOLID
 62
     7
 10
-215.000008
 20
-245.548698
 30
0.000000
 40
2.500000
  0
LINE
  8
1
  6
SOLID
 62
     7
 10
30.000000
 20
112.951302
 30
0.000000
 11
30.000000
 21
415.769074
 31
0.000000
  0
INSERT
  2
*D156
  8
1
 41
1.000000
 50
0.000000
 10
0.000000
 20
0.000000
 30
0.000000
  0
CIRCLE
  8
1
  6
SOLID
 62
     7
 10
-206.161173
 20
-236.709864
 30
0.000000
 40
2.500000
  0
CIRCLE
  8
1
  6
SOLID
 62
     7
 10
-215.000008
 20
-220.548698
 30
0.000000
 40
2.500000
  0
CIRCLE
  8
1
  6
SOLID
 62
     7
 10
-188.483503
 20
-219.032194
 30
0.000000
 40
2.500000
  0
CIRCLE
  8
1
  6
SOLID
 62
     7
 10
-218.235246
 20
-233.474626
 30
0.000000
 40
2.500000
  0
CIRCLE
  8
1
  6
SOLID
 62
     7
 10
-227.074080
 20
-242.313460
 30
0.000000
 40
2.500000
  0
CIRCLE
  8
1
  6
SOLID
 62
     7
 10
-223.838842
 20
-254.387533
 30
0.000000
 40
2.500000
  0
CIRCLE
  8
1
  6
SOLID
 62
     7
 10
-211.764770
 20
-257.622771
 30
0.000000
 40
2.500000
  0
CIRCLE
  8
1
  6
SOLID
 62
     7
 10
-202.925935
 20
-248.783936
 30
0.000000
 40
2.500000
  0
CIRCLE
  8
1
  6
SOLID
 62
     7
 10
-227.500008
 20
-223.898063
 30
0.000000
 40
2.500000
  0
CIRCLE
  8
1
  6
SOLID
 62
     7
 10
-236.650643
 20
-233.048698
 30
0.000000
 40
2.500000
  0
CIRCLE
  8
1
  6
SOLID
 62
     7
 10
-240.000008
 20
-245.548698
 30
0.000000
 40
2.500000
  0
CIRCLE
  8
1
  6
SOLID
 62
     7
 10
-236.650643
 20
-258.048698
 30
0.000000
 40
2.500000
  0
CIRCLE
  8
1
  6
SOLID
 62
     7
 10
-227.500008
 20
-267.199334
 30
0.000000
 40
2.500000
  0
CIRCLE
  8
1
  6
SOLID
 62
     7
 10
-215.000008
 20
-270.548698
 30
0.000000
 40
2.500000
  0
CIRCLE
  8
1
  6
SOLID
 62
     7
 10
-202.500008
 20
-267.199334
 30
0.000000
 40
2.500000
  0
CIRCLE
  8
1
  6
SOLID
 62
     7
 10
-193.349373
 20
-258.048698
 30
0.000000
 40
2.500000
  0
CIRCLE
  8
1
  6
SOLID
 62
     7
 10
-190.000008
 20
-245.548698
 30
0.000000
 40
2.500000
  0
CIRCLE
  8
1
  6
SOLID
 62
     7
 10
-193.349373
 20
-233.048698
 30
0.000000
 40
2.500000
  0
CIRCLE
  8
1
  6
SOLID
 62
     7
 10
-202.500008
 20
-223.898063
 30
0.000000
 40
2.500000
  0
CIRCLE
  8
1
  6
SOLID
 62
     7
 10
-197.975364
 20
-212.135954
 30
0.000000
 40
2.500000
  0
CIRCLE
  8
1
  6
SOLID
 62
     7
 10
-209.133715
 20
-208.510386
 30
0.000000
 40
2.500000
  0
CIRCLE
  8
1
  6
SOLID
 62
     7
 10
-220.866300
 20
-208.510386
 30
0.000000
 40
2.500000
  0
CIRCLE
  8
1
  6
SOLID
 62
     7
 10
-232.024651
 20
-212.135954
 30
0.000000
 40
2.500000
  0
CIRCLE
  8
1
  6
SOLID
 62
     7
 10
-241.516512
 20
-219.032194
 30
0.000000
 40
2.500000
  0
CIRCLE
  8
1
  6
SOLID
 62
     7
 10
-248.412752
 20
-228.524055
 30
0.000000
 40
2.500000
  0
CIRCLE
  8
1
  6
SOLID
 62
     7
 10
-252.038320
 20
-239.682406
 30
0.000000
 40
2.500000
  0
CIRCLE
  8
1
  6
SOLID
 62
     7
 10
-252.038320
 20
-251.414991
 30
0.000000
 40
2.500000
  0
CIRCLE
  8
1
  6
SOLID
 62
     7
 10
-248.412752
 20
-262.573342
 30
0.000000
 40
2.500000
  0
CIRCLE
  8
1
  6
SOLID
 62
     7
 10
-241.516512
 20
-272.065203
 30
0.000000
 40
2.500000
  0
CIRCLE
  8
1
  6
SOLID
 62
     7
 10
-232.024651
 20
-278.961443
 30
0.000000
 40
2.500000
  0
CIRCLE
  8
1
  6
SOLID
 62
     7
 10
-220.866300
 20
-282.587011
 30
0.000000
 40
2.500000
  0
CIRCLE
  8
1
  6
SOLID
 62
     7
 10
-209.133715
 20
-282.587011
 30
0.000000
 40
2.500000
  0
CIRCLE
  8
1
  6
SOLID
 62
     7
 10
-197.975364
 20
-278.961443
 30
0.000000
 40
2.500000
  0
CIRCLE
  8
1
  6
SOLID
 62
     7
 10
-188.483503
 20
-272.065203
 30
0.000000
 40
2.500000
  0
CIRCLE
  8
1
  6
SOLID
 62
     7
 10
-181.587263
 20
-262.573342
 30
0.000000
 40
2.500000
  0
CIRCLE
  8
1
  6
SOLID
 62
     7
 10
-177.961695
 20
-251.414991
 30
0.000000
 40
2.500000
  0
CIRCLE
  8
1
  6
SOLID
 62
     7
 10
-177.961695
 20
-239.682406
 30
0.000000
 40
2.500000
  0
CIRCLE
  8
1
  6
SOLID
 62
     7
 10
-181.587263
 20
-228.524055
 30
0.000000
 40
2.500000
  0
INSERT
  2
*D207
  8
1
 41
1.000000
 50
0.000000
 10
0.000000
 20
0.000000
 30
0.000000
  0
INSERT
  2
*D221
  8
1
 41
1.000000
 50
0.000000
 10
0.000000
 20
0.000000
 30
0.000000
  0
ENDSEC
  0
EOF
