  0
SECTION
  2
HEADER
  9
$ACADVER
  1
AC1015
  9
$ACADMAINTVER
 70
     6
  9
$DWGCODEPAGE
  3
ANSI_1252
  9
$INSBASE
 10
0.0
 20
0.0
 30
0.0
  9
$EXTMIN
 10
-87.886078
 20
110.517342
 30
0.0
  9
$EXTMAX
 10
660.179993
 20
525.830994
 30
0.0
  9
$LIMMIN
 10
-87.886078
 20
110.517342
  9
$LIMMAX
 10
660.179993
 20
525.830994
  9
$ORTHOMODE
 70
     0
  9
$REGENMODE
 70
     1
  9
$FILLMODE
 70
     1
  9
$QTEXTMODE
 70
     0
  9
$MIRRTEXT
 70
     1
  9
$LTSCALE
 40
1.0
  9
$ATTMODE
 70
     1
  9
$TEXTSIZE
 40
2.5
  9
$TRACEWID
 40
1.0
  9
$TEXTSTYLE
  7
Standard
  9
$CLAYER
  8
0
  9
$CELTYPE
  6
ByLayer
  9
$CECOLOR
 62
   256
  9
$CELTSCALE
 40
1.0
  9
$DISPSILH
 70
     0
  9
$DIMSCALE
 40
1.0
  9
$DIMASZ
 40
2.5
  9
$DIMEXO
 40
0.625
  9
$DIMDLI
 40
3.75
  9
$DIMRND
 40
0.0
  9
$DIMDLE
 40
0.0
  9
$DIMEXE
 40
1.25
  9
$DIMTP
 40
0.0
  9
$DIMTM
 40
0.0
  9
$DIMTXT
 40
2.5
  9
$DIMCEN
 40
2.5
  9
$DIMTSZ
 40
0.0
  9
$DIMTOL
 70
     0
  9
$DIMLIM
 70
     0
  9
$DIMTIH
 70
     0
  9
$DIMTOH
 70
     0
  9
$DIMSE1
 70
     0
  9
$DIMSE2
 70
     0
  9
$DIMTAD
 70
     1
  9
$DIMZIN
 70
     8
  9
$DIMBLK
  1

  9
$DIMASO
 70
     1
  9
$DIMSHO
 70
     1
  9
$DIMPOST
  1

  9
$DIMAPOST
  1

  9
$DIMALT
 70
     0
  9
$DIMALTD
 70
     3
  9
$DIMALTF
 40
0.03937
  9
$DIMLFAC
 40
1.0
  9
$DIMTOFL
 70
     1
  9
$DIMTVP
 40
0.0
  9
$DIMTIX
 70
     0
  9
$DIMSOXD
 70
     0
  9
$DIMSAH
 70
     0
  9
$DIMBLK1
  1

  9
$DIMBLK2
  1

  9
$DIMSTYLE
  2
ISO-25
  9
$DIMCLRD
 70
     0
  9
$DIMCLRE
 70
     0
  9
$DIMCLRT
 70
     0
  9
$DIMTFAC
 40
1.0
  9
$DIMGAP
 40
0.625
  9
$DIMJUST
 70
     0
  9
$DIMSD1
 70
     0
  9
$DIMSD2
 70
     0
  9
$DIMTOLJ
 70
     0
  9
$DIMTZIN
 70
     8
  9
$DIMALTZ
 70
     0
  9
$DIMALTTZ
 70
     0
  9
$DIMUPT
 70
     0
  9
$DIMDEC
 70
     2
  9
$DIMTDEC
 70
     2
  9
$DIMALTU
 70
     2
  9
$DIMALTTD
 70
     3
  9
$DIMTXSTY
  7
Standard
  9
$DIMAUNIT
 70
     0
  9
$DIMADEC
 70
     0
  9
$DIMALTRND
 40
0.0
  9
$DIMAZIN
 70
     0
  9
$DIMDSEP
 70
    44
  9
$DIMATFIT
 70
     3
  9
$DIMFRAC
 70
     0
  9
$DIMLDRBLK
  1

  9
$DIMLUNIT
 70
     2
  9
$DIMLWD
 70
    -2
  9
$DIMLWE
 70
    -2
  9
$DIMTMOVE
 70
     0
  9
$LUNITS
 70
     2
  9
$LUPREC
 70
     4
  9
$SKETCHINC
 40
1.0
  9
$FILLETRAD
 40
10.0
  9
$AUNITS
 70
     0
  9
$AUPREC
 70
     0
  9
$MENU
  1
.
  9
$ELEVATION
 40
0.0
  9
$PELEVATION
 40
0.0
  9
$THICKNESS
 40
0.0
  9
$LIMCHECK
 70
     0
  9
$CHAMFERA
 40
10.0
  9
$CHAMFERB
 40
10.0
  9
$CHAMFERC
 40
20.0
  9
$CHAMFERD
 40
0.0
  9
$SKPOLY
 70
     0
  9
$TDCREATE
 40
2455554.652418021
  9
$TDUCREATE
 40
2455554.610751354
  9
$TDUPDATE
 40
2455554.652418032
  9
$TDUUPDATE
 40
2455554.610751366
  9
$TDINDWG
 40
0.0000000116
  9
$TDUSRTIMER
 40
0.0000000116
  9
$USRTIMER
 70
     1
  9
$ANGBASE
 50
0.0
  9
$ANGDIR
 70
     0
  9
$PDMODE
 70
     0
  9
$PDSIZE
 40
0.0
  9
$PLINEWID
 40
0.0
  9
$SPLFRAME
 70
     0
  9
$SPLINETYPE
 70
     6
  9
$SPLINESEGS
 70
     8
  9
$HANDSEED
  5
16D
  9
$SURFTAB1
 70
     6
  9
$SURFTAB2
 70
     6
  9
$SURFTYPE
 70
     6
  9
$SURFU
 70
     6
  9
$SURFV
 70
     6
  9
$UCSBASE
  2

  9
$UCSNAME
  2

  9
$UCSORG
 10
0.0
 20
0.0
 30
0.0
  9
$UCSXDIR
 10
1.0
 20
0.0
 30
0.0
  9
$UCSYDIR
 10
0.0
 20
1.0
 30
0.0
  9
$UCSORTHOREF
  2

  9
$UCSORTHOVIEW
 70
     0
  9
$UCSORGTOP
 10
0.0
 20
0.0
 30
0.0
  9
$UCSORGBOTTOM
 10
0.0
 20
0.0
 30
0.0
  9
$UCSORGLEFT
 10
0.0
 20
0.0
 30
0.0
  9
$UCSORGRIGHT
 10
0.0
 20
0.0
 30
0.0
  9
$UCSORGFRONT
 10
0.0
 20
0.0
 30
0.0
  9
$UCSORGBACK
 10
0.0
 20
0.0
 30
0.0
  9
$PUCSBASE
  2

  9
$PUCSNAME
  2

  9
$PUCSORG
 10
0.0
 20
0.0
 30
0.0
  9
$PUCSXDIR
 10
1.0
 20
0.0
 30
0.0
  9
$PUCSYDIR
 10
0.0
 20
1.0
 30
0.0
  9
$PUCSORTHOREF
  2

  9
$PUCSORTHOVIEW
 70
     0
  9
$PUCSORGTOP
 10
0.0
 20
0.0
 30
0.0
  9
$PUCSORGBOTTOM
 10
0.0
 20
0.0
 30
0.0
  9
$PUCSORGLEFT
 10
0.0
 20
0.0
 30
0.0
  9
$PUCSORGRIGHT
 10
0.0
 20
0.0
 30
0.0
  9
$PUCSORGFRONT
 10
0.0
 20
0.0
 30
0.0
  9
$PUCSORGBACK
 10
0.0
 20
0.0
 30
0.0
  9
$USERI1
 70
     0
  9
$USERI2
 70
     0
  9
$USERI3
 70
     0
  9
$USERI4
 70
     0
  9
$USERI5
 70
     0
  9
$USERR1
 40
0.0
  9
$USERR2
 40
0.0
  9
$USERR3
 40
0.0
  9
$USERR4
 40
0.0
  9
$USERR5
 40
0.0
  9
$WORLDVIEW
 70
     1
  9
$SHADEDGE
 70
     3
  9
$SHADEDIF
 70
    70
  9
$TILEMODE
 70
     1
  9
$MAXACTVP
 70
    64
  9
$PINSBASE
 10
0.0
 20
0.0
 30
0.0
  9
$PLIMCHECK
 70
     0
  9
$PEXTMIN
 10
1.000000E+20
 20
1.000000E+20
 30
1.000000E+20
  9
$PEXTMAX
 10
-1.000000E+20
 20
-1.000000E+20
 30
-1.000000E+20
  9
$PLIMMIN
 10
0.0
 20
0.0
  9
$PLIMMAX
 10
420.0
 20
297.0
  9
$UNITMODE
 70
     0
  9
$VISRETAIN
 70
     1
  9
$PLINEGEN
 70
     0
  9
$PSLTSCALE
 70
     1
  9
$TREEDEPTH
 70
  3020
  9
$CMLSTYLE
  2
Standard
  9
$CMLJUST
 70
     0
  9
$CMLSCALE
 40
20.0
  9
$PROXYGRAPHICS
 70
     1
  9
$MEASUREMENT
 70
     1
  9
$CELWEIGHT
370
    -1
  9
$ENDCAPS
280
     0
  9
$JOINSTYLE
280
     0
  9
$LWDISPLAY
290
     0
  9
$INSUNITS
 70
     4
  9
$HYPERLINKBASE
  1

  9
$STYLESHEET
  1

  9
$XEDIT
290
     1
  9
$CEPSNTYPE
380
     0
  9
$PSTYLEMODE
290
     1
  9
$FINGERPRINTGUID
  2
{C92ABA8E-070C-45A5-90AF-36C852A89B6D}
  9
$VERSIONGUID
  2
{FAEB1C32-E019-11D5-929B-00C0DF256EC4}
  9
$EXTNAMES
290
     1
  9
$PSVPSCALE
 40
0.0
  9
$OLESTARTUP
290
     0
  0
ENDSEC
  0
SECTION
  2
CLASSES
  0
CLASS
  1
ACDBDICTIONARYWDFLT
  2
AcDbDictionaryWithDefault
  3
ObjectDBX Classes
 90
        0
280
     0
281
     0
  0
CLASS
  1
VISUALSTYLE
  2
AcDbVisualStyle
  3
ObjectDBX Classes
 90
     4095
280
     0
281
     0
  0
CLASS
  1
DICTIONARYVAR
  2
AcDbDictionaryVar
  3
ObjectDBX Classes
 90
        0
280
     0
281
     0
  0
CLASS
  1
ACDBPLACEHOLDER
  2
AcDbPlaceHolder
  3
ObjectDBX Classes
 90
        0
280
     0
281
     0
  0
CLASS
  1
LAYOUT
  2
AcDbLayout
  3
ObjectDBX Classes
 90
        0
280
     0
281
     0
  0
ENDSEC
  0
SECTION
  2
TABLES
  0
TABLE
  2
VPORT
  5
8
330
0
100
AcDbSymbolTable
 70
     1
  0
VPORT
  5
29
330
8
100
AcDbSymbolTableRecord
100
AcDbViewportTableRecord
  2
*Active
 70
     0
 10
0.0
 20
0.0
 11
1.0
 21
1.0
 12
344.186916
 22
148.5
 13
0.0
 23
0.0
 14
10.0
 24
10.0
 15
10.0
 25
10.0
 16
0.0
 26
0.0
 36
1.0
 17
0.0
 27
0.0
 37
0.0
 40
297.0
 41
1.972973
 42
50.0
 43
0.0
 44
0.0
 50
0.0
 51
0.0
 71
     0
 72
   100
 73
     1
 74
     3
 75
     0
 76
     0
 77
     0
 78
     0
281
     0
 65
     1
110
0.0
120
0.0
130
0.0
111
1.0
121
0.0
131
0.0
112
0.0
122
1.0
132
0.0
 79
     0
146
0.0
  0
ENDTAB
  0
TABLE
  2
LTYPE
  5
5
330
0
100
AcDbSymbolTable
 70
     1
  0
LTYPE
  5
14
330
5
100
AcDbSymbolTableRecord
100
AcDbLinetypeTableRecord
  2
ByBlock
 70
     0
  3

 72
    65
 73
     0
 40
0.0
  0
LTYPE
  5
15
330
5
100
AcDbSymbolTableRecord
100
AcDbLinetypeTableRecord
  2
ByLayer
 70
     0
  3

 72
    65
 73
     0
 40
0.0
  0
LTYPE
  5
16
330
5
100
AcDbSymbolTableRecord
100
AcDbLinetypeTableRecord
  2
Continuous
 70
     0
  3
Solid line
 72
    65
 73
     0
 40
0.0
  0
ENDTAB
  0
TABLE
  2
LAYER
  5
2
330
0
100
AcDbSymbolTable
 70
     1
  0
LAYER
  5
10
330
2
100
AcDbSymbolTableRecord
100
AcDbLayerTableRecord
  2
0
 70
     0
 62
   106
  6
Continuous
370
     0
390
F
  0
ENDTAB
  0
TABLE
  2
STYLE
  5
3
330
0
100
AcDbSymbolTable
 70
     4
  0
STYLE
  5
11
330
3
100
AcDbSymbolTableRecord
100
AcDbTextStyleTableRecord
  2
Standard
 70
     0
 40
0.0
 41
1.0
 50
0.0
 71
     0
 42
2.5
  3
txt
  4

  0
STYLE
  5
3B
330
3
100
AcDbSymbolTableRecord
100
AcDbTextStyleTableRecord
  2
Default
 70
     0
 40
0.0
 41
1.0
 50
0.0
 71
     0
 42
0.2
  3

  4

1001
ACAD
1000
txt
1071
        0
  0
STYLE
  5
3C
330
3
100
AcDbSymbolTableRecord
100
AcDbTextStyleTableRecord
  2
ISO
 70
     0
 40
0.0
 41
1.0
 50
0.0
 71
     0
 42
0.2
  3

  4

1001
ACAD
1000
txt
1071
        0
  0
STYLE
  5
3D
330
3
100
AcDbSymbolTableRecord
100
AcDbTextStyleTableRecord
  2
GIANLU
 70
     0
 40
0.0
 41
1.0
 50
0.0
 71
     0
 42
0.2
  3

  4

1001
ACAD
1000
Arial
1071
        0
  0
ENDTAB
  0
TABLE
  2
VIEW
  5
6
330
0
100
AcDbSymbolTable
 70
     0
  0
ENDTAB
  0
TABLE
  2
UCS
  5
7
330
0
100
AcDbSymbolTable
 70
     0
  0
ENDTAB
  0
TABLE
  2
APPID
  5
9
330
0
100
AcDbSymbolTable
 70
     1
  0
APPID
  5
12
330
9
100
AcDbSymbolTableRecord
100
AcDbRegAppTableRecord
  2
ACAD
 70
     0
  0
ENDTAB
  0
TABLE
  2
DIMSTYLE
  5
A
330
0
100
AcDbSymbolTable
 70
     4
100
AcDbDimStyleTable
  0
DIMSTYLE
105
27
330
A
100
AcDbSymbolTableRecord
100
AcDbDimStyleTableRecord
  2
ISO-25
 70
     0
 41
2.5
 42
0.625
 43
3.75
 44
1.25
 73
     0
 74
     0
 77
     1
 78
     8
140
2.5
141
2.5
143
0.03937
147
0.625
171
     3
172
     1
271
     2
272
     2
274
     3
278
    44
283
     0
284
     8
340
11
  0
DIMSTYLE
105
3E
330
A
100
AcDbSymbolTableRecord
100
AcDbDimStyleTableRecord
  2
Default
 70
     0
  3
<>
 41
4.375
 42
1.05
 44
2.1
 73
     0
 74
     0
 77
     1
 78
     8
140
3.5
146
0.4
147
1.75
178
     3
271
     2
272
     3
284
     8
340
3B
341
3F
342
3F
  0
DIMSTYLE
105
46
330
A
100
AcDbSymbolTableRecord
100
AcDbDimStyleTableRecord
  2
ISO
 70
     0
  3
<>
 41
4.375
 42
1.05
 44
2.1
 73
     0
 74
     0
 77
     1
 78
     8
140
3.5
146
0.4
147
1.75
178
     3
271
     2
272
     3
284
     8
340
3C
341
3F
342
3F
  0
DIMSTYLE
105
47
330
A
100
AcDbSymbolTableRecord
100
AcDbDimStyleTableRecord
  2
zucchetti_unico
 70
     0
  3
<>
 41
3.0
 42
0.9
 44
1.8
 73
     0
 74
     0
 77
     1
 78
     8
140
3.0
146
0.6
147
1.5
176
   104
177
     3
178
     3
271
     2
272
     2
284
     8
340
3D
  0
ENDTAB
  0
TABLE
  2
BLOCK_RECORD
  5
1
330
0
100
AcDbSymbolTable
 70
     7
  0
BLOCK_RECORD
  5
1F
330
1
100
AcDbSymbolTableRecord
100
AcDbBlockTableRecord
  2
*Model_Space
340
22
  0
BLOCK_RECORD
  5
1B
330
1
100
AcDbSymbolTableRecord
100
AcDbBlockTableRecord
  2
*Paper_Space
340
1E
  0
BLOCK_RECORD
  5
23
330
1
100
AcDbSymbolTableRecord
100
AcDbBlockTableRecord
  2
*Paper_Space0
340
26
  0
BLOCK_RECORD
  5
3F
330
1
100
AcDbSymbolTableRecord
100
AcDbBlockTableRecord
  2
_CLOSED
340
0
  0
BLOCK_RECORD
  5
48
330
1
100
AcDbSymbolTableRecord
100
AcDbBlockTableRecord
  2
a
340
0
102
{BLKREFS
331
70
102
}
  0
BLOCK_RECORD
  5
71
330
1
100
AcDbSymbolTableRecord
100
AcDbBlockTableRecord
  2
b
340
0
102
{BLKREFS
331
AB
102
}
  0
BLOCK_RECORD
  5
AC
330
1
100
AcDbSymbolTableRecord
100
AcDbBlockTableRecord
  2
c
340
0
102
{BLKREFS
331
E5
102
}
  0
BLOCK_RECORD
  5
E6
330
1
100
AcDbSymbolTableRecord
100
AcDbBlockTableRecord
  2
d
340
0
102
{BLKREFS
331
134
102
}
  0
BLOCK_RECORD
  5
135
330
1
100
AcDbSymbolTableRecord
100
AcDbBlockTableRecord
  2
e
340
0
102
{BLKREFS
331
167
102
}
  0
ENDTAB
  0
ENDSEC
  0
SECTION
  2
BLOCKS
  0
BLOCK
  5
20
330
1F
100
AcDbEntity
  8
0
100
AcDbBlockBegin
  2
*Model_Space
 70
     0
 10
0.0
 20
0.0
 30
0.0
  3
*Model_Space
  1

  0
ENDBLK
  5
21
330
1F
100
AcDbEntity
  8
0
100
AcDbBlockEnd
  0
BLOCK
  5
1C
330
1B
100
AcDbEntity
 67
     1
  8
0
100
AcDbBlockBegin
  2
*Paper_Space
 70
     0
 10
0.0
 20
0.0
 30
0.0
  3
*Paper_Space
  1

  0
ENDBLK
  5
1D
330
1B
100
AcDbEntity
 67
     1
  8
0
100
AcDbBlockEnd
  0
BLOCK
  5
24
330
23
100
AcDbEntity
  8
0
100
AcDbBlockBegin
  2
*Paper_Space0
 70
     0
 10
0.0
 20
0.0
 30
0.0
  3
*Paper_Space0
  1

  0
ENDBLK
  5
25
330
23
100
AcDbEntity
  8
0
100
AcDbBlockEnd
  0
BLOCK
  5
40
330
3F
100
AcDbEntity
  8
0
100
AcDbBlockBegin
  2
_CLOSED
 70
     0
 10
0.0
 20
0.0
 30
0.0
  3
_CLOSED
  1

  0
LINE
  5
42
330
3F
100
AcDbEntity
  8
0
  6
ByBlock
 62
     0
370
    -2
100
AcDbLine
 10
-1.0
 20
0.166667
 30
0.0
 11
0.0
 21
0.0
 31
0.0
  0
LINE
  5
43
330
3F
100
AcDbEntity
  8
0
  6
ByBlock
 62
     0
370
    -2
100
AcDbLine
 10
0.0
 20
0.0
 30
0.0
 11
-1.0
 21
-0.166667
 31
0.0
  0
LINE
  5
44
330
3F
100
AcDbEntity
  8
0
  6
ByBlock
 62
     0
370
    -2
100
AcDbLine
 10
-1.0
 20
0.166667
 30
0.0
 11
-1.0
 21
-0.166667
 31
0.0
  0
LINE
  5
45
330
3F
100
AcDbEntity
  8
0
  6
ByBlock
 62
     0
370
    -2
100
AcDbLine
 10
0.0
 20
0.0
 30
0.0
 11
-1.0
 21
0.0
 31
0.0
  0
ENDBLK
  5
41
330
3F
100
AcDbEntity
  8
0
100
AcDbBlockEnd
  0
BLOCK
  5
6E
330
48
100
AcDbEntity
  8
0
100
AcDbBlockBegin
  2
a
 70
     0
 10
171.876221
 20
122.151604
 30
0.0
  3
a
  1

  0
ARC
  5
49
330
48
100
AcDbEntity
  8
0
  6
Continuous
 62
     0
370
    30
100
AcDbCircle
 10
331.055387
 20
437.831004
 30
0.0
 40
22.2
100
AcDbArc
 50
111.789939
 51
270.0
  0
ARC
  5
4A
330
48
100
AcDbEntity
  8
0
  6
Continuous
 62
     0
370
    30
100
AcDbCircle
 10
331.055387
 20
437.831004
 30
0.0
 40
22.2
100
AcDbArc
 50
270.0
 51
68.210068
  0
ARC
  5
4B
330
48
100
AcDbEntity
  8
0
  6
Continuous
 62
     0
370
    30
100
AcDbCircle
 10
331.055387
 20
437.831006
 30
0.0
 40
22.0
100
AcDbArc
 50
89.999999
 51
269.999999
  0
ARC
  5
4C
330
48
100
AcDbEntity
  8
0
  6
Continuous
 62
     0
370
    30
100
AcDbCircle
 10
331.055387
 20
437.831006
 30
0.0
 40
22.0
100
AcDbArc
 50
269.999999
 51
89.999999
  0
LINE
  5
4D
330
48
100
AcDbEntity
  8
0
  6
Continuous
 62
     0
370
     0
100
AcDbLine
 10
324.555387
 20
465.831006
 30
0.0
 11
331.055387
 21
465.831006
 31
0.0
  0
LINE
  5
4E
330
48
100
AcDbEntity
  8
0
  6
Continuous
 62
     0
370
     0
100
AcDbLine
 10
331.055387
 20
465.831006
 30
0.0
 11
337.555387
 21
465.831006
 31
0.0
  0
LWPOLYLINE
  5
4F
330
48
100
AcDbEntity
  8
0
  6
Continuous
 62
     0
370
     0
100
AcDbPolyline
 90
       13
 70
     0
 43
0.0
 10
337.495087
 20
462.375732
 10
337.435883
 20
462.424957
 10
337.263763
 20
462.564423
 10
336.987335
 20
462.77951
 10
336.616669
 20
463.049316
 10
336.161072
 20
463.353241
 10
335.626862
 20
463.672089
 10
335.018585
 20
463.987885
 10
334.33963
 20
464.283264
 10
333.594788
 20
464.54071
 10
332.792755
 20
464.74234
 10
331.946014
 20
464.872528
 10
331.055389
 20
464.918274
  0
LWPOLYLINE
  5
50
330
48
100
AcDbEntity
  8
0
  6
Continuous
 62
     0
370
     0
100
AcDbPolyline
 90
       13
 70
     0
 43
0.0
 10
331.055389
 20
464.918274
 10
330.183197
 20
464.874298
 10
329.335632
 20
464.745667
 10
328.532532
 20
464.545471
 10
327.786346
 20
464.289124
 10
327.105927
 20
463.994385
 10
326.496094
 20
463.678833
 10
325.960297
 20
463.359863
 10
325.50296
 20
463.05542
 10
325.130402
 20
462.784729
 10
324.851868
 20
462.568298
 10
324.677399
 20
462.427063
 10
324.615692
 20
462.375732
  0
LINE
  5
51
330
48
100
AcDbEntity
  8
0
  6
Continuous
 62
     0
370
     0
100
AcDbLine
 10
331.055387
 20
459.831006
 30
0.0
 11
331.055387
 21
464.918268
 31
0.0
  0
LINE
  5
52
330
48
100
AcDbEntity
  8
0
  6
Continuous
 62
     0
370
    30
100
AcDbLine
 10
331.055388
 20
525.831006
 30
0.0
 11
324.555394
 21
525.831006
 31
0.0
  0
LINE
  5
53
330
48
100
AcDbEntity
  8
0
  6
Continuous
 62
     0
370
    30
100
AcDbLine
 10
337.555382
 20
525.831006
 30
0.0
 11
331.055388
 21
525.831006
 31
0.0
  0
ARC
  5
54
330
48
100
AcDbEntity
  8
0
  6
Continuous
 62
     0
370
    30
100
AcDbCircle
 10
331.055387
 20
437.831004
 30
0.0
 40
30.0
100
AcDbArc
 50
270.0
 51
77.486687
  0
ARC
  5
55
330
48
100
AcDbEntity
  8
0
  6
Continuous
 62
     0
370
    30
100
AcDbCircle
 10
331.055387
 20
437.831004
 30
0.0
 40
30.0
100
AcDbArc
 50
102.513315
 51
270.0
  0
ARC
  5
56
330
48
100
AcDbEntity
  8
0
  6
Continuous
 62
     0
370
     0
100
AcDbCircle
 10
331.055387
 20
437.831004
 30
0.0
 40
29.5
100
AcDbArc
 50
270.0
 51
77.271068
  0
ARC
  5
57
330
48
100
AcDbEntity
  8
0
  6
Continuous
 62
     0
370
     0
100
AcDbCircle
 10
331.055387
 20
437.831004
 30
0.0
 40
29.5
100
AcDbArc
 50
102.728933
 51
270.0
  0
LINE
  5
58
330
48
100
AcDbEntity
  8
0
  6
Continuous
 62
     0
370
    30
100
AcDbLine
 10
337.555381
 20
465.831006
 30
0.0
 11
337.555382
 21
525.831006
 31
0.0
  0
LINE
  5
59
330
48
100
AcDbEntity
  8
0
  6
Continuous
 62
     0
370
    30
100
AcDbLine
 10
324.555393
 20
465.831006
 30
0.0
 11
324.555394
 21
525.831006
 31
0.0
  0
LWPOLYLINE
  5
5A
330
48
100
AcDbEntity
  8
0
  6
Continuous
 62
     0
370
    30
100
AcDbPolyline
 90
       20
 70
     0
 43
0.0
 10
321.74942
 20
457.765961
 10
321.785736
 20
457.783264
 10
322.065338
 20
457.929047
 10
322.336121
 20
458.092743
 10
322.596039
 20
458.273132
 10
322.844116
 20
458.469543
 10
323.079193
 20
458.681274
 10
323.300385
 20
458.907532
 10
323.506805
 20
459.147308
 10
323.697693
 20
459.399628
 10
323.872223
 20
459.663544
 10
324.029694
 20
459.937958
 10
324.169525
 20
460.221802
 10
324.291107
 20
460.513916
 10
324.39386
 20
460.81311
 10
324.477478
 20
461.118225
 10
324.541718
 20
461.42804
 10
324.586334
 20
461.741302
 10
324.611084
 20
462.056824
 10
324.615753
 20
462.375488
  0
LWPOLYLINE
  5
5B
330
48
100
AcDbEntity
  8
0
  6
Continuous
 62
     0
370
    30
100
AcDbPolyline
 90
       20
 70
     0
 43
0.0
 10
340.361359
 20
457.765961
 10
340.325043
 20
457.783264
 10
340.045441
 20
457.929047
 10
339.774658
 20
458.092743
 10
339.51474
 20
458.273132
 10
339.266663
 20
458.469543
 10
339.031586
 20
458.681274
 10
338.810394
 20
458.907532
 10
338.603973
 20
459.147308
 10
338.413086
 20
459.399628
 10
338.238556
 20
459.663544
 10
338.081085
 20
459.937958
 10
337.941254
 20
460.221802
 10
337.819672
 20
460.513916
 10
337.716919
 20
460.81311
 10
337.633301
 20
461.118225
 10
337.569061
 20
461.42804
 10
337.524445
 20
461.741302
 10
337.499695
 20
462.056824
 10
337.495026
 20
462.375488
  0
LINE
  5
5C
330
48
100
AcDbEntity
  8
0
  6
Continuous
 62
     0
370
    30
100
AcDbLine
 10
324.615695
 20
462.375951
 30
0.0
 11
324.555387
 21
465.831006
 31
0.0
  0
LINE
  5
5D
330
48
100
AcDbEntity
  8
0
  6
Continuous
 62
     0
370
    30
100
AcDbLine
 10
337.495079
 20
462.37595
 30
0.0
 11
337.555387
 21
465.831006
 31
0.0
  0
LINE
  5
5E
330
48
100
AcDbEntity
  8
0
  6
Continuous
 62
     0
370
    30
100
AcDbLine
 10
241.05503
 20
382.828497
 30
0.0
 11
221.05503
 21
382.828627
 31
0.0
  0
LINE
  5
5F
330
48
100
AcDbEntity
  8
0
  6
Continuous
 62
     0
370
    30
100
AcDbLine
 10
221.05503
 20
382.828627
 30
0.0
 11
221.055218
 21
411.830927
 31
0.0
  0
LINE
  5
60
330
48
100
AcDbEntity
  8
0
  6
Continuous
 62
     0
370
     0
100
AcDbLine
 10
241.055218
 20
411.830797
 30
0.0
 11
221.055218
 21
411.830927
 31
0.0
  0
LINE
  5
61
330
48
100
AcDbEntity
  8
0
  6
Continuous
 62
     0
370
    30
100
AcDbLine
 10
221.055218
 20
411.830927
 30
0.0
 11
221.055387
 21
437.830964
 31
0.0
  0
LINE
  5
62
330
48
100
AcDbEntity
  8
0
  6
Continuous
 62
     0
370
    30
100
AcDbLine
 10
221.055387
 20
437.830964
 30
0.0
 11
221.055389
 21
437.825306
 31
0.0
  0
ARC
  5
63
330
48
100
AcDbEntity
  8
0
  6
Continuous
 62
     0
370
    30
100
AcDbCircle
 10
231.055387
 20
437.830899
 30
0.0
 40
10.00000000000001
100
AcDbArc
 50
359.999627
 51
179.999627
  0
ARC
  5
64
330
48
100
AcDbEntity
  8
0
  6
Continuous
 62
     0
370
    30
100
AcDbCircle
 10
231.055387
 20
437.831004
 30
0.0
 40
30.00000000000058
100
AcDbArc
 50
180.0
 51
250.528407
  0
ARC
  5
65
330
48
100
AcDbEntity
  8
0
  6
Continuous
 62
     0
370
    30
100
AcDbCircle
 10
231.055387
 20
437.831004
 30
0.0
 40
30.00000000000058
100
AcDbArc
 50
289.470848
 51
360.0
  0
ARC
  5
66
330
48
100
AcDbEntity
  8
0
  6
Continuous
 62
     0
370
    30
100
AcDbCircle
 10
231.055387
 20
437.831004
 30
0.0
 40
30.00000000000058
100
AcDbArc
 50
0.0
 51
180.0
  0
ARC
  5
67
330
48
100
AcDbEntity
  8
0
  6
Continuous
 62
     0
370
     0
100
AcDbCircle
 10
231.054826
 20
437.83148
 30
0.0
 40
29.50056130701753
100
AcDbArc
 50
289.815321
 51
359.999076
  0
ARC
  5
68
330
48
100
AcDbEntity
  8
0
  6
Continuous
 62
     0
370
     0
100
AcDbCircle
 10
231.055038
 20
437.831197
 30
0.0
 40
29.49965014159377
100
AcDbArc
 50
180.000373
 51
250.185177
  0
ARC
  5
69
330
48
100
AcDbEntity
  8
0
  6
Continuous
 62
     0
370
     0
100
AcDbCircle
 10
231.055387
 20
437.831064
 30
0.0
 40
29.50000000007934
100
AcDbArc
 50
359.999885
 51
180.000115
  0
LWPOLYLINE
  5
6A
330
48
100
AcDbEntity
  8
0
  6
Continuous
 62
     0
370
    30
100
AcDbPolyline
 90
        5
 70
     0
 43
0.0
 10
226.256271
 20
446.604889
 10
226.257004
 20
446.606598
 10
226.248352
 20
446.602539
 10
226.212296
 20
446.582153
 10
226.078903
 20
446.504669
  0
LINE
  5
6B
330
48
100
AcDbEntity
  8
0
  6
Continuous
 62
     0
370
    30
100
AcDbLine
 10
221.055389
 20
437.825306
 30
0.0
 11
221.055391
 21
437.822505
 31
0.0
  0
LINE
  5
6C
330
48
100
AcDbEntity
  8
0
  6
Continuous
 62
     0
370
    30
100
AcDbLine
 10
241.055387
 20
437.830833
 30
0.0
 11
241.055218
 21
411.830797
 31
0.0
  0
LINE
  5
6D
330
48
100
AcDbEntity
  8
0
  6
Continuous
 62
     0
370
    30
100
AcDbLine
 10
241.055218
 20
411.830797
 30
0.0
 11
241.05503
 21
382.828497
 31
0.0
  0
ENDBLK
  5
6F
330
48
100
AcDbEntity
  8
0
100
AcDbBlockEnd
  0
BLOCK
  5
A9
330
71
100
AcDbEntity
  8
0
100
AcDbBlockBegin
  2
b
 70
     0
 10
171.876221
 20
122.151604
 30
0.0
  3
b
  1

  0
LINE
  5
72
330
71
100
AcDbEntity
  8
0
  6
Continuous
 62
     0
370
     0
100
AcDbLine
 10
308.855376
 20
271.649685
 30
0.0
 11
331.055376
 21
271.649685
 31
0.0
  0
LINE
  5
73
330
71
100
AcDbEntity
  8
0
  6
Continuous
 62
     0
370
     0
100
AcDbLine
 10
331.055376
 20
271.649685
 30
0.0
 11
353.255376
 21
271.649685
 31
0.0
  0
LINE
  5
74
330
71
100
AcDbEntity
  8
0
  6
Continuous
 62
     0
370
    30
100
AcDbLine
 10
352.255376
 20
270.649685
 30
0.0
 11
331.055376
 21
270.649685
 31
0.0
  0
LINE
  5
75
330
71
100
AcDbEntity
  8
0
  6
Continuous
 62
     0
370
    30
100
AcDbLine
 10
331.055376
 20
270.649685
 30
0.0
 11
309.855376
 21
270.649685
 31
0.0
  0
LINE
  5
76
330
71
100
AcDbEntity
  8
0
  6
Continuous
 62
     0
370
    30
100
AcDbLine
 10
353.049007
 20
269.438667
 30
0.0
 11
331.055376
 21
269.438666
 31
0.0
  0
LINE
  5
77
330
71
100
AcDbEntity
  8
0
  6
Continuous
 62
     0
370
    30
100
AcDbLine
 10
331.055376
 20
269.438666
 30
0.0
 11
309.061744
 21
269.438667
 31
0.0
  0
LINE
  5
78
330
71
100
AcDbEntity
  8
0
  6
Continuous
 62
     0
370
    30
100
AcDbLine
 10
331.055376
 20
238.438666
 30
0.0
 11
309.055375
 21
238.438667
 31
0.0
  0
LWPOLYLINE
  5
79
330
71
100
AcDbEntity
  8
0
  6
Continuous
 62
     0
370
    30
100
AcDbPolyline
 90
       20
 70
     0
 43
0.0
 10
353.055389
 20
238.438675
 10
352.992706
 20
238.438675
 10
352.797882
 20
238.43866
 10
352.461731
 20
238.43866
 10
351.977234
 20
238.43866
 10
351.339935
 20
238.43866
 10
350.548431
 20
238.43866
 10
349.604645
 20
238.43866
 10
348.514069
 20
238.43866
 10
347.285797
 20
238.43866
 10
345.93222
 20
238.43866
 10
344.468628
 20
238.43866
 10
342.91275
 20
238.43866
 10
341.283966
 20
238.43866
 10
339.602478
 20
238.43866
 10
337.888672
 20
238.43866
 10
336.162354
 20
238.43866
 10
334.442017
 20
238.43866
 10
332.744476
 20
238.43866
 10
331.055389
 20
238.43866
  0
LWPOLYLINE
  5
7A
330
71
100
AcDbEntity
  8
0
  6
Continuous
 62
     0
370
    30
100
AcDbPolyline
 90
        2
 70
     0
 43
0.0
 10
353.055359
 20
269.246399
 10
353.049011
 20
269.43866
  0
LWPOLYLINE
  5
7B
330
71
100
AcDbEntity
  8
0
  6
Continuous
 62
     0
370
    30
100
AcDbPolyline
 90
        2
 70
     0
 43
0.0
 10
309.061737
 20
269.43866
 10
309.055389
 20
269.246399
  0
LWPOLYLINE
  5
7C
330
71
100
AcDbEntity
  8
0
  6
Continuous
 62
     0
370
     0
100
AcDbPolyline
 90
       31
 70
     0
 43
0.0
 10
331.055389
 20
264.921967
 10
332.152527
 20
264.840607
 10
333.224792
 20
264.605957
 10
334.250671
 20
264.226257
 10
335.213623
 20
263.71579
 10
336.102753
 20
263.092957
 10
336.910919
 20
262.373627
 10
337.635712
 20
261.572205
 10
338.276245
 20
260.70047
 10
338.831879
 20
259.769745
 10
339.302277
 20
258.790283
 10
339.687622
 20
257.770477
 10
339.987885
 20
256.718384
 10
340.202789
 20
255.642059
 10
340.332184
 20
254.549515
 10
340.375885
 20
253.448776
 10
340.333771
 20
252.347961
 10
340.205963
 20
251.255188
 10
339.992584
 20
250.178513
 10
339.693909
 20
249.125931
 10
339.310028
 20
248.105392
 10
338.841187
 20
247.125107
 10
338.287476
 20
246.19368
 10
337.648407
 20
245.320572
 10
336.923523
 20
244.516312
 10
336.115143
 20
243.794418
 10
335.226746
 20
243.169678
 10
334.264954
 20
242.657684
 10
333.240082
 20
242.275162
 10
332.168304
 20
242.037704
 10
331.055389
 20
241.955353
  0
LWPOLYLINE
  5
7D
330
71
100
AcDbEntity
  8
0
  6
Continuous
 62
     0
370
     0
100
AcDbPolyline
 90
       31
 70
     0
 43
0.0
 10
331.055389
 20
241.955353
 10
329.958221
 20
242.036713
 10
328.885956
 20
242.271393
 10
327.860077
 20
242.651062
 10
326.897125
 20
243.161545
 10
326.007996
 20
243.784378
 10
325.199829
 20
244.503693
 10
324.475037
 20
245.305115
 10
323.834503
 20
246.176849
 10
323.27887
 20
247.10759
 10
322.808472
 20
248.087036
 10
322.423126
 20
249.106857
 10
322.122864
 20
250.158951
 10
321.907959
 20
251.235275
 10
321.778564
 20
252.32782
 10
321.734863
 20
253.428558
 10
321.776978
 20
254.529373
 10
321.904816
 20
255.622147
 10
322.118164
 20
256.698822
 10
322.41684
 20
257.751404
 10
322.80072
 20
258.771942
 10
323.269592
 20
259.752228
 10
323.823273
 20
260.683655
 10
324.462341
 20
261.556763
 10
325.187225
 20
262.361023
 10
325.995605
 20
263.082916
 10
326.884003
 20
263.707672
 10
327.845795
 20
264.219635
 10
328.870697
 20
264.602173
 10
329.942444
 20
264.83963
 10
331.055389
 20
264.921967
  0
LINE
  5
7E
330
71
100
AcDbEntity
  8
0
  6
Continuous
 62
     0
370
     0
100
AcDbLine
 10
331.055376
 20
241.95536
 30
0.0
 11
331.055376
 21
246.938672
 31
0.0
  0
LINE
  5
7F
330
71
100
AcDbEntity
  8
0
  6
Continuous
 62
     0
370
     0
100
AcDbLine
 10
331.055376
 20
259.93866
 30
0.0
 11
331.055376
 21
264.921973
 31
0.0
  0
ARC
  5
80
330
71
100
AcDbEntity
  8
0
  6
Continuous
 62
     0
370
    30
100
AcDbCircle
 10
331.055377
 20
253.438664
 30
0.0
 40
6.499994153589111
100
AcDbArc
 50
90.0
 51
270.0
  0
ARC
  5
81
330
71
100
AcDbEntity
  8
0
  6
Continuous
 62
     0
370
    30
100
AcDbCircle
 10
331.055377
 20
253.438664
 30
0.0
 40
6.499994153589111
100
AcDbArc
 50
270.0
 51
90.0
  0
LINE
  5
82
330
71
100
AcDbEntity
  8
0
  6
Continuous
 62
     0
370
    30
100
AcDbLine
 10
301.555376
 20
306.149685
 30
0.0
 11
331.055376
 21
306.149685
 31
0.0
  0
LINE
  5
83
330
71
100
AcDbEntity
  8
0
  6
Continuous
 62
     0
370
    30
100
AcDbLine
 10
331.055376
 20
306.149685
 30
0.0
 11
360.555376
 21
306.149685
 31
0.0
  0
LINE
  5
84
330
71
100
AcDbEntity
  8
0
  6
Continuous
 62
     0
370
     0
100
AcDbLine
 10
361.055376
 20
305.649685
 30
0.0
 11
331.055376
 21
305.649685
 31
0.0
  0
LINE
  5
85
330
71
100
AcDbEntity
  8
0
  6
Continuous
 62
     0
370
     0
100
AcDbLine
 10
331.055376
 20
305.649685
 30
0.0
 11
301.055376
 21
305.649685
 31
0.0
  0
LINE
  5
86
330
71
100
AcDbEntity
  8
0
  6
Continuous
 62
     0
370
     0
100
AcDbLine
 10
361.055376
 20
301.649685
 30
0.0
 11
331.055376
 21
301.649685
 31
0.0
  0
LINE
  5
87
330
71
100
AcDbEntity
  8
0
  6
Continuous
 62
     0
370
     0
100
AcDbLine
 10
331.055376
 20
301.649685
 30
0.0
 11
301.055376
 21
301.649685
 31
0.0
  0
LINE
  5
88
330
71
100
AcDbEntity
  8
0
  6
Continuous
 62
     0
370
    30
100
AcDbLine
 10
360.555376
 20
301.149685
 30
0.0
 11
331.055376
 21
301.149685
 31
0.0
  0
LINE
  5
89
330
71
100
AcDbEntity
  8
0
  6
Continuous
 62
     0
370
    30
100
AcDbLine
 10
331.055376
 20
301.149685
 30
0.0
 11
301.555376
 21
301.149685
 31
0.0
  0
ARC
  5
8A
330
71
100
AcDbEntity
  8
0
  6
Continuous
 62
     0
370
    30
100
AcDbCircle
 10
360.555374
 20
301.649688
 30
0.0
 40
0.5000025609479019
100
AcDbArc
 50
270.007019
 51
359.999707
  0
ARC
  5
8B
330
71
100
AcDbEntity
  8
0
  6
Continuous
 62
     0
370
    30
100
AcDbCircle
 10
301.555379
 20
301.649688
 30
0.0
 40
0.5000025609480306
100
AcDbArc
 50
180.000293
 51
269.992981
  0
LINE
  5
8C
330
71
100
AcDbEntity
  8
0
  6
Continuous
 62
     0
370
    30
100
AcDbLine
 10
301.055376
 20
305.649685
 30
0.0
 11
301.055376
 21
301.649685
 31
0.0
  0
LINE
  5
8D
330
71
100
AcDbEntity
  8
0
  6
Continuous
 62
     0
370
    30
100
AcDbLine
 10
361.055376
 20
305.649685
 30
0.0
 11
361.055376
 21
301.649685
 31
0.0
  0
LWPOLYLINE
  5
8E
330
71
100
AcDbEntity
  8
0
  6
Continuous
 62
     0
370
    30
100
AcDbPolyline
 90
        6
 70
     0
 43
0.0
 10
301.055389
 20
305.649689
 10
301.077423
 20
305.796509
 10
301.141602
 20
305.930389
 10
301.24231
 20
306.03952
 10
301.370605
 20
306.114288
 10
301.555389
 20
306.149689
  0
ARC
  5
8F
330
71
100
AcDbEntity
  8
0
  6
Continuous
 62
     0
370
    30
100
AcDbCircle
 10
360.55537
 20
305.64968
 30
0.0
 40
0.5000056478510845
100
AcDbArc
 50
0.000647
 51
89.999353
  0
ARC
  5
90
330
71
100
AcDbEntity
  8
0
  6
Continuous
 62
     0
370
    30
100
AcDbCircle
 10
331.05523
 20
272.149691
 30
0.0
 40
20.50498919494898
100
AcDbArc
 50
184.19512
 51
187.597485
  0
ARC
  5
91
330
71
100
AcDbEntity
  8
0
  6
Continuous
 62
     0
370
    30
100
AcDbCircle
 10
331.003639
 20
272.155105
 30
0.0
 40
20.55712780671026
100
AcDbArc
 50
352.406674
 51
355.800409
  0
LINE
  5
92
330
71
100
AcDbEntity
  8
0
  6
Continuous
 62
     0
370
    30
100
AcDbLine
 10
309.055375
 20
269.246011
 30
0.0
 11
309.055375
 21
238.438667
 31
0.0
  0
LINE
  5
93
330
71
100
AcDbEntity
  8
0
  6
Continuous
 62
     0
370
    30
100
AcDbLine
 10
353.055375
 20
269.246011
 30
0.0
 11
353.055375
 21
238.438667
 31
0.0
  0
ARC
  5
94
330
71
100
AcDbEntity
  8
0
  6
Continuous
 62
     0
370
    30
100
AcDbCircle
 10
352.255351
 20
271.649711
 30
0.0
 40
1.000025415542577
100
AcDbArc
 50
270.007186
 51
359.998544
  0
ARC
  5
95
330
71
100
AcDbEntity
  8
0
  6
Continuous
 62
     0
370
    30
100
AcDbCircle
 10
309.8554
 20
271.64971
 30
0.0
 40
1.000024307966641
100
AcDbArc
 50
180.001393
 51
269.998607
  0
LINE
  5
96
330
71
100
AcDbEntity
  8
0
  6
Continuous
 62
     0
370
    30
100
AcDbLine
 10
353.255376
 20
301.149685
 30
0.0
 11
353.255376
 21
271.649685
 31
0.0
  0
LINE
  5
97
330
71
100
AcDbEntity
  8
0
  6
Continuous
 62
     0
370
    30
100
AcDbLine
 10
308.855376
 20
301.149685
 30
0.0
 11
308.855376
 21
271.649685
 31
0.0
  0
ARC
  5
98
330
71
100
AcDbEntity
  8
0
  6
Continuous
 62
     0
370
    30
100
AcDbCircle
 10
231.055207
 20
131.149406
 30
0.0
 40
10.0
100
AcDbArc
 50
180.0
 51
359.973986
  0
LWPOLYLINE
  5
99
330
71
100
AcDbEntity
  8
0
  6
Continuous
 62
     0
370
    30
100
AcDbPolyline
 90
       22
 70
     0
 43
0.0
 10
221.055206
 20
131.149414
 10
221.055222
 20
131.209763
 10
221.055237
 20
131.396912
 10
221.055237
 20
131.719025
 10
221.055252
 20
132.182739
 10
221.055267
 20
132.79277
 10
221.055283
 20
133.551559
 10
221.055283
 20
134.458984
 10
221.055298
 20
135.512192
 10
221.055313
 20
136.70549
 10
221.055328
 20
138.030426
 10
221.055328
 20
139.475891
 10
221.055344
 20
141.028534
 10
221.055344
 20
142.67305
 10
221.055359
 20
144.392746
 10
221.055359
 20
146.170105
 10
221.055359
 20
147.987274
 10
221.055374
 20
149.826645
 10
221.055374
 20
151.671326
 10
221.055374
 20
153.505554
 10
221.055374
 20
155.315048
 10
221.055374
 20
157.149384
  0
LWPOLYLINE
  5
9A
330
71
100
AcDbEntity
  8
0
  6
Continuous
 62
     0
370
     0
100
AcDbPolyline
 90
       27
 70
     0
 43
0.0
 10
241.055374
 20
157.149384
 10
240.993805
 20
157.149384
 10
240.799835
 20
157.149384
 10
240.462631
 20
157.149384
 10
239.976547
 20
157.149384
 10
239.342529
 20
157.149384
 10
238.568741
 20
157.149384
 10
237.670547
 20
157.149384
 10
236.669571
 20
157.149384
 10
235.591934
 20
157.149384
 10
234.466156
 20
157.149384
 10
233.320755
 20
157.149384
 10
232.182236
 20
157.149384
 10
231.073517
 20
157.149384
 10
229.96611
 20
157.149384
 10
228.828247
 20
157.149384
 10
227.682648
 20
157.149384
 10
226.555756
 20
157.149384
 10
225.476059
 20
157.149384
 10
224.472076
 20
157.149384
 10
223.570084
 20
157.149384
 10
222.791855
 20
157.149384
 10
222.153
 20
157.149384
 10
221.661926
 20
157.149384
 10
221.319809
 20
157.149384
 10
221.121216
 20
157.149384
 10
221.055374
 20
157.149384
  0
ARC
  5
9B
330
71
100
AcDbEntity
  8
0
  6
Continuous
 62
     0
370
    30
100
AcDbCircle
 10
260.555376
 20
305.649685
 30
0.0
 40
0.4999999999989386
100
AcDbArc
 50
360.0
 51
90.0
  0
LINE
  5
9C
330
71
100
AcDbEntity
  8
0
  6
Continuous
 62
     0
370
    30
100
AcDbLine
 10
201.555376
 20
306.149685
 30
0.0
 11
260.555376
 21
306.149685
 31
0.0
  0
LINE
  5
9D
330
71
100
AcDbEntity
  8
0
  6
Continuous
 62
     0
370
     0
100
AcDbLine
 10
261.055376
 20
305.649685
 30
0.0
 11
201.055376
 21
305.649685
 31
0.0
  0
LINE
  5
9E
330
71
100
AcDbEntity
  8
0
  6
Continuous
 62
     0
370
    30
100
AcDbLine
 10
261.055376
 20
305.649685
 30
0.0
 11
261.055376
 21
301.649685
 31
0.0
  0
LINE
  5
9F
330
71
100
AcDbEntity
  8
0
  6
Continuous
 62
     0
370
     0
100
AcDbLine
 10
201.055376
 20
301.649685
 30
0.0
 11
261.055376
 21
301.649685
 31
0.0
  0
ARC
  5
A0
330
71
100
AcDbEntity
  8
0
  6
Continuous
 62
     0
370
    30
100
AcDbCircle
 10
260.555452
 20
301.649665
 30
0.0
 40
0.4999240846427083
100
AcDbArc
 50
276.891148
 51
0.002359
  0
LWPOLYLINE
  5
A1
330
71
100
AcDbEntity
  8
0
  6
Continuous
 62
     0
370
    30
100
AcDbPolyline
 90
       44
 70
     0
 43
0.0
 10
260.555389
 20
301.149689
 10
260.476715
 20
301.149689
 10
260.241089
 20
301.149689
 10
259.849762
 20
301.149689
 10
259.304504
 20
301.149689
 10
258.608643
 20
301.149689
 10
257.766022
 20
301.149689
 10
256.780701
 20
301.149689
 10
255.658203
 20
301.149689
 10
254.404617
 20
301.149689
 10
253.026169
 20
301.149689
 10
251.530441
 20
301.149689
 10
249.925674
 20
301.149689
 10
248.220139
 20
301.149689
 10
246.42305
 20
301.149689
 10
244.544128
 20
301.149689
 10
242.59314
 20
301.149689
 10
240.58049
 20
301.149689
 10
238.51709
 20
301.149689
 10
236.413818
 20
301.149689
 10
234.281921
 20
301.149689
 10
232.132919
 20
301.149689
 10
229.978287
 20
301.149689
 10
227.829422
 20
301.149689
 10
225.697556
 20
301.149689
 10
223.593887
 20
301.149689
 10
221.529892
 20
301.149689
 10
219.517273
 20
301.149689
 10
217.567764
 20
301.149689
 10
215.691727
 20
301.149689
 10
213.897583
 20
301.149689
 10
212.193832
 20
301.149689
 10
210.589157
 20
301.149689
 10
209.092484
 20
301.149689
 10
207.712723
 20
301.149689
 10
206.458038
 20
301.149689
 10
205.334854
 20
301.149689
 10
204.34938
 20
301.149689
 10
203.50708
 20
301.149689
 10
202.811462
 20
301.149689
 10
202.265747
 20
301.149689
 10
201.872986
 20
301.149689
 10
201.635574
 20
301.149689
 10
201.555374
 20
301.149689
  0
LINE
  5
A2
330
71
100
AcDbEntity
  8
0
  6
Continuous
 62
     0
370
    30
100
AcDbLine
 10
241.055376
 20
157.149387
 30
0.0
 11
241.055376
 21
301.149685
 31
0.0
  0
LINE
  5
A3
330
71
100
AcDbEntity
  8
0
  6
Continuous
 62
     0
370
    30
100
AcDbLine
 10
221.055376
 20
301.149685
 30
0.0
 11
221.055376
 21
157.149387
 31
0.0
  0
ARC
  5
A4
330
71
100
AcDbEntity
  8
0
  6
Continuous
 62
     0
370
    30
100
AcDbCircle
 10
201.555379
 20
301.649689
 30
0.0
 40
0.5000034422858116
100
AcDbArc
 50
180.000394
 51
269.999606
  0
ARC
  5
A5
330
71
100
AcDbEntity
  8
0
  6
Continuous
 62
     0
370
    30
100
AcDbCircle
 10
260.555209
 20
301.646098
 30
0.0
 40
0.4964121095641757
100
AcDbArc
 50
270.019264
 51
276.968377
  0
LINE
  5
A6
330
71
100
AcDbEntity
  8
0
  6
Continuous
 62
     0
370
    30
100
AcDbLine
 10
201.055376
 20
305.649685
 30
0.0
 11
201.055376
 21
301.649685
 31
0.0
  0
ARC
  5
A7
330
71
100
AcDbEntity
  8
0
  6
Continuous
 62
     0
370
    30
100
AcDbCircle
 10
201.555391
 20
305.64967
 30
0.0
 40
0.5000150271645896
100
AcDbArc
 50
90.001722
 51
179.998278
  0
LINE
  5
A8
330
71
100
AcDbEntity
  8
0
  6
Continuous
 62
     0
370
    30
100
AcDbLine
 10
241.055376
 20
157.149387
 30
0.0
 11
241.055206
 21
131.144866
 31
0.0
  0
ENDBLK
  5
AA
330
71
100
AcDbEntity
  8
0
100
AcDbBlockEnd
  0
BLOCK
  5
E3
330
AC
100
AcDbEntity
  8
0
100
AcDbBlockBegin
  2
c
 70
     0
 10
212.277588
 20
95.980476
 30
0.0
  3
c
  1

  0
LINE
  5
AD
330
AC
100
AcDbEntity
  8
0
  6
Continuous
 62
     0
370
     0
100
AcDbLine
 10
483.348784
 20
447.830788
 30
0.0
 11
483.348784
 21
460.030989
 31
0.0
  0
LINE
  5
AE
330
AC
100
AcDbEntity
  8
0
  6
Continuous
 62
     0
370
     0
100
AcDbLine
 10
483.348784
 20
415.630989
 30
0.0
 11
483.348784
 21
427.831141
 31
0.0
  0
LINE
  5
AF
330
AC
100
AcDbEntity
  8
0
  6
Continuous
 62
     0
370
    30
100
AcDbLine
 10
453.848784
 20
415.630989
 30
0.0
 11
483.348784
 21
415.630989
 31
0.0
  0
LINE
  5
B0
330
AC
100
AcDbEntity
  8
0
  6
Continuous
 62
     0
370
    30
100
AcDbLine
 10
484.348785
 20
427.831139
 30
0.0
 11
484.348784
 21
416.630989
 31
0.0
  0
LINE
  5
B1
330
AC
100
AcDbEntity
  8
0
  6
Continuous
 62
     0
370
    30
100
AcDbLine
 10
484.348784
 20
459.030989
 30
0.0
 11
484.348785
 21
447.830789
 31
0.0
  0
ARC
  5
B2
330
AC
100
AcDbEntity
  8
0
  6
Continuous
 62
     0
370
    30
100
AcDbCircle
 10
483.348784
 20
416.630989
 30
0.0
 40
1.00000000000046
100
AcDbArc
 50
270.0
 51
360.0
  0
LWPOLYLINE
  5
B3
330
AC
100
AcDbEntity
  8
0
  6
Continuous
 62
     0
370
    30
100
AcDbPolyline
 90
       14
 70
     0
 43
0.0
 10
485.559814
 20
459.830994
 10
485.559814
 20
459.766632
 10
485.559814
 20
459.56662
 10
485.559814
 20
459.22168
 10
485.559814
 20
458.724915
 10
485.559814
 20
458.071991
 10
485.559814
 20
457.261932
 10
485.559814
 20
456.297241
 10
485.559814
 20
455.184052
 10
485.559814
 20
453.932251
 10
485.559814
 20
452.555084
 10
485.559814
 20
451.068726
 10
485.559814
 20
449.491669
 10
485.559814
 20
447.83078
  0
LINE
  5
B4
330
AC
100
AcDbEntity
  8
0
  6
Continuous
 62
     0
370
    30
100
AcDbLine
 10
516.559803
 20
427.831066
 30
0.0
 11
516.559802
 21
415.830991
 31
0.0
  0
LWPOLYLINE
  5
B5
330
AC
100
AcDbEntity
  8
0
  6
Continuous
 62
     0
370
    30
100
AcDbPolyline
 90
       14
 70
     0
 43
0.0
 10
516.559814
 20
459.830994
 10
516.559814
 20
459.767059
 10
516.559814
 20
459.568176
 10
516.559814
 20
459.224976
 10
516.559814
 20
458.730316
 10
516.559814
 20
458.079651
 10
516.559814
 20
457.271667
 10
516.559814
 20
456.308594
 10
516.559814
 20
455.19635
 10
516.559814
 20
453.944489
 10
516.559814
 20
452.566101
 10
516.559814
 20
451.07724
 10
516.559814
 20
449.496338
 10
516.559814
 20
447.830811
  0
LINE
  5
B6
330
AC
100
AcDbEntity
  8
0
  6
Continuous
 62
     0
370
    30
100
AcDbLine
 10
489.392111
 20
427.831127
 30
0.0
 11
493.759907
 21
415.830991
 31
0.0
  0
LINE
  5
B7
330
AC
100
AcDbEntity
  8
0
  6
Continuous
 62
     0
370
    30
100
AcDbLine
 10
485.559802
 20
459.830991
 30
0.0
 11
490.076495
 21
459.830991
 31
0.0
  0
LINE
  5
B8
330
AC
100
AcDbEntity
  8
0
  6
Continuous
 62
     0
370
    30
100
AcDbLine
 10
513.043109
 20
459.830991
 30
0.0
 11
516.559802
 21
459.830991
 31
0.0
  0
LWPOLYLINE
  5
B9
330
AC
100
AcDbEntity
  8
0
  6
Continuous
 62
     0
370
     0
100
AcDbPolyline
 90
       32
 70
     0
 43
0.0
 10
513.043091
 20
459.830994
 10
512.96698
 20
459.805359
 10
512.746887
 20
459.730469
 10
512.390747
 20
459.611877
 10
511.910339
 20
459.457489
 10
511.322815
 20
459.276642
 10
510.642609
 20
459.078766
 10
509.883179
 20
458.872803
 10
509.055542
 20
458.66687
 10
508.169922
 20
458.468445
 10
507.236145
 20
458.284546
 10
506.262115
 20
458.121124
 10
505.255188
 20
457.983398
 10
504.222626
 20
457.875885
 10
503.171722
 20
457.801941
 10
502.10968
 20
457.764069
 10
501.043854
 20
457.763458
 10
499.981598
 20
457.800171
 10
498.930206
 20
457.872986
 10
497.896973
 20
457.979492
 10
496.889099
 20
458.116302
 10
495.913849
 20
458.279053
 10
494.97876
 20
458.462341
 10
494.091736
 20
458.660309
 10
493.261627
 20
458.866211
 10
492.498383
 20
459.072784
 10
491.814728
 20
459.271301
 10
491.224121
 20
459.45285
 10
490.740814
 20
459.608032
 10
490.380005
 20
459.727722
 10
490.155579
 20
459.803925
 10
490.076508
 20
459.830994
  0
LINE
  5
BA
330
AC
100
AcDbEntity
  8
0
  6
Continuous
 62
     0
370
    30
100
AcDbLine
 10
508.04387
 20
464.918253
 30
0.0
 11
508.059802
 21
465.830991
 31
0.0
  0
LINE
  5
BB
330
AC
100
AcDbEntity
  8
0
  6
Continuous
 62
     0
370
     0
100
AcDbLine
 10
495.059802
 20
465.830991
 30
0.0
 11
508.059802
 21
465.830991
 31
0.0
  0
LWPOLYLINE
  5
BC
330
AC
100
AcDbEntity
  8
0
  6
Continuous
 62
     0
370
     0
100
AcDbPolyline
 90
       25
 70
     0
 43
0.0
 10
508.043884
 20
464.918243
 10
507.984039
 20
464.874237
 10
507.808289
 20
464.745483
 10
507.52536
 20
464.545105
 10
507.145874
 20
464.288513
 10
506.680603
 20
463.993561
 10
506.137939
 20
463.677795
 10
505.523743
 20
463.358704
 10
504.842041
 20
463.054199
 10
504.096954
 20
462.783569
 10
503.296082
 20
462.567352
 10
502.447723
 20
462.426483
 10
501.573029
 20
462.375702
 10
500.697968
 20
462.423553
 10
499.84845
 20
462.56189
 10
499.04599
 20
462.776154
 10
498.299103
 20
463.045532
 10
497.615448
 20
463.349304
 10
496.999146
 20
463.668213
 10
496.454224
 20
463.984314
 10
495.986572
 20
464.280182
 10
495.60434
 20
464.538269
 10
495.318329
 20
464.740662
 10
495.139221
 20
464.871643
 10
495.075745
 20
464.918243
  0
ARC
  5
BD
330
AC
100
AcDbEntity
  8
0
  6
Continuous
 62
     0
370
    30
100
AcDbCircle
 10
513.043109
 20
464.830991
 30
0.0
 40
5.000000000000229
100
AcDbArc
 50
179.0
 51
270.0
  0
ARC
  5
BE
330
AC
100
AcDbEntity
  8
0
  6
Continuous
 62
     0
370
    30
100
AcDbCircle
 10
490.076495
 20
464.830991
 30
0.0
 40
5.000000000000034
100
AcDbArc
 50
270.0
 51
1.0
  0
LINE
  5
BF
330
AC
100
AcDbEntity
  8
0
  6
Continuous
 62
     0
370
    30
100
AcDbLine
 10
508.059796
 20
525.830991
 30
0.0
 11
495.059808
 21
525.830991
 31
0.0
  0
LINE
  5
C0
330
AC
100
AcDbEntity
  8
0
  6
Continuous
 62
     0
370
    30
100
AcDbLine
 10
508.059796
 20
525.830991
 30
0.0
 11
508.059796
 21
465.830991
 31
0.0
  0
ARC
  5
C1
330
AC
100
AcDbEntity
  8
0
  6
Continuous
 62
     0
370
    30
100
AcDbCircle
 10
482.839211
 20
437.738476
 30
0.0
 40
20.5981015546448
100
AcDbArc
 50
82.410212
 51
85.797193
  0
ARC
  5
C2
330
AC
100
AcDbEntity
  8
0
  6
Continuous
 62
     0
370
    30
100
AcDbCircle
 10
482.84881
 20
437.830827
 30
0.0
 40
20.50496885893646
100
AcDbArc
 50
274.195034
 51
297.645546
  0
LINE
  5
C3
330
AC
100
AcDbEntity
  8
0
  6
Continuous
 62
     0
370
    30
100
AcDbLine
 10
495.059808
 20
465.830991
 30
0.0
 11
495.059808
 21
525.830991
 31
0.0
  0
LINE
  5
C4
330
AC
100
AcDbEntity
  8
0
  6
Continuous
 62
     0
370
    30
100
AcDbLine
 10
495.059802
 20
465.830991
 30
0.0
 11
495.075734
 21
464.918253
 31
0.0
  0
LINE
  5
C5
330
AC
100
AcDbEntity
  8
0
  6
Continuous
 62
     0
370
    30
100
AcDbLine
 10
493.760003
 20
415.830991
 30
0.0
 11
516.559802
 21
415.830991
 31
0.0
  0
ARC
  5
C6
330
AC
100
AcDbEntity
  8
0
  6
Continuous
 62
     0
370
    30
100
AcDbCircle
 10
483.348759
 20
459.030964
 30
0.0
 40
1.000025415542493
100
AcDbArc
 50
0.007186
 51
89.998544
  0
LINE
  5
C7
330
AC
100
AcDbEntity
  8
0
  6
Continuous
 62
     0
370
    30
100
AcDbLine
 10
453.848784
 20
460.030989
 30
0.0
 11
483.348784
 21
460.030989
 31
0.0
  0
LINE
  5
C8
330
AC
100
AcDbEntity
  8
0
  6
Continuous
 62
     0
370
    30
100
AcDbLine
 10
623.849048
 20
382.828612
 30
0.0
 11
613.849048
 21
382.828554
 31
0.0
  0
LINE
  5
C9
330
AC
100
AcDbEntity
  8
0
  6
Continuous
 62
     0
370
    30
100
AcDbLine
 10
633.849048
 20
382.82854
 30
0.0
 11
623.849048
 21
382.828612
 31
0.0
  0
LINE
  5
CA
330
AC
100
AcDbEntity
  8
0
  6
Continuous
 62
     0
370
     0
100
AcDbLine
 10
623.849069
 20
411.830846
 30
0.0
 11
613.849068
 21
411.830853
 31
0.0
  0
LINE
  5
CB
330
AC
100
AcDbEntity
  8
0
  6
Continuous
 62
     0
370
     0
100
AcDbLine
 10
633.849068
 20
411.830839
 30
0.0
 11
623.849069
 21
411.830846
 31
0.0
  0
LINE
  5
CC
330
AC
100
AcDbEntity
  8
0
  6
Continuous
 62
     0
370
     0
100
AcDbLine
 10
597.849087
 20
437.830948
 30
0.0
 11
597.849087
 21
427.830883
 31
0.0
  0
LWPOLYLINE
  5
CD
330
AC
100
AcDbEntity
  8
0
  6
Continuous
 62
     0
370
     0
100
AcDbPolyline
 90
       14
 70
     0
 43
0.0
 10
597.84906
 20
447.830872
 10
597.84906
 20
447.769501
 10
597.84906
 20
447.57608
 10
597.84906
 20
447.239838
 10
597.84906
 20
446.755157
 10
597.84906
 20
446.122925
 10
597.84906
 20
445.351227
 10
597.84906
 20
444.455292
 10
597.84906
 20
443.456635
 10
597.84906
 20
442.381256
 10
597.84906
 20
441.257477
 10
597.84906
 20
440.113739
 10
597.84906
 20
438.976501
 10
597.84906
 20
437.830963
  0
LINE
  5
CE
330
AC
100
AcDbEntity
  8
0
  6
Continuous
 62
     0
370
    30
100
AcDbLine
 10
448.84879
 20
437.830989
 30
0.0
 11
448.848788
 21
467.330989
 31
0.0
  0
LINE
  5
CF
330
AC
100
AcDbEntity
  8
0
  6
Continuous
 62
     0
370
    30
100
AcDbLine
 10
448.848788
 20
408.330989
 30
0.0
 11
448.84879
 21
437.830989
 31
0.0
  0
LINE
  5
D0
330
AC
100
AcDbEntity
  8
0
  6
Continuous
 62
     0
370
     0
100
AcDbLine
 10
449.34879
 20
437.830989
 30
0.0
 11
449.348788
 21
407.830989
 31
0.0
  0
LINE
  5
D1
330
AC
100
AcDbEntity
  8
0
  6
Continuous
 62
     0
370
     0
100
AcDbLine
 10
449.348788
 20
467.830989
 30
0.0
 11
449.34879
 21
437.830989
 31
0.0
  0
LINE
  5
D2
330
AC
100
AcDbEntity
  8
0
  6
Continuous
 62
     0
370
     0
100
AcDbLine
 10
453.348788
 20
407.830989
 30
0.0
 11
453.348788
 21
437.830989
 31
0.0
  0
LINE
  5
D3
330
AC
100
AcDbEntity
  8
0
  6
Continuous
 62
     0
370
     0
100
AcDbLine
 10
453.348788
 20
437.830989
 30
0.0
 11
453.348788
 21
467.830989
 31
0.0
  0
LINE
  5
D4
330
AC
100
AcDbEntity
  8
0
  6
Continuous
 62
     0
370
    30
100
AcDbLine
 10
453.84879
 20
437.830989
 30
0.0
 11
453.848788
 21
408.330932
 31
0.0
  0
LINE
  5
D5
330
AC
100
AcDbEntity
  8
0
  6
Continuous
 62
     0
370
    30
100
AcDbLine
 10
453.848788
 20
467.331046
 30
0.0
 11
453.84879
 21
437.830989
 31
0.0
  0
LINE
  5
D6
330
AC
100
AcDbEntity
  8
0
  6
Continuous
 62
     0
370
     0
100
AcDbLine
 10
453.848789
 20
437.831051
 30
0.0
 11
597.849087
 21
437.830948
 31
0.0
  0
LINE
  5
D7
330
AC
100
AcDbEntity
  8
0
  6
Continuous
 62
     0
370
    30
100
AcDbLine
 10
597.849087
 20
447.830883
 30
0.0
 11
453.848788
 21
447.830764
 31
0.0
  0
LINE
  5
D8
330
AC
100
AcDbEntity
  8
0
  6
Continuous
 62
     0
370
    30
100
AcDbLine
 10
597.849087
 20
427.830883
 30
0.0
 11
453.848788
 21
427.831207
 31
0.0
  0
ARC
  5
D9
330
AC
100
AcDbEntity
  8
0
  6
Continuous
 62
     0
370
    30
100
AcDbCircle
 10
453.348785
 20
408.330993
 30
0.0
 40
0.5000034482902614
100
AcDbArc
 50
270.000395
 51
359.997024
  0
ARC
  5
DA
330
AC
100
AcDbEntity
  8
0
  6
Continuous
 62
     0
370
    30
100
AcDbCircle
 10
453.348785
 20
467.330986
 30
0.0
 40
0.5000034482902174
100
AcDbArc
 50
0.002976
 51
89.999605
  0
LINE
  5
DB
330
AC
100
AcDbEntity
  8
0
  6
Continuous
 62
     0
370
    30
100
AcDbLine
 10
449.348788
 20
467.830989
 30
0.0
 11
453.348788
 21
467.830989
 31
0.0
  0
LINE
  5
DC
330
AC
100
AcDbEntity
  8
0
  6
Continuous
 62
     0
370
    30
100
AcDbLine
 10
449.348788
 20
407.830989
 30
0.0
 11
453.348788
 21
407.830989
 31
0.0
  0
ARC
  5
DD
330
AC
100
AcDbEntity
  8
0
  6
Continuous
 62
     0
370
    30
100
AcDbCircle
 10
449.348794
 20
467.330984
 30
0.0
 40
0.5000057054686405
100
AcDbArc
 50
90.000654
 51
179.999346
  0
ARC
  5
DE
330
AC
100
AcDbEntity
  8
0
  6
Continuous
 62
     0
370
    30
100
AcDbCircle
 10
449.348803
 20
408.331004
 30
0.0
 40
0.5000150264550705
100
AcDbArc
 50
180.001722
 51
269.998278
  0
ARC
  5
DF
330
AC
100
AcDbEntity
  8
0
  6
Continuous
 62
     0
370
    30
100
AcDbCircle
 10
597.849065
 20
411.83088
 30
0.0
 40
16.00000347601004
100
AcDbArc
 50
359.999906
 51
89.999921
  0
ARC
  5
E0
330
AC
100
AcDbEntity
  8
0
  6
Continuous
 62
     0
370
    30
100
AcDbCircle
 10
597.849067
 20
411.830882
 30
0.0
 40
36.00000125775072
100
AcDbArc
 50
359.999932
 51
89.999969
  0
LINE
  5
E1
330
AC
100
AcDbEntity
  8
0
  6
Continuous
 62
     0
370
    30
100
AcDbLine
 10
613.849068
 20
411.830853
 30
0.0
 11
613.849048
 21
382.828554
 31
0.0
  0
LINE
  5
E2
330
AC
100
AcDbEntity
  8
0
  6
Continuous
 62
     0
370
    30
100
AcDbLine
 10
633.849068
 20
411.830839
 30
0.0
 11
633.849048
 21
382.82854
 31
0.0
  0
ENDBLK
  5
E4
330
AC
100
AcDbEntity
  8
0
100
AcDbBlockEnd
  0
BLOCK
  5
132
330
E6
100
AcDbEntity
  8
0
100
AcDbBlockBegin
  2
d
 70
     0
 10
193.111572
 20
119.338371
 30
0.0
  3
d
  1

  0
ELLIPSE
  5
E7
330
E6
100
AcDbEntity
  8
0
  6
Continuous
 62
     0
370
     0
100
AcDbEllipse
 10
614.781541
 20
199.09004
 30
0.0
 11
-12.81717626302651
 21
18.12622389364397
 31
0.0
210
0.0
220
0.0
230
-0.9999999999999998
 40
0.5
 41
0.5369757431092425
 42
0.9553166497931925
  0
ELLIPSE
  5
E8
330
E6
100
AcDbEntity
  8
0
  6
Continuous
 62
     0
370
     0
100
AcDbEllipse
 10
614.781541
 20
199.09004
 30
0.0
 11
-12.81717626302651
 21
18.12622389364397
 31
0.0
210
0.0
220
0.0
230
-0.9999999999999998
 40
0.5
 41
0.9553166497931925
 42
3.146047259581469
  0
ELLIPSE
  5
E9
330
E6
100
AcDbEntity
  8
0
  6
Continuous
 62
     0
370
    30
100
AcDbEllipse
 10
635.641191
 20
213.840041
 30
0.0
 11
12.81717626302651
 21
-18.12622389364397
 31
0.0
210
0.0
220
0.0
230
0.9999999999999998
 40
0.5
 41
0.0000000403614537
 42
2.1862760037966
  0
ELLIPSE
  5
EA
330
E6
100
AcDbEntity
  8
0
  6
Continuous
 62
     0
370
    30
100
AcDbEllipse
 10
635.641191
 20
213.840041
 30
0.0
 11
12.81717626302651
 21
-18.12622389364397
 31
0.0
210
0.0
220
0.0
230
0.9999999999999998
 40
0.5
 41
2.1862760037966
 42
3.141592693951246
  0
LWPOLYLINE
  5
EB
330
E6
100
AcDbEntity
  8
0
  6
Continuous
 62
     0
370
     0
100
AcDbPolyline
 90
       28
 70
     0
 43
0.0
 10
625.856812
 20
180.990646
 10
626.61792
 20
181.511856
 10
627.278564
 20
182.156036
 10
627.834534
 20
182.912109
 10
628.284241
 20
183.76712
 10
628.628357
 20
184.706787
 10
628.869751
 20
185.716125
 10
629.013184
 20
186.780029
 10
629.064697
 20
187.883774
 10
629.029785
 20
189.043182
 10
628.904358
 20
190.293182
 10
628.681946
 20
191.62854
 10
628.357605
 20
193.04129
 10
627.92804
 20
194.520966
 10
627.392151
 20
196.054718
 10
626.75116
 20
197.627579
 10
626.008667
 20
199.2229
 10
625.170837
 20
200.82283
 10
624.246277
 20
202.408997
 10
623.245422
 20
203.963196
 10
622.180542
 20
205.468079
 10
621.065063
 20
206.907791
 10
619.913025
 20
208.268463
 10
618.738525
 20
209.538681
 10
617.555237
 20
210.709686
 10
616.376099
 20
211.775421
 10
615.212769
 20
212.732498
 10
614.074463
 20
213.580704
  0
LWPOLYLINE
  5
EC
330
E6
100
AcDbEntity
  8
0
  6
Continuous
 62
     0
370
     0
100
AcDbPolyline
 90
        6
 70
     0
 43
0.0
 10
614.074463
 20
213.580704
 10
613.02179
 20
214.288025
 10
611.946289
 20
214.933716
 10
610.855774
 20
215.507004
 10
609.75946
 20
215.997406
 10
608.404419
 20
216.476349
  0
LWPOLYLINE
  5
ED
330
E6
100
AcDbEntity
  8
0
  6
Continuous
 62
     0
370
    30
100
AcDbPolyline
 90
        4
 70
     0
 43
0.0
 10
628.22467
 20
185.605148
 10
627.993408
 20
184.827728
 10
627.706482
 20
184.126602
 10
627.248108
 20
183.311646
  0
LWPOLYLINE
  5
EE
330
E6
100
AcDbEntity
  8
0
  6
Continuous
 62
     0
370
    30
100
AcDbPolyline
 90
       13
 70
     0
 43
0.0
 10
618.532776
 20
209.193573
 10
619.625671
 20
208.017197
 10
620.714233
 20
206.740967
 10
621.78479
 20
205.371353
 10
622.822937
 20
203.917816
 10
623.813293
 20
202.392883
 10
624.740662
 20
200.811935
 10
625.590332
 20
199.192856
 10
626.348938
 20
197.555344
 10
627.004944
 20
195.920288
 10
627.549377
 20
194.308807
 10
627.976013
 20
192.741425
 10
628.296143
 20
191.150681
  0
LWPOLYLINE
  5
EF
330
E6
100
AcDbEntity
  8
0
  6
Continuous
 62
     0
370
    30
100
AcDbPolyline
 90
        6
 70
     0
 43
0.0
 10
611.801086
 20
214.47818
 10
613.202942
 20
213.640457
 10
614.584961
 20
212.680496
 10
615.929199
 20
211.619568
 10
617.220337
 20
210.479706
 10
618.532776
 20
209.193573
  0
LWPOLYLINE
  5
F0
330
E6
100
AcDbEntity
  8
0
  6
Continuous
 62
     0
370
    30
100
AcDbPolyline
 90
       18
 70
     0
 43
0.0
 10
628.769958
 20
187.362
 10
628.684509
 20
188.718643
 10
628.483521
 20
190.184769
 10
628.15918
 20
191.751358
 10
627.706055
 20
193.405746
 10
627.12146
 20
195.131653
 10
626.406372
 20
196.909531
 10
625.565063
 20
198.717163
 10
624.605713
 20
200.530502
 10
623.539917
 20
202.324677
 10
622.382202
 20
204.075119
 10
621.149597
 20
205.758636
 10
619.860596
 20
207.354492
 10
618.534363
 20
208.845154
 10
617.18988
 20
210.216843
 10
615.845215
 20
211.459824
 10
614.516724
 20
212.568314
 10
613.21814
 20
213.540878
  0
LWPOLYLINE
  5
F1
330
E6
100
AcDbEntity
  8
0
  6
Continuous
 62
     0
370
    30
100
AcDbPolyline
 90
        5
 70
     0
 43
0.0
 10
613.21814
 20
213.540878
 10
612.117798
 20
214.279953
 10
610.993958
 20
214.953766
 10
609.855164
 20
215.55101
 10
608.404419
 20
216.181183
  0
LWPOLYLINE
  5
F2
330
E6
100
AcDbEntity
  8
0
  6
Continuous
 62
     0
370
    30
100
AcDbPolyline
 90
       40
 70
     0
 43
0.0
 10
591.297791
 20
198.040878
 10
590.154114
 20
198.807495
 10
588.984802
 20
199.50351
 10
587.799438
 20
200.116135
 10
586.608948
 20
200.63295
 10
585.425354
 20
201.042343
 10
584.261536
 20
201.33403
 10
583.130859
 20
201.499557
 10
582.046631
 20
201.53273
 10
581.021729
 20
201.429947
 10
580.068054
 20
201.190506
 10
579.196045
 20
200.816605
 10
578.414429
 20
200.313324
 10
577.729858
 20
199.688446
 10
577.146667
 20
198.951996
 10
576.666992
 20
198.115891
 10
576.29071
 20
197.193375
 10
576.015625
 20
196.198486
 10
575.83783
 20
195.145523
 10
575.751953
 20
194.048584
 10
575.751709
 20
192.912567
 10
575.837097
 20
191.694656
 10
576.014282
 20
190.390762
 10
576.288818
 20
189.007294
 10
576.66449
 20
187.553009
 10
577.143555
 20
186.038849
 10
577.726135
 20
184.477905
 10
578.410095
 20
182.885025
 10
579.191162
 20
181.276443
 10
580.062622
 20
179.669296
 10
581.015869
 20
178.080948
 10
582.040405
 20
176.528473
 10
583.124329
 20
175.027985
 10
584.254761
 20
173.594055
 10
585.418396
 20
172.239395
 10
586.601929
 20
170.97438
 10
587.792419
 20
169.806961
 10
588.977844
 20
168.742599
 10
590.147278
 20
167.784317
 10
591.297791
 20
166.928177
  0
LWPOLYLINE
  5
F3
330
E6
100
AcDbEntity
  8
0
  6
Continuous
 62
     0
370
    30
100
AcDbPolyline
 90
       40
 70
     0
 43
0.0
 10
591.297791
 20
166.928177
 10
592.441467
 20
166.161575
 10
593.610779
 20
165.465561
 10
594.796204
 20
164.852921
 10
595.986694
 20
164.336105
 10
597.170288
 20
163.926712
 10
598.334106
 20
163.635025
 10
599.464783
 20
163.469498
 10
600.54895
 20
163.43634
 10
601.573853
 20
163.539108
 10
602.527588
 20
163.778564
 10
603.399597
 20
164.152466
 10
604.181152
 20
164.655731
 10
604.865723
 20
165.280624
 10
605.448914
 20
166.017075
 10
605.928589
 20
166.85318
 10
606.304871
 20
167.775681
 10
606.579956
 20
168.770569
 10
606.757751
 20
169.823547
 10
606.843628
 20
170.920486
 10
606.843872
 20
172.056503
 10
606.758545
 20
173.274414
 10
606.581299
 20
174.578308
 10
606.306824
 20
175.961761
 10
605.931091
 20
177.416061
 10
605.452026
 20
178.930206
 10
604.869507
 20
180.491165
 10
604.185486
 20
182.084045
 10
603.40448
 20
183.692612
 10
602.532959
 20
185.299774
 10
601.579712
 20
186.888107
 10
600.555176
 20
188.440582
 10
599.471313
 20
189.941086
 10
598.340881
 20
191.375
 10
597.177246
 20
192.729675
 10
595.993713
 20
193.99469
 10
594.803223
 20
195.162094
 10
593.617737
 20
196.226456
 10
592.448303
 20
197.184738
 10
591.297791
 20
198.040878
  0
LWPOLYLINE
  5
F4
330
E6
100
AcDbEntity
  8
0
  6
Continuous
 62
     0
370
    30
100
AcDbPolyline
 90
        9
 70
     0
 43
0.0
 10
622.514587
 20
177.613754
 10
623.574097
 20
178.449661
 10
624.561646
 20
179.405502
 10
625.472412
 20
180.473816
 10
626.302856
 20
181.649445
 10
627.049988
 20
182.927719
 10
627.709351
 20
184.298798
 10
628.275879
 20
185.750275
 10
628.769958
 20
187.362
  0
LWPOLYLINE
  5
F5
330
E6
100
AcDbEntity
  8
0
  6
Continuous
 62
     0
370
     0
100
AcDbPolyline
 90
       31
 70
     0
 43
0.0
 10
610.024353
 20
211.282532
 10
610.742371
 20
210.674149
 10
611.334473
 20
209.964523
 10
611.791382
 20
209.172943
 10
612.111389
 20
208.321121
 10
612.299866
 20
207.430969
 10
612.362854
 20
206.521393
 10
612.30896
 20
205.607559
 10
612.145813
 20
204.702087
 10
611.880981
 20
203.81665
 10
611.521423
 20
202.961853
 10
611.073242
 20
202.14621
 10
610.542175
 20
201.37764
 10
609.933594
 20
200.663528
 10
609.253113
 20
200.0103
 10
608.506287
 20
199.423508
 10
607.698669
 20
198.907837
 10
606.836182
 20
198.466782
 10
605.924622
 20
198.102783
 10
604.969727
 20
197.817474
 10
603.977234
 20
197.611526
 10
602.953125
 20
197.485092
 10
601.903503
 20
197.437851
 10
600.834717
 20
197.469757
 10
599.753906
 20
197.58075
 10
598.67218
 20
197.769852
 10
597.602417
 20
198.035706
 10
596.560303
 20
198.375595
 10
595.56488
 20
198.785522
 10
594.638672
 20
199.258896
 10
593.784485
 20
199.799225
  0
LWPOLYLINE
  5
F6
330
E6
100
AcDbEntity
  8
0
  6
Continuous
 62
     0
370
     0
100
AcDbPolyline
 90
        3
 70
     0
 43
0.0
 10
608.404419
 20
212.08992
 10
609.236816
 20
211.749878
 10
610.024353
 20
211.282532
  0
LWPOLYLINE
  5
F7
330
E6
100
AcDbEntity
  8
0
  6
Continuous
 62
     0
370
     0
100
AcDbPolyline
 90
       17
 70
     0
 43
0.0
 10
593.784485
 20
199.799225
 10
593.103271
 20
200.336044
 10
592.53418
 20
200.897812
 10
592.084473
 20
201.475128
 10
591.757568
 20
202.060669
 10
591.548767
 20
202.647522
 10
591.453674
 20
203.231644
 10
591.465271
 20
203.811142
 10
591.576782
 20
204.385681
 10
591.781982
 20
204.95517
 10
592.074524
 20
205.519409
 10
592.448975
 20
206.078568
 10
592.900513
 20
206.632919
 10
593.424255
 20
207.182022
 10
594.015747
 20
207.724899
 10
594.670166
 20
208.259949
 10
595.427307
 20
208.815735
  0
LWPOLYLINE
  5
F8
330
E6
100
AcDbEntity
  8
0
  6
Continuous
 62
     0
370
     0
100
AcDbPolyline
 90
        7
 70
     0
 43
0.0
 10
595.404419
 20
209.783524
 10
595.462769
 20
209.169037
 10
595.634705
 20
208.570877
 10
595.911377
 20
208.003967
 10
596.279175
 20
207.480637
 10
596.721375
 20
207.009903
 10
597.308228
 20
206.533524
  0
LWPOLYLINE
  5
F9
330
E6
100
AcDbEntity
  8
0
  6
Continuous
 62
     0
370
     0
100
AcDbPolyline
 90
       17
 70
     0
 43
0.0
 10
597.308228
 20
206.533524
 10
597.974182
 20
206.122681
 10
598.749878
 20
205.764893
 10
599.622681
 20
205.479813
 10
600.571411
 20
205.285019
 10
601.56665
 20
205.193542
 10
602.574036
 20
205.211777
 10
603.557556
 20
205.338455
 10
604.48407
 20
205.564789
 10
605.326721
 20
205.875992
 10
606.067078
 20
206.25351
 10
606.699097
 20
206.680237
 10
607.258484
 20
207.177368
 10
607.733459
 20
207.749817
 10
608.096985
 20
208.386703
 10
608.325806
 20
209.070938
 10
608.404419
 20
209.789688
  0
LWPOLYLINE
  5
FA
330
E6
100
AcDbEntity
  8
0
  6
Continuous
 62
     0
370
     0
100
AcDbPolyline
 90
       19
 70
     0
 43
0.0
 10
608.36499
 20
208.146561
 10
608.2948
 20
207.353745
 10
608.122864
 20
206.578979
 10
607.847595
 20
205.841232
 10
607.467773
 20
205.163254
 10
606.982788
 20
204.568497
 10
606.402344
 20
204.081863
 10
605.74115
 20
203.723175
 10
605.021179
 20
203.495667
 10
604.262695
 20
203.394562
 10
603.478088
 20
203.404282
 10
602.678955
 20
203.509857
 10
601.872253
 20
203.69696
 10
601.063965
 20
203.953064
 10
600.260437
 20
204.26741
 10
599.470947
 20
204.629562
 10
598.708862
 20
205.028137
 10
597.990234
 20
205.451508
 10
597.319458
 20
205.896088
  0
LWPOLYLINE
  5
FB
330
E6
100
AcDbEntity
  8
0
  6
Continuous
 62
     0
370
     0
100
AcDbPolyline
 90
        6
 70
     0
 43
0.0
 10
597.319458
 20
205.896088
 10
596.656799
 20
206.403625
 10
596.132629
 20
206.89032
 10
595.755981
 20
207.349747
 10
595.5271
 20
207.783493
 10
595.442261
 20
208.209198
  0
LWPOLYLINE
  5
FC
330
E6
100
AcDbEntity
  8
0
  6
Continuous
 62
     0
370
     0
100
AcDbPolyline
 90
       10
 70
     0
 43
0.0
 10
593.784485
 20
199.799225
 10
594.397217
 20
200.286453
 10
594.994019
 20
200.86795
 10
595.553406
 20
201.524414
 10
596.058228
 20
202.235214
 10
596.493713
 20
202.979034
 10
596.847107
 20
203.734009
 10
597.107544
 20
204.477676
 10
597.266541
 20
205.187088
 10
597.319458
 20
205.896088
  0
LWPOLYLINE
  5
FD
330
E6
100
AcDbEntity
  8
0
  6
Continuous
 62
     0
370
     0
100
AcDbPolyline
 90
        4
 70
     0
 43
0.0
 10
608.404419
 20
210.529999
 10
608.87561
 20
210.662308
 10
609.371155
 20
210.882019
 10
610.024353
 20
211.282532
  0
ELLIPSE
  5
FE
330
E6
100
AcDbEntity
  8
0
  6
Continuous
 62
     0
370
    30
100
AcDbEllipse
 10
601.904408
 20
252.209926
 30
0.0
 11
6.49999415358911
 21
-1.251449782971798E-7
 31
0.0
210
0.0
220
0.0
230
-0.9999999999999999
 40
0.707107
 41
2.356194476578353
 42
5.497787130168142
  0
ELLIPSE
  5
FF
330
E6
100
AcDbEntity
  8
0
  6
Continuous
 62
     0
370
    30
100
AcDbEllipse
 10
601.904408
 20
252.209926
 30
0.0
 11
6.49999415358911
 21
-1.251449782971798E-7
 31
0.0
210
0.0
220
0.0
230
-0.9999999999999999
 40
0.707107
 41
5.497787130168142
 42
8.639379783757938
  0
ELLIPSE
  5
100
330
E6
100
AcDbEntity
  8
0
  6
Continuous
 62
     0
370
     0
100
AcDbEllipse
 10
638.823172
 20
216.090041
 30
0.0
 11
17.32050846354934
 21
-24.49489715357294
 31
0.0
210
0.0
220
0.0
230
0.9999999999999998
 40
0.5
 41
0.0000000403614528
 42
2.1862760037966
  0
ELLIPSE
  5
101
330
E6
100
AcDbEntity
  8
0
  6
Continuous
 62
     0
370
     0
100
AcDbEllipse
 10
638.823172
 20
216.090041
 30
0.0
 11
17.32050846354934
 21
-24.49489715357294
 31
0.0
210
0.0
220
0.0
230
0.9999999999999998
 40
0.5
 41
2.186276003796601
 42
3.141592693951246
  0
ELLIPSE
  5
102
330
E6
100
AcDbEntity
  8
0
  6
Continuous
 62
     0
370
     0
100
AcDbEllipse
 10
635.994745
 20
214.090041
 30
0.0
 11
17.32050846354934
 21
-24.49489715357294
 31
0.0
210
0.0
220
0.0
230
0.9999999999999998
 40
0.5
 41
6.273718265931594
 42
8.469461310976186
  0
ELLIPSE
  5
103
330
E6
100
AcDbEntity
  8
0
  6
Continuous
 62
     0
370
     0
100
AcDbEllipse
 10
635.994745
 20
214.090041
 30
0.0
 11
17.32050846354934
 21
-24.49489715357294
 31
0.0
210
0.0
220
0.0
230
0.9999999999999998
 40
0.5
 41
2.186276003796601
 42
3.150940834921028
  0
ELLIPSE
  5
104
330
E6
100
AcDbEntity
  8
0
  6
Continuous
 62
     0
370
     0
100
AcDbEllipse
 10
635.641191
 20
213.840041
 30
0.0
 11
17.03183332249019
 21
-24.08664886768006
 31
0.0
210
0.0
220
0.0
230
0.9999999999999998
 40
0.5
 41
5.564303228613081
 42
8.469461310976186
  0
ELLIPSE
  5
105
330
E6
100
AcDbEntity
  8
0
  6
Continuous
 62
     0
370
     0
100
AcDbEllipse
 10
635.641191
 20
213.840041
 30
0.0
 11
17.03183332249019
 21
-24.08664886768006
 31
0.0
210
0.0
220
0.0
230
0.9999999999999998
 40
0.5
 41
2.186276003796601
 42
3.860474812879204
  0
LWPOLYLINE
  5
106
330
E6
100
AcDbEntity
  8
0
  6
Continuous
 62
     0
370
    30
100
AcDbPolyline
 90
       12
 70
     0
 43
0.0
 10
614.777771
 20
226.276718
 10
614.661499
 20
227.762268
 10
614.638123
 20
229.190125
 10
614.708252
 20
230.554489
 10
614.872314
 20
231.849701
 10
615.130005
 20
233.070389
 10
615.481323
 20
234.211227
 10
615.92572
 20
235.267014
 10
616.462341
 20
236.232635
 10
617.089355
 20
237.102768
 10
617.804626
 20
237.871964
 10
618.672729
 20
238.583755
  0
LWPOLYLINE
  5
107
330
E6
100
AcDbEntity
  8
0
  6
Continuous
 62
     0
370
    30
100
AcDbPolyline
 90
       12
 70
     0
 43
0.0
 10
653.316101
 20
189.595795
 10
652.431885
 20
189.05394
 10
651.474121
 20
188.626022
 10
650.449768
 20
188.314697
 10
649.365356
 20
188.120758
 10
648.226257
 20
188.043823
 10
647.037292
 20
188.083115
 10
645.803711
 20
188.237381
 10
644.530945
 20
188.505081
 10
643.223938
 20
188.884354
 10
641.887634
 20
189.373276
 10
640.41217
 20
190.024277
  0
LINE
  5
108
330
E6
100
AcDbEntity
  8
0
  6
Continuous
 62
     0
370
    30
100
AcDbLine
 10
621.502663
 20
240.584938
 30
0.0
 11
618.674236
 21
238.584938
 31
0.0
  0
LINE
  5
109
330
E6
100
AcDbEntity
  8
0
  6
Continuous
 62
     0
370
    30
100
AcDbLine
 10
656.143681
 20
191.595144
 30
0.0
 11
653.315254
 21
189.595144
 31
0.0
  0
LWPOLYLINE
  5
10A
330
E6
100
AcDbEntity
  8
0
  6
Continuous
 62
     0
370
    30
100
AcDbPolyline
 90
       15
 70
     0
 43
0.0
 10
621.502686
 20
240.58493
 10
622.414246
 20
241.141144
 10
623.402832
 20
241.575882
 10
624.461609
 20
241.887299
 10
625.583923
 20
242.074478
 10
626.763733
 20
242.137772
 10
627.995178
 20
242.078125
 10
629.272644
 20
241.897003
 10
630.59082
 20
241.596008
 10
631.944153
 20
241.177246
 10
633.326965
 20
240.642975
 10
634.733582
 20
239.996002
 10
636.157959
 20
239.239395
 10
637.593994
 20
238.376663
 10
639.111877
 20
237.357941
  0
LWPOLYLINE
  5
10B
330
E6
100
AcDbEntity
  8
0
  6
Continuous
 62
     0
370
    30
100
AcDbPolyline
 90
       32
 70
     0
 43
0.0
 10
656.143677
 20
191.595139
 10
656.998657
 20
192.29422
 10
657.758423
 20
193.113922
 10
658.418335
 20
194.047989
 10
658.975891
 20
195.089828
 10
659.428833
 20
196.232849
 10
659.77594
 20
197.470657
 10
660.016785
 20
198.797089
 10
660.151428
 20
200.205688
 10
660.179993
 20
201.689911
 10
660.102783
 20
203.243088
 10
659.920593
 20
204.858017
 10
659.634766
 20
206.527176
 10
659.246826
 20
208.242706
 10
658.758789
 20
209.996552
 10
658.173157
 20
211.780289
 10
657.492798
 20
213.585327
 10
656.721191
 20
215.402954
 10
655.862
 20
217.224319
 10
654.919678
 20
219.040527
 10
653.898865
 20
220.842651
 10
652.804382
 20
222.621826
 10
651.641785
 20
224.369415
 10
650.41687
 20
226.076782
 10
649.135498
 20
227.735382
 10
647.804077
 20
229.337173
 10
646.429077
 20
230.874268
 10
645.017334
 20
232.338913
 10
643.575745
 20
233.724014
 10
642.111084
 20
235.023026
 10
640.630432
 20
236.229446
 10
639.111877
 20
237.357941
  0
LINE
  5
10C
330
E6
100
AcDbEntity
  8
0
  6
Continuous
 62
     0
370
    30
100
AcDbLine
 10
608.404401
 20
209.783521
 30
0.0
 11
608.404402
 21
252.209926
 31
0.0
  0
LINE
  5
10D
330
E6
100
AcDbEntity
  8
0
  6
Continuous
 62
     0
370
    30
100
AcDbLine
 10
595.404413
 20
209.783521
 30
0.0
 11
595.404414
 21
252.209926
 31
0.0
  0
LWPOLYLINE
  5
10E
330
E6
100
AcDbEntity
  8
0
  6
Continuous
 62
     0
370
    30
100
AcDbPolyline
 90
        5
 70
     0
 43
0.0
 10
595.345886
 20
207.661911
 10
595.361877
 20
207.698364
 10
595.395813
 20
207.803146
 10
595.427368
 20
207.957886
 10
595.442383
 20
208.209015
  0
LINE
  5
10F
330
E6
100
AcDbEntity
  8
0
  6
Continuous
 62
     0
370
    30
100
AcDbLine
 10
595.442285
 20
208.20919
 30
0.0
 11
595.405531
 21
209.697875
 31
0.0
  0
LINE
  5
110
330
E6
100
AcDbEntity
  8
0
  6
Continuous
 62
     0
370
    30
100
AcDbLine
 10
608.364981
 20
208.146517
 30
0.0
 11
608.403417
 21
209.703294
 31
0.0
  0
LINE
  5
111
330
E6
100
AcDbEntity
  8
0
  6
Continuous
 62
     0
370
    30
100
AcDbLine
 10
595.404412
 20
212.33273
 30
0.0
 11
578.596098
 21
200.447456
 31
0.0
  0
LINE
  5
112
330
E6
100
AcDbEntity
  8
0
  6
Continuous
 62
     0
370
    30
100
AcDbLine
 10
622.51461
 20
177.61376
 30
0.0
 11
603.999511
 21
164.521608
 31
0.0
  0
LWPOLYLINE
  5
113
330
E6
100
AcDbEntity
  8
0
  6
Continuous
 62
     0
370
    30
100
AcDbPolyline
 90
        4
 70
     0
 43
0.0
 10
624.979736
 20
179.870911
 10
625.885315
 20
180.104584
 10
626.735962
 20
180.451462
 10
627.599243
 20
180.964188
  0
LINE
  5
114
330
E6
100
AcDbEntity
  8
0
  6
Continuous
 62
     0
370
    30
100
AcDbLine
 10
648.458368
 20
195.713817
 30
0.0
 11
627.598718
 21
180.963817
 31
0.0
  0
LINE
  5
115
330
E6
100
AcDbEntity
  8
0
  6
Continuous
 62
     0
370
    30
100
AcDbLine
 10
622.824015
 20
231.966264
 30
0.0
 11
608.404401
 21
221.770057
 31
0.0
  0
LWPOLYLINE
  5
116
330
E6
100
AcDbEntity
  8
0
  6
Continuous
 62
     0
370
    30
100
AcDbPolyline
 90
        8
 70
     0
 43
0.0
 10
454.721924
 20
139.947433
 10
454.653717
 20
139.123062
 10
454.451904
 20
138.315384
 10
454.124481
 20
137.539993
 10
453.683929
 20
136.810394
 10
453.146088
 20
136.13736
 10
452.528748
 20
135.528534
 10
451.792999
 20
134.947449
  0
LWPOLYLINE
  5
117
330
E6
100
AcDbEntity
  8
0
  6
Continuous
 62
     0
370
    30
100
AcDbPolyline
 90
       21
 70
     0
 43
0.0
 10
451.792999
 20
134.947449
 10
450.987244
 20
134.436279
 10
450.071899
 20
133.973419
 10
449.054596
 20
133.574539
 10
447.94873
 20
133.254623
 10
446.773163
 20
133.026733
 10
445.551575
 20
132.900757
 10
444.310974
 20
132.882355
 10
443.079834
 20
132.972382
 10
441.885864
 20
133.166733
 10
440.754059
 20
133.456863
 10
439.705048
 20
133.830658
 10
438.754089
 20
134.273636
 10
437.910767
 20
134.770233
 10
437.165833
 20
135.315781
 10
436.485657
 20
135.937256
 10
435.888519
 20
136.633072
 10
435.396088
 20
137.395172
 10
435.027985
 20
138.211487
 10
434.799866
 20
139.06633
 10
434.721924
 20
139.959732
  0
ELLIPSE
  5
118
330
E6
100
AcDbEntity
  8
0
  6
Continuous
 62
     0
370
     0
100
AcDbEllipse
 10
444.722043
 20
160.455107
 30
0.0
 11
9.999999999832204
 21
-5.793044655274461E-5
 31
0.0
210
0.0
220
0.0
230
-1.0
 40
0.70711
 41
6.283184595828401
 42
7.06857937426761
  0
ELLIPSE
  5
119
330
E6
100
AcDbEntity
  8
0
  6
Continuous
 62
     0
370
     0
100
AcDbEllipse
 10
444.722043
 20
160.455107
 30
0.0
 11
9.999999999832204
 21
-5.793044655274461E-5
 31
0.0
210
0.0
220
0.0
230
-1.0
 40
0.70711
 41
0.7853940670880234
 42
3.141592632688457
  0
LWPOLYLINE
  5
11A
330
E6
100
AcDbEntity
  8
0
  6
Continuous
 62
     0
370
     0
100
AcDbPolyline
 90
        7
 70
     0
 43
0.0
 10
468.880219
 20
183.674698
 10
469.275513
 20
184.021301
 10
469.598999
 20
184.446884
 10
469.84903
 20
184.940781
 10
470.026459
 20
185.490952
 10
470.134186
 20
186.084824
 10
470.177979
 20
186.839767
  0
LWPOLYLINE
  5
11B
330
E6
100
AcDbEntity
  8
0
  6
Continuous
 62
     0
370
     0
100
AcDbPolyline
 90
       22
 70
     0
 43
0.0
 10
470.177979
 20
186.839767
 10
470.13504
 20
187.648392
 10
469.999756
 20
188.543427
 10
469.764587
 20
189.51442
 10
469.425598
 20
190.545868
 10
468.983276
 20
191.617645
 10
468.443115
 20
192.706039
 10
467.815674
 20
193.785431
 10
467.115692
 20
194.830109
 10
466.361237
 20
195.816376
 10
465.57196
 20
196.724258
 10
464.7677
 20
197.538727
 10
463.96701
 20
198.250214
 10
463.185913
 20
198.854584
 10
462.410278
 20
199.369095
 10
461.612396
 20
199.807938
 10
460.807404
 20
200.152542
 10
460.013458
 20
200.385727
 10
459.250153
 20
200.493622
 10
458.537354
 20
200.467194
 10
457.893585
 20
200.303345
 10
457.333344
 20
200.00473
  0
LWPOLYLINE
  5
11C
330
E6
100
AcDbEntity
  8
0
  6
Continuous
 62
     0
370
     0
100
AcDbPolyline
 90
       10
 70
     0
 43
0.0
 10
585.432983
 20
241.595139
 10
586.272095
 20
242.284393
 10
587.010376
 20
243.090302
 10
587.64502
 20
244.003204
 10
588.17511
 20
245.012238
 10
588.601196
 20
246.105682
 10
588.925354
 20
247.271301
 10
589.151001
 20
248.496689
 10
589.282654
 20
249.769562
 10
589.325684
 20
251.090042
  0
LWPOLYLINE
  5
11D
330
E6
100
AcDbEntity
  8
0
  6
Continuous
 62
     0
370
     0
100
AcDbPolyline
 90
       38
 70
     0
 43
0.0
 10
589.325684
 20
251.090042
 10
589.284973
 20
252.433151
 10
589.158936
 20
253.862854
 10
588.942444
 20
255.375183
 10
588.631226
 20
256.964661
 10
588.221924
 20
258.624176
 10
587.712463
 20
260.345093
 10
587.102112
 20
262.117249
 10
586.391663
 20
263.929169
 10
585.583374
 20
265.768188
 10
584.681274
 20
267.620819
 10
583.690796
 20
269.472961
 10
582.618896
 20
271.310333
 10
581.473755
 20
273.118805
 10
580.264648
 20
274.884674
 10
579.00177
 20
276.595184
 10
577.695801
 20
278.238708
 10
576.357788
 20
279.804962
 10
574.998596
 20
281.285278
 10
573.628906
 20
282.672699
 10
572.259033
 20
283.961975
 10
570.898438
 20
285.149567
 10
569.555664
 20
286.233612
 10
568.238525
 20
287.213745
 10
566.926819
 20
288.108459
 10
565.588501
 20
288.937286
 10
564.230713
 20
289.689911
 10
562.861877
 20
290.355927
 10
561.491394
 20
290.925293
 10
560.129395
 20
291.388702
 10
558.786377
 20
291.737793
 10
557.473328
 20
291.965393
 10
556.201233
 20
292.065979
 10
554.980957
 20
292.035645
 10
553.822632
 20
291.872498
 10
552.73584
 20
291.57663
 10
551.729004
 20
291.150116
 10
550.791992
 20
290.58493
  0
ELLIPSE
  5
11E
330
E6
100
AcDbEntity
  8
0
  6
Continuous
 62
     0
370
     0
100
AcDbEllipse
 10
565.284067
 20
264.090042
 30
0.0
 11
-17.32050846354968
 21
24.49489715357341
 31
0.0
210
0.0
220
0.0
230
-1.0
 40
0.5
 41
2.52611297658809
 42
3.141855299669612
  0
ELLIPSE
  5
11F
330
E6
100
AcDbEntity
  8
0
  6
Continuous
 62
     0
370
     0
100
AcDbEllipse
 10
565.284067
 20
264.090042
 30
0.0
 11
-17.32050846354968
 21
24.49489715357341
 31
0.0
210
0.0
220
0.0
230
-1.0
 40
0.5
 41
6.278133431098462
 42
8.809298283767676
  0
LWPOLYLINE
  5
120
330
E6
100
AcDbEntity
  8
0
  6
Continuous
 62
     0
370
     0
100
AcDbPolyline
 90
       27
 70
     0
 43
0.0
 10
559.373901
 20
247.663406
 10
560.807861
 20
246.306992
 10
562.262207
 20
245.038589
 10
563.729675
 20
243.86412
 10
565.203064
 20
242.789429
 10
566.675232
 20
241.819931
 10
568.138733
 20
240.960144
 10
569.586243
 20
240.214478
 10
571.010437
 20
239.587006
 10
572.404297
 20
239.080521
 10
573.760864
 20
238.697556
 10
575.073242
 20
238.440414
 10
576.334961
 20
238.310074
 10
577.539917
 20
238.306946
 10
578.681824
 20
238.431366
 10
579.755066
 20
238.682648
 10
580.754456
 20
239.059341
 10
581.674744
 20
239.560028
 10
582.51123
 20
240.182159
 10
583.260132
 20
240.922089
 10
583.917542
 20
241.776123
 10
584.480042
 20
242.740234
 10
584.945129
 20
243.809906
 10
585.310303
 20
244.98056
 10
585.573547
 20
246.246475
 10
585.733765
 20
247.598862
 10
585.790161
 20
249.090042
  0
LWPOLYLINE
  5
121
330
E6
100
AcDbEntity
  8
0
  6
Continuous
 62
     0
370
     0
100
AcDbPolyline
 90
        9
 70
     0
 43
0.0
 10
544.070862
 20
278.590057
 10
544.130737
 20
276.970581
 10
544.310181
 20
275.272034
 10
544.607788
 20
273.507935
 10
545.021545
 20
271.692078
 10
545.549072
 20
269.832306
 10
546.187744
 20
267.937103
 10
546.934692
 20
266.016693
 10
547.826843
 20
263.993347
  0
LWPOLYLINE
  5
122
330
E6
100
AcDbEntity
  8
0
  6
Continuous
 62
     0
370
     0
100
AcDbPolyline
 90
       44
 70
     0
 43
0.0
 10
585.790161
 20
249.090042
 10
585.734558
 20
250.649643
 10
585.567871
 20
252.282654
 10
585.291138
 20
253.978668
 10
584.905518
 20
255.726395
 10
584.413391
 20
257.516327
 10
583.817444
 20
259.33963
 10
583.120667
 20
261.187225
 10
582.326782
 20
263.049255
 10
581.440247
 20
264.915619
 10
580.465393
 20
266.776123
 10
579.407593
 20
268.620941
 10
578.272705
 20
270.440216
 10
577.066528
 20
272.224274
 10
575.795654
 20
273.963623
 10
574.466858
 20
275.649017
 10
573.087097
 20
277.271301
 10
571.663818
 20
278.821869
 10
570.20459
 20
280.292633
 10
568.717163
 20
281.675476
 10
567.209595
 20
282.963135
 10
565.68988
 20
284.148895
 10
564.166199
 20
285.226166
 10
562.646606
 20
286.18924
 10
561.139038
 20
287.033203
 10
559.651428
 20
287.753387
 10
558.191956
 20
288.345856
 10
556.768799
 20
288.80777
 10
555.390259
 20
289.136292
 10
554.063721
 20
289.329651
 10
552.795105
 20
289.387421
 10
551.590454
 20
289.309174
 10
550.455872
 20
289.095032
 10
549.397644
 20
288.746368
 10
548.42218
 20
288.264618
 10
547.535156
 20
287.65213
 10
546.74115
 20
286.912933
 10
546.044556
 20
286.051392
 10
545.449219
 20
285.072174
 10
544.957642
 20
283.980713
 10
544.572083
 20
282.780975
 10
544.294678
 20
281.477417
 10
544.127197
 20
280.080292
 10
544.070862
 20
278.590057
  0
LWPOLYLINE
  5
123
330
E6
100
AcDbEntity
  8
0
  6
Continuous
 62
     0
370
    30
100
AcDbPolyline
 90
       22
 70
     0
 43
0.0
 10
559.157043
 20
272.005066
 10
559.716064
 20
272.303162
 10
560.35968
 20
272.467255
 10
561.072388
 20
272.493927
 10
561.835571
 20
272.386261
 10
562.629517
 20
272.15332
 10
563.434448
 20
271.808899
 10
564.232361
 20
271.370239
 10
565.008057
 20
270.855865
 10
565.789062
 20
270.251709
 10
566.589722
 20
269.540436
 10
567.393982
 20
268.726166
 10
568.183289
 20
267.818451
 10
568.937866
 20
266.832336
 10
569.637939
 20
265.787781
 10
570.265564
 20
264.708466
 10
570.805847
 20
263.620056
 10
571.248413
 20
262.548248
 10
571.587585
 20
261.516693
 10
571.822998
 20
260.545593
 10
571.958435
 20
259.650391
 10
572.001587
 20
258.839996
  0
LWPOLYLINE
  5
124
330
E6
100
AcDbEntity
  8
0
  6
Continuous
 62
     0
370
    30
100
AcDbPolyline
 90
        6
 70
     0
 43
0.0
 10
572.001587
 20
258.839996
 10
571.951843
 20
258.038177
 10
571.798462
 20
257.301086
 10
571.538269
 20
256.650208
 10
571.172913
 20
256.104492
 10
570.704041
 20
255.675079
  0
LINE
  5
125
330
E6
100
AcDbEntity
  8
0
  6
Continuous
 62
     0
370
     0
100
AcDbLine
 10
470.177994
 20
186.83977
 30
0.0
 11
572.001581
 21
258.839994
 31
0.0
  0
LINE
  5
126
330
E6
100
AcDbEntity
  8
0
  6
Continuous
 62
     0
370
    30
100
AcDbLine
 10
457.333313
 20
200.004776
 30
0.0
 11
559.157087
 21
272.005033
 31
0.0
  0
LINE
  5
127
330
E6
100
AcDbEntity
  8
0
  6
Continuous
 62
     0
370
    30
100
AcDbLine
 10
468.880183
 20
183.674663
 30
0.0
 11
570.704383
 21
255.675287
 31
0.0
  0
LWPOLYLINE
  5
128
330
E6
100
AcDbEntity
  8
0
  6
Continuous
 62
     0
370
    30
100
AcDbPolyline
 90
       19
 70
     0
 43
0.0
 10
547.765564
 20
263.950012
 10
546.979309
 20
265.710022
 10
546.276733
 20
267.462311
 10
545.66095
 20
269.198944
 10
545.134949
 20
270.912079
 10
544.701294
 20
272.593964
 10
544.361816
 20
274.237183
 10
544.118347
 20
275.834381
 10
543.972351
 20
277.37851
 10
543.924561
 20
278.863129
 10
543.975647
 20
280.281921
 10
544.12616
 20
281.628662
 10
544.375977
 20
282.897461
 10
544.724854
 20
284.08255
 10
545.172424
 20
285.178223
 10
545.717834
 20
286.178802
 10
546.359131
 20
287.078552
 10
547.093811
 20
287.871674
 10
547.962952
 20
288.584473
  0
LWPOLYLINE
  5
129
330
E6
100
AcDbEntity
  8
0
  6
Continuous
 62
     0
370
    30
100
AcDbPolyline
 90
       19
 70
     0
 43
0.0
 10
582.604736
 20
239.595245
 10
581.693665
 20
239.039398
 10
580.704956
 20
238.604385
 10
579.646057
 20
238.293015
 10
578.524292
 20
238.105865
 10
577.345276
 20
238.042389
 10
576.114136
 20
238.101761
 10
574.836853
 20
238.282684
 10
573.519043
 20
238.58342
 10
572.166199
 20
239.001846
 10
570.783813
 20
239.535645
 10
569.377686
 20
240.182114
 10
567.953613
 20
240.938324
 10
566.517944
 20
241.800583
 10
565.076843
 20
242.764908
 10
563.63678
 20
243.826691
 10
562.204163
 20
244.98114
 10
560.785339
 20
246.223267
 10
559.312683
 20
247.620132
  0
LINE
  5
12A
330
E6
100
AcDbEntity
  8
0
  6
Continuous
 62
     0
370
    30
100
AcDbLine
 10
550.791985
 20
290.584939
 30
0.0
 11
547.963558
 21
288.584939
 31
0.0
  0
LINE
  5
12B
330
E6
100
AcDbEntity
  8
0
  6
Continuous
 62
     0
370
    30
100
AcDbLine
 10
585.433003
 20
241.595146
 30
0.0
 11
582.604576
 21
239.595146
 31
0.0
  0
LWPOLYLINE
  5
12C
330
E6
100
AcDbEntity
  8
0
  6
Continuous
 62
     0
370
    30
100
AcDbPolyline
 90
       37
 70
     0
 43
0.0
 10
550.791992
 20
290.58493
 10
551.731018
 20
291.155365
 10
552.751221
 20
291.597229
 10
553.845276
 20
291.908112
 10
555.006226
 20
292.087891
 10
556.227295
 20
292.13678
 10
557.502014
 20
292.055542
 10
558.824524
 20
291.845825
 10
560.188904
 20
291.509796
 10
561.589111
 20
291.049774
 10
563.019043
 20
290.468201
 10
564.47229
 20
289.768127
 10
565.942322
 20
288.953125
 10
567.422424
 20
288.027344
 10
568.90564
 20
286.995178
 10
570.385071
 20
285.861694
 10
571.85376
 20
284.632385
 10
573.304565
 20
283.313232
 10
574.730591
 20
281.910553
 10
576.125
 20
280.431244
 10
577.481079
 20
278.88269
 10
578.792175
 20
277.272247
 10
580.051819
 20
275.607697
 10
581.254089
 20
273.897278
 10
582.393005
 20
272.149384
 10
583.462891
 20
270.372375
 10
584.45874
 20
268.575012
 10
585.375671
 20
266.765991
 10
586.209045
 20
264.954071
 10
586.954834
 20
263.14801
 10
587.609558
 20
261.356476
 10
588.169678
 20
259.588104
 10
588.632507
 20
257.851318
 10
588.995972
 20
256.154205
 10
589.258057
 20
254.504654
 10
589.417114
 20
252.910507
 10
589.472168
 20
251.340042
  0
LWPOLYLINE
  5
12D
330
E6
100
AcDbEntity
  8
0
  6
Continuous
 62
     0
370
    30
100
AcDbPolyline
 90
       10
 70
     0
 43
0.0
 10
585.432983
 20
241.595139
 10
586.262756
 20
242.270569
 10
587.003296
 20
243.059418
 10
587.650269
 20
243.955978
 10
588.201294
 20
244.954285
 10
588.65448
 20
246.048294
 10
589.008423
 20
247.232147
 10
589.262695
 20
248.500336
 10
589.417175
 20
249.84729
 10
589.472168
 20
251.340042
  0
LWPOLYLINE
  5
12E
330
E6
100
AcDbEntity
  8
0
  6
Continuous
 62
     0
370
    30
100
AcDbPolyline
 90
       22
 70
     0
 43
0.0
 10
454.722046
 20
160.455048
 10
454.749634
 20
161.175034
 10
454.842102
 20
162.035034
 10
455.009552
 20
163.013596
 10
455.256714
 20
164.09024
 10
455.586548
 20
165.245422
 10
455.998688
 20
166.461777
 10
456.490936
 20
167.723877
 10
457.059998
 20
169.017761
 10
457.702423
 20
170.329803
 10
458.413422
 20
171.648117
 10
459.187744
 20
172.961395
 10
460.019653
 20
174.259018
 10
460.903107
 20
175.530762
 10
461.831329
 20
176.766891
 10
462.796844
 20
177.958176
 10
463.791992
 20
179.095459
 10
464.80835
 20
180.169846
 10
465.836456
 20
181.172806
 10
466.86554
 20
182.09639
 10
467.884491
 20
182.932739
 10
468.880432
 20
183.67485
  0
LWPOLYLINE
  5
12F
330
E6
100
AcDbEntity
  8
0
  6
Continuous
 62
     0
370
    30
100
AcDbPolyline
 90
       21
 70
     0
 43
0.0
 10
457.333435
 20
200.004776
 10
455.500549
 20
198.637573
 10
453.702454
 20
197.154755
 10
451.945221
 20
195.563766
 10
450.234924
 20
193.87207
 10
448.578125
 20
192.087616
 10
446.982056
 20
190.219254
 10
445.454071
 20
188.276306
 10
444.001465
 20
186.268524
 10
442.631378
 20
184.20578
 10
441.350708
 20
182.098267
 10
440.166046
 20
179.956055
 10
439.083466
 20
177.789001
 10
438.108643
 20
175.606628
 10
437.246826
 20
173.417496
 10
436.50293
 20
171.229797
 10
435.881592
 20
169.050552
 10
435.387451
 20
166.88588
 10
435.025696
 20
164.740128
 10
434.801697
 20
162.617218
 10
434.722046
 20
160.455154
  0
LINE
  5
130
330
E6
100
AcDbEntity
  8
0
  6
Continuous
 62
     0
370
    30
100
AcDbLine
 10
454.722043
 20
160.45505
 30
0.0
 11
454.721924
 21
139.947432
 31
0.0
  0
LINE
  5
131
330
E6
100
AcDbEntity
  8
0
  6
Continuous
 62
     0
370
    30
100
AcDbLine
 10
434.722043
 20
160.455165
 30
0.0
 11
434.721924
 21
139.947548
 31
0.0
  0
ENDBLK
  5
133
330
E6
100
AcDbEntity
  8
0
100
AcDbBlockEnd
  0
BLOCK
  5
165
330
135
100
AcDbEntity
  8
0
100
AcDbBlockBegin
  2
e
 70
     0
 10
131.680374
 20
0.000031
 30
0.0
  3
e
  1

  0
LINE
  5
136
330
135
100
AcDbEntity
  8
0
  6
Continuous
 62
     0
370
     0
100
AcDbLine
 10
62.614197
 20
460.031012
 30
0.0
 11
62.614197
 21
415.631012
 31
0.0
  0
LINE
  5
137
330
135
100
AcDbEntity
  8
0
  6
Continuous
 62
     0
370
    30
100
AcDbLine
 10
92.114197
 20
415.631012
 30
0.0
 11
62.614197
 21
415.631012
 31
0.0
  0
LINE
  5
138
330
135
100
AcDbEntity
  8
0
  6
Continuous
 62
     0
370
    30
100
AcDbLine
 10
61.614197
 20
416.631012
 30
0.0
 11
61.614197
 21
459.031012
 31
0.0
  0
ARC
  5
139
330
135
100
AcDbEntity
  8
0
  6
Continuous
 62
     0
370
    30
100
AcDbCircle
 10
62.614197
 20
416.631012
 30
0.0
 40
0.9999999999999005
100
AcDbArc
 50
180.0
 51
270.0
  0
LINE
  5
13A
330
135
100
AcDbEntity
  8
0
  6
Continuous
 62
     0
370
    30
100
AcDbLine
 10
60.403178
 20
438.360328
 30
0.0
 11
60.403179
 21
459.831014
 31
0.0
  0
LWPOLYLINE
  5
13B
330
135
100
AcDbEntity
  8
0
  6
Continuous
 62
     0
370
    30
100
AcDbPolyline
 90
       39
 70
     0
 43
0.0
 10
29.403179
 20
415.831024
 10
29.403179
 20
415.893738
 10
29.403179
 20
416.088776
 10
29.403179
 20
416.425262
 10
29.403179
 20
416.910248
 10
29.403179
 20
417.548157
 10
29.403179
 20
418.340454
 10
29.403179
 20
419.285187
 10
29.403179
 20
420.37677
 10
29.403179
 20
421.606171
 10
29.403179
 20
422.960968
 10
29.403179
 20
424.425751
 10
29.403179
 20
425.982849
 10
29.403179
 20
427.612793
 10
29.403179
 20
429.29538
 10
29.403179
 20
431.010132
 10
29.403179
 20
432.737335
 10
29.403179
 20
434.458374
 10
29.403179
 20
436.156464
 10
29.403179
 20
437.816833
 10
29.403179
 20
439.476471
 10
29.403179
 20
441.174042
 10
29.403179
 20
442.894806
 10
29.403179
 20
444.62204
 10
29.403179
 20
446.337189
 10
29.403179
 20
448.020477
 10
29.403179
 20
449.65155
 10
29.403179
 20
451.210052
 10
29.403179
 20
452.676605
 10
29.403179
 20
454.033417
 10
29.403179
 20
455.265106
 10
29.403179
 20
456.359192
 10
29.403179
 20
457.306488
 10
29.403179
 20
458.101471
 10
29.403179
 20
458.742065
 10
29.403179
 20
459.229645
 10
29.403179
 20
459.568665
 10
29.403179
 20
459.766083
 10
29.403179
 20
459.831024
  0
LWPOLYLINE
  5
13C
330
135
100
AcDbEntity
  8
0
  6
Continuous
 62
     0
370
    30
100
AcDbPolyline
 90
       21
 70
     0
 43
0.0
 10
52.203075
 20
415.831024
 10
52.230312
 20
415.905975
 10
52.311451
 20
416.129028
 10
52.445629
 20
416.497559
 10
52.631622
 20
417.00824
 10
52.867588
 20
417.656403
 10
53.151157
 20
418.435547
 10
53.479721
 20
419.338318
 10
53.850368
 20
420.356628
 10
54.26004
 20
421.482208
 10
54.705845
 20
422.707031
 10
55.184494
 20
424.022125
 10
55.692398
 20
425.417572
 10
56.225929
 20
426.883423
 10
56.781425
 20
428.409637
 10
57.355465
 20
429.986816
 10
57.945774
 20
431.608673
 10
58.550034
 20
433.26886
 10
59.163803
 20
434.95517
 10
59.781929
 20
436.653473
 10
60.403179
 20
438.360321
  0
LINE
  5
13D
330
135
100
AcDbEntity
  8
0
  6
Continuous
 62
     0
370
    30
100
AcDbLine
 10
60.403179
 20
459.831014
 30
0.0
 11
55.886486
 21
459.831014
 31
0.0
  0
LWPOLYLINE
  5
13E
330
135
100
AcDbEntity
  8
0
  6
Continuous
 62
     0
370
     0
100
AcDbPolyline
 90
       32
 70
     0
 43
0.0
 10
55.886486
 20
459.831024
 10
55.810356
 20
459.805389
 10
55.59026
 20
459.730499
 10
55.234119
 20
459.611877
 10
54.753716
 20
459.45752
 10
54.166183
 20
459.276642
 10
53.485981
 20
459.078796
 10
52.726562
 20
458.872803
 10
51.898918
 20
458.666901
 10
51.013306
 20
458.468475
 10
50.079533
 20
458.284576
 10
49.105503
 20
458.121155
 10
48.09856
 20
457.983429
 10
47.066006
 20
457.875885
 10
46.015091
 20
457.801971
 10
44.953056
 20
457.764099
 10
43.887234
 20
457.763489
 10
42.824966
 20
457.800201
 10
41.773579
 20
457.873016
 10
40.740345
 20
457.979523
 10
39.732487
 20
458.116333
 10
38.757233
 20
458.279053
 10
37.822128
 20
458.462372
 10
36.935112
 20
458.660309
 10
36.105003
 20
458.866211
 10
35.341751
 20
459.072784
 10
34.658115
 20
459.271332
 10
34.067493
 20
459.45285
 10
33.584183
 20
459.608032
 10
33.223385
 20
459.727753
 10
32.99897
 20
459.803955
 10
32.919872
 20
459.831024
  0
LINE
  5
13F
330
135
100
AcDbEntity
  8
0
  6
Continuous
 62
     0
370
    30
100
AcDbLine
 10
32.919873
 20
459.831014
 30
0.0
 11
29.403179
 21
459.831014
 31
0.0
  0
LINE
  5
140
330
135
100
AcDbEntity
  8
0
  6
Continuous
 62
     0
370
    30
100
AcDbLine
 10
37.919111
 20
464.918276
 30
0.0
 11
37.903179
 21
465.831014
 31
0.0
  0
LWPOLYLINE
  5
141
330
135
100
AcDbEntity
  8
0
  6
Continuous
 62
     0
370
     0
100
AcDbPolyline
 90
       22
 70
     0
 43
0.0
 10
37.903179
 20
465.831024
 10
37.965054
 20
465.831024
 10
38.161514
 20
465.831024
 10
38.503719
 20
465.831024
 10
38.993877
 20
465.831024
 10
39.623436
 20
465.831024
 10
40.372967
 20
465.831024
 10
41.21402
 20
465.831024
 10
42.112652
 20
465.831024
 10
43.033661
 20
465.831024
 10
43.944595
 20
465.831024
 10
44.829903
 20
465.831024
 10
45.739944
 20
465.831024
 10
46.661125
 20
465.831024
 10
47.56115
 20
465.831024
 10
48.404858
 20
465.831024
 10
49.158173
 20
465.831024
 10
49.792393
 20
465.831024
 10
50.287724
 20
465.831024
 10
50.635216
 20
465.831024
 10
50.836712
 20
465.831024
 10
50.903179
 20
465.831024
  0
LWPOLYLINE
  5
142
330
135
100
AcDbEntity
  8
0
  6
Continuous
 62
     0
370
     0
100
AcDbPolyline
 90
       25
 70
     0
 43
0.0
 10
50.887249
 20
464.918274
 10
50.827415
 20
464.874268
 10
50.651661
 20
464.745514
 10
50.368725
 20
464.545135
 10
49.989243
 20
464.288544
 10
49.523994
 20
463.993591
 10
48.981312
 20
463.677826
 10
48.367111
 20
463.358704
 10
47.685425
 20
463.05423
 10
46.940315
 20
462.783569
 10
46.13945
 20
462.567352
 10
45.291088
 20
462.426514
 10
44.416409
 20
462.375732
 10
43.541344
 20
462.423584
 10
42.691814
 20
462.56192
 10
41.889381
 20
462.776184
 10
41.14249
 20
463.045532
 10
40.458817
 20
463.349335
 10
39.842533
 20
463.668243
 10
39.297611
 20
463.984344
 10
38.829933
 20
464.280212
 10
38.44772
 20
464.538269
 10
38.161713
 20
464.740662
 10
37.982586
 20
464.871674
 10
37.919109
 20
464.918274
  0
ARC
  5
143
330
135
100
AcDbEntity
  8
0
  6
Continuous
 62
     0
370
    30
100
AcDbCircle
 10
32.919873
 20
464.831014
 30
0.0
 40
5.000000000000253
100
AcDbArc
 50
270.0
 51
1.0
  0
ARC
  5
144
330
135
100
AcDbEntity
  8
0
  6
Continuous
 62
     0
370
    30
100
AcDbCircle
 10
55.886486
 20
464.831014
 30
0.0
 40
4.999999999999927
100
AcDbArc
 50
179.0
 51
270.0
  0
LINE
  5
145
330
135
100
AcDbEntity
  8
0
  6
Continuous
 62
     0
370
    30
100
AcDbLine
 10
50.903173
 20
525.831014
 30
0.0
 11
37.903185
 21
525.831014
 31
0.0
  0
LINE
  5
146
330
135
100
AcDbEntity
  8
0
  6
Continuous
 62
     0
370
    30
100
AcDbLine
 10
37.903185
 20
525.831014
 30
0.0
 11
37.903185
 21
465.831014
 31
0.0
  0
ARC
  5
147
330
135
100
AcDbEntity
  8
0
  6
Continuous
 62
     0
370
    30
100
AcDbCircle
 10
96.614197
 20
467.331012
 30
0.0
 40
0.5
100
AcDbArc
 50
0.0
 51
90.0
  0
LINE
  5
148
330
135
100
AcDbEntity
  8
0
  6
Continuous
 62
     0
370
    30
100
AcDbLine
 10
97.114197
 20
467.331012
 30
0.0
 11
97.114197
 21
408.331012
 31
0.0
  0
LINE
  5
149
330
135
100
AcDbEntity
  8
0
  6
Continuous
 62
     0
370
     0
100
AcDbLine
 10
96.614197
 20
407.831012
 30
0.0
 11
96.614197
 21
467.831012
 31
0.0
  0
LINE
  5
14A
330
135
100
AcDbEntity
  8
0
  6
Continuous
 62
     0
370
    30
100
AcDbLine
 10
96.614197
 20
467.831012
 30
0.0
 11
92.614197
 21
467.831012
 31
0.0
  0
LINE
  5
14B
330
135
100
AcDbEntity
  8
0
  6
Continuous
 62
     0
370
     0
100
AcDbLine
 10
92.614197
 20
407.831012
 30
0.0
 11
92.614197
 21
467.831012
 31
0.0
  0
ARC
  5
14C
330
135
100
AcDbEntity
  8
0
  6
Continuous
 62
     0
370
    30
100
AcDbCircle
 10
92.614197
 20
467.331012
 30
0.0
 40
0.5
100
AcDbArc
 50
90.0
 51
180.0
  0
LINE
  5
14D
330
135
100
AcDbEntity
  8
0
  6
Continuous
 62
     0
370
    30
100
AcDbLine
 10
92.114197
 20
408.331012
 30
0.0
 11
92.114197
 21
467.331012
 31
0.0
  0
ARC
  5
14E
330
135
100
AcDbEntity
  8
0
  6
Continuous
 62
     0
370
    30
100
AcDbCircle
 10
92.6142
 20
408.331015
 30
0.0
 40
0.5000027007897434
100
AcDbArc
 50
180.000309
 51
269.999691
  0
LINE
  5
14F
330
135
100
AcDbEntity
  8
0
  6
Continuous
 62
     0
370
    30
100
AcDbLine
 10
96.614197
 20
407.831012
 30
0.0
 11
92.614197
 21
407.831012
 31
0.0
  0
LWPOLYLINE
  5
150
330
135
100
AcDbEntity
  8
0
  6
Continuous
 62
     0
370
    30
100
AcDbPolyline
 90
        5
 70
     0
 43
0.0
 10
96.614197
 20
407.831024
 10
96.80069
 20
407.867096
 10
96.960266
 20
407.970123
 10
97.069901
 20
408.125275
 10
97.114197
 20
408.331024
  0
ARC
  5
151
330
135
100
AcDbEntity
  8
0
  6
Continuous
 62
     0
370
    30
100
AcDbCircle
 10
63.123771
 20
437.738498
 30
0.0
 40
20.59810155464624
100
AcDbArc
 50
94.202807
 51
97.589788
  0
ARC
  5
152
330
135
100
AcDbEntity
  8
0
  6
Continuous
 62
     0
370
    30
100
AcDbCircle
 10
63.114171
 20
437.83085
 30
0.0
 40
20.50496885893655
100
AcDbArc
 50
242.354454
 51
265.804966
  0
LINE
  5
153
330
135
100
AcDbEntity
  8
0
  6
Continuous
 62
     0
370
    30
100
AcDbLine
 10
50.903173
 20
465.831014
 30
0.0
 11
50.903173
 21
525.831014
 31
0.0
  0
LINE
  5
154
330
135
100
AcDbEntity
  8
0
  6
Continuous
 62
     0
370
    30
100
AcDbLine
 10
50.903179
 20
465.831014
 30
0.0
 11
50.887247
 21
464.918276
 31
0.0
  0
LINE
  5
155
330
135
100
AcDbEntity
  8
0
  6
Continuous
 62
     0
370
    30
100
AcDbLine
 10
52.202978
 20
415.831014
 30
0.0
 11
29.403179
 21
415.831014
 31
0.0
  0
ARC
  5
156
330
135
100
AcDbEntity
  8
0
  6
Continuous
 62
     0
370
    30
100
AcDbCircle
 10
62.614223
 20
459.030987
 30
0.0
 40
1.00002541554245
100
AcDbArc
 50
90.001456
 51
179.992814
  0
LINE
  5
157
330
135
100
AcDbEntity
  8
0
  6
Continuous
 62
     0
370
    30
100
AcDbLine
 10
92.114197
 20
460.031012
 30
0.0
 11
62.614197
 21
460.031012
 31
0.0
  0
LINE
  5
158
330
135
100
AcDbEntity
  8
0
  6
Continuous
 62
     0
370
    30
100
AcDbLine
 10
-67.886058
 20
382.828577
 30
0.0
 11
-77.886058
 21
382.828505
 31
0.0
  0
LINE
  5
159
330
135
100
AcDbEntity
  8
0
  6
Continuous
 62
     0
370
    30
100
AcDbLine
 10
-77.886058
 20
382.828505
 30
0.0
 11
-87.886058
 21
382.828562
 31
0.0
  0
LINE
  5
15A
330
135
100
AcDbEntity
  8
0
  6
Continuous
 62
     0
370
     0
100
AcDbLine
 10
-67.886079
 20
411.830876
 30
0.0
 11
-77.886079
 21
411.830869
 31
0.0
  0
LINE
  5
15B
330
135
100
AcDbEntity
  8
0
  6
Continuous
 62
     0
370
     0
100
AcDbLine
 10
-77.886079
 20
411.830869
 30
0.0
 11
-87.886079
 21
411.830862
 31
0.0
  0
LWPOLYLINE
  5
15C
330
135
100
AcDbEntity
  8
0
  6
Continuous
 62
     0
370
     0
100
AcDbPolyline
 90
       14
 70
     0
 43
0.0
 10
-51.886097
 20
427.830902
 10
-51.886097
 20
427.892303
 10
-51.886097
 20
428.085724
 10
-51.886097
 20
428.421936
 10
-51.886097
 20
428.906616
 10
-51.886097
 20
429.538879
 10
-51.886097
 20
430.310577
 10
-51.886097
 20
431.206482
 10
-51.886097
 20
432.205139
 10
-51.886097
 20
433.280548
 10
-51.886097
 20
434.404327
 10
-51.886097
 20
435.548065
 10
-51.886097
 20
436.685303
 10
-51.886097
 20
437.830841
  0
LINE
  5
15D
330
135
100
AcDbEntity
  8
0
  6
Continuous
 62
     0
370
     0
100
AcDbLine
 10
-51.886097
 20
437.830841
 30
0.0
 11
-51.886097
 21
447.830906
 31
0.0
  0
LINE
  5
15E
330
135
100
AcDbEntity
  8
0
  6
Continuous
 62
     0
370
     0
100
AcDbLine
 10
-51.886097
 20
437.830841
 30
0.0
 11
29.403183
 21
437.830899
 31
0.0
  0
LINE
  5
15F
330
135
100
AcDbEntity
  8
0
  6
Continuous
 62
     0
370
    30
100
AcDbLine
 10
-51.886097
 20
447.830906
 30
0.0
 11
29.403184
 21
447.830839
 31
0.0
  0
LINE
  5
160
330
135
100
AcDbEntity
  8
0
  6
Continuous
 62
     0
370
    30
100
AcDbLine
 10
-51.886097
 20
427.830906
 30
0.0
 11
29.403184
 21
427.831089
 31
0.0
  0
ARC
  5
161
330
135
100
AcDbEntity
  8
0
  6
Continuous
 62
     0
370
    30
100
AcDbCircle
 10
-51.886075
 20
411.830903
 30
0.0
 40
16.00000347599213
100
AcDbArc
 50
90.000079
 51
180.000094
  0
ARC
  5
162
330
135
100
AcDbEntity
  8
0
  6
Continuous
 62
     0
370
    30
100
AcDbCircle
 10
-51.886077
 20
411.830905
 30
0.0
 40
36.00000125773263
100
AcDbArc
 50
90.000031
 51
180.000068
  0
LINE
  5
163
330
135
100
AcDbEntity
  8
0
  6
Continuous
 62
     0
370
    30
100
AcDbLine
 10
-67.886079
 20
411.830876
 30
0.0
 11
-67.886058
 21
382.828577
 31
0.0
  0
LINE
  5
164
330
135
100
AcDbEntity
  8
0
  6
Continuous
 62
     0
370
    30
100
AcDbLine
 10
-87.886079
 20
411.830862
 30
0.0
 11
-87.886058
 21
382.828562
 31
0.0
  0
ENDBLK
  5
166
330
135
100
AcDbEntity
  8
0
100
AcDbBlockEnd
  0
ENDSEC
  0
SECTION
  2
ENTITIES
  0
INSERT
  5
70
330
1F
100
AcDbEntity
  8
0
  6
Continuous
 62
   250
370
     0
100
AcDbBlockReference
  2
a
 10
171.876221
 20
122.151604
 30
0.0
  0
INSERT
  5
AB
330
1F
100
AcDbEntity
  8
0
  6
Continuous
 62
   250
370
     0
100
AcDbBlockReference
  2
b
 10
171.876221
 20
122.151604
 30
0.0
  0
INSERT
  5
E5
330
1F
100
AcDbEntity
  8
0
  6
Continuous
 62
   250
370
     0
100
AcDbBlockReference
  2
c
 10
212.277588
 20
95.980476
 30
0.0
  0
INSERT
  5
134
330
1F
100
AcDbEntity
  8
0
  6
Continuous
 62
   250
370
     0
100
AcDbBlockReference
  2
d
 10
193.111572
 20
119.338371
 30
0.0
  0
INSERT
  5
167
330
1F
100
AcDbEntity
  8
0
  6
Continuous
 62
   250
370
     0
100
AcDbBlockReference
  2
e
 10
131.680374
 20
0.000031
 30
0.0
  0
ENDSEC
  0
SECTION
  2
OBJECTS
  0
DICTIONARY
  5
C
330
0
100
AcDbDictionary
281
     1
  3
ACAD_GROUP
350
D
  3
ACAD_LAYOUT
350
1A
  3
ACAD_MLEADERSTYLE
350
16A
  3
ACAD_MLINESTYLE
350
17
  3
ACAD_PLOTSETTINGS
350
19
  3
ACAD_PLOTSTYLENAME
350
E
  3
ACAD_VISUALSTYLE
350
2A
  3
AcDbVariableDictionary
350
168
  0
DICTIONARY
  5
D
102
{ACAD_REACTORS
330
C
102
}
330
C
100
AcDbDictionary
281
     1
  0
DICTIONARY
  5
1A
102
{ACAD_REACTORS
330
C
102
}
330
C
100
AcDbDictionary
281
     1
  3
Layout1
350
1E
  3
Layout2
350
26
  3
Model
350
22
  0
DICTIONARY
  5
16A
102
{ACAD_REACTORS
330
C
102
}
330
C
100
AcDbDictionary
281
     1
  0
DICTIONARY
  5
17
102
{ACAD_REACTORS
330
C
102
}
330
C
100
AcDbDictionary
281
     1
  3
Standard
350
18
  0
DICTIONARY
  5
19
102
{ACAD_REACTORS
330
C
102
}
330
C
100
AcDbDictionary
281
     1
  0
ACDBDICTIONARYWDFLT
  5
E
102
{ACAD_REACTORS
330
C
102
}
330
C
100
AcDbDictionary
281
     1
  3
Normal
350
F
100
AcDbDictionaryWithDefault
340
F
  0
DICTIONARY
  5
2A
102
{ACAD_REACTORS
330
C
102
}
330
C
100
AcDbDictionary
281
     1
  3
2dWireframe
350
2F
  3
3D Hidden
350
31
  3
3dWireframe
350
30
  3
Basic
350
32
  3
Brighten
350
36
  3
ColorChange
350
3A
  3
Conceptual
350
34
  3
Dim
350
35
  3
Facepattern
350
39
  3
Flat
350
2B
  3
FlatWithEdges
350
2C
  3
Gouraud
350
2D
  3
GouraudWithEdges
350
2E
  3
Linepattern
350
38
  3
Realistic
350
33
  3
Thicken
350
37
  0
DICTIONARY
  5
168
102
{ACAD_REACTORS
330
C
102
}
330
C
100
AcDbDictionary
281
     1
  3
PSOLHEIGHT
350
16C
  3
PSOLWIDTH
350
16B
  0
LAYOUT
  5
1E
102
{ACAD_REACTORS
330
1A
102
}
330
1A
100
AcDbPlotSettings
  1

  2
none_device
  4

  6

 40
0.0
 41
0.0
 42
0.0
 43
0.0
 44
0.0
 45
0.0
 46
0.0
 47
0.0
 48
0.0
 49
0.0
140
0.0
141
0.0
142
1.0
143
1.0
 70
   688
 72
     0
 73
     0
 74
     5
  7

 75
    16
147
1.0
148
0.0
149
0.0
100
AcDbLayout
  1
Layout1
 70
     1
 71
     1
 10
0.0
 20
0.0
 11
420.0
 21
297.0
 12
0.0
 22
0.0
 32
0.0
 14
1.000000E+20
 24
1.000000E+20
 34
1.000000E+20
 15
-1.000000E+20
 25
-1.000000E+20
 35
-1.000000E+20
146
0.0
 13
0.0
 23
0.0
 33
0.0
 16
1.0
 26
0.0
 36
0.0
 17
0.0
 27
1.0
 37
0.0
 76
     0
330
1B
  0
LAYOUT
  5
26
102
{ACAD_REACTORS
330
1A
102
}
330
1A
100
AcDbPlotSettings
  1

  2
none_device
  4

  6

 40
0.0
 41
0.0
 42
0.0
 43
0.0
 44
0.0
 45
0.0
 46
0.0
 47
0.0
 48
0.0
 49
0.0
140
0.0
141
0.0
142
1.0
143
1.0
 70
   688
 72
     0
 73
     0
 74
     5
  7

 75
    16
147
1.0
148
0.0
149
0.0
100
AcDbLayout
  1
Layout2
 70
     1
 71
     2
 10
0.0
 20
0.0
 11
0.0
 21
0.0
 12
0.0
 22
0.0
 32
0.0
 14
0.0
 24
0.0
 34
0.0
 15
0.0
 25
0.0
 35
0.0
146
0.0
 13
0.0
 23
0.0
 33
0.0
 16
1.0
 26
0.0
 36
0.0
 17
0.0
 27
1.0
 37
0.0
 76
     0
330
23
  0
LAYOUT
  5
22
102
{ACAD_REACTORS
330
1A
102
}
330
1A
100
AcDbPlotSettings
  1

  2
none_device
  4

  6

 40
0.0
 41
0.0
 42
0.0
 43
0.0
 44
0.0
 45
0.0
 46
0.0
 47
0.0
 48
0.0
 49
0.0
140
0.0
141
0.0
142
1.0
143
1.0
 70
  1712
 72
     0
 73
     0
 74
     0
  7

 75
     0
147
1.0
148
0.0
149
0.0
100
AcDbLayout
  1
Model
 70
     1
 71
     0
 10
-87.886078
 20
110.517342
 11
660.179993
 21
525.830994
 12
0.0
 22
0.0
 32
0.0
 14
-87.886078
 24
110.517342
 34
0.0
 15
660.179993
 25
525.830994
 35
0.0
146
0.0
 13
0.0
 23
0.0
 33
0.0
 16
1.0
 26
0.0
 36
0.0
 17
0.0
 27
1.0
 37
0.0
 76
     0
330
1F
331
29
  0
MLINESTYLE
  5
18
102
{ACAD_REACTORS
330
17
102
}
330
17
100
AcDbMlineStyle
  2
Standard
 70
     0
  3

 62
   256
 51
90.0
 52
90.0
 71
     2
 49
0.5
 62
   256
  6
BYLAYER
 49
-0.5
 62
   256
  6
BYLAYER
  0
ACDBPLACEHOLDER
  5
F
102
{ACAD_REACTORS
330
E
102
}
330
E
  0
VISUALSTYLE
  5
2F
102
{ACAD_REACTORS
330
2A
102
}
330
2A
100
AcDbVisualStyle
  2
2dWireframe
 70
     4
 71
     0
 72
     2
 73
     0
 90
        0
 40
-0.6
 41
-30.0
 62
     5
 63
     7
 74
     1
 91
        4
 64
     7
 65
   257
 75
     1
175
     1
 42
1.0
 92
        0
 66
   257
 43
1.0
 76
     1
 77
     6
 78
     2
 67
     7
 79
     5
170
     0
171
     0
290
     0
174
     0
 93
        1
 44
0.0
173
     0
291
     0
 45
0.0
1001
ACAD
1000
AcDbSavedByObjectVersion
1070
     0
  0
VISUALSTYLE
  5
31
102
{ACAD_REACTORS
330
2A
102
}
330
2A
100
AcDbVisualStyle
  2
3D Hidden
 70
     6
 71
     1
 72
     2
 73
     2
 90
        0
 40
-0.6
 41
-30.0
 62
     5
 63
     7
 74
     2
 91
        2
 64
     7
 65
   257
 75
     2
175
     1
 42
40.0
 92
        0
 66
   257
 43
1.0
 76
     1
 77
     6
 78
     2
 67
     7
 79
     3
170
     0
171
     0
290
     0
174
     0
 93
        1
 44
0.0
173
     0
291
     0
 45
0.0
1001
ACAD
1000
AcDbSavedByObjectVersion
1070
     0
  0
VISUALSTYLE
  5
30
102
{ACAD_REACTORS
330
2A
102
}
330
2A
100
AcDbVisualStyle
  2
3dWireframe
 70
     5
 71
     0
 72
     2
 73
     0
 90
        0
 40
-0.6
 41
-30.0
 62
     5
 63
     7
 74
     1
 91
        4
 64
     7
 65
   257
 75
     1
175
     1
 42
1.0
 92
        0
 66
   257
 43
1.0
 76
     1
 77
     6
 78
     2
 67
     7
 79
     5
170
     0
171
     0
290
     0
174
     0
 93
        1
 44
0.0
173
     0
291
     0
 45
0.0
1001
ACAD
1000
AcDbSavedByObjectVersion
1070
     0
  0
VISUALSTYLE
  5
32
102
{ACAD_REACTORS
330
2A
102
}
330
2A
100
AcDbVisualStyle
  2
Basic
 70
     7
 71
     1
 72
     0
 73
     1
 90
        0
 40
-0.6
 41
-30.0
 62
     5
 63
     7
 74
     0
 91
        4
 64
     7
 65
   257
 75
     1
175
     1
 42
1.0
 92
        8
 66
     7
 43
1.0
 76
     1
 77
     6
 78
     2
 67
     7
 79
     5
170
     0
171
     0
290
     0
174
     0
 93
        1
 44
0.0
173
     0
291
     1
 45
0.0
1001
ACAD
1000
AcDbSavedByObjectVersion
1070
     0
  0
VISUALSTYLE
  5
36
102
{ACAD_REACTORS
330
2A
102
}
330
2A
100
AcDbVisualStyle
  2
Brighten
 70
    12
 71
     2
 72
     2
 73
     0
 90
        0
 40
-0.6
 41
-30.0
 62
     5
 63
     7
 74
     1
 91
        4
 64
     7
 65
   257
 75
     1
175
     1
 42
1.0
 92
        8
 66
     7
 43
1.0
 76
     1
 77
     6
 78
     2
 67
     7
 79
     5
170
     0
171
     0
290
     0
174
     0
 93
        1
 44
50.0
173
     0
291
     1
 45
0.0
1001
ACAD
1000
AcDbSavedByObjectVersion
1070
     0
  0
VISUALSTYLE
  5
3A
102
{ACAD_REACTORS
330
2A
102
}
330
2A
100
AcDbVisualStyle
  2
ColorChange
 70
    16
 71
     2
 72
     2
 73
     3
 90
        0
 40
-0.6
 41
-30.0
 62
     5
 63
     8
 74
     1
 91
        4
 64
     7
 65
   257
 75
     1
175
     1
 42
1.0
 92
        8
 66
     8
 43
1.0
 76
     1
 77
     6
 78
     2
 67
     7
 79
     5
170
     0
171
     0
290
     0
174
     0
 93
        1
 44
0.0
173
     0
291
     1
 45
0.0
1001
ACAD
1000
AcDbSavedByObjectVersion
1070
     0
  0
VISUALSTYLE
  5
34
102
{ACAD_REACTORS
330
2A
102
}
330
2A
100
AcDbVisualStyle
  2
Conceptual
 70
     9
 71
     3
 72
     2
 73
     0
 90
        0
 40
-0.6
 41
-30.0
 62
     5
 63
     7
 74
     2
 91
        2
 64
     7
 65
   257
 75
     1
175
     1
 42
40.0
 92
        8
 66
     7
 43
1.0
 76
     1
 77
     6
 78
     2
 67
     7
 79
     3
170
     0
171
     0
290
     0
174
     0
 93
        1
 44
0.0
173
     0
291
     0
 45
0.0
1001
ACAD
1000
AcDbSavedByObjectVersion
1070
     0
  0
VISUALSTYLE
  5
35
102
{ACAD_REACTORS
330
2A
102
}
330
2A
100
AcDbVisualStyle
  2
Dim
 70
    11
 71
     2
 72
     2
 73
     0
 90
        0
 40
-0.6
 41
-30.0
 62
     5
 63
     7
 74
     1
 91
        4
 64
     7
 65
   257
 75
     1
175
     1
 42
1.0
 92
        8
 66
     7
 43
1.0
 76
     1
 77
     6
 78
     2
 67
     7
 79
     5
170
     0
171
     0
290
     0
174
     0
 93
        1
 44
-50.0
173
     0
291
     1
 45
0.0
1001
ACAD
1000
AcDbSavedByObjectVersion
1070
     0
  0
VISUALSTYLE
  5
39
102
{ACAD_REACTORS
330
2A
102
}
330
2A
100
AcDbVisualStyle
  2
Facepattern
 70
    15
 71
     2
 72
     2
 73
     0
 90
        0
 40
-0.6
 41
-30.0
 62
     5
 63
     7
 74
     1
 91
        4
 64
     7
 65
   257
 75
     1
175
     1
 42
1.0
 92
        8
 66
     7
 43
1.0
 76
     1
 77
     6
 78
     2
 67
     7
 79
     5
170
     0
171
     0
290
     0
174
     0
 93
        1
 44
0.0
173
     0
291
     1
 45
0.0
1001
ACAD
1000
AcDbSavedByObjectVersion
1070
     0
  0
VISUALSTYLE
  5
2B
102
{ACAD_REACTORS
330
2A
102
}
330
2A
100
AcDbVisualStyle
  2
Flat
 70
     0
 71
     2
 72
     1
 73
     1
 90
        2
 40
-0.6
 41
30.0
 62
     5
 63
     7
 74
     0
 91
        4
 64
     7
 65
   257
 75
     1
175
     1
 42
1.0
 92
        8
 66
     7
 43
1.0
 76
     1
 77
     6
 78
     2
 67
     7
 79
     5
170
     0
171
     0
290
     0
174
     0
 93
       13
 44
0.0
173
     0
291
     1
 45
0.0
1001
ACAD
1000
AcDbSavedByObjectVersion
1070
     0
  0
VISUALSTYLE
  5
2C
102
{ACAD_REACTORS
330
2A
102
}
330
2A
100
AcDbVisualStyle
  2
FlatWithEdges
 70
     1
 71
     2
 72
     1
 73
     1
 90
        2
 40
-0.6
 41
30.0
 62
     5
 63
     7
 74
     1
 91
        4
 64
     7
 65
   257
 75
     1
175
     1
 42
1.0
 92
        0
 66
   257
 43
1.0
 76
     1
 77
     6
 78
     2
 67
     7
 79
     5
170
     0
171
     0
290
     0
174
     0
 93
       13
 44
0.0
173
     0
291
     1
 45
0.0
1001
ACAD
1000
AcDbSavedByObjectVersion
1070
     0
  0
VISUALSTYLE
  5
2D
102
{ACAD_REACTORS
330
2A
102
}
330
2A
100
AcDbVisualStyle
  2
Gouraud
 70
     2
 71
     2
 72
     2
 73
     1
 90
        2
 40
-0.6
 41
30.0
 62
     5
 63
     7
 74
     0
 91
        4
 64
     7
 65
   257
 75
     1
175
     1
 42
1.0
 92
        0
 66
     7
 43
1.0
 76
     1
 77
     6
 78
     2
 67
     7
 79
     5
170
     0
171
     0
290
     0
174
     0
 93
       13
 44
0.0
173
     0
291
     1
 45
0.0
1001
ACAD
1000
AcDbSavedByObjectVersion
1070
     0
  0
VISUALSTYLE
  5
2E
102
{ACAD_REACTORS
330
2A
102
}
330
2A
100
AcDbVisualStyle
  2
GouraudWithEdges
 70
     3
 71
     2
 72
     2
 73
     1
 90
        2
 40
-0.6
 41
30.0
 62
     5
 63
     7
 74
     1
 91
        4
 64
     7
 65
   257
 75
     1
175
     1
 42
1.0
 92
        0
 66
   257
 43
1.0
 76
     1
 77
     6
 78
     2
 67
     7
 79
     5
170
     0
171
     0
290
     0
174
     0
 93
       13
 44
0.0
173
     0
291
     1
 45
0.0
1001
ACAD
1000
AcDbSavedByObjectVersion
1070
     0
  0
VISUALSTYLE
  5
38
102
{ACAD_REACTORS
330
2A
102
}
330
2A
100
AcDbVisualStyle
  2
Linepattern
 70
    14
 71
     2
 72
     2
 73
     0
 90
        0
 40
-0.6
 41
-30.0
 62
     5
 63
     7
 74
     1
 91
        4
 64
     7
 65
   257
 75
     7
175
     7
 42
1.0
 92
        8
 66
     7
 43
1.0
 76
     1
 77
     6
 78
     2
 67
     7
 79
     5
170
     0
171
     0
290
     0
174
     0
 93
        1
 44
0.0
173
     0
291
     1
 45
0.0
1001
ACAD
1000
AcDbSavedByObjectVersion
1070
     0
  0
VISUALSTYLE
  5
33
102
{ACAD_REACTORS
330
2A
102
}
330
2A
100
AcDbVisualStyle
  2
Realistic
 70
     8
 71
     2
 72
     2
 73
     0
 90
        0
 40
-0.6
 41
-30.0
 62
     5
 63
     7
 74
     1
 91
        0
 64
     7
 65
   257
 75
     1
175
     1
 42
1.0
 92
        8
 66
     8
 43
1.0
 76
     1
 77
     6
 78
     2
 67
     7
 79
     5
170
     0
171
     0
290
     0
174
     0
 93
       13
 44
0.0
173
     0
291
     0
 45
0.0
1001
ACAD
1000
AcDbSavedByObjectVersion
1070
     0
  0
VISUALSTYLE
  5
37
102
{ACAD_REACTORS
330
2A
102
}
330
2A
100
AcDbVisualStyle
  2
Thicken
 70
    13
 71
     2
 72
     2
 73
     0
 90
        0
 40
-0.6
 41
-30.0
 62
     5
 63
     7
 74
     1
 91
        4
 64
     7
 65
   257
 75
     1
175
     1
 42
1.0
 92
       12
 66
     7
 43
1.0
 76
     1
 77
     6
 78
     2
 67
     7
 79
     5
170
     0
171
     0
290
     0
174
     0
 93
        1
 44
0.0
173
     0
291
     1
 45
0.0
1001
ACAD
1000
AcDbSavedByObjectVersion
1070
     0
  0
DICTIONARYVAR
  5
16C
102
{ACAD_REACTORS
330
168
102
}
330
168
100
DictionaryVariables
280
     0
  1
80.000000
  0
DICTIONARYVAR
  5
16B
102
{ACAD_REACTORS
330
168
102
}
330
168
100
DictionaryVariables
280
     0
  1
5.000000
  0
ENDSEC
  0
EOF
