  0
SECTION
  2
HEADER
  9
$ACADVER
  1
AC1015
  9
$ACADMAINTVER
 70
     6
  9
$DWGCODEPAGE
  3
ANSI_1252
  9
$INSBASE
 10
0.0
 20
0.0
 30
0.0
  9
$EXTMIN
 10
-87.970917
 20
64.806305
 30
0.0
  9
$EXTMAX
 10
702.050537
 20
568.910706
 30
0.0
  9
$LIMMIN
 10
-87.970917
 20
64.806305
  9
$LIMMAX
 10
702.050537
 20
568.910706
  9
$ORTHOMODE
 70
     0
  9
$REGENMODE
 70
     1
  9
$FILLMODE
 70
     1
  9
$QTEXTMODE
 70
     0
  9
$MIRRTEXT
 70
     1
  9
$LTSCALE
 40
1.0
  9
$ATTMODE
 70
     1
  9
$TEXTSIZE
 40
2.5
  9
$TRACEWID
 40
1.0
  9
$TEXTSTYLE
  7
Standard
  9
$CLAYER
  8
0
  9
$CELTYPE
  6
ByLayer
  9
$CECOLOR
 62
   256
  9
$CELTSCALE
 40
1.0
  9
$DISPSILH
 70
     0
  9
$DIMSCALE
 40
1.0
  9
$DIMASZ
 40
2.5
  9
$DIMEXO
 40
0.625
  9
$DIMDLI
 40
3.75
  9
$DIMRND
 40
0.0
  9
$DIMDLE
 40
0.0
  9
$DIMEXE
 40
1.25
  9
$DIMTP
 40
0.0
  9
$DIMTM
 40
0.0
  9
$DIMTXT
 40
2.5
  9
$DIMCEN
 40
2.5
  9
$DIMTSZ
 40
0.0
  9
$DIMTOL
 70
     0
  9
$DIMLIM
 70
     0
  9
$DIMTIH
 70
     0
  9
$DIMTOH
 70
     0
  9
$DIMSE1
 70
     0
  9
$DIMSE2
 70
     0
  9
$DIMTAD
 70
     1
  9
$DIMZIN
 70
     8
  9
$DIMBLK
  1

  9
$DIMASO
 70
     1
  9
$DIMSHO
 70
     1
  9
$DIMPOST
  1

  9
$DIMAPOST
  1

  9
$DIMALT
 70
     0
  9
$DIMALTD
 70
     3
  9
$DIMALTF
 40
0.03937
  9
$DIMLFAC
 40
1.0
  9
$DIMTOFL
 70
     1
  9
$DIMTVP
 40
0.0
  9
$DIMTIX
 70
     0
  9
$DIMSOXD
 70
     0
  9
$DIMSAH
 70
     0
  9
$DIMBLK1
  1

  9
$DIMBLK2
  1

  9
$DIMSTYLE
  2
ISO-25
  9
$DIMCLRD
 70
     0
  9
$DIMCLRE
 70
     0
  9
$DIMCLRT
 70
     0
  9
$DIMTFAC
 40
1.0
  9
$DIMGAP
 40
0.625
  9
$DIMJUST
 70
     0
  9
$DIMSD1
 70
     0
  9
$DIMSD2
 70
     0
  9
$DIMTOLJ
 70
     0
  9
$DIMTZIN
 70
     8
  9
$DIMALTZ
 70
     0
  9
$DIMALTTZ
 70
     0
  9
$DIMUPT
 70
     0
  9
$DIMDEC
 70
     2
  9
$DIMTDEC
 70
     2
  9
$DIMALTU
 70
     2
  9
$DIMALTTD
 70
     3
  9
$DIMTXSTY
  7
Standard
  9
$DIMAUNIT
 70
     0
  9
$DIMADEC
 70
     0
  9
$DIMALTRND
 40
0.0
  9
$DIMAZIN
 70
     0
  9
$DIMDSEP
 70
    44
  9
$DIMATFIT
 70
     3
  9
$DIMFRAC
 70
     0
  9
$DIMLDRBLK
  1

  9
$DIMLUNIT
 70
     2
  9
$DIMLWD
 70
    -2
  9
$DIMLWE
 70
    -2
  9
$DIMTMOVE
 70
     0
  9
$LUNITS
 70
     2
  9
$LUPREC
 70
     4
  9
$SKETCHINC
 40
1.0
  9
$FILLETRAD
 40
10.0
  9
$AUNITS
 70
     0
  9
$AUPREC
 70
     0
  9
$MENU
  1
.
  9
$ELEVATION
 40
0.0
  9
$PELEVATION
 40
0.0
  9
$THICKNESS
 40
0.0
  9
$LIMCHECK
 70
     0
  9
$CHAMFERA
 40
10.0
  9
$CHAMFERB
 40
10.0
  9
$CHAMFERC
 40
20.0
  9
$CHAMFERD
 40
0.0
  9
$SKPOLY
 70
     0
  9
$TDCREATE
 40
2455576.718358611
  9
$TDUCREATE
 40
2455576.676691944
  9
$TDUPDATE
 40
2455576.718358623
  9
$TDUUPDATE
 40
2455576.676691956
  9
$TDINDWG
 40
0.0000000116
  9
$TDUSRTIMER
 40
0.0000000116
  9
$USRTIMER
 70
     1
  9
$ANGBASE
 50
0.0
  9
$ANGDIR
 70
     0
  9
$PDMODE
 70
     0
  9
$PDSIZE
 40
0.0
  9
$PLINEWID
 40
0.0
  9
$SPLFRAME
 70
     0
  9
$SPLINETYPE
 70
     6
  9
$SPLINESEGS
 70
     8
  9
$HANDSEED
  5
34A
  9
$SURFTAB1
 70
     6
  9
$SURFTAB2
 70
     6
  9
$SURFTYPE
 70
     6
  9
$SURFU
 70
     6
  9
$SURFV
 70
     6
  9
$UCSBASE
  2

  9
$UCSNAME
  2

  9
$UCSORG
 10
0.0
 20
0.0
 30
0.0
  9
$UCSXDIR
 10
1.0
 20
0.0
 30
0.0
  9
$UCSYDIR
 10
0.0
 20
1.0
 30
0.0
  9
$UCSORTHOREF
  2

  9
$UCSORTHOVIEW
 70
     0
  9
$UCSORGTOP
 10
0.0
 20
0.0
 30
0.0
  9
$UCSORGBOTTOM
 10
0.0
 20
0.0
 30
0.0
  9
$UCSORGLEFT
 10
0.0
 20
0.0
 30
0.0
  9
$UCSORGRIGHT
 10
0.0
 20
0.0
 30
0.0
  9
$UCSORGFRONT
 10
0.0
 20
0.0
 30
0.0
  9
$UCSORGBACK
 10
0.0
 20
0.0
 30
0.0
  9
$PUCSBASE
  2

  9
$PUCSNAME
  2

  9
$PUCSORG
 10
0.0
 20
0.0
 30
0.0
  9
$PUCSXDIR
 10
1.0
 20
0.0
 30
0.0
  9
$PUCSYDIR
 10
0.0
 20
1.0
 30
0.0
  9
$PUCSORTHOREF
  2

  9
$PUCSORTHOVIEW
 70
     0
  9
$PUCSORGTOP
 10
0.0
 20
0.0
 30
0.0
  9
$PUCSORGBOTTOM
 10
0.0
 20
0.0
 30
0.0
  9
$PUCSORGLEFT
 10
0.0
 20
0.0
 30
0.0
  9
$PUCSORGRIGHT
 10
0.0
 20
0.0
 30
0.0
  9
$PUCSORGFRONT
 10
0.0
 20
0.0
 30
0.0
  9
$PUCSORGBACK
 10
0.0
 20
0.0
 30
0.0
  9
$USERI1
 70
     0
  9
$USERI2
 70
     0
  9
$USERI3
 70
     0
  9
$USERI4
 70
     0
  9
$USERI5
 70
     0
  9
$USERR1
 40
0.0
  9
$USERR2
 40
0.0
  9
$USERR3
 40
0.0
  9
$USERR4
 40
0.0
  9
$USERR5
 40
0.0
  9
$WORLDVIEW
 70
     1
  9
$SHADEDGE
 70
     3
  9
$SHADEDIF
 70
    70
  9
$TILEMODE
 70
     1
  9
$MAXACTVP
 70
    64
  9
$PINSBASE
 10
0.0
 20
0.0
 30
0.0
  9
$PLIMCHECK
 70
     0
  9
$PEXTMIN
 10
1.000000E+20
 20
1.000000E+20
 30
1.000000E+20
  9
$PEXTMAX
 10
-1.000000E+20
 20
-1.000000E+20
 30
-1.000000E+20
  9
$PLIMMIN
 10
0.0
 20
0.0
  9
$PLIMMAX
 10
420.0
 20
297.0
  9
$UNITMODE
 70
     0
  9
$VISRETAIN
 70
     1
  9
$PLINEGEN
 70
     0
  9
$PSLTSCALE
 70
     1
  9
$TREEDEPTH
 70
  3020
  9
$CMLSTYLE
  2
Standard
  9
$CMLJUST
 70
     0
  9
$CMLSCALE
 40
20.0
  9
$PROXYGRAPHICS
 70
     1
  9
$MEASUREMENT
 70
     1
  9
$CELWEIGHT
370
    -1
  9
$ENDCAPS
280
     0
  9
$JOINSTYLE
280
     0
  9
$LWDISPLAY
290
     0
  9
$INSUNITS
 70
     4
  9
$HYPERLINKBASE
  1

  9
$STYLESHEET
  1

  9
$XEDIT
290
     1
  9
$CEPSNTYPE
380
     0
  9
$PSTYLEMODE
290
     1
  9
$FINGERPRINTGUID
  2
{C3126587-6D8F-4E8E-9772-4F81057E6954}
  9
$VERSIONGUID
  2
{FAEB1C32-E019-11D5-929B-00C0DF256EC4}
  9
$EXTNAMES
290
     1
  9
$PSVPSCALE
 40
0.0
  9
$OLESTARTUP
290
     0
  0
ENDSEC
  0
SECTION
  2
CLASSES
  0
CLASS
  1
ACDBDICTIONARYWDFLT
  2
AcDbDictionaryWithDefault
  3
ObjectDBX Classes
 90
        0
280
     0
281
     0
  0
CLASS
  1
VISUALSTYLE
  2
AcDbVisualStyle
  3
ObjectDBX Classes
 90
     4095
280
     0
281
     0
  0
CLASS
  1
DICTIONARYVAR
  2
AcDbDictionaryVar
  3
ObjectDBX Classes
 90
        0
280
     0
281
     0
  0
CLASS
  1
ACDBPLACEHOLDER
  2
AcDbPlaceHolder
  3
ObjectDBX Classes
 90
        0
280
     0
281
     0
  0
CLASS
  1
LAYOUT
  2
AcDbLayout
  3
ObjectDBX Classes
 90
        0
280
     0
281
     0
  0
ENDSEC
  0
SECTION
  2
TABLES
  0
TABLE
  2
VPORT
  5
8
330
0
100
AcDbSymbolTable
 70
     1
  0
VPORT
  5
29
330
8
100
AcDbSymbolTableRecord
100
AcDbViewportTableRecord
  2
*Active
 70
     0
 10
0.0
 20
0.0
 11
1.0
 21
1.0
 12
344.186916
 22
148.5
 13
0.0
 23
0.0
 14
10.0
 24
10.0
 15
10.0
 25
10.0
 16
0.0
 26
0.0
 36
1.0
 17
0.0
 27
0.0
 37
0.0
 40
297.0
 41
1.972973
 42
50.0
 43
0.0
 44
0.0
 50
0.0
 51
0.0
 71
     0
 72
   100
 73
     1
 74
     3
 75
     0
 76
     0
 77
     0
 78
     0
281
     0
 65
     1
110
0.0
120
0.0
130
0.0
111
1.0
121
0.0
131
0.0
112
0.0
122
1.0
132
0.0
 79
     0
146
0.0
  0
ENDTAB
  0
TABLE
  2
LTYPE
  5
5
330
0
100
AcDbSymbolTable
 70
     1
  0
LTYPE
  5
14
330
5
100
AcDbSymbolTableRecord
100
AcDbLinetypeTableRecord
  2
ByBlock
 70
     0
  3

 72
    65
 73
     0
 40
0.0
  0
LTYPE
  5
15
330
5
100
AcDbSymbolTableRecord
100
AcDbLinetypeTableRecord
  2
ByLayer
 70
     0
  3

 72
    65
 73
     0
 40
0.0
  0
LTYPE
  5
16
330
5
100
AcDbSymbolTableRecord
100
AcDbLinetypeTableRecord
  2
Continuous
 70
     0
  3
Solid line
 72
    65
 73
     0
 40
0.0
  0
ENDTAB
  0
TABLE
  2
LAYER
  5
2
330
0
100
AcDbSymbolTable
 70
     1
  0
LAYER
  5
10
330
2
100
AcDbSymbolTableRecord
100
AcDbLayerTableRecord
  2
0
 70
     0
 62
   106
  6
Continuous
370
     0
390
F
  0
ENDTAB
  0
TABLE
  2
STYLE
  5
3
330
0
100
AcDbSymbolTable
 70
     4
  0
STYLE
  5
11
330
3
100
AcDbSymbolTableRecord
100
AcDbTextStyleTableRecord
  2
Standard
 70
     0
 40
0.0
 41
1.0
 50
0.0
 71
     0
 42
2.5
  3
txt
  4

  0
STYLE
  5
3B
330
3
100
AcDbSymbolTableRecord
100
AcDbTextStyleTableRecord
  2
Default
 70
     0
 40
0.0
 41
1.0
 50
0.0
 71
     0
 42
0.2
  3

  4

1001
ACAD
1000
txt
1071
        0
  0
STYLE
  5
3C
330
3
100
AcDbSymbolTableRecord
100
AcDbTextStyleTableRecord
  2
ISO
 70
     0
 40
0.0
 41
1.0
 50
0.0
 71
     0
 42
0.2
  3

  4

1001
ACAD
1000
txt
1071
        0
  0
STYLE
  5
3D
330
3
100
AcDbSymbolTableRecord
100
AcDbTextStyleTableRecord
  2
GIANLU
 70
     0
 40
0.0
 41
1.0
 50
0.0
 71
     0
 42
0.2
  3

  4

1001
ACAD
1000
Arial
1071
        0
  0
ENDTAB
  0
TABLE
  2
VIEW
  5
6
330
0
100
AcDbSymbolTable
 70
     0
  0
ENDTAB
  0
TABLE
  2
UCS
  5
7
330
0
100
AcDbSymbolTable
 70
     0
  0
ENDTAB
  0
TABLE
  2
APPID
  5
9
330
0
100
AcDbSymbolTable
 70
     1
  0
APPID
  5
12
330
9
100
AcDbSymbolTableRecord
100
AcDbRegAppTableRecord
  2
ACAD
 70
     0
  0
ENDTAB
  0
TABLE
  2
DIMSTYLE
  5
A
330
0
100
AcDbSymbolTable
 70
     4
100
AcDbDimStyleTable
  0
DIMSTYLE
105
27
330
A
100
AcDbSymbolTableRecord
100
AcDbDimStyleTableRecord
  2
ISO-25
 70
     0
 41
2.5
 42
0.625
 43
3.75
 44
1.25
 73
     0
 74
     0
 77
     1
 78
     8
140
2.5
141
2.5
143
0.03937
147
0.625
171
     3
172
     1
271
     2
272
     2
274
     3
278
    44
283
     0
284
     8
340
11
  0
DIMSTYLE
105
3E
330
A
100
AcDbSymbolTableRecord
100
AcDbDimStyleTableRecord
  2
Default
 70
     0
  3
<>
 41
4.375
 42
1.05
 44
2.1
 73
     0
 74
     0
 77
     1
 78
     8
140
3.5
146
0.4
147
1.75
178
     3
271
     2
272
     3
284
     8
340
3B
341
3F
342
3F
  0
DIMSTYLE
105
46
330
A
100
AcDbSymbolTableRecord
100
AcDbDimStyleTableRecord
  2
ISO
 70
     0
  3
<>
 41
4.375
 42
1.05
 44
2.1
 73
     0
 74
     0
 77
     1
 78
     8
140
3.5
146
0.4
147
1.75
178
     3
271
     2
272
     3
284
     8
340
3C
341
3F
342
3F
  0
DIMSTYLE
105
47
330
A
100
AcDbSymbolTableRecord
100
AcDbDimStyleTableRecord
  2
zucchetti_unico
 70
     0
  3
<>
 41
3.0
 42
0.9
 44
1.8
 73
     0
 74
     0
 77
     1
 78
     8
140
3.0
146
0.6
147
1.5
176
   104
177
     3
178
     3
271
     2
272
     2
284
     8
340
3D
  0
ENDTAB
  0
TABLE
  2
BLOCK_RECORD
  5
1
330
0
100
AcDbSymbolTable
 70
     7
  0
BLOCK_RECORD
  5
1F
330
1
100
AcDbSymbolTableRecord
100
AcDbBlockTableRecord
  2
*Model_Space
340
22
  0
BLOCK_RECORD
  5
1B
330
1
100
AcDbSymbolTableRecord
100
AcDbBlockTableRecord
  2
*Paper_Space
340
1E
  0
BLOCK_RECORD
  5
23
330
1
100
AcDbSymbolTableRecord
100
AcDbBlockTableRecord
  2
*Paper_Space0
340
26
  0
BLOCK_RECORD
  5
3F
330
1
100
AcDbSymbolTableRecord
100
AcDbBlockTableRecord
  2
_CLOSED
340
0
  0
BLOCK_RECORD
  5
48
330
1
100
AcDbSymbolTableRecord
100
AcDbBlockTableRecord
  2
a
340
0
102
{BLKREFS
331
D7
102
}
  0
BLOCK_RECORD
  5
D8
330
1
100
AcDbSymbolTableRecord
100
AcDbBlockTableRecord
  2
b
340
0
102
{BLKREFS
331
185
102
}
  0
BLOCK_RECORD
  5
186
330
1
100
AcDbSymbolTableRecord
100
AcDbBlockTableRecord
  2
c
340
0
102
{BLKREFS
331
1F7
102
}
  0
BLOCK_RECORD
  5
1F8
330
1
100
AcDbSymbolTableRecord
100
AcDbBlockTableRecord
  2
d
340
0
102
{BLKREFS
331
2D2
102
}
  0
BLOCK_RECORD
  5
2D3
330
1
100
AcDbSymbolTableRecord
100
AcDbBlockTableRecord
  2
e
340
0
102
{BLKREFS
331
344
102
}
  0
ENDTAB
  0
ENDSEC
  0
SECTION
  2
BLOCKS
  0
BLOCK
  5
20
330
1F
100
AcDbEntity
  8
0
100
AcDbBlockBegin
  2
*Model_Space
 70
     0
 10
0.0
 20
0.0
 30
0.0
  3
*Model_Space
  1

  0
ENDBLK
  5
21
330
1F
100
AcDbEntity
  8
0
100
AcDbBlockEnd
  0
BLOCK
  5
1C
330
1B
100
AcDbEntity
 67
     1
  8
0
100
AcDbBlockBegin
  2
*Paper_Space
 70
     0
 10
0.0
 20
0.0
 30
0.0
  3
*Paper_Space
  1

  0
ENDBLK
  5
1D
330
1B
100
AcDbEntity
 67
     1
  8
0
100
AcDbBlockEnd
  0
BLOCK
  5
24
330
23
100
AcDbEntity
  8
0
100
AcDbBlockBegin
  2
*Paper_Space0
 70
     0
 10
0.0
 20
0.0
 30
0.0
  3
*Paper_Space0
  1

  0
ENDBLK
  5
25
330
23
100
AcDbEntity
  8
0
100
AcDbBlockEnd
  0
BLOCK
  5
40
330
3F
100
AcDbEntity
  8
0
100
AcDbBlockBegin
  2
_CLOSED
 70
     0
 10
0.0
 20
0.0
 30
0.0
  3
_CLOSED
  1

  0
LINE
  5
42
330
3F
100
AcDbEntity
  8
0
  6
ByBlock
 62
     0
370
    -2
100
AcDbLine
 10
-1.0
 20
0.166667
 30
0.0
 11
0.0
 21
0.0
 31
0.0
  0
LINE
  5
43
330
3F
100
AcDbEntity
  8
0
  6
ByBlock
 62
     0
370
    -2
100
AcDbLine
 10
0.0
 20
0.0
 30
0.0
 11
-1.0
 21
-0.166667
 31
0.0
  0
LINE
  5
44
330
3F
100
AcDbEntity
  8
0
  6
ByBlock
 62
     0
370
    -2
100
AcDbLine
 10
-1.0
 20
0.166667
 30
0.0
 11
-1.0
 21
-0.166667
 31
0.0
  0
LINE
  5
45
330
3F
100
AcDbEntity
  8
0
  6
ByBlock
 62
     0
370
    -2
100
AcDbLine
 10
0.0
 20
0.0
 30
0.0
 11
-1.0
 21
0.0
 31
0.0
  0
ENDBLK
  5
41
330
3F
100
AcDbEntity
  8
0
100
AcDbBlockEnd
  0
BLOCK
  5
D5
330
48
100
AcDbEntity
  8
0
100
AcDbBlockBegin
  2
a
 70
     0
 10
106.769302
 20
80.999611
 30
0.0
  3
a
  1

  0
LINE
  5
49
330
48
100
AcDbEntity
  8
0
  6
Continuous
 62
     0
370
    30
100
AcDbLine
 10
397.949501
 20
403.919308
 30
0.0
 11
337.949501
 21
403.919308
 31
0.0
  0
ARC
  5
4A
330
48
100
AcDbEntity
  8
0
  6
Continuous
 62
     0
370
    30
100
AcDbCircle
 10
375.949501
 20
416.266968
 30
0.0
 40
2.999999999988001
100
AcDbArc
 50
180.0
 51
268.906662
  0
LINE
  5
4B
330
48
100
AcDbEntity
  8
0
  6
Continuous
 62
     0
370
     0
100
AcDbLine
 10
372.949501
 20
416.266968
 30
0.0
 11
362.949501
 21
416.266968
 31
0.0
  0
LINE
  5
4C
330
48
100
AcDbEntity
  8
0
  6
Continuous
 62
     0
370
     0
100
AcDbLine
 10
375.892257
 20
413.267514
 30
0.0
 11
360.006745
 21
413.267514
 31
0.0
  0
LINE
  5
4D
330
48
100
AcDbEntity
  8
0
  6
Continuous
 62
     0
370
    30
100
AcDbLine
 10
372.949501
 20
416.266968
 30
0.0
 11
372.949501
 21
419.199308
 31
0.0
  0
LINE
  5
4E
330
48
100
AcDbEntity
  8
0
  6
Continuous
 62
     0
370
    30
100
AcDbLine
 10
372.949501
 20
419.199308
 30
0.0
 11
362.949501
 21
419.199308
 31
0.0
  0
LINE
  5
4F
330
48
100
AcDbEntity
  8
0
  6
Continuous
 62
     0
370
    30
100
AcDbLine
 10
397.949501
 20
403.919308
 30
0.0
 11
397.949501
 21
411.467877
 31
0.0
  0
LINE
  5
50
330
48
100
AcDbEntity
  8
0
  6
Continuous
 62
     0
370
     0
100
AcDbLine
 10
397.949501
 20
411.467877
 30
0.0
 11
337.949501
 21
411.467877
 31
0.0
  0
ARC
  5
51
330
48
100
AcDbEntity
  8
0
  6
Continuous
 62
     0
370
    30
100
AcDbCircle
 10
375.34443
 20
224.244132
 30
0.0
 40
189.0241757779861
100
AcDbArc
 50
83.266394
 51
89.833946
  0
LINE
  5
52
330
48
100
AcDbEntity
  8
0
  6
Continuous
 62
     0
370
     0
100
AcDbLine
 10
397.508128
 20
411.964428
 30
0.0
 11
338.390874
 21
411.964428
 31
0.0
  0
ARC
  5
53
330
48
100
AcDbEntity
  8
0
  6
Continuous
 62
     0
370
    30
100
AcDbCircle
 10
397.449501
 20
411.467877
 30
0.0
 40
0.499999999999978
100
AcDbArc
 50
0.0
 51
83.266394
  0
LINE
  5
54
330
48
100
AcDbEntity
  8
0
  6
Continuous
 62
     0
370
     0
100
AcDbLine
 10
372.849501
 20
423.949308
 30
0.0
 11
363.049501
 21
423.949308
 31
0.0
  0
LINE
  5
55
330
48
100
AcDbEntity
  8
0
  6
Continuous
 62
     0
370
    30
100
AcDbLine
 10
363.049501
 20
423.949308
 30
0.0
 11
363.049501
 21
419.199308
 31
0.0
  0
LINE
  5
56
330
48
100
AcDbEntity
  8
0
  6
Continuous
 62
     0
370
    30
100
AcDbLine
 10
372.849501
 20
419.199308
 30
0.0
 11
372.849501
 21
423.949308
 31
0.0
  0
ARC
  5
57
330
48
100
AcDbEntity
  8
0
  6
Continuous
 62
     0
370
     0
100
AcDbCircle
 10
367.949825
 20
-554.098094
 30
0.0
 40
1002.435825660457
100
AcDbArc
 50
89.673543
 51
90.326494
  0
ARC
  5
58
330
48
100
AcDbEntity
  8
0
  6
Continuous
 62
     0
370
     0
100
AcDbCircle
 10
16766.912248
 20
417.339738
 30
0.0
 40
16404.70392342691
100
AcDbArc
 50
179.891792
 51
179.976042
  0
LINE
  5
59
330
48
100
AcDbEntity
  8
0
  6
Continuous
 62
     0
370
    30
100
AcDbLine
 10
373.689243
 20
424.199308
 30
0.0
 11
362.209759
 21
424.199308
 31
0.0
  0
ARC
  5
5A
330
48
100
AcDbEntity
  8
0
  6
Continuous
 62
     0
370
     0
100
AcDbCircle
 10
-16031.070851
 20
417.339738
 30
0.0
 40
16404.76152800783
100
AcDbArc
 50
0.023958
 51
0.108208
  0
ARC
  5
5B
330
48
100
AcDbEntity
  8
0
  6
Continuous
 62
     0
370
     0
100
AcDbCircle
 10
344.077225
 20
-4713.418168
 30
0.0
 40
5161.824408125542
100
AcDbArc
 50
89.497836
 51
89.671616
  0
LINE
  5
5C
330
48
100
AcDbEntity
  8
0
  6
Continuous
 62
     0
370
    30
100
AcDbLine
 10
389.632425
 20
424.199308
 30
0.0
 11
373.689243
 21
424.199308
 31
0.0
  0
ARC
  5
5D
330
48
100
AcDbEntity
  8
0
  6
Continuous
 62
     0
370
     0
100
AcDbCircle
 10
-2346.430265
 20
400.26286
 30
0.0
 40
2736.167392091855
100
AcDbArc
 50
0.501239
 51
1.00403
  0
LINE
  5
5E
330
48
100
AcDbEntity
  8
0
  6
Continuous
 62
     0
370
    30
100
AcDbLine
 10
390.517673
 20
424.199308
 30
0.0
 11
389.632427
 21
424.199308
 31
0.0
  0
LINE
  5
5F
330
48
100
AcDbEntity
  8
0
  6
Continuous
 62
     0
370
    30
100
AcDbLine
 10
362.209759
 20
424.199308
 30
0.0
 11
346.266577
 21
424.199308
 31
0.0
  0
LINE
  5
60
330
48
100
AcDbEntity
  8
0
  6
Continuous
 62
     0
370
    30
100
AcDbLine
 10
346.266577
 20
424.199308
 30
0.0
 11
345.381329
 21
424.199308
 31
0.0
  0
ARC
  5
61
330
48
100
AcDbEntity
  8
0
  6
Continuous
 62
     0
370
     0
100
AcDbCircle
 10
391.934278
 20
-4729.04685
 30
0.0
 40
5177.453477574224
100
AcDbArc
 50
90.328637
 51
90.501893
  0
ARC
  5
62
330
48
100
AcDbEntity
  8
0
  6
Continuous
 62
     0
370
     0
100
AcDbCircle
 10
3082.320921
 20
400.262972
 30
0.0
 40
2736.159045335782
100
AcDbArc
 50
178.995969
 51
179.498761
  0
ARC
  5
63
330
48
100
AcDbEntity
  8
0
  6
Continuous
 62
     0
370
     0
100
AcDbCircle
 10
402.812381
 20
448.52556
 30
0.0
 40
40.57531382071525
100
AcDbArc
 50
179.048568
 51
180.288212
  0
ARC
  5
64
330
48
100
AcDbEntity
  8
0
  6
Continuous
 62
     0
370
     0
100
AcDbCircle
 10
333.308612
 20
448.525562
 30
0.0
 40
40.35332551406647
100
AcDbArc
 50
359.710204
 51
0.956664
  0
LINE
  5
65
330
48
100
AcDbEntity
  8
0
  6
Continuous
 62
     0
370
    30
100
AcDbLine
 10
373.656313
 20
449.199308
 30
0.0
 11
362.242661
 21
449.199308
 31
0.0
  0
LINE
  5
66
330
48
100
AcDbEntity
  8
0
  6
Continuous
 62
     0
370
    30
100
AcDbLine
 10
390.517673
 20
424.199308
 30
0.0
 11
390.308152
 21
448.208034
 31
0.0
  0
LWPOLYLINE
  5
67
330
48
100
AcDbEntity
  8
0
  6
Continuous
 62
     0
370
     0
100
AcDbPolyline
 90
        5
 70
     0
 43
0.0
 10
390.308167
 20
448.208038
 10
390.234131
 20
448.210632
 10
390.023041
 20
448.211578
 10
389.706207
 20
448.210663
 10
389.317017
 20
448.207977
  0
LWPOLYLINE
  5
68
330
48
100
AcDbEntity
  8
0
  6
Continuous
 62
     0
370
     0
100
AcDbPolyline
 90
        5
 70
     0
 43
0.0
 10
389.317017
 20
448.207977
 10
389.316345
 20
448.584961
 10
389.314453
 20
448.904755
 10
389.311646
 20
449.120178
 10
389.308197
 20
449.19931
  0
LINE
  5
69
330
48
100
AcDbEntity
  8
0
  6
Continuous
 62
     0
370
    30
100
AcDbLine
 10
389.30819
 20
449.199308
 30
0.0
 11
373.656313
 21
449.199308
 31
0.0
  0
LWPOLYLINE
  5
6A
330
48
100
AcDbEntity
  8
0
  6
Continuous
 62
     0
370
     0
100
AcDbPolyline
 90
        5
 70
     0
 43
0.0
 10
345.590851
 20
448.208038
 10
345.664856
 20
448.210632
 10
345.875977
 20
448.211578
 10
346.19281
 20
448.210663
 10
346.58197
 20
448.207977
  0
LINE
  5
6B
330
48
100
AcDbEntity
  8
0
  6
Continuous
 62
     0
370
    30
100
AcDbLine
 10
345.381329
 20
424.199308
 30
0.0
 11
345.59085
 21
448.208034
 31
0.0
  0
ARC
  5
6C
330
48
100
AcDbEntity
  8
0
  6
Continuous
 62
     0
370
    30
100
AcDbCircle
 10
362.799501
 20
423.949308
 30
0.0
 40
0.2499999999997007
100
AcDbArc
 50
0.0
 51
89.999999
  0
ARC
  5
6D
330
48
100
AcDbEntity
  8
0
  6
Continuous
 62
     0
370
    30
100
AcDbCircle
 10
373.099501
 20
423.949308
 30
0.0
 40
0.2499999999998855
100
AcDbArc
 50
90.000001
 51
180.0
  0
LWPOLYLINE
  5
6E
330
48
100
AcDbEntity
  8
0
  6
Continuous
 62
     0
370
     0
100
AcDbPolyline
 90
        5
 70
     0
 43
0.0
 10
346.59082
 20
449.19931
 10
346.587463
 20
449.125305
 10
346.584625
 20
448.914124
 10
346.582703
 20
448.597198
 10
346.58197
 20
448.207977
  0
LINE
  5
6F
330
48
100
AcDbEntity
  8
0
  6
Continuous
 62
     0
370
    30
100
AcDbLine
 10
362.242661
 20
449.199308
 30
0.0
 11
346.590815
 21
449.199308
 31
0.0
  0
ARC
  5
70
330
48
100
AcDbEntity
  8
0
  6
Continuous
 62
     0
370
    30
100
AcDbCircle
 10
389.30819
 20
448.199308
 30
0.0
 40
1.0
100
AcDbArc
 50
0.5
 51
89.999962
  0
ARC
  5
71
330
48
100
AcDbEntity
  8
0
  6
Continuous
 62
     0
370
    30
100
AcDbCircle
 10
346.590812
 20
448.199308
 30
0.0
 40
1.0
100
AcDbArc
 50
89.99982
 51
179.5
  0
LINE
  5
72
330
48
100
AcDbEntity
  8
0
  6
Continuous
 62
     0
370
    30
100
AcDbLine
 10
389.323279
 20
449.199183
 30
0.0
 11
389.308192
 21
449.199303
 31
0.0
  0
ARC
  5
73
330
48
100
AcDbEntity
  8
0
  6
Continuous
 62
     0
370
    30
100
AcDbCircle
 10
338.449506
 20
411.467872
 30
0.0
 40
0.5000051552738991
100
AcDbArc
 50
96.734131
 51
179.999475
  0
ARC
  5
74
330
48
100
AcDbEntity
  8
0
  6
Continuous
 62
     0
370
    30
100
AcDbCircle
 10
360.554677
 20
224.24239
 30
0.0
 40
189.0259180248437
100
AcDbArc
 50
90.166084
 51
96.733576
  0
LINE
  5
75
330
48
100
AcDbEntity
  8
0
  6
Continuous
 62
     0
370
    30
100
AcDbLine
 10
337.949501
 20
411.467877
 30
0.0
 11
337.949501
 21
403.919308
 31
0.0
  0
LINE
  5
76
330
48
100
AcDbEntity
  8
0
  6
Continuous
 62
     0
370
    30
100
AcDbLine
 10
362.949501
 20
419.199308
 30
0.0
 11
362.949501
 21
416.266968
 31
0.0
  0
ARC
  5
77
330
48
100
AcDbEntity
  8
0
  6
Continuous
 62
     0
370
    30
100
AcDbCircle
 10
359.949599
 20
416.266872
 30
0.0
 40
2.999902341103282
100
AcDbArc
 50
271.091508
 51
0.00183
  0
LINE
  5
78
330
48
100
AcDbEntity
  8
0
  6
Continuous
 62
     0
370
    30
100
AcDbLine
 10
137.949501
 20
403.919308
 30
0.0
 11
197.949501
 21
403.919308
 31
0.0
  0
LINE
  5
79
330
48
100
AcDbEntity
  8
0
  6
Continuous
 62
     0
370
     0
100
AcDbLine
 10
160.006745
 20
413.267514
 30
0.0
 11
175.892257
 21
413.267514
 31
0.0
  0
ARC
  5
7A
330
48
100
AcDbEntity
  8
0
  6
Continuous
 62
     0
370
    30
100
AcDbCircle
 10
159.949501
 20
416.266968
 30
0.0
 40
2.999999999988001
100
AcDbArc
 50
271.093338
 51
360.0
  0
LINE
  5
7B
330
48
100
AcDbEntity
  8
0
  6
Continuous
 62
     0
370
     0
100
AcDbLine
 10
162.949501
 20
416.266968
 30
0.0
 11
172.949501
 21
416.266968
 31
0.0
  0
LINE
  5
7C
330
48
100
AcDbEntity
  8
0
  6
Continuous
 62
     0
370
    30
100
AcDbLine
 10
162.949501
 20
416.266968
 30
0.0
 11
162.949501
 21
419.199308
 31
0.0
  0
LINE
  5
7D
330
48
100
AcDbEntity
  8
0
  6
Continuous
 62
     0
370
    30
100
AcDbLine
 10
162.949501
 20
419.199308
 30
0.0
 11
172.949501
 21
419.199308
 31
0.0
  0
LINE
  5
7E
330
48
100
AcDbEntity
  8
0
  6
Continuous
 62
     0
370
    30
100
AcDbLine
 10
137.949501
 20
403.919308
 30
0.0
 11
137.949501
 21
411.467877
 31
0.0
  0
LINE
  5
7F
330
48
100
AcDbEntity
  8
0
  6
Continuous
 62
     0
370
     0
100
AcDbLine
 10
137.949501
 20
411.467877
 30
0.0
 11
197.949501
 21
411.467877
 31
0.0
  0
ARC
  5
80
330
48
100
AcDbEntity
  8
0
  6
Continuous
 62
     0
370
    30
100
AcDbCircle
 10
160.554572
 20
224.244132
 30
0.0
 40
189.0241757779861
100
AcDbArc
 50
90.166054
 51
96.733606
  0
LINE
  5
81
330
48
100
AcDbEntity
  8
0
  6
Continuous
 62
     0
370
     0
100
AcDbLine
 10
138.390874
 20
411.964428
 30
0.0
 11
197.508128
 21
411.964428
 31
0.0
  0
ARC
  5
82
330
48
100
AcDbEntity
  8
0
  6
Continuous
 62
     0
370
    30
100
AcDbCircle
 10
138.449501
 20
411.467877
 30
0.0
 40
0.499999999999978
100
AcDbArc
 50
96.733606
 51
180.0
  0
LINE
  5
83
330
48
100
AcDbEntity
  8
0
  6
Continuous
 62
     0
370
    30
100
AcDbLine
 10
163.049501
 20
419.199308
 30
0.0
 11
163.049501
 21
423.949308
 31
0.0
  0
LINE
  5
84
330
48
100
AcDbEntity
  8
0
  6
Continuous
 62
     0
370
    30
100
AcDbLine
 10
172.849501
 20
423.949308
 30
0.0
 11
172.849501
 21
419.199308
 31
0.0
  0
LINE
  5
85
330
48
100
AcDbEntity
  8
0
  6
Continuous
 62
     0
370
     0
100
AcDbLine
 10
163.049501
 20
423.949308
 30
0.0
 11
172.849501
 21
423.949308
 31
0.0
  0
ARC
  5
86
330
48
100
AcDbEntity
  8
0
  6
Continuous
 62
     0
370
     0
100
AcDbCircle
 10
16566.969853
 20
417.339738
 30
0.0
 40
16404.76152779659
100
AcDbArc
 50
179.891792
 51
179.976042
  0
LINE
  5
87
330
48
100
AcDbEntity
  8
0
  6
Continuous
 62
     0
370
    30
100
AcDbLine
 10
162.209759
 20
424.199308
 30
0.0
 11
173.689243
 21
424.199308
 31
0.0
  0
ARC
  5
88
330
48
100
AcDbEntity
  8
0
  6
Continuous
 62
     0
370
     0
100
AcDbCircle
 10
-16231.013246
 20
417.339738
 30
0.0
 40
16404.70392339072
100
AcDbArc
 50
0.023958
 51
0.108208
  0
ARC
  5
89
330
48
100
AcDbEntity
  8
0
  6
Continuous
 62
     0
370
     0
100
AcDbCircle
 10
167.949177
 20
-554.098094
 30
0.0
 40
1002.435825660524
100
AcDbArc
 50
89.673506
 51
90.326457
  0
ARC
  5
8A
330
48
100
AcDbEntity
  8
0
  6
Continuous
 62
     0
370
     0
100
AcDbCircle
 10
2882.329267
 20
400.26286
 30
0.0
 40
2736.167392097367
100
AcDbArc
 50
178.99597
 51
179.498761
  0
LINE
  5
8B
330
48
100
AcDbEntity
  8
0
  6
Continuous
 62
     0
370
    30
100
AcDbLine
 10
146.266577
 20
424.199308
 30
0.0
 11
162.209759
 21
424.199308
 31
0.0
  0
ARC
  5
8C
330
48
100
AcDbEntity
  8
0
  6
Continuous
 62
     0
370
     0
100
AcDbCircle
 10
191.821777
 20
-4713.418169
 30
0.0
 40
5161.824408135221
100
AcDbArc
 50
90.328384
 51
90.502164
  0
LINE
  5
8D
330
48
100
AcDbEntity
  8
0
  6
Continuous
 62
     0
370
    30
100
AcDbLine
 10
189.632425
 20
424.199308
 30
0.0
 11
190.517673
 21
424.199308
 31
0.0
  0
LINE
  5
8E
330
48
100
AcDbEntity
  8
0
  6
Continuous
 62
     0
370
    30
100
AcDbLine
 10
173.689243
 20
424.199308
 30
0.0
 11
189.632425
 21
424.199308
 31
0.0
  0
LINE
  5
8F
330
48
100
AcDbEntity
  8
0
  6
Continuous
 62
     0
370
    30
100
AcDbLine
 10
145.381329
 20
424.199308
 30
0.0
 11
146.266575
 21
424.199308
 31
0.0
  0
ARC
  5
90
330
48
100
AcDbEntity
  8
0
  6
Continuous
 62
     0
370
     0
100
AcDbCircle
 10
-2546.421919
 20
400.262972
 30
0.0
 40
2736.159045334252
100
AcDbArc
 50
0.501239
 51
1.004031
  0
ARC
  5
91
330
48
100
AcDbEntity
  8
0
  6
Continuous
 62
     0
370
     0
100
AcDbCircle
 10
143.964724
 20
-4729.04685
 30
0.0
 40
5177.453477587368
100
AcDbArc
 50
89.498107
 51
89.671363
  0
LINE
  5
92
330
48
100
AcDbEntity
  8
0
  6
Continuous
 62
     0
370
    30
100
AcDbLine
 10
162.242689
 20
449.199308
 30
0.0
 11
173.656341
 21
449.199308
 31
0.0
  0
ARC
  5
93
330
48
100
AcDbEntity
  8
0
  6
Continuous
 62
     0
370
     0
100
AcDbCircle
 10
202.59039
 20
448.525562
 30
0.0
 40
40.35332551473439
100
AcDbArc
 50
179.043336
 51
180.289796
  0
ARC
  5
94
330
48
100
AcDbEntity
  8
0
  6
Continuous
 62
     0
370
     0
100
AcDbCircle
 10
133.086621
 20
448.52556
 30
0.0
 40
40.57531382067754
100
AcDbArc
 50
359.711788
 51
0.951432
  0
LWPOLYLINE
  5
95
330
48
100
AcDbEntity
  8
0
  6
Continuous
 62
     0
370
     0
100
AcDbPolyline
 90
        5
 70
     0
 43
0.0
 10
145.590851
 20
448.208038
 10
145.664856
 20
448.210632
 10
145.875961
 20
448.211578
 10
146.192795
 20
448.210663
 10
146.58197
 20
448.207977
  0
LINE
  5
96
330
48
100
AcDbEntity
  8
0
  6
Continuous
 62
     0
370
    30
100
AcDbLine
 10
145.381329
 20
424.199308
 30
0.0
 11
145.59085
 21
448.208034
 31
0.0
  0
LINE
  5
97
330
48
100
AcDbEntity
  8
0
  6
Continuous
 62
     0
370
    30
100
AcDbLine
 10
146.590812
 20
449.199308
 30
0.0
 11
162.242689
 21
449.199308
 31
0.0
  0
LWPOLYLINE
  5
98
330
48
100
AcDbEntity
  8
0
  6
Continuous
 62
     0
370
     0
100
AcDbPolyline
 90
        5
 70
     0
 43
0.0
 10
146.58197
 20
448.207977
 10
146.582657
 20
448.584961
 10
146.584549
 20
448.904755
 10
146.587372
 20
449.120178
 10
146.590805
 20
449.19931
  0
LINE
  5
99
330
48
100
AcDbEntity
  8
0
  6
Continuous
 62
     0
370
    30
100
AcDbLine
 10
190.517673
 20
424.199308
 30
0.0
 11
190.308152
 21
448.208034
 31
0.0
  0
LWPOLYLINE
  5
9A
330
48
100
AcDbEntity
  8
0
  6
Continuous
 62
     0
370
     0
100
AcDbPolyline
 90
        5
 70
     0
 43
0.0
 10
190.308151
 20
448.208038
 10
190.234146
 20
448.210632
 10
190.023041
 20
448.211578
 10
189.706207
 20
448.210663
 10
189.317032
 20
448.207977
  0
ARC
  5
9B
330
48
100
AcDbEntity
  8
0
  6
Continuous
 62
     0
370
    30
100
AcDbCircle
 10
162.799501
 20
423.949308
 30
0.0
 40
0.2499999999907719
100
AcDbArc
 50
360.0
 51
89.999999
  0
ARC
  5
9C
330
48
100
AcDbEntity
  8
0
  6
Continuous
 62
     0
370
    30
100
AcDbCircle
 10
173.099501
 20
423.949308
 30
0.0
 40
0.2500000000307754
100
AcDbArc
 50
90.000001
 51
180.0
  0
LINE
  5
9D
330
48
100
AcDbEntity
  8
0
  6
Continuous
 62
     0
370
    30
100
AcDbLine
 10
173.656341
 20
449.199308
 30
0.0
 11
189.308187
 21
449.199308
 31
0.0
  0
LWPOLYLINE
  5
9E
330
48
100
AcDbEntity
  8
0
  6
Continuous
 62
     0
370
     0
100
AcDbPolyline
 90
        5
 70
     0
 43
0.0
 10
189.308182
 20
449.19931
 10
189.311523
 20
449.125305
 10
189.314377
 20
448.914124
 10
189.316299
 20
448.597198
 10
189.317032
 20
448.207977
  0
ARC
  5
9F
330
48
100
AcDbEntity
  8
0
  6
Continuous
 62
     0
370
    30
100
AcDbCircle
 10
146.590812
 20
448.199308
 30
0.0
 40
1.0
100
AcDbArc
 50
90.000038
 51
179.5
  0
ARC
  5
A0
330
48
100
AcDbEntity
  8
0
  6
Continuous
 62
     0
370
    30
100
AcDbCircle
 10
189.30819
 20
448.199308
 30
0.0
 40
1.0
100
AcDbArc
 50
0.5
 51
90.00018
  0
LINE
  5
A1
330
48
100
AcDbEntity
  8
0
  6
Continuous
 62
     0
370
    30
100
AcDbLine
 10
146.575723
 20
449.199183
 30
0.0
 11
146.59081
 21
449.199303
 31
0.0
  0
ARC
  5
A2
330
48
100
AcDbEntity
  8
0
  6
Continuous
 62
     0
370
    30
100
AcDbCircle
 10
197.449496
 20
411.467872
 30
0.0
 40
0.5000051552756533
100
AcDbArc
 50
0.000525
 51
83.265869
  0
ARC
  5
A3
330
48
100
AcDbEntity
  8
0
  6
Continuous
 62
     0
370
    30
100
AcDbCircle
 10
175.344325
 20
224.24239
 30
0.0
 40
189.0259180248379
100
AcDbArc
 50
83.266424
 51
89.833916
  0
LINE
  5
A4
330
48
100
AcDbEntity
  8
0
  6
Continuous
 62
     0
370
    30
100
AcDbLine
 10
197.949501
 20
403.919308
 30
0.0
 11
197.949501
 21
411.467877
 31
0.0
  0
LINE
  5
A5
330
48
100
AcDbEntity
  8
0
  6
Continuous
 62
     0
370
    30
100
AcDbLine
 10
172.949501
 20
416.266968
 30
0.0
 11
172.949501
 21
419.199308
 31
0.0
  0
ARC
  5
A6
330
48
100
AcDbEntity
  8
0
  6
Continuous
 62
     0
370
    30
100
AcDbCircle
 10
175.949403
 20
416.266872
 30
0.0
 40
2.999902341102304
100
AcDbArc
 50
179.99817
 51
268.908492
  0
LINE
  5
A7
330
48
100
AcDbEntity
  8
0
  6
Continuous
 62
     0
370
    30
100
AcDbLine
 10
237.949501
 20
403.919308
 30
0.0
 11
237.949501
 21
411.473051
 31
0.0
  0
LINE
  5
A8
330
48
100
AcDbEntity
  8
0
  6
Continuous
 62
     0
370
     0
100
AcDbLine
 10
237.949501
 20
411.473051
 30
0.0
 11
297.949501
 21
411.473051
 31
0.0
  0
LINE
  5
A9
330
48
100
AcDbEntity
  8
0
  6
Continuous
 62
     0
370
    30
100
AcDbLine
 10
297.949501
 20
403.919308
 30
0.0
 11
237.949501
 21
403.919308
 31
0.0
  0
ARC
  5
AA
330
48
100
AcDbEntity
  8
0
  6
Continuous
 62
     0
370
    30
100
AcDbCircle
 10
238.449501
 20
411.473051
 30
0.0
 40
0.5
100
AcDbArc
 50
96.452585
 51
180.0
  0
LINE
  5
AB
330
48
100
AcDbEntity
  8
0
  6
Continuous
 62
     0
370
     0
100
AcDbLine
 10
297.505692
 20
411.969883
 30
0.0
 11
238.393311
 21
411.969883
 31
0.0
  0
ARC
  5
AC
330
48
100
AcDbEntity
  8
0
  6
Continuous
 62
     0
370
    30
100
AcDbCircle
 10
267.949501
 20
150.635937
 30
0.0
 40
263.0
100
AcDbArc
 50
95.072255
 51
96.452585
  0
LINE
  5
AD
330
48
100
AcDbEntity
  8
0
  6
Continuous
 62
     0
370
     0
100
AcDbLine
 10
244.697155
 20
412.606027
 30
0.0
 11
291.201847
 21
412.606027
 31
0.0
  0
ARC
  5
AE
330
48
100
AcDbEntity
  8
0
  6
Continuous
 62
     0
370
    30
100
AcDbCircle
 10
251.770112
 20
332.919308
 30
0.0
 40
79.99999999999997
100
AcDbArc
 50
90.0
 51
95.072255
  0
LINE
  5
AF
330
48
100
AcDbEntity
  8
0
  6
Continuous
 62
     0
370
    30
100
AcDbLine
 10
284.12889
 20
412.919308
 30
0.0
 11
251.770112
 21
412.919308
 31
0.0
  0
ELLIPSE
  5
B0
330
48
100
AcDbEntity
  8
0
  6
Continuous
 62
     0
370
    30
100
AcDbEllipse
 10
253.449501
 20
528.357376
 30
0.0
 11
0.499999999999992
 21
-1.387569210361714E-14
 31
0.0
210
0.0
220
0.0
230
1.0
 40
0.707107
 41
3.141592653589792
 42
4.200928356919098
  0
LINE
  5
B1
330
48
100
AcDbEntity
  8
0
  6
Continuous
 62
     0
370
    30
100
AcDbLine
 10
252.949501
 20
412.919308
 30
0.0
 11
252.949501
 21
501.919308
 31
0.0
  0
LINE
  5
B2
330
48
100
AcDbEntity
  8
0
  6
Continuous
 62
     0
370
     0
100
AcDbLine
 10
253.204775
 20
501.919308
 30
0.0
 11
253.204775
 21
412.919308
 31
0.0
  0
LINE
  5
B3
330
48
100
AcDbEntity
  8
0
  6
Continuous
 62
     0
370
     0
100
AcDbLine
 10
252.949501
 20
501.919308
 30
0.0
 11
253.204775
 21
501.919308
 31
0.0
  0
LINE
  5
B4
330
48
100
AcDbEntity
  8
0
  6
Continuous
 62
     0
370
    30
100
AcDbLine
 10
252.949501
 20
531.481239
 30
0.0
 11
252.949501
 21
546.261199
 31
0.0
  0
ELLIPSE
  5
B5
330
48
100
AcDbEntity
  8
0
  6
Continuous
 62
     0
370
    30
100
AcDbEllipse
 10
253.449501
 20
531.481239
 30
0.0
 11
0.5
 21
0.0
 31
0.0
210
0.0
220
0.0
230
1.0
 40
0.707107
 41
2.082256950260395
 42
3.141592653589793
  0
LINE
  5
B6
330
48
100
AcDbEntity
  8
0
  6
Continuous
 62
     0
370
     0
100
AcDbLine
 10
253.204775
 20
546.569509
 30
0.0
 11
253.204775
 21
531.789548
 31
0.0
  0
ELLIPSE
  5
B7
330
48
100
AcDbEntity
  8
0
  6
Continuous
 62
     0
370
     0
100
AcDbEllipse
 10
253.449501
 20
546.261199
 30
0.0
 11
-0.5
 21
0.0
 31
0.0
210
0.0
220
0.0
230
-1.0
 40
0.707107
 41
0.0
 42
1.059335703329374
  0
ELLIPSE
  5
B8
330
48
100
AcDbEntity
  8
0
  6
Continuous
 62
     0
370
    30
100
AcDbEllipse
 10
282.449501
 20
528.357376
 30
0.0
 11
0.500000000000002
 21
0.0
 31
0.0
210
0.0
220
0.0
230
1.0
 40
0.707107
 41
5.223849603850187
 42
6.283185307179586
  0
LINE
  5
B9
330
48
100
AcDbEntity
  8
0
  6
Continuous
 62
     0
370
     0
100
AcDbLine
 10
282.694227
 20
412.919308
 30
0.0
 11
282.694227
 21
501.919308
 31
0.0
  0
LINE
  5
BA
330
48
100
AcDbEntity
  8
0
  6
Continuous
 62
     0
370
    30
100
AcDbLine
 10
282.949501
 20
501.919308
 30
0.0
 11
282.949501
 21
412.919308
 31
0.0
  0
LINE
  5
BB
330
48
100
AcDbEntity
  8
0
  6
Continuous
 62
     0
370
     0
100
AcDbLine
 10
282.694227
 20
501.919308
 30
0.0
 11
282.949501
 21
501.919308
 31
0.0
  0
LINE
  5
BC
330
48
100
AcDbEntity
  8
0
  6
Continuous
 62
     0
370
     0
100
AcDbLine
 10
282.694227
 20
531.789548
 30
0.0
 11
282.694227
 21
546.569509
 31
0.0
  0
ELLIPSE
  5
BD
330
48
100
AcDbEntity
  8
0
  6
Continuous
 62
     0
370
    30
100
AcDbEllipse
 10
282.449501
 20
531.481239
 30
0.0
 11
0.499999999999988
 21
-6.771023728073491E-15
 31
0.0
210
0.0
220
0.0
230
1.0
 40
0.707107
 41
6.283185307179485
 42
7.342521010508847
  0
LINE
  5
BE
330
48
100
AcDbEntity
  8
0
  6
Continuous
 62
     0
370
    30
100
AcDbLine
 10
282.949501
 20
546.261199
 30
0.0
 11
282.949501
 21
531.481239
 31
0.0
  0
ELLIPSE
  5
BF
330
48
100
AcDbEntity
  8
0
  6
Continuous
 62
     0
370
     0
100
AcDbEllipse
 10
282.449501
 20
546.261199
 30
0.0
 11
-0.499999999999988
 21
6.771023728073491E-15
 31
0.0
210
0.0
220
0.0
230
-1.0
 40
0.707107
 41
2.082256950260652
 42
3.141592653589854
  0
LINE
  5
C0
330
48
100
AcDbEntity
  8
0
  6
Continuous
 62
     0
370
    30
100
AcDbLine
 10
252.949501
 20
528.357376
 30
0.0
 11
252.949501
 21
531.481239
 31
0.0
  0
ELLIPSE
  5
C1
330
48
100
AcDbEntity
  8
0
  6
Continuous
 62
     0
370
    30
100
AcDbEllipse
 10
267.949501
 20
546.624705
 30
0.0
 11
-30.12500000000012
 21
0.0
 31
0.0
210
0.0
220
0.0
230
-1.0
 40
0.707107
 41
4.200928356919132
 42
5.223849603850224
  0
LINE
  5
C2
330
48
100
AcDbEntity
  8
0
  6
Continuous
 62
     0
370
    30
100
AcDbLine
 10
252.949501
 20
528.357376
 30
0.0
 11
252.949501
 21
501.919308
 31
0.0
  0
LINE
  5
C3
330
48
100
AcDbEntity
  8
0
  6
Continuous
 62
     0
370
    30
100
AcDbLine
 10
252.949501
 20
564.628212
 30
0.0
 11
252.949501
 21
546.261199
 31
0.0
  0
LINE
  5
C4
330
48
100
AcDbEntity
  8
0
  6
Continuous
 62
     0
370
     0
100
AcDbLine
 10
282.694227
 20
528.049067
 30
0.0
 11
282.694227
 21
501.919308
 31
0.0
  0
LINE
  5
C5
330
48
100
AcDbEntity
  8
0
  6
Continuous
 62
     0
370
     0
100
AcDbLine
 10
253.204775
 20
501.919308
 30
0.0
 11
253.204775
 21
528.049067
 31
0.0
  0
LINE
  5
C6
330
48
100
AcDbEntity
  8
0
  6
Continuous
 62
     0
370
     0
100
AcDbLine
 10
282.694227
 20
501.919308
 30
0.0
 11
253.204775
 21
501.919308
 31
0.0
  0
ELLIPSE
  5
C7
330
48
100
AcDbEntity
  8
0
  6
Continuous
 62
     0
370
     0
100
AcDbEllipse
 10
267.949501
 20
527.99387
 30
0.0
 11
30.12500000000006
 21
0.0
 31
0.0
210
0.0
220
0.0
230
1.0
 40
0.707107
 41
1.059335703329358
 42
2.082256950260435
  0
ELLIPSE
  5
C8
330
48
100
AcDbEntity
  8
0
  6
Continuous
 62
     0
370
    30
100
AcDbEllipse
 10
267.949501
 20
513.21391
 30
0.0
 11
-30.12500000000006
 21
0.0
 31
0.0
210
0.0
220
0.0
230
-1.0
 40
0.707107
 41
1.05933570332936
 42
2.082256950260432
  0
LINE
  5
C9
330
48
100
AcDbEntity
  8
0
  6
Continuous
 62
     0
370
     0
100
AcDbLine
 10
253.204775
 20
546.569509
 30
0.0
 11
253.204775
 21
565.064228
 31
0.0
  0
LINE
  5
CA
330
48
100
AcDbEntity
  8
0
  6
Continuous
 62
     0
370
     0
100
AcDbLine
 10
282.694227
 20
565.064228
 30
0.0
 11
282.694227
 21
546.569509
 31
0.0
  0
LINE
  5
CB
330
48
100
AcDbEntity
  8
0
  6
Continuous
 62
     0
370
    30
100
AcDbLine
 10
282.949501
 20
531.481239
 30
0.0
 11
282.949501
 21
528.357376
 31
0.0
  0
LINE
  5
CC
330
48
100
AcDbEntity
  8
0
  6
Continuous
 62
     0
370
    30
100
AcDbLine
 10
282.949501
 20
546.261199
 30
0.0
 11
282.949501
 21
564.628212
 31
0.0
  0
LINE
  5
CD
330
48
100
AcDbEntity
  8
0
  6
Continuous
 62
     0
370
    30
100
AcDbLine
 10
282.949501
 20
501.919308
 30
0.0
 11
282.949501
 21
528.357376
 31
0.0
  0
ARC
  5
CE
330
48
100
AcDbEntity
  8
0
  6
Continuous
 62
     0
370
    30
100
AcDbCircle
 10
253.449336
 20
564.628249
 30
0.0
 40
0.499834673124313
100
AcDbArc
 50
119.29344
 51
180.007382
  0
ARC
  5
CF
330
48
100
AcDbEntity
  8
0
  6
Continuous
 62
     0
370
    30
100
AcDbCircle
 10
282.449669
 20
564.62825
 30
0.0
 40
0.4998324295386378
100
AcDbArc
 50
359.992467
 51
60.706711
  0
ARC
  5
D0
330
48
100
AcDbEntity
  8
0
  6
Continuous
 62
     0
370
    30
100
AcDbCircle
 10
267.949501
 20
538.794304
 30
0.0
 40
30.12500318444275
100
AcDbArc
 50
60.695468
 51
119.304532
  0
ARC
  5
D1
330
48
100
AcDbEntity
  8
0
  6
Continuous
 62
     0
370
    30
100
AcDbCircle
 10
284.128863
 20
332.918704
 30
0.0
 40
80.00060334285504
100
AcDbArc
 50
84.927764
 51
89.999981
  0
ARC
  5
D2
330
48
100
AcDbEntity
  8
0
  6
Continuous
 62
     0
370
    30
100
AcDbCircle
 10
267.94949
 20
150.63583
 30
0.0
 40
263.0001072031513
100
AcDbArc
 50
83.547415
 51
84.927745
  0
ARC
  5
D3
330
48
100
AcDbEntity
  8
0
  6
Continuous
 62
     0
370
    30
100
AcDbCircle
 10
297.449496
 20
411.473046
 30
0.0
 40
0.50000497061897
100
AcDbArc
 50
0.000509
 51
83.546906
  0
LINE
  5
D4
330
48
100
AcDbEntity
  8
0
  6
Continuous
 62
     0
370
    30
100
AcDbLine
 10
297.949501
 20
411.473051
 30
0.0
 11
297.949501
 21
403.919308
 31
0.0
  0
ENDBLK
  5
D6
330
48
100
AcDbEntity
  8
0
100
AcDbBlockEnd
  0
BLOCK
  5
183
330
D8
100
AcDbEntity
  8
0
100
AcDbBlockBegin
  2
b
 70
     0
 10
106.769302
 20
80.999611
 30
0.0
  3
b
  1

  0
ARC
  5
D9
330
D8
100
AcDbEntity
  8
0
  6
Continuous
 62
     0
370
     0
100
AcDbCircle
 10
367.94949
 20
200.728952
 30
0.0
 40
7.942756406248018
100
AcDbArc
 50
40.252055
 51
139.747941
  0
ARC
  5
DA
330
D8
100
AcDbEntity
  8
0
  6
Continuous
 62
     0
370
     0
100
AcDbCircle
 10
367.94949
 20
200.728952
 30
0.0
 40
7.942756406248018
100
AcDbArc
 50
220.252055
 51
319.747941
  0
ARC
  5
DB
330
D8
100
AcDbEntity
  8
0
  6
Continuous
 62
     0
370
    30
100
AcDbCircle
 10
367.94949
 20
200.728952
 30
0.0
 40
29.99999999987871
100
AcDbArc
 50
180.0
 51
0.0
  0
ARC
  5
DC
330
D8
100
AcDbEntity
  8
0
  6
Continuous
 62
     0
370
    30
100
AcDbCircle
 10
367.94949
 20
200.728952
 30
0.0
 40
29.99999999987871
100
AcDbArc
 50
0.0
 51
180.0
  0
ARC
  5
DD
330
D8
100
AcDbEntity
  8
0
  6
Continuous
 62
     0
370
     0
100
AcDbCircle
 10
367.94949
 20
200.728952
 30
0.0
 40
29.55862662153387
100
AcDbArc
 50
0.0
 51
180.0
  0
ARC
  5
DE
330
D8
100
AcDbEntity
  8
0
  6
Continuous
 62
     0
370
     0
100
AcDbCircle
 10
367.94949
 20
200.728952
 30
0.0
 40
29.55862662153387
100
AcDbArc
 50
180.0
 51
0.0
  0
ARC
  5
DF
330
D8
100
AcDbEntity
  8
0
  6
Continuous
 62
     0
370
     0
100
AcDbCircle
 10
367.949473
 20
1512.763675
 30
0.0
 40
1315.406710533483
100
AcDbArc
 50
269.751203
 51
270.248798
  0
LINE
  5
E0
330
D8
100
AcDbEntity
  8
0
  6
Continuous
 62
     0
370
     0
100
AcDbLine
 10
362.209747
 20
195.559491
 30
0.0
 11
362.237569
 21
197.369366
 31
0.0
  0
ARC
  5
E1
330
D8
100
AcDbEntity
  8
0
  6
Continuous
 62
     0
370
    30
100
AcDbCircle
 10
367.949491
 20
245.227869
 30
0.0
 40
49.99892436392237
100
AcDbArc
 50
263.408064
 51
276.591933
  0
LINE
  5
E2
330
D8
100
AcDbEntity
  8
0
  6
Continuous
 62
     0
370
     0
100
AcDbLine
 10
373.66141
 20
197.369366
 30
0.0
 11
373.689232
 21
195.55949
 31
0.0
  0
ARC
  5
E3
330
D8
100
AcDbEntity
  8
0
  6
Continuous
 62
     0
370
     0
100
AcDbCircle
 10
358.021514
 20
3842.089485
 30
0.0
 40
3644.753674993195
100
AcDbArc
 50
270.245861
 51
270.491974
  0
LINE
  5
E4
330
D8
100
AcDbEntity
  8
0
  6
Continuous
 62
     0
370
    30
100
AcDbLine
 10
389.243644
 20
197.356939
 30
0.0
 11
373.689232
 21
195.55949
 31
0.0
  0
LWPOLYLINE
  5
E5
330
D8
100
AcDbEntity
  8
0
  6
Continuous
 62
     0
370
     0
100
AcDbPolyline
 90
        3
 70
     0
 43
0.0
 10
389.317017
 20
197.470169
 10
389.462219
 20
197.416397
 10
389.632416
 20
197.401871
  0
LINE
  5
E6
330
D8
100
AcDbEntity
  8
0
  6
Continuous
 62
     0
370
    30
100
AcDbLine
 10
390.517661
 20
203.062635
 30
0.0
 11
390.517661
 21
198.395267
 31
0.0
  0
ARC
  5
E7
330
D8
100
AcDbEntity
  8
0
  6
Continuous
 62
     0
370
    30
100
AcDbCircle
 10
389.517628
 20
198.395288
 30
0.0
 40
1.000033527255451
100
AcDbArc
 50
276.591156
 51
359.99878
  0
LINE
  5
E8
330
D8
100
AcDbEntity
  8
0
  6
Continuous
 62
     0
370
    30
100
AcDbLine
 10
362.209747
 20
195.559491
 30
0.0
 11
346.651903
 21
197.357336
 31
0.0
  0
ARC
  5
E9
330
D8
100
AcDbEntity
  8
0
  6
Continuous
 62
     0
370
    30
100
AcDbCircle
 10
346.381351
 20
198.39529
 30
0.0
 40
1.000033579020008
100
AcDbArc
 50
180.001235
 51
263.408926
  0
LINE
  5
EA
330
D8
100
AcDbEntity
  8
0
  6
Continuous
 62
     0
370
    30
100
AcDbLine
 10
345.381318
 20
198.395268
 30
0.0
 11
345.381318
 21
203.062636
 31
0.0
  0
ARC
  5
EB
330
D8
100
AcDbEntity
  8
0
  6
Continuous
 62
     0
370
    30
100
AcDbCircle
 10
346.381352
 20
203.062615
 30
0.0
 40
1.000033531307099
100
AcDbArc
 50
96.59107
 51
179.998779
  0
LINE
  5
EC
330
D8
100
AcDbEntity
  8
0
  6
Continuous
 62
     0
370
    30
100
AcDbLine
 10
346.651904
 20
204.100568
 30
0.0
 11
362.209748
 21
205.898413
 31
0.0
  0
ARC
  5
ED
330
D8
100
AcDbEntity
  8
0
  6
Continuous
 62
     0
370
    30
100
AcDbCircle
 10
367.949488
 20
156.229988
 30
0.0
 40
49.99896991763997
100
AcDbArc
 50
83.40807
 51
96.591927
  0
LINE
  5
EE
330
D8
100
AcDbEntity
  8
0
  6
Continuous
 62
     0
370
    30
100
AcDbLine
 10
373.689232
 20
205.898412
 30
0.0
 11
389.243645
 21
204.100963
 31
0.0
  0
ARC
  5
EF
330
D8
100
AcDbEntity
  8
0
  6
Continuous
 62
     0
370
    30
100
AcDbCircle
 10
389.517628
 20
203.062613
 30
0.0
 40
1.000033578104473
100
AcDbArc
 50
0.001235
 51
83.408926
  0
ARC
  5
F0
330
D8
100
AcDbEntity
  8
0
  6
Continuous
 62
     0
370
     0
100
AcDbCircle
 10
377.882064
 20
3842.772336
 30
0.0
 40
3645.436539033287
100
AcDbArc
 50
269.508046
 51
269.754113
  0
LWPOLYLINE
  5
F1
330
D8
100
AcDbEntity
  8
0
  6
Continuous
 62
     0
370
     0
100
AcDbPolyline
 90
        3
 70
     0
 43
0.0
 10
346.266571
 20
197.401871
 10
346.362061
 20
197.402664
 10
346.58197
 20
197.470169
  0
LINE
  5
F2
330
D8
100
AcDbEntity
  8
0
  6
Continuous
 62
     0
370
     0
100
AcDbLine
 10
362.24265
 20
198.361867
 30
0.0
 11
362.237569
 21
197.369367
 31
0.0
  0
LINE
  5
F3
330
D8
100
AcDbEntity
  8
0
  6
Continuous
 62
     0
370
     0
100
AcDbLine
 10
373.66141
 20
197.369366
 30
0.0
 11
373.656301
 21
198.361864
 31
0.0
  0
ARC
  5
F4
330
D8
100
AcDbEntity
  8
0
  6
Continuous
 62
     0
370
     0
100
AcDbCircle
 10
367.94976
 20
1316.773922
 30
0.0
 40
1118.426616329565
100
AcDbArc
 50
269.70763
 51
270.292341
  0
ARC
  5
F5
330
D8
100
AcDbEntity
  8
0
  6
Continuous
 62
     0
370
     0
100
AcDbCircle
 10
390.484894
 20
198.634272
 30
0.0
 40
0.2412408381871302
100
AcDbArc
 50
222.887953
 51
277.806485
  0
ARC
  5
F6
330
D8
100
AcDbEntity
  8
0
  6
Continuous
 62
     0
370
     0
100
AcDbCircle
 10
389.308018
 20
198.47025
 30
0.0
 40
1.00012215786654
100
AcDbArc
 50
270.515652
 51
359.990952
  0
LINE
  5
F7
330
D8
100
AcDbEntity
  8
0
  6
Continuous
 62
     0
370
     0
100
AcDbLine
 10
389.317019
 20
197.470171
 30
0.0
 11
389.308179
 21
198.470094
 31
0.0
  0
ARC
  5
F8
330
D8
100
AcDbEntity
  8
0
  6
Continuous
 62
     0
370
     0
100
AcDbCircle
 10
352.160546
 20
4438.821202
 30
0.0
 40
4240.513820643619
100
AcDbArc
 50
270.290442
 51
270.501927
  0
ARC
  5
F9
330
D8
100
AcDbEntity
  8
0
  6
Continuous
 62
     0
370
     0
100
AcDbCircle
 10
390.484897
 20
202.823627
 30
0.0
 40
0.2412428023081901
100
AcDbArc
 50
82.194165
 51
137.1124
  0
LINE
  5
FA
330
D8
100
AcDbEntity
  8
0
  6
Continuous
 62
     0
370
     0
100
AcDbLine
 10
390.30814
 20
202.987808
 30
0.0
 11
390.30814
 21
198.470092
 31
0.0
  0
ARC
  5
FB
330
D8
100
AcDbEntity
  8
0
  6
Continuous
 62
     0
370
     0
100
AcDbCircle
 10
346.590961
 20
198.470251
 30
0.0
 40
1.000122158084454
100
AcDbArc
 50
180.009045
 51
269.484344
  0
ARC
  5
FC
330
D8
100
AcDbEntity
  8
0
  6
Continuous
 62
     0
370
     0
100
AcDbCircle
 10
345.414085
 20
198.634273
 30
0.0
 40
0.2412407407249434
100
AcDbArc
 50
262.193496
 51
317.112051
  0
LINE
  5
FD
330
D8
100
AcDbEntity
  8
0
  6
Continuous
 62
     0
370
     0
100
AcDbLine
 10
345.590839
 20
202.987809
 30
0.0
 11
345.590839
 21
198.470093
 31
0.0
  0
ARC
  5
FE
330
D8
100
AcDbEntity
  8
0
  6
Continuous
 62
     0
370
     0
100
AcDbCircle
 10
345.414083
 20
202.823629
 30
0.0
 40
0.2412428980079636
100
AcDbArc
 50
42.887604
 51
97.805817
  0
LWPOLYLINE
  5
FF
330
D8
100
AcDbEntity
  8
0
  6
Continuous
 62
     0
370
    30
100
AcDbPolyline
 90
        3
 70
     0
 43
0.0
 10
346.58197
 20
203.987732
 10
346.442413
 20
204.040131
 10
346.266571
 20
204.05603
  0
ARC
  5
100
330
D8
100
AcDbEntity
  8
0
  6
Continuous
 62
     0
370
     0
100
AcDbCircle
 10
346.590961
 20
202.987651
 30
0.0
 40
1.000122158369984
100
AcDbArc
 50
90.515652
 51
179.990952
  0
LINE
  5
101
330
D8
100
AcDbEntity
  8
0
  6
Continuous
 62
     0
370
     0
100
AcDbLine
 10
362.237569
 20
204.088535
 30
0.0
 11
362.209748
 21
205.898413
 31
0.0
  0
ARC
  5
102
330
D8
100
AcDbEntity
  8
0
  6
Continuous
 62
     0
370
     0
100
AcDbCircle
 10
377.882663
 20
-3441.439241
 30
0.0
 40
3645.561347037905
100
AcDbArc
 50
90.245888
 51
90.491946
  0
LINE
  5
103
330
D8
100
AcDbEntity
  8
0
  6
Continuous
 62
     0
370
     0
100
AcDbLine
 10
373.66141
 20
204.088535
 30
0.0
 11
373.689232
 21
205.898412
 31
0.0
  0
ARC
  5
104
330
D8
100
AcDbEntity
  8
0
  6
Continuous
 62
     0
370
     0
100
AcDbCircle
 10
367.949384
 20
-1110.888381
 30
0.0
 40
1314.989322116471
100
AcDbArc
 50
89.751119
 51
90.248872
  0
LWPOLYLINE
  5
105
330
D8
100
AcDbEntity
  8
0
  6
Continuous
 62
     0
370
     0
100
AcDbPolyline
 90
        3
 70
     0
 43
0.0
 10
389.317017
 20
203.987732
 10
389.462219
 20
204.041504
 10
389.632416
 20
204.05603
  0
ARC
  5
106
330
D8
100
AcDbEntity
  8
0
  6
Continuous
 62
     0
370
     0
100
AcDbCircle
 10
358.019971
 20
-3440.841736
 30
0.0
 40
3644.963831801167
100
AcDbArc
 50
89.508031
 51
89.754129
  0
ARC
  5
107
330
D8
100
AcDbEntity
  8
0
  6
Continuous
 62
     0
370
     0
100
AcDbCircle
 10
389.308018
 20
202.98765
 30
0.0
 40
1.000122158655743
100
AcDbArc
 50
0.009045
 51
89.484344
  0
LINE
  5
108
330
D8
100
AcDbEntity
  8
0
  6
Continuous
 62
     0
370
     0
100
AcDbLine
 10
346.590804
 20
198.470086
 30
0.0
 11
346.581954
 21
197.470157
 31
0.0
  0
ARC
  5
109
330
D8
100
AcDbEntity
  8
0
  6
Continuous
 62
     0
370
     0
100
AcDbCircle
 10
383.865248
 20
4457.477934
 30
0.0
 40
4259.170955688536
100
AcDbArc
 50
269.498565
 51
269.709124
  0
LINE
  5
10A
330
D8
100
AcDbEntity
  8
0
  6
Continuous
 62
     0
370
     0
100
AcDbLine
 10
346.590801
 20
202.987812
 30
0.0
 11
346.590801
 21
198.470086
 31
0.0
  0
LINE
  5
10B
330
D8
100
AcDbEntity
  8
0
  6
Continuous
 62
     0
370
     0
100
AcDbLine
 10
389.308178
 20
198.470094
 30
0.0
 11
389.308178
 21
202.987806
 31
0.0
  0
ARC
  5
10C
330
D8
100
AcDbEntity
  8
0
  6
Continuous
 62
     0
370
     0
100
AcDbCircle
 10
352.031815
 20
-4055.854266
 30
0.0
 40
4259.005203044632
100
AcDbArc
 50
89.49852
 51
89.709088
  0
ARC
  5
10D
330
D8
100
AcDbEntity
  8
0
  6
Continuous
 62
     0
370
     0
100
AcDbCircle
 10
367.949878
 20
-915.214817
 30
0.0
 40
1118.325412323275
100
AcDbArc
 50
89.70764
 51
90.2924
  0
ARC
  5
10E
330
D8
100
AcDbEntity
  8
0
  6
Continuous
 62
     0
370
     0
100
AcDbCircle
 10
383.858856
 20
-4054.99062
 30
0.0
 40
4258.141523476088
100
AcDbArc
 50
90.29086
 51
90.50147
  0
LINE
  5
10F
330
D8
100
AcDbEntity
  8
0
  6
Continuous
 62
     0
370
     0
100
AcDbLine
 10
389.308179
 20
198.470091
 30
0.0
 11
390.30814
 21
198.470091
 31
0.0
  0
LINE
  5
110
330
D8
100
AcDbEntity
  8
0
  6
Continuous
 62
     0
370
     0
100
AcDbLine
 10
390.30814
 20
202.987808
 30
0.0
 11
389.308178
 21
202.987808
 31
0.0
  0
LINE
  5
111
330
D8
100
AcDbEntity
  8
0
  6
Continuous
 62
     0
370
     0
100
AcDbLine
 10
346.590813
 20
202.987809
 30
0.0
 11
345.590839
 21
202.987809
 31
0.0
  0
LINE
  5
112
330
D8
100
AcDbEntity
  8
0
  6
Continuous
 62
     0
370
     0
100
AcDbLine
 10
345.590839
 20
198.470093
 30
0.0
 11
346.590804
 21
198.470093
 31
0.0
  0
LINE
  5
113
330
D8
100
AcDbEntity
  8
0
  6
Continuous
 62
     0
370
     0
100
AcDbLine
 10
362.237569
 20
204.088535
 30
0.0
 11
362.24268
 21
203.096037
 31
0.0
  0
LINE
  5
114
330
D8
100
AcDbEntity
  8
0
  6
Continuous
 62
     0
370
     0
100
AcDbLine
 10
346.590813
 20
202.987812
 30
0.0
 11
346.58196
 21
203.987741
 31
0.0
  0
LINE
  5
115
330
D8
100
AcDbEntity
  8
0
  6
Continuous
 62
     0
370
     0
100
AcDbLine
 10
373.66141
 20
204.088535
 30
0.0
 11
373.656299
 21
203.096039
 31
0.0
  0
LINE
  5
116
330
D8
100
AcDbEntity
  8
0
  6
Continuous
 62
     0
370
     0
100
AcDbLine
 10
389.317019
 20
203.987729
 30
0.0
 11
389.308179
 21
202.987806
 31
0.0
  0
LINE
  5
117
330
D8
100
AcDbEntity
  8
0
  6
Continuous
 62
     0
370
    30
100
AcDbLine
 10
389.631474
 20
204.056144
 30
0.0
 11
389.63533
 21
204.055692
 31
0.0
  0
LINE
  5
118
330
D8
100
AcDbEntity
  8
0
  6
Continuous
 62
     0
370
    30
100
AcDbLine
 10
389.631456
 20
204.05615
 30
0.0
 11
389.243645
 21
204.100963
 31
0.0
  0
LINE
  5
119
330
D8
100
AcDbEntity
  8
0
  6
Continuous
 62
     0
370
    30
100
AcDbLine
 10
346.651904
 20
204.100568
 30
0.0
 11
346.267531
 21
204.056152
 31
0.0
  0
LINE
  5
11A
330
D8
100
AcDbEntity
  8
0
  6
Continuous
 62
     0
370
    30
100
AcDbLine
 10
346.267506
 20
204.056145
 30
0.0
 11
346.263648
 21
204.055693
 31
0.0
  0
LINE
  5
11B
330
D8
100
AcDbEntity
  8
0
  6
Continuous
 62
     0
370
    30
100
AcDbLine
 10
346.263671
 20
197.402208
 30
0.0
 11
346.267513
 21
197.401759
 31
0.0
  0
LINE
  5
11C
330
D8
100
AcDbEntity
  8
0
  6
Continuous
 62
     0
370
    30
100
AcDbLine
 10
389.631473
 20
197.401758
 30
0.0
 11
389.635331
 21
197.40221
 31
0.0
  0
LINE
  5
11D
330
D8
100
AcDbEntity
  8
0
  6
Continuous
 62
     0
370
    30
100
AcDbLine
 10
346.651903
 20
197.357336
 30
0.0
 11
346.267531
 21
197.401752
 31
0.0
  0
LINE
  5
11E
330
D8
100
AcDbEntity
  8
0
  6
Continuous
 62
     0
370
    30
100
AcDbLine
 10
389.631456
 20
197.401752
 30
0.0
 11
389.243644
 21
197.356939
 31
0.0
  0
ARC
  5
11F
330
D8
100
AcDbEntity
  8
0
  6
Continuous
 62
     0
370
     0
100
AcDbCircle
 10
167.94949
 20
200.728952
 30
0.0
 40
7.942756406248018
100
AcDbArc
 50
220.252059
 51
319.747945
  0
ARC
  5
120
330
D8
100
AcDbEntity
  8
0
  6
Continuous
 62
     0
370
     0
100
AcDbCircle
 10
167.94949
 20
200.728952
 30
0.0
 40
7.942756406248018
100
AcDbArc
 50
40.252059
 51
139.747945
  0
ARC
  5
121
330
D8
100
AcDbEntity
  8
0
  6
Continuous
 62
     0
370
    30
100
AcDbCircle
 10
167.94949
 20
200.728952
 30
0.0
 40
29.99999999987871
100
AcDbArc
 50
360.0
 51
180.0
  0
ARC
  5
122
330
D8
100
AcDbEntity
  8
0
  6
Continuous
 62
     0
370
    30
100
AcDbCircle
 10
167.94949
 20
200.728952
 30
0.0
 40
29.99999999987871
100
AcDbArc
 50
180.0
 51
360.0
  0
ARC
  5
123
330
D8
100
AcDbEntity
  8
0
  6
Continuous
 62
     0
370
     0
100
AcDbCircle
 10
167.94949
 20
200.728952
 30
0.0
 40
29.55862662153387
100
AcDbArc
 50
180.0
 51
360.0
  0
ARC
  5
124
330
D8
100
AcDbEntity
  8
0
  6
Continuous
 62
     0
370
     0
100
AcDbCircle
 10
167.94949
 20
200.728952
 30
0.0
 40
29.55862662153387
100
AcDbArc
 50
360.0
 51
180.0
  0
LINE
  5
125
330
D8
100
AcDbEntity
  8
0
  6
Continuous
 62
     0
370
     0
100
AcDbLine
 10
162.237569
 20
197.369366
 30
0.0
 11
162.209748
 21
195.55949
 31
0.0
  0
ARC
  5
126
330
D8
100
AcDbEntity
  8
0
  6
Continuous
 62
     0
370
    30
100
AcDbCircle
 10
167.949488
 20
245.227869
 30
0.0
 40
49.99892436393009
100
AcDbArc
 50
263.408067
 51
276.591936
  0
LINE
  5
127
330
D8
100
AcDbEntity
  8
0
  6
Continuous
 62
     0
370
     0
100
AcDbLine
 10
173.689232
 20
195.559491
 30
0.0
 11
173.66141
 21
197.369366
 31
0.0
  0
ARC
  5
128
330
D8
100
AcDbEntity
  8
0
  6
Continuous
 62
     0
370
     0
100
AcDbCircle
 10
167.949506
 20
1512.763675
 30
0.0
 40
1315.406710533548
100
AcDbArc
 50
269.751202
 51
270.248797
  0
LWPOLYLINE
  5
129
330
D8
100
AcDbEntity
  8
0
  6
Continuous
 62
     0
370
     0
100
AcDbPolyline
 90
        3
 70
     0
 43
0.0
 10
146.581955
 20
197.470169
 10
146.436768
 20
197.416397
 10
146.266571
 20
197.401871
  0
LINE
  5
12A
330
D8
100
AcDbEntity
  8
0
  6
Continuous
 62
     0
370
    30
100
AcDbLine
 10
146.655335
 20
197.356939
 30
0.0
 11
162.209748
 21
195.55949
 31
0.0
  0
ARC
  5
12B
330
D8
100
AcDbEntity
  8
0
  6
Continuous
 62
     0
370
     0
100
AcDbCircle
 10
177.877465
 20
3842.089485
 30
0.0
 40
3644.753674992743
100
AcDbArc
 50
269.508026
 51
269.754139
  0
ARC
  5
12C
330
D8
100
AcDbEntity
  8
0
  6
Continuous
 62
     0
370
    30
100
AcDbCircle
 10
146.381351
 20
203.062613
 30
0.0
 40
1.000033578105394
100
AcDbArc
 50
96.591074
 51
179.998765
  0
LINE
  5
12D
330
D8
100
AcDbEntity
  8
0
  6
Continuous
 62
     0
370
    30
100
AcDbLine
 10
162.209747
 20
205.898412
 30
0.0
 11
146.655335
 21
204.100963
 31
0.0
  0
ARC
  5
12E
330
D8
100
AcDbEntity
  8
0
  6
Continuous
 62
     0
370
    30
100
AcDbCircle
 10
167.949491
 20
156.229988
 30
0.0
 40
49.99896991764068
100
AcDbArc
 50
83.408073
 51
96.59193
  0
LINE
  5
12F
330
D8
100
AcDbEntity
  8
0
  6
Continuous
 62
     0
370
    30
100
AcDbLine
 10
189.247076
 20
204.100568
 30
0.0
 11
173.689232
 21
205.898413
 31
0.0
  0
ARC
  5
130
330
D8
100
AcDbEntity
  8
0
  6
Continuous
 62
     0
370
    30
100
AcDbCircle
 10
189.517628
 20
203.062615
 30
0.0
 40
1.000033531307895
100
AcDbArc
 50
0.001221
 51
83.40893
  0
LINE
  5
131
330
D8
100
AcDbEntity
  8
0
  6
Continuous
 62
     0
370
    30
100
AcDbLine
 10
190.517661
 20
198.395268
 30
0.0
 11
190.517661
 21
203.062636
 31
0.0
  0
ARC
  5
132
330
D8
100
AcDbEntity
  8
0
  6
Continuous
 62
     0
370
    30
100
AcDbCircle
 10
189.517628
 20
198.39529
 30
0.0
 40
1.000033579020232
100
AcDbArc
 50
276.591074
 51
359.998765
  0
LINE
  5
133
330
D8
100
AcDbEntity
  8
0
  6
Continuous
 62
     0
370
    30
100
AcDbLine
 10
173.689232
 20
195.559491
 30
0.0
 11
189.247076
 21
197.357336
 31
0.0
  0
ARC
  5
134
330
D8
100
AcDbEntity
  8
0
  6
Continuous
 62
     0
370
    30
100
AcDbCircle
 10
146.381352
 20
198.395288
 30
0.0
 40
1.000033527259714
100
AcDbArc
 50
180.00122
 51
263.408844
  0
LINE
  5
135
330
D8
100
AcDbEntity
  8
0
  6
Continuous
 62
     0
370
    30
100
AcDbLine
 10
145.381318
 20
203.062635
 30
0.0
 11
145.381318
 21
198.395267
 31
0.0
  0
LWPOLYLINE
  5
136
330
D8
100
AcDbEntity
  8
0
  6
Continuous
 62
     0
370
     0
100
AcDbPolyline
 90
        3
 70
     0
 43
0.0
 10
189.632416
 20
197.401871
 10
189.536926
 20
197.402664
 10
189.317017
 20
197.470169
  0
ARC
  5
137
330
D8
100
AcDbEntity
  8
0
  6
Continuous
 62
     0
370
     0
100
AcDbCircle
 10
158.016915
 20
3842.772336
 30
0.0
 40
3645.436539033394
100
AcDbArc
 50
270.245887
 51
270.491954
  0
ARC
  5
138
330
D8
100
AcDbEntity
  8
0
  6
Continuous
 62
     0
370
     0
100
AcDbCircle
 10
167.949219
 20
1316.773922
 30
0.0
 40
1118.426616329715
100
AcDbArc
 50
269.707659
 51
270.29237
  0
LINE
  5
139
330
D8
100
AcDbEntity
  8
0
  6
Continuous
 62
     0
370
     0
100
AcDbLine
 10
162.237569
 20
197.369366
 30
0.0
 11
162.242678
 21
198.361864
 31
0.0
  0
LINE
  5
13A
330
D8
100
AcDbEntity
  8
0
  6
Continuous
 62
     0
370
     0
100
AcDbLine
 10
173.656329
 20
198.361867
 30
0.0
 11
173.66141
 21
197.369367
 31
0.0
  0
ARC
  5
13B
330
D8
100
AcDbEntity
  8
0
  6
Continuous
 62
     0
370
     0
100
AcDbCircle
 10
146.590961
 20
198.47025
 30
0.0
 40
1.000122157868952
100
AcDbArc
 50
180.009048
 51
269.484348
  0
ARC
  5
13C
330
D8
100
AcDbEntity
  8
0
  6
Continuous
 62
     0
370
     0
100
AcDbCircle
 10
145.414085
 20
198.634272
 30
0.0
 40
0.2412408381931164
100
AcDbArc
 50
262.193515
 51
317.112047
  0
ARC
  5
13D
330
D8
100
AcDbEntity
  8
0
  6
Continuous
 62
     0
370
     0
100
AcDbCircle
 10
183.738433
 20
4438.821202
 30
0.0
 40
4240.513820643157
100
AcDbArc
 50
269.498073
 51
269.709558
  0
LINE
  5
13E
330
D8
100
AcDbEntity
  8
0
  6
Continuous
 62
     0
370
     0
100
AcDbLine
 10
146.58196
 20
197.470171
 30
0.0
 11
146.5908
 21
198.470094
 31
0.0
  0
LINE
  5
13F
330
D8
100
AcDbEntity
  8
0
  6
Continuous
 62
     0
370
     0
100
AcDbLine
 10
145.590839
 20
202.987808
 30
0.0
 11
145.590839
 21
198.470092
 31
0.0
  0
ARC
  5
140
330
D8
100
AcDbEntity
  8
0
  6
Continuous
 62
     0
370
     0
100
AcDbCircle
 10
145.414083
 20
202.823627
 30
0.0
 40
0.2412428023032807
100
AcDbArc
 50
42.8876
 51
97.805835
  0
ARC
  5
141
330
D8
100
AcDbEntity
  8
0
  6
Continuous
 62
     0
370
     0
100
AcDbCircle
 10
190.484894
 20
198.634273
 30
0.0
 40
0.2412407407869076
100
AcDbArc
 50
222.887949
 51
277.806504
  0
ARC
  5
142
330
D8
100
AcDbEntity
  8
0
  6
Continuous
 62
     0
370
     0
100
AcDbCircle
 10
189.308018
 20
198.470251
 30
0.0
 40
1.000122158084234
100
AcDbArc
 50
270.515656
 51
359.990955
  0
ARC
  5
143
330
D8
100
AcDbEntity
  8
0
  6
Continuous
 62
     0
370
     0
100
AcDbCircle
 10
190.484897
 20
202.823629
 30
0.0
 40
0.2412428979713245
100
AcDbArc
 50
82.194183
 51
137.112396
  0
LINE
  5
144
330
D8
100
AcDbEntity
  8
0
  6
Continuous
 62
     0
370
     0
100
AcDbLine
 10
190.30814
 20
202.987809
 30
0.0
 11
190.30814
 21
198.470093
 31
0.0
  0
ARC
  5
145
330
D8
100
AcDbEntity
  8
0
  6
Continuous
 62
     0
370
     0
100
AcDbCircle
 10
189.308018
 20
202.987651
 30
0.0
 40
1.000122158373395
100
AcDbArc
 50
0.009048
 51
89.484348
  0
LWPOLYLINE
  5
146
330
D8
100
AcDbEntity
  8
0
  6
Continuous
 62
     0
370
    30
100
AcDbPolyline
 90
        3
 70
     0
 43
0.0
 10
189.317017
 20
203.987732
 10
189.456558
 20
204.040131
 10
189.632416
 20
204.05603
  0
ARC
  5
147
330
D8
100
AcDbEntity
  8
0
  6
Continuous
 62
     0
370
     0
100
AcDbCircle
 10
158.016317
 20
-3441.439241
 30
0.0
 40
3645.561347037914
100
AcDbArc
 50
89.508054
 51
89.754112
  0
LINE
  5
148
330
D8
100
AcDbEntity
  8
0
  6
Continuous
 62
     0
370
     0
100
AcDbLine
 10
173.66141
 20
204.088535
 30
0.0
 11
173.689232
 21
205.898413
 31
0.0
  0
ARC
  5
149
330
D8
100
AcDbEntity
  8
0
  6
Continuous
 62
     0
370
     0
100
AcDbCircle
 10
167.949596
 20
-1110.888381
 30
0.0
 40
1314.989322116809
100
AcDbArc
 50
89.751128
 51
90.248881
  0
LINE
  5
14A
330
D8
100
AcDbEntity
  8
0
  6
Continuous
 62
     0
370
     0
100
AcDbLine
 10
162.237569
 20
204.088535
 30
0.0
 11
162.209747
 21
205.898412
 31
0.0
  0
ARC
  5
14B
330
D8
100
AcDbEntity
  8
0
  6
Continuous
 62
     0
370
     0
100
AcDbCircle
 10
177.879008
 20
-3440.841736
 30
0.0
 40
3644.963831801267
100
AcDbArc
 50
90.245871
 51
90.491969
  0
LWPOLYLINE
  5
14C
330
D8
100
AcDbEntity
  8
0
  6
Continuous
 62
     0
370
     0
100
AcDbPolyline
 90
        3
 70
     0
 43
0.0
 10
146.581955
 20
203.987732
 10
146.436768
 20
204.041504
 10
146.266571
 20
204.05603
  0
ARC
  5
14D
330
D8
100
AcDbEntity
  8
0
  6
Continuous
 62
     0
370
     0
100
AcDbCircle
 10
146.590961
 20
202.98765
 30
0.0
 40
1.000122158654131
100
AcDbArc
 50
90.515656
 51
179.990955
  0
ARC
  5
14E
330
D8
100
AcDbEntity
  8
0
  6
Continuous
 62
     0
370
     0
100
AcDbCircle
 10
152.033732
 20
4457.477934
 30
0.0
 40
4259.170955688952
100
AcDbArc
 50
270.290876
 51
270.501435
  0
LINE
  5
14F
330
D8
100
AcDbEntity
  8
0
  6
Continuous
 62
     0
370
     0
100
AcDbLine
 10
189.308175
 20
198.470086
 30
0.0
 11
189.317025
 21
197.470157
 31
0.0
  0
ARC
  5
150
330
D8
100
AcDbEntity
  8
0
  6
Continuous
 62
     0
370
     0
100
AcDbCircle
 10
152.040123
 20
-4054.99062
 30
0.0
 40
4258.141523476344
100
AcDbArc
 50
89.49853
 51
89.70914
  0
ARC
  5
151
330
D8
100
AcDbEntity
  8
0
  6
Continuous
 62
     0
370
     0
100
AcDbCircle
 10
167.949101
 20
-915.214817
 30
0.0
 40
1118.325412323154
100
AcDbArc
 50
89.7076
 51
90.29236
  0
ARC
  5
152
330
D8
100
AcDbEntity
  8
0
  6
Continuous
 62
     0
370
     0
100
AcDbCircle
 10
183.867164
 20
-4055.854266
 30
0.0
 40
4259.00520304473
100
AcDbArc
 50
90.290912
 51
90.50148
  0
LINE
  5
153
330
D8
100
AcDbEntity
  8
0
  6
Continuous
 62
     0
370
     0
100
AcDbLine
 10
146.590801
 20
198.470094
 30
0.0
 11
146.590801
 21
202.987806
 31
0.0
  0
LINE
  5
154
330
D8
100
AcDbEntity
  8
0
  6
Continuous
 62
     0
370
     0
100
AcDbLine
 10
189.308178
 20
202.987812
 30
0.0
 11
189.308178
 21
198.470086
 31
0.0
  0
LINE
  5
155
330
D8
100
AcDbEntity
  8
0
  6
Continuous
 62
     0
370
     0
100
AcDbLine
 10
145.590839
 20
202.987808
 30
0.0
 11
146.590801
 21
202.987808
 31
0.0
  0
LINE
  5
156
330
D8
100
AcDbEntity
  8
0
  6
Continuous
 62
     0
370
     0
100
AcDbLine
 10
146.5908
 20
198.470091
 30
0.0
 11
145.590839
 21
198.470091
 31
0.0
  0
LINE
  5
157
330
D8
100
AcDbEntity
  8
0
  6
Continuous
 62
     0
370
     0
100
AcDbLine
 10
190.30814
 20
198.470093
 30
0.0
 11
189.308175
 21
198.470093
 31
0.0
  0
LINE
  5
158
330
D8
100
AcDbEntity
  8
0
  6
Continuous
 62
     0
370
     0
100
AcDbLine
 10
189.308166
 20
202.987809
 30
0.0
 11
190.30814
 21
202.987809
 31
0.0
  0
LINE
  5
159
330
D8
100
AcDbEntity
  8
0
  6
Continuous
 62
     0
370
     0
100
AcDbLine
 10
189.308166
 20
202.987812
 30
0.0
 11
189.317019
 21
203.987741
 31
0.0
  0
LINE
  5
15A
330
D8
100
AcDbEntity
  8
0
  6
Continuous
 62
     0
370
     0
100
AcDbLine
 10
173.66141
 20
204.088535
 30
0.0
 11
173.656299
 21
203.096037
 31
0.0
  0
LINE
  5
15B
330
D8
100
AcDbEntity
  8
0
  6
Continuous
 62
     0
370
     0
100
AcDbLine
 10
162.237569
 20
204.088535
 30
0.0
 11
162.24268
 21
203.096039
 31
0.0
  0
LINE
  5
15C
330
D8
100
AcDbEntity
  8
0
  6
Continuous
 62
     0
370
     0
100
AcDbLine
 10
146.58196
 20
203.987729
 30
0.0
 11
146.5908
 21
202.987806
 31
0.0
  0
LINE
  5
15D
330
D8
100
AcDbEntity
  8
0
  6
Continuous
 62
     0
370
    30
100
AcDbLine
 10
146.267505
 20
204.056144
 30
0.0
 11
146.263649
 21
204.055692
 31
0.0
  0
LINE
  5
15E
330
D8
100
AcDbEntity
  8
0
  6
Continuous
 62
     0
370
    30
100
AcDbLine
 10
146.267523
 20
204.05615
 30
0.0
 11
146.655335
 21
204.100963
 31
0.0
  0
LINE
  5
15F
330
D8
100
AcDbEntity
  8
0
  6
Continuous
 62
     0
370
    30
100
AcDbLine
 10
189.247076
 20
204.100568
 30
0.0
 11
189.631448
 21
204.056152
 31
0.0
  0
LINE
  5
160
330
D8
100
AcDbEntity
  8
0
  6
Continuous
 62
     0
370
    30
100
AcDbLine
 10
189.631473
 20
204.056145
 30
0.0
 11
189.635331
 21
204.055693
 31
0.0
  0
LINE
  5
161
330
D8
100
AcDbEntity
  8
0
  6
Continuous
 62
     0
370
    30
100
AcDbLine
 10
189.635308
 20
197.402208
 30
0.0
 11
189.631467
 21
197.401759
 31
0.0
  0
LINE
  5
162
330
D8
100
AcDbEntity
  8
0
  6
Continuous
 62
     0
370
    30
100
AcDbLine
 10
146.267506
 20
197.401758
 30
0.0
 11
146.263648
 21
197.40221
 31
0.0
  0
LINE
  5
163
330
D8
100
AcDbEntity
  8
0
  6
Continuous
 62
     0
370
    30
100
AcDbLine
 10
189.247076
 20
197.357336
 30
0.0
 11
189.631448
 21
197.401752
 31
0.0
  0
LINE
  5
164
330
D8
100
AcDbEntity
  8
0
  6
Continuous
 62
     0
370
    30
100
AcDbLine
 10
146.267523
 20
197.401752
 30
0.0
 11
146.655335
 21
197.356939
 31
0.0
  0
ARC
  5
165
330
D8
100
AcDbEntity
  8
0
  6
Continuous
 62
     0
370
    30
100
AcDbCircle
 10
267.94949
 20
200.728952
 30
0.0
 40
30.00000000000001
100
AcDbArc
 50
360.0
 51
180.0
  0
ARC
  5
166
330
D8
100
AcDbEntity
  8
0
  6
Continuous
 62
     0
370
    30
100
AcDbCircle
 10
267.94949
 20
200.728952
 30
0.0
 40
30.00000000000001
100
AcDbArc
 50
300.0
 51
360.0
  0
ARC
  5
167
330
D8
100
AcDbEntity
  8
0
  6
Continuous
 62
     0
370
    30
100
AcDbCircle
 10
267.94949
 20
200.728952
 30
0.0
 40
30.00000000000001
100
AcDbArc
 50
180.0
 51
240.0
  0
ARC
  5
168
330
D8
100
AcDbEntity
  8
0
  6
Continuous
 62
     0
370
     0
100
AcDbCircle
 10
267.94949
 20
200.728952
 30
0.0
 40
29.55619047619049
100
AcDbArc
 50
0.0
 51
180.0
  0
ARC
  5
169
330
D8
100
AcDbEntity
  8
0
  6
Continuous
 62
     0
370
     0
100
AcDbCircle
 10
267.94949
 20
200.728952
 30
0.0
 40
29.55619047619049
100
AcDbArc
 50
180.0
 51
239.502026
  0
ARC
  5
16A
330
D8
100
AcDbEntity
  8
0
  6
Continuous
 62
     0
370
     0
100
AcDbCircle
 10
267.94949
 20
200.728952
 30
0.0
 40
29.55619047619049
100
AcDbArc
 50
300.497974
 51
0.0
  0
ARC
  5
16B
330
D8
100
AcDbEntity
  8
0
  6
Continuous
 62
     0
370
     0
100
AcDbCircle
 10
267.94949
 20
200.728952
 30
0.0
 40
23.25234599945297
100
AcDbArc
 50
360.0
 51
180.0
  0
ARC
  5
16C
330
D8
100
AcDbEntity
  8
0
  6
Continuous
 62
     0
370
     0
100
AcDbCircle
 10
267.94949
 20
200.728952
 30
0.0
 40
23.25234599945297
100
AcDbArc
 50
310.172888
 51
360.0
  0
ARC
  5
16D
330
D8
100
AcDbEntity
  8
0
  6
Continuous
 62
     0
370
     0
100
AcDbCircle
 10
267.94949
 20
200.728952
 30
0.0
 40
23.25234599945297
100
AcDbArc
 50
180.0
 51
229.827112
  0
ARC
  5
16E
330
D8
100
AcDbEntity
  8
0
  6
Continuous
 62
     0
370
     0
100
AcDbCircle
 10
267.94949
 20
200.728952
 30
0.0
 40
16.17938904144459
100
AcDbArc
 50
0.0
 51
180.0
  0
ARC
  5
16F
330
D8
100
AcDbEntity
  8
0
  6
Continuous
 62
     0
370
     0
100
AcDbCircle
 10
267.94949
 20
200.728952
 30
0.0
 40
16.17938904144459
100
AcDbArc
 50
180.0
 51
202.011987
  0
ARC
  5
170
330
D8
100
AcDbEntity
  8
0
  6
Continuous
 62
     0
370
     0
100
AcDbCircle
 10
267.94949
 20
200.728952
 30
0.0
 40
16.17938904144459
100
AcDbArc
 50
337.988013
 51
0.0
  0
LINE
  5
171
330
D8
100
AcDbEntity
  8
0
  6
Continuous
 62
     0
370
    30
100
AcDbLine
 10
252.94949
 20
81.107095
 30
0.0
 11
252.94949
 21
95.887055
 31
0.0
  0
ELLIPSE
  5
172
330
D8
100
AcDbEntity
  8
0
  6
Continuous
 62
     0
370
    30
100
AcDbEllipse
 10
253.44949
 20
81.107095
 30
0.0
 11
0.5
 21
0.0
 31
0.0
210
0.0
220
0.0
230
-1.0
 40
0.707107
 41
2.082256950260405
 42
3.141592653589793
  0
LINE
  5
173
330
D8
100
AcDbEntity
  8
0
  6
Continuous
 62
     0
370
     0
100
AcDbLine
 10
253.204764
 20
95.578745
 30
0.0
 11
253.204764
 21
80.798786
 31
0.0
  0
ELLIPSE
  5
174
330
D8
100
AcDbEntity
  8
0
  6
Continuous
 62
     0
370
     0
100
AcDbEllipse
 10
253.44949
 20
95.887055
 30
0.0
 11
-0.5
 21
0.0
 31
0.0
210
0.0
220
0.0
230
1.0
 40
0.707107
 41
6.283185307179586
 42
7.34252101050893
  0
ARC
  5
175
330
D8
100
AcDbEntity
  8
0
  6
Continuous
 62
     0
370
    30
100
AcDbCircle
 10
253.44949
 20
202.937853
 30
0.0
 40
0.5
100
AcDbArc
 50
119.304535
 51
180.0
  0
LINE
  5
176
330
D8
100
AcDbEntity
  8
0
  6
Continuous
 62
     0
370
     0
100
AcDbLine
 10
282.694215
 20
80.798786
 30
0.0
 11
282.694215
 21
95.578745
 31
0.0
  0
ELLIPSE
  5
177
330
D8
100
AcDbEntity
  8
0
  6
Continuous
 62
     0
370
    30
100
AcDbEllipse
 10
282.44949
 20
81.107095
 30
0.0
 11
0.499999999999988
 21
-6.751397867453180E-15
 31
0.0
210
0.0
220
0.0
230
-1.0
 40
0.707107
 41
6.283185307179487
 42
7.342521010508817
  0
LINE
  5
178
330
D8
100
AcDbEntity
  8
0
  6
Continuous
 62
     0
370
    30
100
AcDbLine
 10
282.94949
 20
95.887055
 30
0.0
 11
282.94949
 21
81.107095
 31
0.0
  0
ELLIPSE
  5
179
330
D8
100
AcDbEntity
  8
0
  6
Continuous
 62
     0
370
     0
100
AcDbEllipse
 10
282.44949
 20
95.887055
 30
0.0
 11
-0.499999999999988
 21
6.751397867453180E-15
 31
0.0
210
0.0
220
0.0
230
1.0
 40
0.707107
 41
2.082256950260701
 42
3.141592653589852
  0
ARC
  5
17A
330
D8
100
AcDbEntity
  8
0
  6
Continuous
 62
     0
370
    30
100
AcDbCircle
 10
282.44949
 20
202.937853
 30
0.0
 40
0.4999999999999981
100
AcDbArc
 50
360.0
 51
60.695465
  0
LINE
  5
17B
330
D8
100
AcDbEntity
  8
0
  6
Continuous
 62
     0
370
    30
100
AcDbLine
 10
252.94949
 20
202.937853
 30
0.0
 11
252.94949
 21
95.887055
 31
0.0
  0
ELLIPSE
  5
17C
330
D8
100
AcDbEntity
  8
0
  6
Continuous
 62
     0
370
     0
100
AcDbEllipse
 10
267.94949
 20
114.154384
 30
0.0
 11
30.12500000000006
 21
0.0
 31
0.0
210
0.0
220
0.0
230
-1.0
 40
0.707107
 41
1.059335703329358
 42
2.082256950260434
  0
ELLIPSE
  5
17D
330
D8
100
AcDbEntity
  8
0
  6
Continuous
 62
     0
370
    30
100
AcDbEllipse
 10
267.94949
 20
99.374425
 30
0.0
 11
-30.12500000000006
 21
0.0
 31
0.0
210
0.0
220
0.0
230
1.0
 40
0.707107
 41
1.05933570332936
 42
2.082256950260432
  0
ARC
  5
17E
330
D8
100
AcDbEntity
  8
0
  6
Continuous
 62
     0
370
    30
100
AcDbCircle
 10
267.94949
 20
177.103948
 30
0.0
 40
30.12500000000006
100
AcDbArc
 50
60.695465
 51
119.304535
  0
LINE
  5
17F
330
D8
100
AcDbEntity
  8
0
  6
Continuous
 62
     0
370
     0
100
AcDbLine
 10
253.204764
 20
95.578745
 30
0.0
 11
253.204764
 21
203.373868
 31
0.0
  0
LINE
  5
180
330
D8
100
AcDbEntity
  8
0
  6
Continuous
 62
     0
370
     0
100
AcDbLine
 10
282.694215
 20
203.373868
 30
0.0
 11
282.694215
 21
95.578745
 31
0.0
  0
LINE
  5
181
330
D8
100
AcDbEntity
  8
0
  6
Continuous
 62
     0
370
    30
100
AcDbLine
 10
282.94949
 20
95.887055
 30
0.0
 11
282.94949
 21
202.937853
 31
0.0
  0
LINE
  5
182
330
D8
100
AcDbEntity
  8
0
  6
Continuous
 62
     0
370
    30
100
AcDbLine
 10
282.947826
 20
202.978487
 30
0.0
 11
282.94949
 21
202.937853
 31
0.0
  0
ENDBLK
  5
184
330
D8
100
AcDbEntity
  8
0
100
AcDbBlockEnd
  0
BLOCK
  5
1F5
330
186
100
AcDbEntity
  8
0
100
AcDbBlockBegin
  2
c
 70
     0
 10
106.769302
 20
1.224525
 30
0.0
  3
c
  1

  0
LINE
  5
187
330
186
100
AcDbEntity
  8
0
  6
Continuous
 62
     0
370
    30
100
AcDbLine
 10
460.610059
 20
403.919308
 30
0.0
 11
490.61006
 21
403.919308
 31
0.0
  0
LINE
  5
188
330
186
100
AcDbEntity
  8
0
  6
Continuous
 62
     0
370
    30
100
AcDbLine
 10
490.61006
 20
403.919308
 30
0.0
 11
520.610059
 21
403.919308
 31
0.0
  0
LINE
  5
189
330
186
100
AcDbEntity
  8
0
  6
Continuous
 62
     0
370
     0
100
AcDbLine
 10
490.610059
 20
413.267514
 30
0.0
 11
498.552815
 21
413.267514
 31
0.0
  0
LINE
  5
18A
330
186
100
AcDbEntity
  8
0
  6
Continuous
 62
     0
370
     0
100
AcDbLine
 10
482.667303
 20
413.267514
 30
0.0
 11
490.610059
 21
413.267514
 31
0.0
  0
LINE
  5
18B
330
186
100
AcDbEntity
  8
0
  6
Continuous
 62
     0
370
     0
100
AcDbLine
 10
485.610059
 20
416.266968
 30
0.0
 11
490.610059
 21
416.266968
 31
0.0
  0
LINE
  5
18C
330
186
100
AcDbEntity
  8
0
  6
Continuous
 62
     0
370
     0
100
AcDbLine
 10
490.610059
 20
416.266968
 30
0.0
 11
495.610059
 21
416.266968
 31
0.0
  0
LINE
  5
18D
330
186
100
AcDbEntity
  8
0
  6
Continuous
 62
     0
370
    30
100
AcDbLine
 10
485.610059
 20
419.199308
 30
0.0
 11
490.610059
 21
419.199308
 31
0.0
  0
LINE
  5
18E
330
186
100
AcDbEntity
  8
0
  6
Continuous
 62
     0
370
    30
100
AcDbLine
 10
490.610059
 20
419.199308
 30
0.0
 11
495.610059
 21
419.199308
 31
0.0
  0
LINE
  5
18F
330
186
100
AcDbEntity
  8
0
  6
Continuous
 62
     0
370
     0
100
AcDbLine
 10
460.610059
 20
411.467877
 30
0.0
 11
490.61006
 21
411.467877
 31
0.0
  0
LINE
  5
190
330
186
100
AcDbEntity
  8
0
  6
Continuous
 62
     0
370
     0
100
AcDbLine
 10
490.61006
 20
411.467877
 30
0.0
 11
520.610059
 21
411.467877
 31
0.0
  0
LINE
  5
191
330
186
100
AcDbEntity
  8
0
  6
Continuous
 62
     0
370
     0
100
AcDbLine
 10
490.61006
 20
411.964428
 30
0.0
 11
520.168686
 21
411.964428
 31
0.0
  0
LINE
  5
192
330
186
100
AcDbEntity
  8
0
  6
Continuous
 62
     0
370
     0
100
AcDbLine
 10
461.051432
 20
411.964428
 30
0.0
 11
490.61006
 21
411.964428
 31
0.0
  0
LINE
  5
193
330
186
100
AcDbEntity
  8
0
  6
Continuous
 62
     0
370
     0
100
AcDbLine
 10
490.610059
 20
419.199308
 30
0.0
 11
490.610059
 21
423.949308
 31
0.0
  0
LINE
  5
194
330
186
100
AcDbEntity
  8
0
  6
Continuous
 62
     0
370
     0
100
AcDbLine
 10
490.610059
 20
423.949308
 30
0.0
 11
495.510059
 21
423.949308
 31
0.0
  0
LINE
  5
195
330
186
100
AcDbEntity
  8
0
  6
Continuous
 62
     0
370
     0
100
AcDbLine
 10
485.710059
 20
423.949308
 30
0.0
 11
490.610059
 21
423.949308
 31
0.0
  0
ARC
  5
196
330
186
100
AcDbEntity
  8
0
  6
Continuous
 62
     0
370
     0
100
AcDbCircle
 10
241.422258
 20
417.243947
 30
0.0
 40
254.4523415105153
100
AcDbArc
 50
1.566354
 51
7.01533
  0
LINE
  5
197
330
186
100
AcDbEntity
  8
0
  6
Continuous
 62
     0
370
    30
100
AcDbLine
 10
495.77952
 20
424.199308
 30
0.0
 11
496.110066
 21
424.199308
 31
0.0
  0
LINE
  5
198
330
186
100
AcDbEntity
  8
0
  6
Continuous
 62
     0
370
     0
100
AcDbLine
 10
493.980695
 20
448.335917
 30
0.0
 11
493.979934
 21
448.334902
 31
0.0
  0
LINE
  5
199
330
186
100
AcDbEntity
  8
0
  6
Continuous
 62
     0
370
     0
100
AcDbLine
 10
493.979934
 20
448.334902
 30
0.0
 11
493.969644
 21
448.32146
 31
0.0
  0
LWPOLYLINE
  5
19A
330
186
100
AcDbEntity
  8
0
  6
Continuous
 62
     0
370
     0
100
AcDbPolyline
 90
        3
 70
     0
 43
0.0
 10
493.868835
 20
448.207977
 10
493.918823
 20
440.047333
 10
493.937134
 20
424.19931
  0
LINE
  5
19B
330
186
100
AcDbEntity
  8
0
  6
Continuous
 62
     0
370
    30
100
AcDbLine
 10
493.937147
 20
424.199308
 30
0.0
 11
495.77952
 21
424.199308
 31
0.0
  0
ARC
  5
19C
330
186
100
AcDbEntity
  8
0
  6
Continuous
 62
     0
370
     0
100
AcDbCircle
 10
493.017059
 20
449.066189
 30
0.0
 40
1.209148301847004
100
AcDbArc
 50
314.784888
 51
321.981796
  0
LINE
  5
19D
330
186
100
AcDbEntity
  8
0
  6
Continuous
 62
     0
370
    30
100
AcDbLine
 10
487.282974
 20
424.199308
 30
0.0
 11
488.276377
 21
424.199308
 31
0.0
  0
LINE
  5
19E
330
186
100
AcDbEntity
  8
0
  6
Continuous
 62
     0
370
    30
100
AcDbLine
 10
485.440598
 20
424.199308
 30
0.0
 11
487.282974
 21
424.199308
 31
0.0
  0
LINE
  5
19F
330
186
100
AcDbEntity
  8
0
  6
Continuous
 62
     0
370
    30
100
AcDbLine
 10
485.110052
 20
424.199308
 30
0.0
 11
485.440598
 21
424.199308
 31
0.0
  0
LINE
  5
1A0
330
186
100
AcDbEntity
  8
0
  6
Continuous
 62
     0
370
    30
100
AcDbLine
 10
492.943744
 20
424.199308
 30
0.0
 11
493.937147
 21
424.199308
 31
0.0
  0
LINE
  5
1A1
330
186
100
AcDbEntity
  8
0
  6
Continuous
 62
     0
370
    30
100
AcDbLine
 10
488.276377
 20
424.199308
 30
0.0
 11
492.943744
 21
424.199308
 31
0.0
  0
ARC
  5
1A2
330
186
100
AcDbEntity
  8
0
  6
Continuous
 62
     0
370
     0
100
AcDbCircle
 10
492.977093
 20
448.199263
 30
0.0
 40
1.000044578104879
100
AcDbArc
 50
7.018613
 51
89.996987
  0
LWPOLYLINE
  5
1A3
330
186
100
AcDbEntity
  8
0
  6
Continuous
 62
     0
370
     0
100
AcDbPolyline
 90
        5
 70
     0
 43
0.0
 10
492.868927
 20
448.208038
 10
493.246429
 20
448.210632
 10
493.568024
 20
448.211578
 10
493.786224
 20
448.210663
 10
493.868835
 20
448.207977
  0
LWPOLYLINE
  5
1A4
330
186
100
AcDbEntity
  8
0
  6
Continuous
 62
     0
370
     0
100
AcDbPolyline
 90
        8
 70
     0
 43
0.0
 10
492.943756
 20
424.19931
 10
492.94574
 20
427.594482
 10
492.944458
 20
431.005188
 10
492.939514
 20
434.33432
 10
492.930542
 20
437.650574
 10
492.917023
 20
440.966736
 10
492.898376
 20
444.282745
 10
492.868927
 20
448.208038
  0
LINE
  5
1A5
330
186
100
AcDbEntity
  8
0
  6
Continuous
 62
     0
370
    30
100
AcDbLine
 10
492.868916
 20
449.199308
 30
0.0
 11
492.977146
 21
449.199308
 31
0.0
  0
ARC
  5
1A6
330
186
100
AcDbEntity
  8
0
  6
Continuous
 62
     0
370
     0
100
AcDbCircle
 10
492.868829
 20
448.199259
 30
0.0
 40
1.000048611877105
100
AcDbArc
 50
0.500116
 51
89.995
  0
LINE
  5
1A7
330
186
100
AcDbEntity
  8
0
  6
Continuous
 62
     0
370
     0
100
AcDbLine
 10
488.351202
 20
448.208034
 30
0.0
 11
492.868919
 21
448.208034
 31
0.0
  0
LWPOLYLINE
  5
1A8
330
186
100
AcDbEntity
  8
0
  6
Continuous
 62
     0
370
     0
100
AcDbPolyline
 90
        8
 70
     0
 43
0.0
 10
488.276367
 20
424.19931
 10
488.274353
 20
427.601959
 10
488.275696
 20
431.019745
 10
488.28064
 20
434.355865
 10
488.289673
 20
437.679352
 10
488.303284
 20
441.002716
 10
488.322021
 20
444.325928
 10
488.351196
 20
448.208038
  0
LINE
  5
1A9
330
186
100
AcDbEntity
  8
0
  6
Continuous
 62
     0
370
     0
100
AcDbLine
 10
487.239422
 20
448.335906
 30
0.0
 11
487.240183
 21
448.334895
 31
0.0
  0
LINE
  5
1AA
330
186
100
AcDbEntity
  8
0
  6
Continuous
 62
     0
370
     0
100
AcDbLine
 10
487.240183
 20
448.334895
 30
0.0
 11
487.250475
 21
448.32146
 31
0.0
  0
ARC
  5
1AB
330
186
100
AcDbEntity
  8
0
  6
Continuous
 62
     0
370
     0
100
AcDbCircle
 10
739.797861
 20
417.243947
 30
0.0
 40
254.4523420540042
100
AcDbArc
 50
172.98467
 51
178.433646
  0
ARC
  5
1AC
330
186
100
AcDbEntity
  8
0
  6
Continuous
 62
     0
370
     0
100
AcDbCircle
 10
488.206974
 20
449.069681
 30
0.0
 40
1.214382020044253
100
AcDbArc
 50
218.034268
 51
225.200194
  0
LWPOLYLINE
  5
1AD
330
186
100
AcDbEntity
  8
0
  6
Continuous
 62
     0
370
     0
100
AcDbPolyline
 90
        3
 70
     0
 43
0.0
 10
487.351288
 20
448.207977
 10
487.3013
 20
440.047333
 10
487.282959
 20
424.19931
  0
LWPOLYLINE
  5
1AE
330
186
100
AcDbEntity
  8
0
  6
Continuous
 62
     0
370
     0
100
AcDbPolyline
 90
        5
 70
     0
 43
0.0
 10
488.351196
 20
448.208038
 10
487.973694
 20
448.210632
 10
487.6521
 20
448.211578
 10
487.433899
 20
448.210663
 10
487.351288
 20
448.207977
  0
LINE
  5
1AF
330
186
100
AcDbEntity
  8
0
  6
Continuous
 62
     0
370
     0
100
AcDbLine
 10
490.610059
 20
423.949308
 30
0.0
 11
490.610059
 21
424.199308
 31
0.0
  0
LINE
  5
1B0
330
186
100
AcDbEntity
  8
0
  6
Continuous
 62
     0
370
    30
100
AcDbLine
 10
488.351205
 20
449.199308
 30
0.0
 11
488.24297
 21
449.199308
 31
0.0
  0
LINE
  5
1B1
330
186
100
AcDbEntity
  8
0
  6
Continuous
 62
     0
370
    30
100
AcDbLine
 10
492.868916
 20
449.199308
 30
0.0
 11
488.351205
 21
449.199308
 31
0.0
  0
LINE
  5
1B2
330
186
100
AcDbEntity
  8
0
  6
Continuous
 62
     0
370
     0
100
AcDbLine
 10
488.351202
 20
448.208034
 30
0.0
 11
488.351202
 21
449.199308
 31
0.0
  0
LINE
  5
1B3
330
186
100
AcDbEntity
  8
0
  6
Continuous
 62
     0
370
     0
100
AcDbLine
 10
492.868919
 20
449.199308
 30
0.0
 11
492.868919
 21
448.208034
 31
0.0
  0
ARC
  5
1B4
330
186
100
AcDbEntity
  8
0
  6
Continuous
 62
     0
370
     0
100
AcDbCircle
 10
488.243026
 20
448.199263
 30
0.0
 40
1.000044581683851
100
AcDbArc
 50
90.003147
 51
172.981389
  0
ARC
  5
1B5
330
186
100
AcDbEntity
  8
0
  6
Continuous
 62
     0
370
     0
100
AcDbCircle
 10
488.351292
 20
448.199259
 30
0.0
 40
1.000048611332158
100
AcDbArc
 50
90.005
 51
179.499793
  0
ARC
  5
1B6
330
186
100
AcDbEntity
  8
0
  6
Continuous
 62
     0
370
    30
100
AcDbCircle
 10
488.228481
 20
448.19923
 30
0.0
 40
1.000077725549103
100
AcDbArc
 50
90.003875
 51
172.040204
  0
ARC
  5
1B7
330
186
100
AcDbEntity
  8
0
  6
Continuous
 62
     0
370
    30
100
AcDbCircle
 10
495.760095
 20
423.949272
 30
0.0
 40
0.2500359660659155
100
AcDbArc
 50
90.040652
 51
179.991764
  0
ARC
  5
1B8
330
186
100
AcDbEntity
  8
0
  6
Continuous
 62
     0
370
    30
100
AcDbCircle
 10
485.460023
 20
423.949272
 30
0.0
 40
0.2500359660659928
100
AcDbArc
 50
0.008236
 51
89.959348
  0
ARC
  5
1B9
330
186
100
AcDbEntity
  8
0
  6
Continuous
 62
     0
370
    30
100
AcDbCircle
 10
723.005984
 20
415.389952
 30
0.0
 40
238.0589831032695
100
AcDbArc
 50
172.044635
 51
177.87929
  0
ARC
  5
1BA
330
186
100
AcDbEntity
  8
0
  6
Continuous
 62
     0
370
    30
100
AcDbCircle
 10
492.991636
 20
448.19923
 30
0.0
 40
1.000077320016151
100
AcDbArc
 50
7.959796
 51
89.996136
  0
ARC
  5
1BB
330
186
100
AcDbEntity
  8
0
  6
Continuous
 62
     0
370
    30
100
AcDbCircle
 10
258.214135
 20
415.389952
 30
0.0
 40
238.0589820397169
100
AcDbArc
 50
2.12071
 51
7.955374
  0
LINE
  5
1BC
330
186
100
AcDbEntity
  8
0
  6
Continuous
 62
     0
370
    30
100
AcDbLine
 10
485.710059
 20
419.199308
 30
0.0
 11
485.710059
 21
423.949308
 31
0.0
  0
LINE
  5
1BD
330
186
100
AcDbEntity
  8
0
  6
Continuous
 62
     0
370
    30
100
AcDbLine
 10
495.510059
 20
419.199308
 30
0.0
 11
495.510059
 21
423.949308
 31
0.0
  0
ARC
  5
1BE
330
186
100
AcDbEntity
  8
0
  6
Continuous
 62
     0
370
    30
100
AcDbCircle
 10
461.110064
 20
411.467872
 30
0.0
 40
0.5000051760440927
100
AcDbArc
 50
96.740825
 51
179.999473
  0
ARC
  5
1BF
330
186
100
AcDbEntity
  8
0
  6
Continuous
 62
     0
370
    30
100
AcDbCircle
 10
520.110054
 20
411.467872
 30
0.0
 40
0.5000051760432171
100
AcDbArc
 50
0.000527
 51
83.259175
  0
ARC
  5
1C0
330
186
100
AcDbEntity
  8
0
  6
Continuous
 62
     0
370
    30
100
AcDbCircle
 10
483.215235
 20
224.24239
 30
0.0
 40
189.0259180248429
100
AcDbArc
 50
90.166084
 51
96.733576
  0
ARC
  5
1C1
330
186
100
AcDbEntity
  8
0
  6
Continuous
 62
     0
370
    30
100
AcDbCircle
 10
498.004883
 20
224.24239
 30
0.0
 40
189.0259180248425
100
AcDbArc
 50
83.266424
 51
89.833916
  0
LINE
  5
1C2
330
186
100
AcDbEntity
  8
0
  6
Continuous
 62
     0
370
    30
100
AcDbLine
 10
520.610059
 20
403.919308
 30
0.0
 11
520.610059
 21
411.467877
 31
0.0
  0
LINE
  5
1C3
330
186
100
AcDbEntity
  8
0
  6
Continuous
 62
     0
370
    30
100
AcDbLine
 10
460.610059
 20
403.919308
 30
0.0
 11
460.610059
 21
411.467877
 31
0.0
  0
LINE
  5
1C4
330
186
100
AcDbEntity
  8
0
  6
Continuous
 62
     0
370
    30
100
AcDbLine
 10
495.610059
 20
416.266968
 30
0.0
 11
495.610059
 21
419.199308
 31
0.0
  0
LINE
  5
1C5
330
186
100
AcDbEntity
  8
0
  6
Continuous
 62
     0
370
    30
100
AcDbLine
 10
485.610059
 20
416.266968
 30
0.0
 11
485.610059
 21
419.199308
 31
0.0
  0
ARC
  5
1C6
330
186
100
AcDbEntity
  8
0
  6
Continuous
 62
     0
370
    30
100
AcDbCircle
 10
498.609961
 20
416.266872
 30
0.0
 40
2.999902341103291
100
AcDbArc
 50
179.99817
 51
268.908492
  0
ARC
  5
1C7
330
186
100
AcDbEntity
  8
0
  6
Continuous
 62
     0
370
    30
100
AcDbCircle
 10
482.610157
 20
416.266872
 30
0.0
 40
2.999902341103269
100
AcDbArc
 50
271.091508
 51
0.00183
  0
LINE
  5
1C8
330
186
100
AcDbEntity
  8
0
  6
Continuous
 62
     0
370
     0
100
AcDbLine
 10
461.09768
 20
411.969883
 30
0.0
 11
461.053864
 21
411.969883
 31
0.0
  0
LINE
  5
1C9
330
186
100
AcDbEntity
  8
0
  6
Continuous
 62
     0
370
     0
100
AcDbLine
 10
520.166245
 20
411.969883
 30
0.0
 11
520.122429
 21
411.969883
 31
0.0
  0
LINE
  5
1CA
330
186
100
AcDbEntity
  8
0
  6
Continuous
 62
     0
370
     0
100
AcDbLine
 10
467.357709
 20
412.606027
 30
0.0
 11
467.405798
 21
412.606027
 31
0.0
  0
LINE
  5
1CB
330
186
100
AcDbEntity
  8
0
  6
Continuous
 62
     0
370
     0
100
AcDbLine
 10
513.814311
 20
412.606027
 30
0.0
 11
513.862401
 21
412.606027
 31
0.0
  0
LINE
  5
1CC
330
186
100
AcDbEntity
  8
0
  6
Continuous
 62
     0
370
     0
100
AcDbLine
 10
606.799735
 20
528.049067
 30
0.0
 11
592.019775
 21
542.829027
 31
0.0
  0
LINE
  5
1CD
330
186
100
AcDbEntity
  8
0
  6
Continuous
 62
     0
370
    30
100
AcDbLine
 10
607.108044
 20
528.357376
 30
0.0
 11
606.799735
 21
528.049067
 31
0.0
  0
LINE
  5
1CE
330
186
100
AcDbEntity
  8
0
  6
Continuous
 62
     0
370
     0
100
AcDbLine
 10
592.328084
 20
543.137337
 30
0.0
 11
607.108044
 21
528.357376
 31
0.0
  0
LINE
  5
1CF
330
186
100
AcDbEntity
  8
0
  6
Continuous
 62
     0
370
     0
100
AcDbLine
 10
592.019775
 20
542.829027
 30
0.0
 11
592.328084
 21
543.137337
 31
0.0
  0
LINE
  5
1D0
330
186
100
AcDbEntity
  8
0
  6
Continuous
 62
     0
370
     0
100
AcDbLine
 10
492.81896
 20
449.199308
 30
0.0
 11
492.81896
 21
501.919308
 31
0.0
  0
LINE
  5
1D1
330
186
100
AcDbEntity
  8
0
  6
Continuous
 62
     0
370
     0
100
AcDbLine
 10
493.254975
 20
501.919308
 30
0.0
 11
493.254975
 21
449.163885
 31
0.0
  0
LINE
  5
1D2
330
186
100
AcDbEntity
  8
0
  6
Continuous
 62
     0
370
     0
100
AcDbLine
 10
492.81896
 20
501.919308
 30
0.0
 11
493.254975
 21
501.919308
 31
0.0
  0
LINE
  5
1D3
330
186
100
AcDbEntity
  8
0
  6
Continuous
 62
     0
370
     0
100
AcDbLine
 10
610.231907
 20
531.481239
 30
0.0
 11
595.451947
 21
546.261199
 31
0.0
  0
LINE
  5
1D4
330
186
100
AcDbEntity
  8
0
  6
Continuous
 62
     0
370
    30
100
AcDbLine
 10
610.540216
 20
531.789548
 30
0.0
 11
610.231907
 21
531.481239
 31
0.0
  0
LINE
  5
1D5
330
186
100
AcDbEntity
  8
0
  6
Continuous
 62
     0
370
     0
100
AcDbLine
 10
595.760256
 20
546.569509
 30
0.0
 11
610.540216
 21
531.789548
 31
0.0
  0
LINE
  5
1D6
330
186
100
AcDbEntity
  8
0
  6
Continuous
 62
     0
370
     0
100
AcDbLine
 10
595.451947
 20
546.261199
 30
0.0
 11
595.760256
 21
546.569509
 31
0.0
  0
LINE
  5
1D7
330
186
100
AcDbEntity
  8
0
  6
Continuous
 62
     0
370
     0
100
AcDbLine
 10
487.965135
 20
449.163885
 30
0.0
 11
487.965135
 21
501.919308
 31
0.0
  0
LINE
  5
1D8
330
186
100
AcDbEntity
  8
0
  6
Continuous
 62
     0
370
     0
100
AcDbLine
 10
488.401151
 20
501.919308
 30
0.0
 11
488.401151
 21
449.199308
 31
0.0
  0
LINE
  5
1D9
330
186
100
AcDbEntity
  8
0
  6
Continuous
 62
     0
370
     0
100
AcDbLine
 10
487.965135
 20
501.919308
 30
0.0
 11
488.401151
 21
501.919308
 31
0.0
  0
LINE
  5
1DA
330
186
100
AcDbEntity
  8
0
  6
Continuous
 62
     0
370
     0
100
AcDbLine
 10
595.451947
 20
546.261199
 30
0.0
 11
592.328084
 21
543.137337
 31
0.0
  0
LINE
  5
1DB
330
186
100
AcDbEntity
  8
0
  6
Continuous
 62
     0
370
    30
100
AcDbLine
 10
607.108044
 20
528.357376
 30
0.0
 11
610.231907
 21
531.481239
 31
0.0
  0
LINE
  5
1DC
330
186
100
AcDbEntity
  8
0
  6
Continuous
 62
     0
370
    30
100
AcDbLine
 10
604.073781
 20
525.323114
 30
0.0
 11
606.799735
 21
528.049067
 31
0.0
  0
LINE
  5
1DD
330
186
100
AcDbEntity
  8
0
  6
Continuous
 62
     0
370
     0
100
AcDbLine
 10
592.019774
 20
542.829028
 30
0.0
 11
589.293821
 21
540.103074
 31
0.0
  0
LINE
  5
1DE
330
186
100
AcDbEntity
  8
0
  6
Continuous
 62
     0
370
     0
100
AcDbLine
 10
492.81896
 20
501.919308
 30
0.0
 11
488.401151
 21
501.919308
 31
0.0
  0
ARC
  5
1DF
330
186
100
AcDbEntity
  8
0
  6
Continuous
 62
     0
370
     0
100
AcDbCircle
 10
551.110055
 20
501.919308
 30
0.0
 40
58.29109543642312
100
AcDbArc
 50
45.0
 51
180.0
  0
ARC
  5
1E0
330
186
100
AcDbEntity
  8
0
  6
Continuous
 62
     0
370
     0
100
AcDbCircle
 10
551.110055
 20
501.919308
 30
0.0
 40
62.70890456357688
100
AcDbArc
 50
45.0
 51
180.0
  0
ARC
  5
1E1
330
186
100
AcDbEntity
  8
0
  6
Continuous
 62
     0
370
     0
100
AcDbCircle
 10
551.110055
 20
501.919308
 30
0.0
 40
57.85508016952728
100
AcDbArc
 50
45.0
 51
180.0
  0
LINE
  5
1E2
330
186
100
AcDbEntity
  8
0
  6
Continuous
 62
     0
370
     0
100
AcDbLine
 10
497.110055
 20
501.919308
 30
0.0
 11
493.254975
 21
501.919308
 31
0.0
  0
LINE
  5
1E3
330
186
100
AcDbEntity
  8
0
  6
Continuous
 62
     0
370
     0
100
AcDbLine
 10
598.486209
 20
549.295462
 30
0.0
 11
595.760256
 21
546.569509
 31
0.0
  0
LINE
  5
1E4
330
186
100
AcDbEntity
  8
0
  6
Continuous
 62
     0
370
    30
100
AcDbLine
 10
610.540216
 20
531.789549
 30
0.0
 11
613.266169
 21
534.515502
 31
0.0
  0
LINE
  5
1E5
330
186
100
AcDbEntity
  8
0
  6
Continuous
 62
     0
370
     0
100
AcDbLine
 10
487.965135
 20
501.919308
 30
0.0
 11
484.110055
 21
501.919308
 31
0.0
  0
ARC
  5
1E6
330
186
100
AcDbEntity
  8
0
  6
Continuous
 62
     0
370
     0
100
AcDbCircle
 10
551.110055
 20
501.919308
 30
0.0
 40
63.14491983047267
100
AcDbArc
 50
45.0
 51
180.0
  0
LINE
  5
1E7
330
186
100
AcDbEntity
  8
0
  6
Continuous
 62
     0
370
    30
100
AcDbLine
 10
484.110055
 20
413.668928
 30
0.0
 11
484.110055
 21
501.919308
 31
0.0
  0
ARC
  5
1E8
330
186
100
AcDbEntity
  8
0
  6
Continuous
 62
     0
370
    30
100
AcDbCircle
 10
551.110056
 20
501.919303
 30
0.0
 40
67.00000189858513
100
AcDbArc
 50
45.000004
 51
179.999996
  0
LINE
  5
1E9
330
186
100
AcDbEntity
  8
0
  6
Continuous
 62
     0
370
    30
100
AcDbLine
 10
598.486209
 20
549.295462
 30
0.0
 11
613.266169
 21
534.515502
 31
0.0
  0
LINE
  5
1EA
330
186
100
AcDbEntity
  8
0
  6
Continuous
 62
     0
370
    30
100
AcDbLine
 10
497.110055
 20
413.668928
 30
0.0
 11
497.110055
 21
501.919308
 31
0.0
  0
ARC
  5
1EB
330
186
100
AcDbEntity
  8
0
  6
Continuous
 62
     0
370
    30
100
AcDbCircle
 10
551.110056
 20
501.919304
 30
0.0
 40
54.00000137290471
100
AcDbArc
 50
45.000004
 51
179.999996
  0
LINE
  5
1EC
330
186
100
AcDbEntity
  8
0
  6
Continuous
 62
     0
370
    30
100
AcDbLine
 10
589.293821
 20
540.103074
 30
0.0
 11
604.073781
 21
525.323114
 31
0.0
  0
ARC
  5
1ED
330
186
100
AcDbEntity
  8
0
  6
Continuous
 62
     0
370
    30
100
AcDbCircle
 10
506.78925
 20
332.916665
 30
0.0
 40
80.00264918783289
100
AcDbArc
 50
84.927774
 51
86.25971
  0
ARC
  5
1EE
330
186
100
AcDbEntity
  8
0
  6
Continuous
 62
     0
370
    30
100
AcDbCircle
 10
474.430859
 20
332.916665
 30
0.0
 40
80.00264918783606
100
AcDbArc
 50
93.74029
 51
95.072226
  0
LINE
  5
1EF
330
186
100
AcDbEntity
  8
0
  6
Continuous
 62
     0
370
    30
100
AcDbLine
 10
466.284148
 20
412.508521
 30
0.0
 11
467.357709
 21
412.606027
 31
0.0
  0
ARC
  5
1F0
330
186
100
AcDbEntity
  8
0
  6
Continuous
 62
     0
370
    30
100
AcDbCircle
 10
490.609939
 20
150.636923
 30
0.0
 40
262.9990064146905
100
AcDbArc
 50
96.166798
 51
96.452584
  0
LINE
  5
1F1
330
186
100
AcDbEntity
  8
0
  6
Continuous
 62
     0
370
    30
100
AcDbLine
 10
514.935961
 20
412.508521
 30
0.0
 11
513.862401
 21
412.606027
 31
0.0
  0
ARC
  5
1F2
330
186
100
AcDbEntity
  8
0
  6
Continuous
 62
     0
370
    30
100
AcDbCircle
 10
490.610171
 20
150.636923
 30
0.0
 40
262.9990064149367
100
AcDbArc
 50
83.547416
 51
83.833202
  0
ARC
  5
1F3
330
186
100
AcDbEntity
  8
0
  6
Continuous
 62
     0
370
    30
100
AcDbCircle
 10
520.11005
 20
411.473046
 30
0.0
 40
0.5000047175439797
100
AcDbArc
 50
0.000483
 51
83.540236
  0
ARC
  5
1F4
330
186
100
AcDbEntity
  8
0
  6
Continuous
 62
     0
370
    30
100
AcDbCircle
 10
461.110059
 20
411.473046
 30
0.0
 40
0.5000047175445435
100
AcDbArc
 50
96.459764
 51
179.999517
  0
ENDBLK
  5
1F6
330
186
100
AcDbEntity
  8
0
100
AcDbBlockEnd
  0
BLOCK
  5
2D0
330
1F8
100
AcDbEntity
  8
0
100
AcDbBlockBegin
  2
d
 70
     0
 10
106.769302
 20
80.999611
 30
0.0
  3
d
  1

  0
ELLIPSE
  5
1F9
330
1F8
100
AcDbEntity
  8
0
  6
Continuous
 62
     0
370
    30
100
AcDbEllipse
 10
672.050507
 20
112.881338
 30
0.0
 11
29.9999999998787
 21
-5.604065853014974E-7
 31
0.0
210
0.0
220
0.0
230
-0.9999999999999999
 40
0.5
 41
0.5235987678264866
 42
3.141592633305271
  0
ELLIPSE
  5
1FA
330
1F8
100
AcDbEntity
  8
0
  6
Continuous
 62
     0
370
    30
100
AcDbEllipse
 10
672.050507
 20
112.881338
 30
0.0
 11
29.9999999998787
 21
-5.604065853014974E-7
 31
0.0
210
0.0
220
0.0
230
-0.9999999999999999
 40
0.5
 41
6.283185286895065
 42
6.806784075006073
  0
ELLIPSE
  5
1FB
330
1F8
100
AcDbEntity
  8
0
  6
Continuous
 62
     0
370
     0
100
AcDbEllipse
 10
672.050507
 20
123.574725
 30
0.0
 11
4.999999999976802
 21
-9.340109755019386E-8
 31
0.0
210
0.0
220
0.0
230
-0.9999999999999999
 40
0.5
 41
0.5235987678264866
 42
3.141592633305271
  0
ELLIPSE
  5
1FC
330
1F8
100
AcDbEntity
  8
0
  6
Continuous
 62
     0
370
     0
100
AcDbEllipse
 10
672.050507
 20
123.574725
 30
0.0
 11
4.999999999976802
 21
-9.340109755019386E-8
 31
0.0
210
0.0
220
0.0
230
-0.9999999999999999
 40
0.5
 41
6.283185286894996
 42
6.806784075006073
  0
ELLIPSE
  5
1FD
330
1F8
100
AcDbEntity
  8
0
  6
Continuous
 62
     0
370
     0
100
AcDbEllipse
 10
672.050507
 20
120.977122
 30
0.0
 11
7.942756406248017
 21
-1.483724331841681E-7
 31
0.0
210
0.0
220
0.0
230
-0.9999999999999999
 40
0.5
 41
5.393304149203598
 42
6.806784075006073
  0
ELLIPSE
  5
1FE
330
1F8
100
AcDbEntity
  8
0
  6
Continuous
 62
     0
370
     0
100
AcDbEllipse
 10
672.050507
 20
120.977122
 30
0.0
 11
7.942756406248017
 21
-1.483724331841681E-7
 31
0.0
210
0.0
220
0.0
230
-0.9999999999999999
 40
0.5
 41
3.665191421416279
 42
4.031473770996722
  0
ELLIPSE
  5
1FF
330
1F8
100
AcDbEntity
  8
0
  6
Continuous
 62
     0
370
     0
100
AcDbEllipse
 10
672.050507
 20
120.977122
 30
0.0
 11
7.942756406248017
 21
-1.483724331841681E-7
 31
0.0
210
0.0
220
0.0
230
-0.9999999999999999
 40
0.5
 41
0.5235987678264866
 42
3.665191421416279
  0
ELLIPSE
  5
200
330
1F8
100
AcDbEntity
  8
0
  6
Continuous
 62
     0
370
    30
100
AcDbEllipse
 10
672.050507
 20
126.114206
 30
0.0
 11
4.999999999977136
 21
-9.340109755020011E-8
 31
0.0
210
0.0
220
0.0
230
-0.9999999999999999
 40
0.5
 41
0.5235987678264861
 42
3.341927475605801
  0
ELLIPSE
  5
201
330
1F8
100
AcDbEntity
  8
0
  6
Continuous
 62
     0
370
    30
100
AcDbEllipse
 10
672.050507
 20
126.114206
 30
0.0
 11
4.999999999977136
 21
-9.340109755020011E-8
 31
0.0
210
0.0
220
0.0
230
-0.9999999999999999
 40
0.5
 41
6.246508445174621
 42
6.806784075006072
  0
ELLIPSE
  5
202
330
1F8
100
AcDbEntity
  8
0
  6
Continuous
 62
     0
370
    30
100
AcDbEllipse
 10
672.050507
 20
126.114206
 30
0.0
 11
-4.899999999999999
 21
9.153307571739613E-8
 31
0.0
210
0.0
220
0.0
230
0.9999999999999999
 40
0.5
 41
2.617993858759446
 42
3.141592673874315
  0
ELLIPSE
  5
203
330
1F8
100
AcDbEntity
  8
0
  6
Continuous
 62
     0
370
    30
100
AcDbEllipse
 10
672.050507
 20
126.114206
 30
0.0
 11
-4.899999999999999
 21
9.153307571739613E-8
 31
0.0
210
0.0
220
0.0
230
0.9999999999999999
 40
0.5
 41
0.0000000202845225
 42
2.617993858759445
  0
ELLIPSE
  5
204
330
1F8
100
AcDbEntity
  8
0
  6
Continuous
 62
     0
370
     0
100
AcDbEllipse
 10
672.050507
 20
119.418591
 30
0.0
 11
29.9999999998787
 21
-5.604065853014974E-7
 31
0.0
210
0.0
220
0.0
230
-0.9999999999999999
 40
0.5
 41
0.5235987678264866
 42
3.154812426401632
  0
ELLIPSE
  5
205
330
1F8
100
AcDbEntity
  8
0
  6
Continuous
 62
     0
370
     0
100
AcDbEllipse
 10
672.050507
 20
119.418591
 30
0.0
 11
29.9999999998787
 21
-5.604065853014974E-7
 31
0.0
210
0.0
220
0.0
230
-0.9999999999999999
 40
0.5
 41
6.269594690851134
 42
6.806784075006073
  0
ELLIPSE
  5
206
330
1F8
100
AcDbEntity
  8
0
  6
Continuous
 62
     0
370
     0
100
AcDbEllipse
 10
672.050507
 20
119.848616
 30
0.0
 11
29.55862662153386
 21
-5.521616337080901E-7
 31
0.0
210
0.0
220
0.0
230
-0.9999999999999999
 40
0.5
 41
5.493394585623867
 42
6.806784075006073
  0
ELLIPSE
  5
207
330
1F8
100
AcDbEntity
  8
0
  6
Continuous
 62
     0
370
     0
100
AcDbEllipse
 10
672.050507
 20
119.848616
 30
0.0
 11
29.55862662153386
 21
-5.521616337080901E-7
 31
0.0
210
0.0
220
0.0
230
-0.9999999999999999
 40
0.5
 41
3.665191421416279
 42
4.169604763699674
  0
ELLIPSE
  5
208
330
1F8
100
AcDbEntity
  8
0
  6
Continuous
 62
     0
370
     0
100
AcDbEllipse
 10
672.050507
 20
119.848616
 30
0.0
 11
29.55862662153386
 21
-5.521616337080901E-7
 31
0.0
210
0.0
220
0.0
230
-0.9999999999999999
 40
0.5
 41
0.5235987678264866
 42
3.665191421416279
  0
LINE
  5
209
330
1F8
100
AcDbEntity
  8
0
  6
Continuous
 62
     0
370
     0
100
AcDbLine
 10
676.294031
 20
124.889206
 30
0.0
 11
676.294031
 21
126.368892
 31
0.0
  0
ARC
  5
20A
330
1F8
100
AcDbEntity
  8
0
  6
Continuous
 62
     0
370
     0
100
AcDbCircle
 10
118.510626
 20
-1761.82136
 30
0.0
 40
1989.768352464999
100
AcDbArc
 50
73.749645
 51
74.046158
  0
LWPOLYLINE
  5
20B
330
1F8
100
AcDbEntity
  8
0
  6
Continuous
 62
     0
370
     0
100
AcDbPolyline
 90
        5
 70
     0
 43
0.0
 10
664.494995
 20
129.640823
 10
664.601135
 20
134.435196
 10
664.766785
 20
139.274689
 10
664.992004
 20
144.156937
 10
665.424072
 20
151.307968
  0
LWPOLYLINE
  5
20C
330
1F8
100
AcDbEntity
  8
0
  6
Continuous
 62
     0
370
    30
100
AcDbPolyline
 90
        5
 70
     0
 43
0.0
 10
674.436523
 20
126.770958
 10
671.989502
 20
127.340317
 10
669.612488
 20
127.973442
 10
667.307678
 20
128.669464
 10
664.494995
 20
129.640823
  0
ARC
  5
20D
330
1F8
100
AcDbEntity
  8
0
  6
Continuous
 62
     0
370
     0
100
AcDbCircle
 10
1109.906207
 20
119.93738
 30
0.0
 40
435.5232827363591
100
AcDbArc
 50
176.24604
 51
179.100964
  0
LINE
  5
20E
330
1F8
100
AcDbEntity
  8
0
  6
Continuous
 62
     0
370
     0
100
AcDbLine
 10
675.317383
 20
148.452006
 30
0.0
 11
688.925941
 21
144.483483
 31
0.0
  0
LINE
  5
20F
330
1F8
100
AcDbEntity
  8
0
  6
Continuous
 62
     0
370
    30
100
AcDbLine
 10
689.164927
 20
123.58293
 30
0.0
 11
674.436539
 21
126.770955
 31
0.0
  0
LWPOLYLINE
  5
210
330
1F8
100
AcDbEntity
  8
0
  6
Continuous
 62
     0
370
     0
100
AcDbPolyline
 90
        3
 70
     0
 43
0.0
 10
688.925964
 20
144.48349
 10
688.955688
 20
142.097687
 10
689.164917
 20
123.582932
  0
LINE
  5
211
330
1F8
100
AcDbEntity
  8
0
  6
Continuous
 62
     0
370
    30
100
AcDbLine
 10
692.761959
 20
125.812804
 30
0.0
 11
690.428275
 21
123.791774
 31
0.0
  0
LWPOLYLINE
  5
212
330
1F8
100
AcDbEntity
  8
0
  6
Continuous
 62
     0
370
    30
100
AcDbPolyline
 90
        5
 70
     0
 43
0.0
 10
690.428284
 20
123.791771
 10
690.208801
 20
123.660339
 10
689.913574
 20
123.573647
 10
689.577148
 20
123.541832
 10
689.164917
 20
123.582932
  0
LINE
  5
213
330
1F8
100
AcDbEntity
  8
0
  6
Continuous
 62
     0
370
    30
100
AcDbLine
 10
664.495014
 20
129.640826
 30
0.0
 11
651.609001
 21
134.424394
 31
0.0
  0
LWPOLYLINE
  5
214
330
1F8
100
AcDbEntity
  8
0
  6
Continuous
 62
     0
370
    30
100
AcDbPolyline
 90
        4
 70
     0
 43
0.0
 10
651.609009
 20
134.424393
 10
651.417053
 20
134.518051
 10
651.281799
 20
134.633835
 10
651.205078
 20
134.828796
  0
LWPOLYLINE
  5
215
330
1F8
100
AcDbEntity
  8
0
  6
Continuous
 62
     0
370
    30
100
AcDbPolyline
 90
        3
 70
     0
 43
0.0
 10
692.895935
 20
126.065979
 10
692.888306
 20
126.001198
 10
692.761963
 20
125.812805
  0
LINE
  5
216
330
1F8
100
AcDbEntity
  8
0
  6
Continuous
 62
     0
370
     0
100
AcDbLine
 10
651.916295
 20
155.167252
 30
0.0
 11
665.424047
 21
151.307967
 31
0.0
  0
ARC
  5
217
330
1F8
100
AcDbEntity
  8
0
  6
Continuous
 62
     0
370
     0
100
AcDbCircle
 10
2115.93136
 20
123.104956
 30
0.0
 40
1464.366108931625
100
AcDbArc
 50
178.745409
 51
179.557104
  0
LWPOLYLINE
  5
218
330
1F8
100
AcDbEntity
  8
0
  6
Continuous
 62
     0
370
     0
100
AcDbPolyline
 90
        5
 70
     0
 43
0.0
 10
665.924683
 20
152.496704
 10
665.756775
 20
152.303467
 10
665.608276
 20
152.034317
 10
665.49585
 20
151.719421
 10
665.424072
 20
151.307968
  0
LWPOLYLINE
  5
219
330
1F8
100
AcDbEntity
  8
0
  6
Continuous
 62
     0
370
     0
100
AcDbPolyline
 90
        5
 70
     0
 43
0.0
 10
675.317383
 20
148.452011
 10
675.365662
 20
148.774368
 10
675.464172
 20
149.096375
 10
675.601807
 20
149.381912
 10
675.809204
 20
149.64328
  0
ARC
  5
21A
330
1F8
100
AcDbEntity
  8
0
  6
Continuous
 62
     0
370
     0
100
AcDbCircle
 10
1125.220899
 20
1724.99708
 30
0.0
 40
1638.203419971101
100
AcDbArc
 50
253.717962
 51
254.077788
  0
ARC
  5
21B
330
1F8
100
AcDbEntity
  8
0
  6
Continuous
 62
     0
370
     0
100
AcDbCircle
 10
4465.594267
 20
160.276918
 30
0.0
 40
3775.342294259609
100
AcDbArc
 50
180.236876
 51
180.553719
  0
LWPOLYLINE
  5
21C
330
1F8
100
AcDbEntity
  8
0
  6
Continuous
 62
     0
370
     0
100
AcDbPolyline
 90
        5
 70
     0
 43
0.0
 10
690.284241
 20
144.668716
 10
690.038208
 20
144.528625
 10
689.704346
 20
144.442719
 10
689.330017
 20
144.423065
 10
688.925964
 20
144.48349
  0
LWPOLYLINE
  5
21D
330
1F8
100
AcDbEntity
  8
0
  6
Continuous
 62
     0
370
     0
100
AcDbPolyline
 90
        5
 70
     0
 43
0.0
 10
688.925964
 20
144.48349
 10
688.961792
 20
144.832291
 10
689.061279
 20
145.192062
 10
689.21051
 20
145.512726
 10
689.418274
 20
145.777176
  0
ARC
  5
21E
330
1F8
100
AcDbEntity
  8
0
  6
Continuous
 62
     0
370
     0
100
AcDbCircle
 10
2394.016805
 20
6172.003677
 30
0.0
 40
6262.672115682408
100
AcDbArc
 50
254.076304
 51
254.205737
  0
ARC
  5
21F
330
1F8
100
AcDbEntity
  8
0
  6
Continuous
 62
     0
370
     0
100
AcDbCircle
 10
-3047.635403
 20
96.885578
 30
0.0
 40
3740.509217900777
100
AcDbArc
 50
0.443101
 51
0.761912
  0
LINE
  5
220
330
1F8
100
AcDbEntity
  8
0
  6
Continuous
 62
     0
370
     0
100
AcDbLine
 10
692.543096
 20
146.62495
 30
0.0
 11
690.284237
 21
144.668721
 31
0.0
  0
LWPOLYLINE
  5
221
330
1F8
100
AcDbEntity
  8
0
  6
Continuous
 62
     0
370
     0
100
AcDbPolyline
 90
        4
 70
     0
 43
0.0
 10
651.4245
 20
155.616852
 10
651.469543
 20
155.451935
 10
651.62085
 20
155.302429
 10
651.916321
 20
155.167252
  0
LWPOLYLINE
  5
222
330
1F8
100
AcDbEntity
  8
0
  6
Continuous
 62
     0
370
     0
100
AcDbPolyline
 90
        3
 70
     0
 43
0.0
 10
692.543091
 20
146.624954
 10
692.611572
 20
146.698044
 10
692.676392
 20
146.895767
  0
LWPOLYLINE
  5
223
330
1F8
100
AcDbEntity
  8
0
  6
Continuous
 62
     0
370
     0
100
AcDbPolyline
 90
        5
 70
     0
 43
0.0
 10
652.423889
 20
156.456528
 10
652.237732
 20
156.238174
 10
652.077515
 20
155.92952
 10
651.965515
 20
155.573654
 10
651.91626
 20
155.167252
  0
ARC
  5
224
330
1F8
100
AcDbEntity
  8
0
  6
Continuous
 62
     0
370
     0
100
AcDbCircle
 10
2400.420733
 20
6091.153862
 30
0.0
 40
6186.770191590265
100
AcDbArc
 50
253.588269
 51
253.718567
  0
LINE
  5
225
330
1F8
100
AcDbEntity
  8
0
  6
Continuous
 62
     0
370
     0
100
AcDbLine
 10
654.682771
 20
158.412756
 30
0.0
 11
652.423908
 21
156.456523
 31
0.0
  0
LINE
  5
226
330
1F8
100
AcDbEntity
  8
0
  6
Continuous
 62
     0
370
     0
100
AcDbLine
 10
689.418246
 20
145.777181
 30
0.0
 11
691.677102
 21
147.733407
 31
0.0
  0
ARC
  5
227
330
1F8
100
AcDbEntity
  8
0
  6
Continuous
 62
     0
370
     0
100
AcDbCircle
 10
-1056.265405
 20
-5786.768961
 30
0.0
 40
6186.567818423475
100
AcDbArc
 50
73.588242
 51
73.718544
  0
ARC
  5
228
330
1F8
100
AcDbEntity
  8
0
  6
Continuous
 62
     0
370
     0
100
AcDbCircle
 10
218.916565
 20
-1420.683022
 30
0.0
 40
1638.074057207494
100
AcDbArc
 50
73.717971
 51
74.077822
  0
ARC
  5
229
330
1F8
100
AcDbEntity
  8
0
  6
Continuous
 62
     0
370
     0
100
AcDbCircle
 10
-1057.034744
 20
-5892.868253
 30
0.0
 40
6288.718366896863
100
AcDbArc
 50
74.07656
 51
74.205456
  0
ELLIPSE
  5
22A
330
1F8
100
AcDbEntity
  8
0
  6
Continuous
 62
     0
370
     0
100
AcDbEllipse
 10
689.418245
 20
144.911154
 30
0.0
 11
-0.6546536746770777
 21
0.7559289425811127
 31
0.0
210
0.0
220
0.0
230
-1.0
 40
0.75
 41
0.8570726633793158
 42
2.419141673112933
  0
ELLIPSE
  5
22B
330
1F8
100
AcDbEntity
  8
0
  6
Continuous
 62
     0
370
     0
100
AcDbEllipse
 10
691.677103
 20
146.867383
 30
0.0
 11
0.6546536746770777
 21
-0.7559289425811127
 31
0.0
210
0.0
220
0.0
230
1.0
 40
0.75
 41
0.72245098047686
 42
2.284520661010446
  0
ELLIPSE
  5
22C
330
1F8
100
AcDbEntity
  8
0
  6
Continuous
 62
     0
370
     0
100
AcDbEllipse
 10
654.68277
 20
157.546729
 30
0.0
 11
0.6546536746770778
 21
-0.7559289425811124
 31
0.0
210
0.0
220
0.0
230
1.0
 40
0.75
 41
2.284508173510468
 42
3.143950185021789
  0
ELLIPSE
  5
22D
330
1F8
100
AcDbEntity
  8
0
  6
Continuous
 62
     0
370
     0
100
AcDbEllipse
 10
652.423911
 20
155.590501
 30
0.0
 11
-0.6546536746770778
 21
0.7559289425811124
 31
0.0
210
0.0
220
0.0
230
-1.0
 40
0.75
 41
6.283016499910435
 42
7.140260440658924
  0
LWPOLYLINE
  5
22E
330
1F8
100
AcDbEntity
  8
0
  6
Continuous
 62
     0
370
     0
100
AcDbPolyline
 90
        3
 70
     0
 43
0.0
 10
668.566284
 20
154.642197
 10
668.484863
 20
154.64743
 10
668.291809
 20
154.546646
  0
LWPOLYLINE
  5
22F
330
1F8
100
AcDbEntity
  8
0
  6
Continuous
 62
     0
370
     0
100
AcDbPolyline
 90
        3
 70
     0
 43
0.0
 10
654.6828
 20
158.41275
 10
654.782959
 20
158.483063
 10
654.96167
 20
158.50708
  0
LWPOLYLINE
  5
230
330
1F8
100
AcDbEntity
  8
0
  6
Continuous
 62
     0
370
     0
100
AcDbPolyline
 90
        3
 70
     0
 43
0.0
 10
678.456848
 20
151.787003
 10
678.373047
 20
151.792923
 10
678.17627
 20
151.693237
  0
LWPOLYLINE
  5
231
330
1F8
100
AcDbEntity
  8
0
  6
Continuous
 62
     0
370
     0
100
AcDbPolyline
 90
        3
 70
     0
 43
0.0
 10
691.971008
 20
147.822906
 10
691.874817
 20
147.832825
 10
691.677124
 20
147.733414
  0
ARC
  5
232
330
1F8
100
AcDbEntity
  8
0
  6
Continuous
 62
     0
370
    30
100
AcDbCircle
 10
654.682773
 20
157.546626
 30
0.0
 40
1.000080310542716
100
AcDbArc
 50
74.609962
 51
130.891442
  0
ARC
  5
233
330
1F8
100
AcDbEntity
  8
0
  6
Continuous
 62
     0
370
    30
100
AcDbCircle
 10
652.422587
 20
155.591428
 30
0.0
 40
0.9984247730368864
100
AcDbArc
 50
130.857674
 51
179.304574
  0
LWPOLYLINE
  5
234
330
1F8
100
AcDbEntity
  8
0
  6
Continuous
 62
     0
370
    30
100
AcDbPolyline
 90
        6
 70
     0
 43
0.0
 10
691.9599
 20
147.826233
 10
692.184448
 20
147.72908
 10
692.378479
 20
147.580017
 10
692.530579
 20
147.388382
 10
692.631592
 20
147.165527
 10
692.676758
 20
146.881104
  0
ARC
  5
235
330
1F8
100
AcDbEntity
  8
0
  6
Continuous
 62
     0
370
    30
100
AcDbCircle
 10
-1056.147245
 20
-5787.232499
 30
0.0
 40
6187.148336066541
100
AcDbArc
 50
73.588238
 51
73.71855
  0
ARC
  5
236
330
1F8
100
AcDbEntity
  8
0
  6
Continuous
 62
     0
370
    30
100
AcDbCircle
 10
219.351297
 20
-1420.043664
 30
0.0
 40
1637.507117870367
100
AcDbArc
 50
73.717796
 51
74.077995
  0
ARC
  5
237
330
1F8
100
AcDbEntity
  8
0
  6
Continuous
 62
     0
370
    30
100
AcDbCircle
 10
-1058.226707
 20
-5897.923902
 30
0.0
 40
6294.074240141026
100
AcDbArc
 50
74.07659
 51
74.205398
  0
LINE
  5
238
330
1F8
100
AcDbEntity
  8
0
  6
Continuous
 62
     0
370
    30
100
AcDbLine
 10
654.028116
 20
158.302658
 30
0.0
 11
651.769258
 21
156.34643
 31
0.0
  0
ARC
  5
239
330
1F8
100
AcDbEntity
  8
0
  6
Continuous
 62
     0
370
    30
100
AcDbCircle
 10
-3052.414571
 20
97.087942
 30
0.0
 40
3745.422582716987
100
AcDbArc
 50
0.443279
 51
0.761734
  0
ARC
  5
23A
330
1F8
100
AcDbEntity
  8
0
  6
Continuous
 62
     0
370
    30
100
AcDbCircle
 10
4450.859378
 20
105.182852
 30
0.0
 40
3799.769927597757
100
AcDbArc
 50
179.239686
 51
179.552984
  0
LINE
  5
23B
330
1F8
100
AcDbEntity
  8
0
  6
Continuous
 62
     0
370
    30
100
AcDbLine
 10
676.950507
 20
126.226795
 30
0.0
 11
676.950507
 21
126.114206
 31
0.0
  0
LINE
  5
23C
330
1F8
100
AcDbEntity
  8
0
  6
Continuous
 62
     0
370
    30
100
AcDbLine
 10
667.150507
 20
128.720078
 30
0.0
 11
667.150507
 21
126.114206
 31
0.0
  0
LWPOLYLINE
  5
23D
330
1F8
100
AcDbEntity
  8
0
  6
Continuous
 62
     0
370
    30
100
AcDbPolyline
 90
       13
 70
     0
 43
0.0
 10
692.858826
 20
130.431122
 10
694.237122
 20
129.713425
 10
695.519958
 20
128.950287
 10
696.701538
 20
128.14447
 10
697.776733
 20
127.298889
 10
698.74115
 20
126.416588
 10
699.590515
 20
125.50061
 10
700.320435
 20
124.554115
 10
700.926941
 20
123.580589
 10
701.406311
 20
122.584015
 10
701.755249
 20
121.568726
 10
701.970581
 20
120.539536
 10
702.050354
 20
119.419617
  0
LWPOLYLINE
  5
23E
330
1F8
100
AcDbEntity
  8
0
  6
Continuous
 62
     0
370
    30
100
AcDbPolyline
 90
       16
 70
     0
 43
0.0
 10
642.050598
 20
119.417877
 10
642.123596
 20
120.488983
 10
642.341614
 20
121.553833
 10
642.702637
 20
122.603806
 10
643.203308
 20
123.633629
 10
643.839844
 20
124.638611
 10
644.608032
 20
125.61441
 10
645.503418
 20
126.557045
 10
646.521057
 20
127.463089
 10
647.65625
 20
128.329254
 10
648.903931
 20
129.152267
 10
650.258362
 20
129.928879
 10
651.713379
 20
130.655914
 10
653.262268
 20
131.330414
 10
654.89801
 20
131.949509
 10
656.696838
 20
132.535675
  0
LINE
  5
23F
330
1F8
100
AcDbEntity
  8
0
  6
Continuous
 62
     0
370
    30
100
AcDbLine
 10
642.050507
 20
119.418591
 30
0.0
 11
642.050507
 21
112.881338
 31
0.0
  0
LINE
  5
240
330
1F8
100
AcDbEntity
  8
0
  6
Continuous
 62
     0
370
    30
100
AcDbLine
 10
702.050507
 20
119.41859
 30
0.0
 11
702.050507
 21
112.881338
 31
0.0
  0
LINE
  5
241
330
1F8
100
AcDbEntity
  8
0
  6
Continuous
 62
     0
370
    30
100
AcDbLine
 10
667.050507
 20
126.114206
 30
0.0
 11
667.050507
 21
123.574725
 31
0.0
  0
LINE
  5
242
330
1F8
100
AcDbEntity
  8
0
  6
Continuous
 62
     0
370
    30
100
AcDbLine
 10
677.050507
 20
126.114206
 30
0.0
 11
677.050507
 21
123.574725
 31
0.0
  0
LWPOLYLINE
  5
243
330
1F8
100
AcDbEntity
  8
0
  6
Continuous
 62
     0
370
    30
100
AcDbPolyline
 90
        4
 70
     0
 43
0.0
 10
666.957153
 20
123.175369
 10
666.981628
 20
123.22274
 10
667.025269
 20
123.353752
 10
667.050537
 20
123.574715
  0
LWPOLYLINE
  5
244
330
1F8
100
AcDbEntity
  8
0
  6
Continuous
 62
     0
370
    30
100
AcDbPolyline
 90
        4
 70
     0
 43
0.0
 10
677.050537
 20
123.574722
 10
677.06897
 20
123.384743
 10
677.11145
 20
123.240852
 10
677.143921
 20
123.1754
  0
ELLIPSE
  5
245
330
1F8
100
AcDbEntity
  8
0
  6
Continuous
 62
     0
370
    30
100
AcDbEllipse
 10
498.845426
 20
162.881345
 30
0.0
 11
-29.9999999998787
 21
5.604065853014974E-7
 31
0.0
210
0.0
220
0.0
230
0.9999999999999999
 40
0.5
 41
2.617993885763306
 42
3.141592673874316
  0
ELLIPSE
  5
246
330
1F8
100
AcDbEntity
  8
0
  6
Continuous
 62
     0
370
    30
100
AcDbEllipse
 10
498.845426
 20
162.881345
 30
0.0
 11
-29.9999999998787
 21
5.604065853014974E-7
 31
0.0
210
0.0
220
0.0
230
0.9999999999999999
 40
0.5
 41
0.0000000202845234
 42
2.617993885763306
  0
ELLIPSE
  5
247
330
1F8
100
AcDbEntity
  8
0
  6
Continuous
 62
     0
370
     0
100
AcDbEllipse
 10
498.845426
 20
170.977129
 30
0.0
 11
-7.942756406248017
 21
1.483724331841681E-7
 31
0.0
210
0.0
220
0.0
230
0.9999999999999999
 40
0.5
 41
5.7595865393531
 42
8.901179192942895
  0
ELLIPSE
  5
248
330
1F8
100
AcDbEntity
  8
0
  6
Continuous
 62
     0
370
     0
100
AcDbEllipse
 10
498.845426
 20
170.977129
 30
0.0
 11
-7.942756406248017
 21
1.483724331841681E-7
 31
0.0
210
0.0
220
0.0
230
0.9999999999999999
 40
0.5
 41
5.393304189772641
 42
5.7595865393531
  0
ELLIPSE
  5
249
330
1F8
100
AcDbEntity
  8
0
  6
Continuous
 62
     0
370
     0
100
AcDbEllipse
 10
498.845426
 20
170.977129
 30
0.0
 11
-7.942756406248017
 21
1.483724331841681E-7
 31
0.0
210
0.0
220
0.0
230
0.9999999999999999
 40
0.5
 41
2.617993885763307
 42
4.031473811565764
  0
ELLIPSE
  5
24A
330
1F8
100
AcDbEntity
  8
0
  6
Continuous
 62
     0
370
     0
100
AcDbEllipse
 10
498.845426
 20
173.574732
 30
0.0
 11
-4.999999999976802
 21
9.340109755019386E-8
 31
0.0
210
0.0
220
0.0
230
0.9999999999999999
 40
0.5
 41
2.617993885763306
 42
3.141593152454936
  0
ELLIPSE
  5
24B
330
1F8
100
AcDbEntity
  8
0
  6
Continuous
 62
     0
370
     0
100
AcDbEllipse
 10
498.845426
 20
173.574732
 30
0.0
 11
-4.999999999976802
 21
9.340109755019386E-8
 31
0.0
210
0.0
220
0.0
230
0.9999999999999999
 40
0.5
 41
0.000000020284471
 42
2.617993885763306
  0
ELLIPSE
  5
24C
330
1F8
100
AcDbEntity
  8
0
  6
Continuous
 62
     0
370
    30
100
AcDbEllipse
 10
498.845426
 20
176.114213
 30
0.0
 11
-4.999999999977136
 21
9.340109755020011E-8
 31
0.0
210
0.0
220
0.0
230
0.9999999999999999
 40
0.5
 41
2.617993885763306
 42
3.178269610782784
  0
ELLIPSE
  5
24D
330
1F8
100
AcDbEntity
  8
0
  6
Continuous
 62
     0
370
    30
100
AcDbEllipse
 10
498.845426
 20
176.114213
 30
0.0
 11
-4.999999999977136
 21
9.340109755020011E-8
 31
0.0
210
0.0
220
0.0
230
0.9999999999999999
 40
0.5
 41
6.082850485163402
 42
8.901179192942891
  0
ELLIPSE
  5
24E
330
1F8
100
AcDbEntity
  8
0
  6
Continuous
 62
     0
370
    30
100
AcDbEllipse
 10
498.845426
 20
176.114213
 30
0.0
 11
4.899999999999999
 21
-9.153307631118569E-8
 31
0.0
210
0.0
220
0.0
230
-0.9999999999999999
 40
0.5
 41
0.5235987408226166
 42
3.141592633305268
  0
ELLIPSE
  5
24F
330
1F8
100
AcDbEntity
  8
0
  6
Continuous
 62
     0
370
    30
100
AcDbEllipse
 10
498.845426
 20
176.114213
 30
0.0
 11
4.899999999999999
 21
-9.153307631118569E-8
 31
0.0
210
0.0
220
0.0
230
-0.9999999999999999
 40
0.5
 41
6.283185286895064
 42
6.806784048002203
  0
ELLIPSE
  5
250
330
1F8
100
AcDbEntity
  8
0
  6
Continuous
 62
     0
370
     0
100
AcDbEllipse
 10
498.845426
 20
169.418598
 30
0.0
 11
-29.9999999998787
 21
5.604065853014974E-7
 31
0.0
210
0.0
220
0.0
230
0.9999999999999999
 40
0.5
 41
2.617993885763306
 42
3.152941509437309
  0
ELLIPSE
  5
251
330
1F8
100
AcDbEntity
  8
0
  6
Continuous
 62
     0
370
     0
100
AcDbEllipse
 10
498.845426
 20
169.418598
 30
0.0
 11
-29.9999999998787
 21
5.604065853014974E-7
 31
0.0
210
0.0
220
0.0
230
0.9999999999999999
 40
0.5
 41
6.266956650486226
 42
8.901179192942893
  0
ELLIPSE
  5
252
330
1F8
100
AcDbEntity
  8
0
  6
Continuous
 62
     0
370
     0
100
AcDbEllipse
 10
498.845426
 20
169.848624
 30
0.0
 11
-29.55862662153386
 21
5.521616337080901E-7
 31
0.0
210
0.0
220
0.0
230
0.9999999999999999
 40
0.5
 41
5.7595865393531
 42
8.901179192942893
  0
ELLIPSE
  5
253
330
1F8
100
AcDbEntity
  8
0
  6
Continuous
 62
     0
370
     0
100
AcDbEllipse
 10
498.845426
 20
169.848624
 30
0.0
 11
-29.55862662153386
 21
5.521616337080901E-7
 31
0.0
210
0.0
220
0.0
230
0.9999999999999999
 40
0.5
 41
5.255173226130467
 42
5.7595865393531
  0
ELLIPSE
  5
254
330
1F8
100
AcDbEntity
  8
0
  6
Continuous
 62
     0
370
     0
100
AcDbEllipse
 10
498.845426
 20
169.848624
 30
0.0
 11
-29.55862662153386
 21
5.521616337080901E-7
 31
0.0
210
0.0
220
0.0
230
0.9999999999999999
 40
0.5
 41
2.617993885763306
 42
3.931383351453385
  0
LINE
  5
255
330
1F8
100
AcDbEntity
  8
0
  6
Continuous
 62
     0
370
     0
100
AcDbLine
 10
503.088951
 20
176.368899
 30
0.0
 11
503.088951
 21
174.889213
 31
0.0
  0
LWPOLYLINE
  5
256
330
1F8
100
AcDbEntity
  8
0
  6
Continuous
 62
     0
370
     0
100
AcDbPolyline
 90
        5
 70
     0
 43
0.0
 10
492.218964
 20
201.307968
 10
491.907684
 20
196.367981
 10
491.655731
 20
191.46727
 10
491.463257
 20
186.608246
 10
491.289948
 20
179.640839
  0
LWPOLYLINE
  5
257
330
1F8
100
AcDbEntity
  8
0
  6
Continuous
 62
     0
370
    30
100
AcDbPolyline
 90
        5
 70
     0
 43
0.0
 10
491.289948
 20
179.640839
 10
493.499603
 20
178.865921
 10
495.784729
 20
178.153198
 10
498.14267
 20
177.503204
 10
501.231445
 20
176.770966
  0
ARC
  5
258
330
1F8
100
AcDbEntity
  8
0
  6
Continuous
 62
     0
370
     0
100
AcDbCircle
 10
936.701166
 20
169.937387
 30
0.0
 40
435.5233221103241
100
AcDbArc
 50
176.24604
 51
179.100964
  0
ARC
  5
259
330
1F8
100
AcDbEntity
  8
0
  6
Continuous
 62
     0
370
     0
100
AcDbCircle
 10
-54.696228
 20
-1711.823106
 30
0.0
 40
1989.770528649883
100
AcDbArc
 50
73.74961
 51
74.046123
  0
ARC
  5
25A
330
1F8
100
AcDbEntity
  8
0
  6
Continuous
 62
     0
370
     0
100
AcDbCircle
 10
1942.728891
 20
173.104923
 30
0.0
 40
1464.368721699681
100
AcDbArc
 50
178.745409
 51
179.557103
  0
LINE
  5
25B
330
1F8
100
AcDbEntity
  8
0
  6
Continuous
 62
     0
370
    30
100
AcDbLine
 10
478.40392
 20
184.424401
 30
0.0
 11
491.289933
 21
179.640833
 31
0.0
  0
LINE
  5
25C
330
1F8
100
AcDbEntity
  8
0
  6
Continuous
 62
     0
370
     0
100
AcDbLine
 10
492.218966
 20
201.307974
 30
0.0
 11
478.711214
 21
205.167256
 31
0.0
  0
LWPOLYLINE
  5
25D
330
1F8
100
AcDbEntity
  8
0
  6
Continuous
 62
     0
370
    30
100
AcDbPolyline
 90
        3
 70
     0
 43
0.0
 10
519.556885
 20
175.812805
 10
519.61438
 20
175.871033
 10
519.690857
 20
176.065994
  0
LINE
  5
25E
330
1F8
100
AcDbEntity
  8
0
  6
Continuous
 62
     0
370
    30
100
AcDbLine
 10
517.223195
 20
173.791782
 30
0.0
 11
519.556878
 21
175.812811
 31
0.0
  0
LWPOLYLINE
  5
25F
330
1F8
100
AcDbEntity
  8
0
  6
Continuous
 62
     0
370
    30
100
AcDbPolyline
 90
        5
 70
     0
 43
0.0
 10
515.959839
 20
173.582932
 10
516.292725
 20
173.542816
 10
516.633118
 20
173.561203
 10
516.941162
 20
173.63591
 10
517.223206
 20
173.791779
  0
LINE
  5
260
330
1F8
100
AcDbEntity
  8
0
  6
Continuous
 62
     0
370
    30
100
AcDbLine
 10
501.231458
 20
176.770962
 30
0.0
 11
515.959847
 21
173.582938
 31
0.0
  0
LWPOLYLINE
  5
261
330
1F8
100
AcDbEntity
  8
0
  6
Continuous
 62
     0
370
    30
100
AcDbPolyline
 90
        4
 70
     0
 43
0.0
 10
478.000031
 20
184.828796
 10
478.034424
 20
184.695816
 10
478.138275
 20
184.572189
 10
478.403931
 20
184.424408
  0
LWPOLYLINE
  5
262
330
1F8
100
AcDbEntity
  8
0
  6
Continuous
 62
     0
370
     0
100
AcDbPolyline
 90
        3
 70
     0
 43
0.0
 10
515.959839
 20
173.582932
 10
515.936951
 20
175.953812
 10
515.720886
 20
194.48349
  0
LINE
  5
263
330
1F8
100
AcDbEntity
  8
0
  6
Continuous
 62
     0
370
     0
100
AcDbLine
 10
515.720861
 20
194.483493
 30
0.0
 11
502.112303
 21
198.452013
 31
0.0
  0
ARC
  5
264
330
1F8
100
AcDbEntity
  8
0
  6
Continuous
 62
     0
370
     0
100
AcDbCircle
 10
952.020541
 20
1775.015204
 30
0.0
 40
1638.222136136825
100
AcDbArc
 50
253.717982
 51
254.077804
  0
LWPOLYLINE
  5
265
330
1F8
100
AcDbEntity
  8
0
  6
Continuous
 62
     0
370
     0
100
AcDbPolyline
 90
        5
 70
     0
 43
0.0
 10
492.218964
 20
201.307968
 10
492.268097
 20
201.630096
 10
492.368378
 20
201.951599
 10
492.508514
 20
202.23642
 10
492.719635
 20
202.496704
  0
LWPOLYLINE
  5
266
330
1F8
100
AcDbEntity
  8
0
  6
Continuous
 62
     0
370
     0
100
AcDbPolyline
 90
        5
 70
     0
 43
0.0
 10
502.604156
 20
199.64328
 10
502.439209
 20
199.449219
 10
502.293304
 20
199.179306
 10
502.182861
 20
198.863846
 10
502.112305
 20
198.452011
  0
LWPOLYLINE
  5
267
330
1F8
100
AcDbEntity
  8
0
  6
Continuous
 62
     0
370
     0
100
AcDbPolyline
 90
        4
 70
     0
 43
0.0
 10
478.219421
 20
205.616867
 10
478.264465
 20
205.451935
 10
478.415771
 20
205.302444
 10
478.711212
 20
205.167252
  0
ARC
  5
268
330
1F8
100
AcDbEntity
  8
0
  6
Continuous
 62
     0
370
     0
100
AcDbCircle
 10
2219.592913
 20
6115.157607
 30
0.0
 40
6159.679400320118
100
AcDbArc
 50
253.587964
 51
253.718836
  0
LWPOLYLINE
  5
269
330
1F8
100
AcDbEntity
  8
0
  6
Continuous
 62
     0
370
     0
100
AcDbPolyline
 90
        5
 70
     0
 43
0.0
 10
478.711212
 20
205.167252
 10
478.748199
 20
205.515762
 10
478.8508
 20
205.874664
 10
479.004669
 20
206.193985
 10
479.218842
 20
206.456528
  0
ARC
  5
26A
330
1F8
100
AcDbEntity
  8
0
  6
Continuous
 62
     0
370
     0
100
AcDbCircle
 10
4292.390875
 20
210.276941
 30
0.0
 40
3775.343982316882
100
AcDbArc
 50
180.236876
 51
180.553719
  0
LWPOLYLINE
  5
26B
330
1F8
100
AcDbEntity
  8
0
  6
Continuous
 62
     0
370
     0
100
AcDbPolyline
 90
        5
 70
     0
 43
0.0
 10
517.079163
 20
194.668732
 10
516.833069
 20
194.528641
 10
516.499268
 20
194.442734
 10
516.124939
 20
194.42308
 10
515.720886
 20
194.48349
  0
ARC
  5
26C
330
1F8
100
AcDbEntity
  8
0
  6
Continuous
 62
     0
370
     0
100
AcDbCircle
 10
-3220.83951
 20
146.885594
 30
0.0
 40
3740.50824442526
100
AcDbArc
 50
0.443101
 51
0.761912
  0
LINE
  5
26D
330
1F8
100
AcDbEntity
  8
0
  6
Continuous
 62
     0
370
     0
100
AcDbLine
 10
519.338016
 20
196.624958
 30
0.0
 11
517.079157
 21
194.668729
 31
0.0
  0
LWPOLYLINE
  5
26E
330
1F8
100
AcDbEntity
  8
0
  6
Continuous
 62
     0
370
     0
100
AcDbPolyline
 90
        3
 70
     0
 43
0.0
 10
519.338013
 20
196.624954
 10
519.413025
 20
196.706985
 10
519.470459
 20
196.905212
  0
ARC
  5
26F
330
1F8
100
AcDbEntity
  8
0
  6
Continuous
 62
     0
370
     0
100
AcDbCircle
 10
2228.346127
 20
6248.51821
 30
0.0
 40
6290.236339768264
100
AcDbArc
 50
254.07657
 51
254.205435
  0
LWPOLYLINE
  5
270
330
1F8
100
AcDbEntity
  8
0
  6
Continuous
 62
     0
370
     0
100
AcDbPolyline
 90
        5
 70
     0
 43
0.0
 10
516.213135
 20
195.777191
 10
516.032593
 20
195.557236
 10
515.877197
 20
195.247208
 10
515.768616
 20
194.890381
 10
515.720886
 20
194.48349
  0
ARC
  5
271
330
1F8
100
AcDbEntity
  8
0
  6
Continuous
 62
     0
370
     0
100
AcDbCircle
 10
-1305.087575
 20
-5995.072441
 30
0.0
 40
6455.712032564037
100
AcDbArc
 50
73.632191
 51
73.717057
  0
ARC
  5
272
330
1F8
100
AcDbEntity
  8
0
  6
Continuous
 62
     0
370
     0
100
AcDbCircle
 10
45.716092
 20
-1370.66453
 30
0.0
 40
1638.055019495689
100
AcDbArc
 50
73.717944
 51
74.077799
  0
ARC
  5
273
330
1F8
100
AcDbEntity
  8
0
  6
Continuous
 62
     0
370
     0
100
AcDbCircle
 10
-1230.575333
 20
-5844.056991
 30
0.0
 40
6289.953547718038
100
AcDbArc
 50
74.076591
 51
74.205463
  0
LINE
  5
274
330
1F8
100
AcDbEntity
  8
0
  6
Continuous
 62
     0
370
     0
100
AcDbLine
 10
479.218831
 20
206.456534
 30
0.0
 11
481.477687
 21
208.41276
 31
0.0
  0
LINE
  5
275
330
1F8
100
AcDbEntity
  8
0
  6
Continuous
 62
     0
370
     0
100
AcDbLine
 10
518.096397
 20
197.408114
 30
0.0
 11
516.213162
 21
195.777184
 31
0.0
  0
ELLIPSE
  5
276
330
1F8
100
AcDbEntity
  8
0
  6
Continuous
 62
     0
370
     0
100
AcDbEllipse
 10
481.477688
 20
207.546736
 30
0.0
 11
-0.6546537213354058
 21
0.7559289021738121
 31
0.0
210
0.0
220
0.0
230
-0.9999999999999998
 40
0.75
 41
0.0000000187309613
 42
0.8570720388714901
  0
ELLIPSE
  5
277
330
1F8
100
AcDbEntity
  8
0
  6
Continuous
 62
     0
370
     0
100
AcDbEllipse
 10
479.21883
 20
205.590507
 30
0.0
 11
0.6546537213354058
 21
-0.7559289021738121
 31
0.0
210
0.0
220
0.0
230
0.9999999999999998
 40
0.75
 41
2.284521285518168
 42
3.141751027675444
  0
ELLIPSE
  5
278
330
1F8
100
AcDbEntity
  8
0
  6
Continuous
 62
     0
370
     0
100
AcDbEllipse
 10
516.213165
 20
194.911162
 30
0.0
 11
0.654653721335406
 21
-0.755928902173812
 31
0.0
210
0.0
220
0.0
230
1.0
 40
0.75
 41
0.7224509341845895
 42
2.284523755618156
  0
ELLIPSE
  5
279
330
1F8
100
AcDbEntity
  8
0
  6
Continuous
 62
     0
370
     0
100
AcDbEllipse
 10
518.472023
 20
196.867391
 30
0.0
 11
-0.654653721335406
 21
0.755928902173812
 31
0.0
210
0.0
220
0.0
230
-1.0
 40
0.75
 41
2.023371286353907
 42
2.419141719405227
  0
LWPOLYLINE
  5
27A
330
1F8
100
AcDbEntity
  8
0
  6
Continuous
 62
     0
370
     0
100
AcDbPolyline
 90
        3
 70
     0
 43
0.0
 10
505.251556
 20
201.787109
 10
505.167725
 20
201.79303
 10
504.971222
 20
201.693253
  0
LWPOLYLINE
  5
27B
330
1F8
100
AcDbEntity
  8
0
  6
Continuous
 62
     0
370
     0
100
AcDbPolyline
 90
        3
 70
     0
 43
0.0
 10
495.361206
 20
204.642181
 10
495.280029
 20
204.647339
 10
495.086731
 20
204.546661
  0
LWPOLYLINE
  5
27C
330
1F8
100
AcDbEntity
  8
0
  6
Continuous
 62
     0
370
     0
100
AcDbPolyline
 90
        3
 70
     0
 43
0.0
 10
481.749756
 20
208.509003
 10
481.669464
 20
208.513901
 10
481.477692
 20
208.412766
  0
LINE
  5
27D
330
1F8
100
AcDbEntity
  8
0
  6
Continuous
 62
     0
370
    30
100
AcDbLine
 10
519.471873
 20
196.904694
 30
0.0
 11
519.47191
 21
196.881218
 31
0.0
  0
ARC
  5
27E
330
1F8
100
AcDbEntity
  8
0
  6
Continuous
 62
     0
370
    30
100
AcDbCircle
 10
479.217504
 20
205.591436
 30
0.0
 40
0.9984232067532114
100
AcDbArc
 50
130.857929
 51
179.30465
  0
LWPOLYLINE
  5
27F
330
1F8
100
AcDbEntity
  8
0
  6
Continuous
 62
     0
370
    30
100
AcDbPolyline
 90
        5
 70
     0
 43
0.0
 10
480.822998
 20
208.302628
 10
481.021851
 20
208.436676
 10
481.24704
 20
208.51976
 10
481.485443
 20
208.5466
 10
481.748077
 20
208.509476
  0
ARC
  5
280
330
1F8
100
AcDbEntity
  8
0
  6
Continuous
 62
     0
370
    30
100
AcDbCircle
 10
-1230.502479
 20
-5844.66526
 30
0.0
 40
6290.685686002395
100
AcDbArc
 50
74.076587
 51
74.205464
  0
ARC
  5
281
330
1F8
100
AcDbEntity
  8
0
  6
Continuous
 62
     0
370
    30
100
AcDbCircle
 10
46.141804
 20
-1370.05665
 30
0.0
 40
1637.520824899599
100
AcDbArc
 50
73.717919
 51
74.077971
  0
ARC
  5
282
330
1F8
100
AcDbEntity
  8
0
  6
Continuous
 62
     0
370
    30
100
AcDbCircle
 10
-1317.222381
 20
-6037.410626
 30
0.0
 40
6499.923052638764
100
AcDbArc
 50
73.637996
 51
73.71688
  0
LINE
  5
283
330
1F8
100
AcDbEntity
  8
0
  6
Continuous
 62
     0
370
    30
100
AcDbLine
 10
478.564176
 20
206.346436
 30
0.0
 11
480.823035
 21
208.302665
 31
0.0
  0
ARC
  5
284
330
1F8
100
AcDbEntity
  8
0
  6
Continuous
 62
     0
370
    30
100
AcDbCircle
 10
-3225.62222
 20
147.087921
 30
0.0
 40
3745.425151427062
100
AcDbArc
 50
0.443279
 51
0.761734
  0
ARC
  5
285
330
1F8
100
AcDbEntity
  8
0
  6
Continuous
 62
     0
370
    30
100
AcDbCircle
 10
4277.656971
 20
155.182828
 30
0.0
 40
3799.772602018004
100
AcDbArc
 50
179.239686
 51
179.552984
  0
LINE
  5
286
330
1F8
100
AcDbEntity
  8
0
  6
Continuous
 62
     0
370
    30
100
AcDbLine
 10
503.745426
 20
176.114213
 30
0.0
 11
503.745426
 21
176.226802
 31
0.0
  0
LINE
  5
287
330
1F8
100
AcDbEntity
  8
0
  6
Continuous
 62
     0
370
    30
100
AcDbLine
 10
493.945426
 20
176.114213
 30
0.0
 11
493.945426
 21
178.720085
 31
0.0
  0
LWPOLYLINE
  5
288
330
1F8
100
AcDbEntity
  8
0
  6
Continuous
 62
     0
370
    30
100
AcDbPolyline
 90
        9
 70
     0
 43
0.0
 10
472.970367
 20
177.171585
 10
472.041504
 20
176.303177
 10
471.223267
 20
175.402649
 10
470.519684
 20
174.473358
 10
469.934753
 20
173.518539
 10
469.472076
 20
172.541794
 10
469.134735
 20
171.547287
 10
468.925537
 20
170.539627
 10
468.845581
 20
169.417572
  0
LWPOLYLINE
  5
289
330
1F8
100
AcDbEntity
  8
0
  6
Continuous
 62
     0
370
    30
100
AcDbPolyline
 90
        8
 70
     0
 43
0.0
 10
483.491791
 20
182.535675
 10
481.704498
 20
181.953552
 10
480.003235
 20
181.308487
 10
478.396332
 20
180.603531
 10
476.891846
 20
179.841843
 10
475.497223
 20
179.026825
 10
474.218842
 20
178.162125
 10
472.970367
 20
177.171585
  0
LWPOLYLINE
  5
28A
330
1F8
100
AcDbEntity
  8
0
  6
Continuous
 62
     0
370
    30
100
AcDbPolyline
 90
       13
 70
     0
 43
0.0
 10
528.845337
 20
169.419312
 10
528.776978
 20
170.455154
 10
528.572754
 20
171.485184
 10
528.234802
 20
172.50177
 10
527.765991
 20
173.500061
 10
527.169678
 20
174.475586
 10
526.449585
 20
175.424408
 10
525.609863
 20
176.342972
 10
524.654724
 20
177.228119
 10
523.58844
 20
178.076767
 10
522.415344
 20
178.885895
 10
521.140747
 20
179.652634
 10
519.653748
 20
180.431168
  0
LINE
  5
28B
330
1F8
100
AcDbEntity
  8
0
  6
Continuous
 62
     0
370
    30
100
AcDbLine
 10
468.845426
 20
162.881346
 30
0.0
 11
468.845426
 21
169.418598
 31
0.0
  0
LINE
  5
28C
330
1F8
100
AcDbEntity
  8
0
  6
Continuous
 62
     0
370
    30
100
AcDbLine
 10
528.845426
 20
162.881345
 30
0.0
 11
528.845426
 21
169.418598
 31
0.0
  0
LINE
  5
28D
330
1F8
100
AcDbEntity
  8
0
  6
Continuous
 62
     0
370
    30
100
AcDbLine
 10
493.845426
 20
173.574732
 30
0.0
 11
493.845426
 21
176.114213
 31
0.0
  0
LINE
  5
28E
330
1F8
100
AcDbEntity
  8
0
  6
Continuous
 62
     0
370
    30
100
AcDbLine
 10
503.845426
 20
173.574732
 30
0.0
 11
503.845426
 21
176.114213
 31
0.0
  0
LWPOLYLINE
  5
28F
330
1F8
100
AcDbEntity
  8
0
  6
Continuous
 62
     0
370
    30
100
AcDbPolyline
 90
        4
 70
     0
 43
0.0
 10
503.938812
 20
173.175385
 10
503.914276
 20
173.222717
 10
503.870636
 20
173.353897
 10
503.845428
 20
173.574738
  0
LWPOLYLINE
  5
290
330
1F8
100
AcDbEntity
  8
0
  6
Continuous
 62
     0
370
    30
100
AcDbPolyline
 90
        4
 70
     0
 43
0.0
 10
493.845428
 20
173.574738
 10
493.826965
 20
173.384933
 10
493.784546
 20
173.241379
 10
493.752045
 20
173.175369
  0
ELLIPSE
  5
291
330
1F8
100
AcDbEntity
  8
0
  6
Continuous
 62
     0
370
     0
100
AcDbEllipse
 10
585.447966
 20
144.423075
 30
0.0
 11
-30.00000000000001
 21
5.604065853037634E-7
 31
0.0
210
0.0
220
0.0
230
0.9999999999999999
 40
0.5
 41
2.617993885763306
 42
3.152945873056923
  0
ELLIPSE
  5
292
330
1F8
100
AcDbEntity
  8
0
  6
Continuous
 62
     0
370
     0
100
AcDbEllipse
 10
585.447966
 20
144.423075
 30
0.0
 11
-30.00000000000001
 21
5.604065853037634E-7
 31
0.0
210
0.0
220
0.0
230
0.9999999999999999
 40
0.5
 41
6.266425590642192
 42
8.901179192942893
  0
ELLIPSE
  5
293
330
1F8
100
AcDbEntity
  8
0
  6
Continuous
 62
     0
370
    30
100
AcDbEllipse
 10
585.447966
 20
137.881342
 30
0.0
 11
30.00000000000001
 21
-5.604065853037634E-7
 31
0.0
210
0.0
220
0.0
230
-0.9999999999999999
 40
0.5
 41
0.5235987678264863
 42
3.141592633305271
  0
ELLIPSE
  5
294
330
1F8
100
AcDbEntity
  8
0
  6
Continuous
 62
     0
370
    30
100
AcDbEllipse
 10
585.447966
 20
137.881342
 30
0.0
 11
30.00000000000001
 21
-5.604065853037634E-7
 31
0.0
210
0.0
220
0.0
230
-0.9999999999999999
 40
0.5
 41
6.283185286895064
 42
6.806784075006073
  0
ELLIPSE
  5
295
330
1F8
100
AcDbEntity
  8
0
  6
Continuous
 62
     0
370
     0
100
AcDbEllipse
 10
585.447966
 20
144.853344
 30
0.0
 11
29.55619047619048
 21
-5.521161259783173E-7
 31
0.0
210
0.0
220
0.0
230
-0.9999999999999999
 40
0.5
 41
5.212073929408687
 42
6.806784075006073
  0
ELLIPSE
  5
296
330
1F8
100
AcDbEntity
  8
0
  6
Continuous
 62
     0
370
     0
100
AcDbEllipse
 10
585.447966
 20
144.853344
 30
0.0
 11
29.55619047619048
 21
-5.521161259783173E-7
 31
0.0
210
0.0
220
0.0
230
-0.9999999999999999
 40
0.5
 41
3.66519142141628
 42
4.212703990791656
  0
ELLIPSE
  5
297
330
1F8
100
AcDbEntity
  8
0
  6
Continuous
 62
     0
370
     0
100
AcDbEllipse
 10
585.447966
 20
144.853344
 30
0.0
 11
29.55619047619048
 21
-5.521161259783173E-7
 31
0.0
210
0.0
220
0.0
230
-0.9999999999999999
 40
0.5
 41
0.5235987678264863
 42
3.665191421416279
  0
ELLIPSE
  5
298
330
1F8
100
AcDbEntity
  8
0
  6
Continuous
 62
     0
370
     0
100
AcDbEllipse
 10
585.447966
 20
145.404261
 30
0.0
 11
-23.25234599945296
 21
4.343589273951685E-7
 31
0.0
210
0.0
220
0.0
230
1.0
 40
0.5
 41
5.367250130984408
 42
5.759586539353099
  0
ELLIPSE
  5
299
330
1F8
100
AcDbEntity
  8
0
  6
Continuous
 62
     0
370
     0
100
AcDbEllipse
 10
585.447966
 20
145.404261
 30
0.0
 11
-23.25234599945296
 21
4.343589273951685E-7
 31
0.0
210
0.0
220
0.0
230
1.0
 40
0.5
 41
2.617993885763306
 42
4.057527870354001
  0
ELLIPSE
  5
29A
330
1F8
100
AcDbEntity
  8
0
  6
Continuous
 62
     0
370
     0
100
AcDbEllipse
 10
585.447966
 20
145.404261
 30
0.0
 11
-23.25234599945296
 21
4.343589273951685E-7
 31
0.0
210
0.0
220
0.0
230
1.0
 40
0.5
 41
5.7595865393531
 42
8.901179192942893
  0
ELLIPSE
  5
29B
330
1F8
100
AcDbEntity
  8
0
  6
Continuous
 62
     0
370
     0
100
AcDbEllipse
 10
585.447966
 20
145.67557
 30
0.0
 11
16.17938904144458
 21
-3.022345388339029E-7
 31
0.0
210
0.0
220
0.0
230
-0.9999999999999999
 40
0.5
 41
5.778444972905318
 42
6.806784075006073
  0
ELLIPSE
  5
29C
330
1F8
100
AcDbEntity
  8
0
  6
Continuous
 62
     0
370
     0
100
AcDbEllipse
 10
585.447966
 20
145.67557
 30
0.0
 11
16.17938904144458
 21
-3.022345388339029E-7
 31
0.0
210
0.0
220
0.0
230
-0.9999999999999999
 40
0.5
 41
0.5235987678264865
 42
3.646332947295018
  0
ELLIPSE
  5
29D
330
1F8
100
AcDbEntity
  8
0
  6
Continuous
 62
     0
370
    30
100
AcDbEllipse
 10
599.109787
 20
143.007053
 30
0.0
 11
0.499999999999998
 21
-9.340109742792382E-9
 31
0.0
210
0.0
220
0.0
230
-0.9999999999999999
 40
0.5
 41
6.283185286895072
 42
6.806784075006045
  0
LINE
  5
29E
330
1F8
100
AcDbEntity
  8
0
  6
Continuous
 62
     0
370
    30
100
AcDbLine
 10
597.333895
 20
140.969086
 30
0.0
 11
599.5428
 21
142.882053
 31
0.0
  0
ELLIPSE
  5
29F
330
1F8
100
AcDbEntity
  8
0
  6
Continuous
 62
     0
370
    30
100
AcDbEllipse
 10
596.900882
 20
141.094086
 30
0.0
 11
0.5000000000000019
 21
-9.340109755062758E-9
 31
0.0
210
0.0
220
0.0
230
-0.9999999999999999
 40
0.5
 41
0.5235987678264914
 42
1.582934471155812
  0
ELLIPSE
  5
2A0
330
1F8
100
AcDbEntity
  8
0
  6
Continuous
 62
     0
370
    30
100
AcDbEllipse
 10
597.260466
 20
155.905496
 30
0.0
 11
-30.12500000000012
 21
5.627416127425312E-7
 31
0.0
210
0.0
220
0.0
230
0.9999999999999999
 40
0.5
 41
0.5357369355028743
 42
1.558658182433945
  0
ELLIPSE
  5
2A1
330
1F8
100
AcDbEntity
  8
0
  6
Continuous
 62
     0
370
    30
100
AcDbEllipse
 10
571.786146
 20
148.344087
 30
0.0
 11
0.4999999999999969
 21
-9.340109755062664E-9
 31
0.0
210
0.0
220
0.0
230
-0.9999999999999999
 40
0.5
 41
2.605855718086919
 42
3.141592633305289
  0
ELLIPSE
  5
2A2
330
1F8
100
AcDbEntity
  8
0
  6
Continuous
 62
     0
370
    30
100
AcDbEllipse
 10
514.641605
 20
198.827755
 30
0.0
 11
0.4666282607948185
 21
-0.1796053067912942
 31
0.0
210
0.0
220
0.0
230
1.0
 40
0.176777
 41
3.597125984638255
 42
4.656461687967623
  0
LINE
  5
2A3
330
1F8
100
AcDbEntity
  8
0
  6
Continuous
 62
     0
370
     0
100
AcDbLine
 10
571.356201
 20
225.292727
 30
0.0
 11
571.356199
 21
148.216468
 31
0.0
  0
ELLIPSE
  5
2A4
330
1F8
100
AcDbEntity
  8
0
  6
Continuous
 62
     0
370
     0
100
AcDbEllipse
 10
571.786147
 20
225.420345
 30
0.0
 11
-0.4999999999999969
 21
9.340109755062664E-9
 31
0.0
210
0.0
220
0.0
230
0.9999999999999999
 40
0.5
 41
6.282818685044162
 42
6.818922242682485
  0
ELLIPSE
  5
2A5
330
1F8
100
AcDbEntity
  8
0
  6
Continuous
 62
     0
370
    30
100
AcDbEllipse
 10
513.079674
 20
200.180427
 30
0.0
 11
0.4666282607948263
 21
-0.1796053067912962
 31
0.0
210
0.0
220
0.0
230
1.0
 40
0.176777
 41
2.537790281308931
 42
3.597125984638237
  0
LINE
  5
2A6
330
1F8
100
AcDbEntity
  8
0
  6
Continuous
 62
     0
370
     0
100
AcDbLine
 10
520.103561
 20
219.574842
 30
0.0
 11
512.713581
 21
200.37511
 31
0.0
  0
ELLIPSE
  5
2A7
330
1F8
100
AcDbEntity
  8
0
  6
Continuous
 62
     0
370
     0
100
AcDbEllipse
 10
520.469654
 20
219.380158
 30
0.0
 11
-0.4666282607948263
 21
0.1796053067912962
 31
0.0
210
0.0
220
0.0
230
-1.0
 40
0.176777
 41
0.0000000170859642
 42
0.6038023722808132
  0
LINE
  5
2A8
330
1F8
100
AcDbEntity
  8
0
  6
Continuous
 62
     0
370
     0
100
AcDbLine
 10
540.189355
 20
191.452754
 30
0.0
 11
547.579335
 21
210.652485
 31
0.0
  0
ELLIPSE
  5
2A9
330
1F8
100
AcDbEntity
  8
0
  6
Continuous
 62
     0
370
    30
100
AcDbEllipse
 10
539.756342
 20
191.577754
 30
0.0
 11
0.4666282607948283
 21
-0.1796053067912965
 31
0.0
210
0.0
220
0.0
230
0.9999999999999999
 40
0.176777
 41
5.679382934898747
 42
6.738718638228151
  0
ELLIPSE
  5
2AA
330
1F8
100
AcDbEntity
  8
0
  6
Continuous
 62
     0
370
     0
100
AcDbEllipse
 10
547.146322
 20
210.777485
 30
0.0
 11
-0.4666282607948283
 21
0.1796053067912965
 31
0.0
210
0.0
220
0.0
230
-0.9999999999999999
 40
0.176777
 41
2.686059322541229
 42
3.141592670676022
  0
LINE
  5
2AB
330
1F8
100
AcDbEntity
  8
0
  6
Continuous
 62
     0
370
     0
100
AcDbLine
 10
596.894814
 20
140.844104
 30
0.0
 11
596.894815
 21
217.920363
 31
0.0
  0
LINE
  5
2AC
330
1F8
100
AcDbEntity
  8
0
  6
Continuous
 62
     0
370
     0
100
AcDbLine
 10
597.333897
 20
218.045344
 30
0.0
 11
597.333895
 21
140.969086
 31
0.0
  0
ELLIPSE
  5
2AD
330
1F8
100
AcDbEntity
  8
0
  6
Continuous
 62
     0
370
     0
100
AcDbEllipse
 10
596.900884
 20
218.170344
 30
0.0
 11
-0.5000000000000019
 21
9.340109755062758E-9
 31
0.0
210
0.0
220
0.0
230
0.9999999999999999
 40
0.5
 41
1.558658182433984
 42
2.617993885763302
  0
LINE
  5
2AE
330
1F8
100
AcDbEntity
  8
0
  6
Continuous
 62
     0
370
     0
100
AcDbLine
 10
538.252195
 20
193.002746
 30
0.0
 11
545.642175
 21
212.202478
 31
0.0
  0
ELLIPSE
  5
2AF
330
1F8
100
AcDbEntity
  8
0
  6
Continuous
 62
     0
370
    30
100
AcDbEllipse
 10
538.194411
 20
192.930426
 30
0.0
 11
0.466628260794815
 21
-0.1796053067912921
 31
0.0
210
0.0
220
0.0
230
1.0
 40
0.176777
 41
0.455533331048291
 42
1.514869034377824
  0
LINE
  5
2B0
330
1F8
100
AcDbEntity
  8
0
  6
Continuous
 62
     0
370
     0
100
AcDbLine
 10
546.017404
 20
212.005157
 30
0.0
 11
538.627423
 21
192.805426
 31
0.0
  0
ELLIPSE
  5
2B1
330
1F8
100
AcDbEntity
  8
0
  6
Continuous
 62
     0
370
     0
100
AcDbEllipse
 10
545.584391
 20
212.130157
 30
0.0
 11
-0.466628260794815
 21
0.1796053067912921
 31
0.0
210
0.0
220
0.0
230
-1.0
 40
0.176777
 41
1.626723619212148
 42
2.686059322541301
  0
LINE
  5
2B2
330
1F8
100
AcDbEntity
  8
0
  6
Continuous
 62
     0
370
     0
100
AcDbLine
 10
599.5428
 20
142.882053
 30
0.0
 11
599.542801
 21
219.958312
 31
0.0
  0
ELLIPSE
  5
2B3
330
1F8
100
AcDbEntity
  8
0
  6
Continuous
 62
     0
370
     0
100
AcDbEllipse
 10
599.109789
 20
220.083312
 30
0.0
 11
-0.499999999999998
 21
9.340109742792382E-9
 31
0.0
210
0.0
220
0.0
230
0.9999999999999999
 40
0.5
 41
2.617993885763302
 42
3.141615230751094
  0
LINE
  5
2B4
330
1F8
100
AcDbEntity
  8
0
  6
Continuous
 62
     0
370
    30
100
AcDbLine
 10
514.208593
 20
198.952755
 30
0.0
 11
512.646661
 21
200.305427
 31
0.0
  0
ELLIPSE
  5
2B5
330
1F8
100
AcDbEntity
  8
0
  6
Continuous
 62
     0
370
    30
100
AcDbEllipse
 10
518.065309
 20
203.112739
 30
0.0
 11
-28.1143527128884
 21
10.82121973417564
 31
0.0
210
0.0
220
0.0
230
-1.0
 40
0.176777
 41
3.745395025870573
 42
4.768316272801666
  0
ELLIPSE
  5
2B6
330
1F8
100
AcDbEntity
  8
0
  6
Continuous
 62
     0
370
     0
100
AcDbEllipse
 10
567.967275
 20
192.868376
 30
0.0
 11
-16.0461143079565
 21
-55.58536243507297
 31
0.0
210
0.0
220
0.0
230
-1.0
 40
0.433013
 41
2.868557184835249
 42
4.124386321817452
  0
ELLIPSE
  5
2B7
330
1F8
100
AcDbEntity
  8
0
  6
Continuous
 62
     0
370
     0
100
AcDbEllipse
 10
542.428661
 20
200.24074
 30
0.0
 11
16.0461143079565
 21
55.58536243507299
 31
0.0
210
0.0
220
0.0
230
1.0
 40
0.433013
 41
5.300391638951927
 42
5.72321528899731
  0
ELLIPSE
  5
2B8
330
1F8
100
AcDbEntity
  8
0
  6
Continuous
 62
     0
370
     0
100
AcDbEllipse
 10
597.260468
 20
232.981755
 30
0.0
 11
30.12500000000012
 21
-5.627416127425312E-7
 31
0.0
210
0.0
220
0.0
230
-0.9999999999999999
 40
0.5
 41
1.582934471155849
 42
2.605855718086918
  0
ELLIPSE
  5
2B9
330
1F8
100
AcDbEntity
  8
0
  6
Continuous
 62
     0
370
     0
100
AcDbEllipse
 10
542.160687
 20
207.845173
 30
0.0
 11
28.11435271288835
 21
-10.82121973417562
 31
0.0
210
0.0
220
0.0
230
1.0
 40
0.176777
 41
1.514869034377917
 42
2.537790281308992
  0
ELLIPSE
  5
2BA
330
1F8
100
AcDbEntity
  8
0
  6
Continuous
 62
     0
370
    30
100
AcDbEllipse
 10
534.770707
 20
188.645442
 30
0.0
 11
-28.11435271288835
 21
10.82121973417562
 31
0.0
210
0.0
220
0.0
230
-1.0
 40
0.176777
 41
0.6038023722808001
 42
1.626723619211873
  0
ELLIPSE
  5
2BB
330
1F8
100
AcDbEntity
  8
0
  6
Continuous
 62
     0
370
     0
100
AcDbEllipse
 10
542.428661
 20
200.24074
 30
0.0
 11
-17.51325205319118
 21
-60.66767593140696
 31
0.0
210
0.0
220
0.0
230
-1.0
 40
0.433013
 41
1.768191831625105
 42
2.868584798558584
  0
ELLIPSE
  5
2BC
330
1F8
100
AcDbEntity
  8
0
  6
Continuous
 62
     0
370
     0
100
AcDbEllipse
 10
567.967275
 20
192.868376
 30
0.0
 11
17.51325205319118
 21
60.66767593140698
 31
0.0
210
0.0
220
0.0
230
1.0
 40
0.433013
 41
6.002077579179105
 42
7.656586129144274
  0
LINE
  5
2BD
330
1F8
100
AcDbEntity
  8
0
  6
Continuous
 62
     0
370
    30
100
AcDbLine
 10
538.627423
 20
192.805426
 30
0.0
 11
540.189355
 21
191.452754
 31
0.0
  0
LINE
  5
2BE
330
1F8
100
AcDbEntity
  8
0
  6
Continuous
 62
     0
370
     0
100
AcDbLine
 10
547.579335
 20
210.652485
 30
0.0
 11
546.017404
 21
212.005157
 31
0.0
  0
ELLIPSE
  5
2BF
330
1F8
100
AcDbEntity
  8
0
  6
Continuous
 62
     0
370
     0
100
AcDbEllipse
 10
568.188349
 20
192.804558
 30
0.0
 11
-17.39232315996134
 21
-60.24876601776392
 31
0.0
210
0.0
220
0.0
230
-1.0
 40
0.433013
 41
1.768191831625104
 42
4.124386321817452
  0
ELLIPSE
  5
2C0
330
1F8
100
AcDbEntity
  8
0
  6
Continuous
 62
     0
370
     0
100
AcDbEllipse
 10
568.188349
 20
192.804558
 30
0.0
 11
16.16704320118633
 21
56.00427234871603
 31
0.0
210
0.0
220
0.0
230
1.0
 40
0.433013
 41
5.300391638951927
 42
7.656586129144274
  0
LINE
  5
2C1
330
1F8
100
AcDbEntity
  8
0
  6
Continuous
 62
     0
370
     0
100
AcDbLine
 10
599.542801
 20
219.958312
 30
0.0
 11
597.333897
 21
218.045344
 31
0.0
  0
LWPOLYLINE
  5
2C2
330
1F8
100
AcDbEntity
  8
0
  6
Continuous
 62
     0
370
    30
100
AcDbPolyline
 90
        9
 70
     0
 43
0.0
 10
568.786926
 20
243.628098
 10
569.359436
 20
241.733994
 10
569.860229
 20
239.726318
 10
570.287781
 20
237.610718
 10
570.640564
 20
235.39299
 10
570.917542
 20
233.079407
 10
571.117737
 20
230.676346
 10
571.240662
 20
228.19043
 10
571.286133
 20
225.420334
  0
LWPOLYLINE
  5
2C3
330
1F8
100
AcDbEntity
  8
0
  6
Continuous
 62
     0
370
    30
100
AcDbPolyline
 90
       23
 70
     0
 43
0.0
 10
551.879822
 20
260.603149
 10
550.355042
 20
260.040863
 10
548.814575
 20
259.332214
 10
547.262329
 20
258.479584
 10
545.701599
 20
257.485474
 10
544.135437
 20
256.352417
 10
542.567322
 20
255.083252
 10
541.00061
 20
253.681046
 10
539.438782
 20
252.149307
 10
537.885376
 20
250.491806
 10
536.343933
 20
248.712357
 10
534.818054
 20
246.815308
 10
533.311218
 20
244.805237
 10
531.827087
 20
242.686905
 10
530.369019
 20
240.4655
 10
528.940552
 20
238.146301
 10
527.545044
 20
235.734985
 10
526.185913
 20
233.23732
 10
524.866394
 20
230.659363
 10
523.589722
 20
228.007385
 10
522.358887
 20
225.287811
 10
521.176758
 20
222.507095
 10
520.003052
 20
219.559769
  0
LWPOLYLINE
  5
2C4
330
1F8
100
AcDbEntity
  8
0
  6
Continuous
 62
     0
370
    30
100
AcDbPolyline
 90
       22
 70
     0
 43
0.0
 10
576.92865
 20
248.268234
 10
575.5047
 20
247.767654
 10
574.05542
 20
247.116943
 10
572.585327
 20
246.317184
 10
571.098999
 20
245.370377
 10
569.601074
 20
244.278641
 10
568.09613
 20
243.044785
 10
566.588989
 20
241.672272
 10
565.084106
 20
240.165085
 10
563.585876
 20
238.527328
 10
562.098755
 20
236.763397
 10
560.627075
 20
234.878311
 10
559.174988
 20
232.877304
 10
557.746704
 20
230.766052
 10
556.346191
 20
228.550369
 10
554.977478
 20
226.236389
 10
553.644287
 20
223.830566
 10
552.350464
 20
221.339478
 10
551.099609
 20
218.77005
 10
549.895081
 20
216.129349
 10
548.740112
 20
213.424515
 10
547.612976
 20
210.59787
  0
LWPOLYLINE
  5
2C5
330
1F8
100
AcDbEntity
  8
0
  6
Continuous
 62
     0
370
    30
100
AcDbPolyline
 90
       15
 70
     0
 43
0.0
 10
591.91449
 20
249.245056
 10
592.943542
 20
247.952377
 10
593.904846
 20
246.520111
 10
594.796387
 20
244.952408
 10
595.616455
 20
243.253357
 10
596.363586
 20
241.427216
 10
597.036377
 20
239.478531
 10
597.633545
 20
237.411987
 10
598.153748
 20
235.232773
 10
598.596008
 20
232.946259
 10
598.95929
 20
230.558014
 10
599.242798
 20
228.074081
 10
599.445923
 20
225.50061
 10
599.568359
 20
222.84404
 10
599.609802
 20
220.083313
  0
LWPOLYLINE
  5
2C6
330
1F8
100
AcDbEntity
  8
0
  6
Continuous
 62
     0
370
    30
100
AcDbPolyline
 90
       20
 70
     0
 43
0.0
 10
591.915039
 20
249.244461
 10
590.379395
 20
250.913132
 10
588.744324
 20
252.497604
 10
587.013855
 20
253.989319
 10
585.192322
 20
255.380173
 10
583.285034
 20
256.662292
 10
581.298584
 20
257.82843
 10
579.240601
 20
258.87207
 10
577.119385
 20
259.787384
 10
574.943665
 20
260.569489
 10
572.722717
 20
261.214508
 10
570.466431
 20
261.719635
 10
568.184692
 20
262.083008
 10
565.887634
 20
262.304138
 10
563.585388
 20
262.383362
 10
561.28772
 20
262.322174
 10
559.004272
 20
262.123108
 10
556.74353
 20
261.79007
 10
554.513733
 20
261.327301
 10
552.210144
 20
260.706268
  0
LINE
  5
2C7
330
1F8
100
AcDbEntity
  8
0
  6
Continuous
 62
     0
370
    30
100
AcDbLine
 10
599.609789
 20
220.083312
 30
0.0
 11
599.609787
 21
143.007053
 31
0.0
  0
LINE
  5
2C8
330
1F8
100
AcDbEntity
  8
0
  6
Continuous
 62
     0
370
    30
100
AcDbLine
 10
540.22297
 20
191.398148
 30
0.0
 11
547.612951
 21
210.59788
 31
0.0
  0
LINE
  5
2C9
330
1F8
100
AcDbEntity
  8
0
  6
Continuous
 62
     0
370
    30
100
AcDbLine
 10
512.613046
 20
200.360032
 30
0.0
 11
520.003026
 21
219.559764
 31
0.0
  0
LINE
  5
2CA
330
1F8
100
AcDbEntity
  8
0
  6
Continuous
 62
     0
370
    30
100
AcDbLine
 10
571.286147
 20
225.420345
 30
0.0
 11
571.286146
 21
148.344087
 31
0.0
  0
LWPOLYLINE
  5
2CB
330
1F8
100
AcDbEntity
  8
0
  6
Continuous
 62
     0
370
    30
100
AcDbPolyline
 90
        9
 70
     0
 43
0.0
 10
555.44812
 20
144.422043
 10
555.513489
 20
145.436127
 10
555.708862
 20
146.444901
 10
556.032715
 20
147.441208
 10
556.4823
 20
148.42009
 10
557.054504
 20
149.37738
 10
557.745544
 20
150.309631
 10
558.551758
 20
151.213455
 10
559.572937
 20
152.176071
  0
LWPOLYLINE
  5
2CC
330
1F8
100
AcDbEntity
  8
0
  6
Continuous
 62
     0
370
    30
100
AcDbPolyline
 90
        9
 70
     0
 43
0.0
 10
571.286133
 20
157.880325
 10
569.540039
 20
157.369263
 10
567.865845
 20
156.799805
 10
566.271057
 20
156.174332
 10
564.762756
 20
155.495499
 10
563.347778
 20
154.766022
 10
562.03241
 20
153.988846
 10
560.822021
 20
153.167068
 10
559.572937
 20
152.176056
  0
LWPOLYLINE
  5
2CD
330
1F8
100
AcDbEntity
  8
0
  6
Continuous
 62
     0
370
    30
100
AcDbPolyline
 90
       17
 70
     0
 43
0.0
 10
615.447876
 20
144.423782
 10
615.37793
 20
145.471466
 10
615.169067
 20
146.513107
 10
614.823364
 20
147.540848
 10
614.343994
 20
148.549728
 10
613.734314
 20
149.535126
 10
612.99823
 20
150.492981
 10
612.140076
 20
151.419632
 10
611.164185
 20
152.311859
 10
610.075012
 20
153.166473
 10
608.877075
 20
153.980331
 10
607.575928
 20
154.750504
 10
606.177185
 20
155.47403
 10
604.687012
 20
156.148087
 10
603.111816
 20
156.769913
 10
601.458191
 20
157.336838
 10
599.609802
 20
157.880325
  0
LINE
  5
2CE
330
1F8
100
AcDbEntity
  8
0
  6
Continuous
 62
     0
370
    30
100
AcDbLine
 10
615.447966
 20
144.423074
 30
0.0
 11
615.447966
 21
137.881341
 31
0.0
  0
LINE
  5
2CF
330
1F8
100
AcDbEntity
  8
0
  6
Continuous
 62
     0
370
    30
100
AcDbLine
 10
555.447966
 20
144.423075
 30
0.0
 11
555.447966
 21
137.881342
 31
0.0
  0
ENDBLK
  5
2D1
330
1F8
100
AcDbEntity
  8
0
100
AcDbBlockEnd
  0
BLOCK
  5
342
330
2D3
100
AcDbEntity
  8
0
100
AcDbBlockBegin
  2
e
 70
     0
 10
103.400848
 20
0.0
 30
0.0
  3
e
  1

  0
LINE
  5
2D4
330
2D3
100
AcDbEntity
  8
0
  6
Continuous
 62
     0
370
    30
100
AcDbLine
 10
34.685195
 20
403.9193
 30
0.0
 11
4.685196
 21
403.9193
 31
0.0
  0
LINE
  5
2D5
330
2D3
100
AcDbEntity
  8
0
  6
Continuous
 62
     0
370
    30
100
AcDbLine
 10
64.685196
 20
403.9193
 30
0.0
 11
34.685195
 21
403.9193
 31
0.0
  0
LINE
  5
2D6
330
2D3
100
AcDbEntity
  8
0
  6
Continuous
 62
     0
370
     0
100
AcDbLine
 10
34.685196
 20
416.26696
 30
0.0
 11
29.685196
 21
416.26696
 31
0.0
  0
LINE
  5
2D7
330
2D3
100
AcDbEntity
  8
0
  6
Continuous
 62
     0
370
     0
100
AcDbLine
 10
39.685196
 20
416.26696
 30
0.0
 11
34.685196
 21
416.26696
 31
0.0
  0
LINE
  5
2D8
330
2D3
100
AcDbEntity
  8
0
  6
Continuous
 62
     0
370
     0
100
AcDbLine
 10
42.627952
 20
413.267506
 30
0.0
 11
34.685196
 21
413.267506
 31
0.0
  0
LINE
  5
2D9
330
2D3
100
AcDbEntity
  8
0
  6
Continuous
 62
     0
370
     0
100
AcDbLine
 10
34.685196
 20
413.267506
 30
0.0
 11
26.74244
 21
413.267506
 31
0.0
  0
LINE
  5
2DA
330
2D3
100
AcDbEntity
  8
0
  6
Continuous
 62
     0
370
    30
100
AcDbLine
 10
34.685196
 20
419.1993
 30
0.0
 11
29.685196
 21
419.1993
 31
0.0
  0
LINE
  5
2DB
330
2D3
100
AcDbEntity
  8
0
  6
Continuous
 62
     0
370
    30
100
AcDbLine
 10
39.685196
 20
419.1993
 30
0.0
 11
34.685196
 21
419.1993
 31
0.0
  0
LINE
  5
2DC
330
2D3
100
AcDbEntity
  8
0
  6
Continuous
 62
     0
370
     0
100
AcDbLine
 10
34.685195
 20
411.467869
 30
0.0
 11
4.685196
 21
411.467869
 31
0.0
  0
LINE
  5
2DD
330
2D3
100
AcDbEntity
  8
0
  6
Continuous
 62
     0
370
     0
100
AcDbLine
 10
64.685196
 20
411.467869
 30
0.0
 11
34.685195
 21
411.467869
 31
0.0
  0
LINE
  5
2DE
330
2D3
100
AcDbEntity
  8
0
  6
Continuous
 62
     0
370
     0
100
AcDbLine
 10
64.243823
 20
411.96442
 30
0.0
 11
34.685195
 21
411.96442
 31
0.0
  0
LINE
  5
2DF
330
2D3
100
AcDbEntity
  8
0
  6
Continuous
 62
     0
370
     0
100
AcDbLine
 10
34.685195
 20
411.96442
 30
0.0
 11
5.126569
 21
411.96442
 31
0.0
  0
LINE
  5
2E0
330
2D3
100
AcDbEntity
  8
0
  6
Continuous
 62
     0
370
     0
100
AcDbLine
 10
34.685196
 20
423.9493
 30
0.0
 11
29.785196
 21
423.9493
 31
0.0
  0
LINE
  5
2E1
330
2D3
100
AcDbEntity
  8
0
  6
Continuous
 62
     0
370
     0
100
AcDbLine
 10
34.685196
 20
419.1993
 30
0.0
 11
34.685196
 21
423.9493
 31
0.0
  0
LINE
  5
2E2
330
2D3
100
AcDbEntity
  8
0
  6
Continuous
 62
     0
370
     0
100
AcDbLine
 10
39.585196
 20
423.9493
 30
0.0
 11
34.685196
 21
423.9493
 31
0.0
  0
LINE
  5
2E3
330
2D3
100
AcDbEntity
  8
0
  6
Continuous
 62
     0
370
     0
100
AcDbLine
 10
31.31456
 20
448.33591
 30
0.0
 11
31.31532
 21
448.334894
 31
0.0
  0
LINE
  5
2E4
330
2D3
100
AcDbEntity
  8
0
  6
Continuous
 62
     0
370
     0
100
AcDbLine
 10
31.31532
 20
448.334894
 30
0.0
 11
31.325611
 21
448.321453
 31
0.0
  0
LINE
  5
2E5
330
2D3
100
AcDbEntity
  8
0
  6
Continuous
 62
     0
370
    30
100
AcDbLine
 10
29.515734
 20
424.1993
 30
0.0
 11
29.185189
 21
424.1993
 31
0.0
  0
ARC
  5
2E6
330
2D3
100
AcDbEntity
  8
0
  6
Continuous
 62
     0
370
     0
100
AcDbCircle
 10
283.872997
 20
417.243939
 30
0.0
 40
254.4523415105157
100
AcDbArc
 50
172.98467
 51
178.433646
  0
ARC
  5
2E7
330
2D3
100
AcDbEntity
  8
0
  6
Continuous
 62
     0
370
     0
100
AcDbCircle
 10
32.278196
 20
449.066181
 30
0.0
 40
1.209148301857044
100
AcDbArc
 50
218.018204
 51
225.215112
  0
LINE
  5
2E8
330
2D3
100
AcDbEntity
  8
0
  6
Continuous
 62
     0
370
    30
100
AcDbLine
 10
31.358108
 20
424.1993
 30
0.0
 11
29.515734
 21
424.1993
 31
0.0
  0
LWPOLYLINE
  5
2E9
330
2D3
100
AcDbEntity
  8
0
  6
Continuous
 62
     0
370
     0
100
AcDbPolyline
 90
        3
 70
     0
 43
0.0
 10
31.426414
 20
448.207977
 10
31.376429
 20
440.047333
 10
31.358109
 20
424.19931
  0
LINE
  5
2EA
330
2D3
100
AcDbEntity
  8
0
  6
Continuous
 62
     0
370
    30
100
AcDbLine
 10
37.018878
 20
424.1993
 30
0.0
 11
32.351511
 21
424.1993
 31
0.0
  0
LINE
  5
2EB
330
2D3
100
AcDbEntity
  8
0
  6
Continuous
 62
     0
370
    30
100
AcDbLine
 10
32.351511
 20
424.1993
 30
0.0
 11
31.358108
 21
424.1993
 31
0.0
  0
LINE
  5
2EC
330
2D3
100
AcDbEntity
  8
0
  6
Continuous
 62
     0
370
    30
100
AcDbLine
 10
40.185203
 20
424.1993
 30
0.0
 11
39.854657
 21
424.1993
 31
0.0
  0
LINE
  5
2ED
330
2D3
100
AcDbEntity
  8
0
  6
Continuous
 62
     0
370
    30
100
AcDbLine
 10
39.854657
 20
424.1993
 30
0.0
 11
38.012281
 21
424.1993
 31
0.0
  0
LINE
  5
2EE
330
2D3
100
AcDbEntity
  8
0
  6
Continuous
 62
     0
370
    30
100
AcDbLine
 10
38.012281
 20
424.1993
 30
0.0
 11
37.018878
 21
424.1993
 31
0.0
  0
ARC
  5
2EF
330
2D3
100
AcDbEntity
  8
0
  6
Continuous
 62
     0
370
     0
100
AcDbCircle
 10
32.318162
 20
448.199256
 30
0.0
 40
1.000044578104883
100
AcDbArc
 50
90.003013
 51
172.981387
  0
LWPOLYLINE
  5
2F0
330
2D3
100
AcDbEntity
  8
0
  6
Continuous
 62
     0
370
     0
100
AcDbPolyline
 90
        8
 70
     0
 43
0.0
 10
32.351509
 20
424.19931
 10
32.349503
 20
427.594482
 10
32.350807
 20
431.005188
 10
32.355732
 20
434.33432
 10
32.364708
 20
437.650574
 10
32.378242
 20
440.966736
 10
32.396881
 20
444.282745
 10
32.426334
 20
448.208038
  0
LWPOLYLINE
  5
2F1
330
2D3
100
AcDbEntity
  8
0
  6
Continuous
 62
     0
370
     0
100
AcDbPolyline
 90
        5
 70
     0
 43
0.0
 10
32.426334
 20
448.208038
 10
32.048832
 20
448.210632
 10
31.727243
 20
448.211548
 10
31.509035
 20
448.210663
 10
31.426413
 20
448.207977
  0
ARC
  5
2F2
330
2D3
100
AcDbEntity
  8
0
  6
Continuous
 62
     0
370
     0
100
AcDbCircle
 10
32.426426
 20
448.199251
 30
0.0
 40
1.000048611877004
100
AcDbArc
 50
90.005
 51
179.499884
  0
LINE
  5
2F3
330
2D3
100
AcDbEntity
  8
0
  6
Continuous
 62
     0
370
    30
100
AcDbLine
 10
32.426339
 20
449.1993
 30
0.0
 11
32.318109
 21
449.1993
 31
0.0
  0
LWPOLYLINE
  5
2F4
330
2D3
100
AcDbEntity
  8
0
  6
Continuous
 62
     0
370
     0
100
AcDbPolyline
 90
        8
 70
     0
 43
0.0
 10
37.018879
 20
424.19931
 10
37.020885
 20
427.601929
 10
37.019566
 20
431.019745
 10
37.01461
 20
434.355865
 10
37.005585
 20
437.679321
 10
36.99197
 20
441.002716
 10
36.973228
 20
444.325928
 10
36.944054
 20
448.208038
  0
LINE
  5
2F5
330
2D3
100
AcDbEntity
  8
0
  6
Continuous
 62
     0
370
     0
100
AcDbLine
 10
36.944053
 20
448.208027
 30
0.0
 11
32.426336
 21
448.208027
 31
0.0
  0
ARC
  5
2F6
330
2D3
100
AcDbEntity
  8
0
  6
Continuous
 62
     0
370
     0
100
AcDbCircle
 10
-214.502607
 20
417.243939
 30
0.0
 40
254.4523420540044
100
AcDbArc
 50
1.566354
 51
7.01533
  0
LINE
  5
2F7
330
2D3
100
AcDbEntity
  8
0
  6
Continuous
 62
     0
370
     0
100
AcDbLine
 10
38.055833
 20
448.335899
 30
0.0
 11
38.055072
 21
448.334888
 31
0.0
  0
LINE
  5
2F8
330
2D3
100
AcDbEntity
  8
0
  6
Continuous
 62
     0
370
     0
100
AcDbLine
 10
38.055072
 20
448.334888
 30
0.0
 11
38.04478
 21
448.321453
 31
0.0
  0
LWPOLYLINE
  5
2F9
330
2D3
100
AcDbEntity
  8
0
  6
Continuous
 62
     0
370
     0
100
AcDbPolyline
 90
        3
 70
     0
 43
0.0
 10
37.943974
 20
448.207977
 10
37.993961
 20
440.047333
 10
38.01228
 20
424.19931
  0
ARC
  5
2FA
330
2D3
100
AcDbEntity
  8
0
  6
Continuous
 62
     0
370
     0
100
AcDbCircle
 10
37.088281
 20
449.069673
 30
0.0
 40
1.214382020053361
100
AcDbArc
 50
314.799806
 51
321.965732
  0
LWPOLYLINE
  5
2FB
330
2D3
100
AcDbEntity
  8
0
  6
Continuous
 62
     0
370
     0
100
AcDbPolyline
 90
        5
 70
     0
 43
0.0
 10
36.944054
 20
448.208038
 10
37.32156
 20
448.210632
 10
37.643147
 20
448.211548
 10
37.861355
 20
448.210663
 10
37.943977
 20
448.207977
  0
LINE
  5
2FC
330
2D3
100
AcDbEntity
  8
0
  6
Continuous
 62
     0
370
     0
100
AcDbLine
 10
34.685196
 20
423.9493
 30
0.0
 11
34.685196
 21
424.1993
 31
0.0
  0
LINE
  5
2FD
330
2D3
100
AcDbEntity
  8
0
  6
Continuous
 62
     0
370
    30
100
AcDbLine
 10
32.426339
 20
449.1993
 30
0.0
 11
36.94405
 21
449.1993
 31
0.0
  0
LINE
  5
2FE
330
2D3
100
AcDbEntity
  8
0
  6
Continuous
 62
     0
370
    30
100
AcDbLine
 10
36.94405
 20
449.1993
 30
0.0
 11
37.052284
 21
449.1993
 31
0.0
  0
LINE
  5
2FF
330
2D3
100
AcDbEntity
  8
0
  6
Continuous
 62
     0
370
     0
100
AcDbLine
 10
32.426336
 20
449.1993
 30
0.0
 11
32.426336
 21
448.208027
 31
0.0
  0
LINE
  5
300
330
2D3
100
AcDbEntity
  8
0
  6
Continuous
 62
     0
370
     0
100
AcDbLine
 10
36.944053
 20
448.208027
 30
0.0
 11
36.944053
 21
449.1993
 31
0.0
  0
ARC
  5
301
330
2D3
100
AcDbEntity
  8
0
  6
Continuous
 62
     0
370
     0
100
AcDbCircle
 10
37.052229
 20
448.199255
 30
0.0
 40
1.000044581684098
100
AcDbArc
 50
7.018611
 51
89.996853
  0
ARC
  5
302
330
2D3
100
AcDbEntity
  8
0
  6
Continuous
 62
     0
370
     0
100
AcDbCircle
 10
36.943963
 20
448.199251
 30
0.0
 40
1.000048611332384
100
AcDbArc
 50
0.500207
 51
89.995
  0
ARC
  5
303
330
2D3
100
AcDbEntity
  8
0
  6
Continuous
 62
     0
370
    30
100
AcDbCircle
 10
37.066774
 20
448.199222
 30
0.0
 40
1.000077725548704
100
AcDbArc
 50
7.959796
 51
89.996125
  0
ARC
  5
304
330
2D3
100
AcDbEntity
  8
0
  6
Continuous
 62
     0
370
    30
100
AcDbCircle
 10
29.53516
 20
423.949264
 30
0.0
 40
0.2500359660660176
100
AcDbArc
 50
0.008236
 51
89.959348
  0
ARC
  5
305
330
2D3
100
AcDbEntity
  8
0
  6
Continuous
 62
     0
370
    30
100
AcDbCircle
 10
39.835232
 20
423.949264
 30
0.0
 40
0.2500359660657631
100
AcDbArc
 50
90.040652
 51
179.991764
  0
ARC
  5
306
330
2D3
100
AcDbEntity
  8
0
  6
Continuous
 62
     0
370
    30
100
AcDbCircle
 10
-197.710729
 20
415.389945
 30
0.0
 40
238.058983103268
100
AcDbArc
 50
2.12071
 51
7.955365
  0
ARC
  5
307
330
2D3
100
AcDbEntity
  8
0
  6
Continuous
 62
     0
370
    30
100
AcDbCircle
 10
32.303618
 20
448.199223
 30
0.0
 40
1.000077320016014
100
AcDbArc
 50
90.003864
 51
172.040204
  0
ARC
  5
308
330
2D3
100
AcDbEntity
  8
0
  6
Continuous
 62
     0
370
    30
100
AcDbCircle
 10
267.08112
 20
415.389945
 30
0.0
 40
238.0589820397181
100
AcDbArc
 50
172.044626
 51
177.87929
  0
LINE
  5
309
330
2D3
100
AcDbEntity
  8
0
  6
Continuous
 62
     0
370
    30
100
AcDbLine
 10
39.585196
 20
423.9493
 30
0.0
 11
39.585196
 21
419.1993
 31
0.0
  0
LINE
  5
30A
330
2D3
100
AcDbEntity
  8
0
  6
Continuous
 62
     0
370
    30
100
AcDbLine
 10
29.785196
 20
423.9493
 30
0.0
 11
29.785196
 21
419.1993
 31
0.0
  0
ARC
  5
30B
330
2D3
100
AcDbEntity
  8
0
  6
Continuous
 62
     0
370
    30
100
AcDbCircle
 10
64.185191
 20
411.467865
 30
0.0
 40
0.5000051760438726
100
AcDbArc
 50
0.000527
 51
83.259175
  0
ARC
  5
30C
330
2D3
100
AcDbEntity
  8
0
  6
Continuous
 62
     0
370
    30
100
AcDbCircle
 10
5.185201
 20
411.467865
 30
0.0
 40
0.5000051760432771
100
AcDbArc
 50
96.740825
 51
179.999473
  0
ARC
  5
30D
330
2D3
100
AcDbEntity
  8
0
  6
Continuous
 62
     0
370
    30
100
AcDbCircle
 10
42.08002
 20
224.242382
 30
0.0
 40
189.0259180248451
100
AcDbArc
 50
83.266424
 51
89.833916
  0
ARC
  5
30E
330
2D3
100
AcDbEntity
  8
0
  6
Continuous
 62
     0
370
    30
100
AcDbCircle
 10
27.290372
 20
224.242382
 30
0.0
 40
189.0259180248441
100
AcDbArc
 50
90.166084
 51
96.733576
  0
LINE
  5
30F
330
2D3
100
AcDbEntity
  8
0
  6
Continuous
 62
     0
370
    30
100
AcDbLine
 10
4.685196
 20
411.467869
 30
0.0
 11
4.685196
 21
403.9193
 31
0.0
  0
LINE
  5
310
330
2D3
100
AcDbEntity
  8
0
  6
Continuous
 62
     0
370
    30
100
AcDbLine
 10
64.685196
 20
411.467869
 30
0.0
 11
64.685196
 21
403.9193
 31
0.0
  0
LINE
  5
311
330
2D3
100
AcDbEntity
  8
0
  6
Continuous
 62
     0
370
    30
100
AcDbLine
 10
29.685196
 20
419.1993
 30
0.0
 11
29.685196
 21
416.26696
 31
0.0
  0
LINE
  5
312
330
2D3
100
AcDbEntity
  8
0
  6
Continuous
 62
     0
370
    30
100
AcDbLine
 10
39.685196
 20
419.1993
 30
0.0
 11
39.685196
 21
416.26696
 31
0.0
  0
ARC
  5
313
330
2D3
100
AcDbEntity
  8
0
  6
Continuous
 62
     0
370
    30
100
AcDbCircle
 10
26.685294
 20
416.266864
 30
0.0
 40
2.99990234110329
100
AcDbArc
 50
271.091508
 51
0.00183
  0
ARC
  5
314
330
2D3
100
AcDbEntity
  8
0
  6
Continuous
 62
     0
370
    30
100
AcDbCircle
 10
42.685098
 20
416.266864
 30
0.0
 40
2.999902341103296
100
AcDbArc
 50
179.99817
 51
268.908492
  0
LINE
  5
315
330
2D3
100
AcDbEntity
  8
0
  6
Continuous
 62
     0
370
     0
100
AcDbLine
 10
64.241391
 20
411.969876
 30
0.0
 11
64.197575
 21
411.969876
 31
0.0
  0
LINE
  5
316
330
2D3
100
AcDbEntity
  8
0
  6
Continuous
 62
     0
370
     0
100
AcDbLine
 10
5.172826
 20
411.969876
 30
0.0
 11
5.12901
 21
411.969876
 31
0.0
  0
LINE
  5
317
330
2D3
100
AcDbEntity
  8
0
  6
Continuous
 62
     0
370
     0
100
AcDbLine
 10
57.889457
 20
412.60602
 30
0.0
 11
57.937546
 21
412.60602
 31
0.0
  0
LINE
  5
318
330
2D3
100
AcDbEntity
  8
0
  6
Continuous
 62
     0
370
     0
100
AcDbLine
 10
11.432854
 20
412.60602
 30
0.0
 11
11.480944
 21
412.60602
 31
0.0
  0
LINE
  5
319
330
2D3
100
AcDbEntity
  8
0
  6
Continuous
 62
     0
370
     0
100
AcDbLine
 10
-81.812789
 20
528.357369
 30
0.0
 11
-67.032829
 21
543.137329
 31
0.0
  0
LINE
  5
31A
330
2D3
100
AcDbEntity
  8
0
  6
Continuous
 62
     0
370
    30
100
AcDbLine
 10
-81.50448
 20
528.049059
 30
0.0
 11
-81.812789
 21
528.357369
 31
0.0
  0
LINE
  5
31B
330
2D3
100
AcDbEntity
  8
0
  6
Continuous
 62
     0
370
     0
100
AcDbLine
 10
-66.72452
 20
542.82902
 30
0.0
 11
-81.50448
 21
528.049059
 31
0.0
  0
LINE
  5
31C
330
2D3
100
AcDbEntity
  8
0
  6
Continuous
 62
     0
370
     0
100
AcDbLine
 10
-67.032829
 20
543.137329
 30
0.0
 11
-66.72452
 21
542.82902
 31
0.0
  0
LINE
  5
31D
330
2D3
100
AcDbEntity
  8
0
  6
Continuous
 62
     0
370
     0
100
AcDbLine
 10
32.04028
 20
449.163877
 30
0.0
 11
32.04028
 21
501.9193
 31
0.0
  0
LINE
  5
31E
330
2D3
100
AcDbEntity
  8
0
  6
Continuous
 62
     0
370
     0
100
AcDbLine
 10
32.476295
 20
501.9193
 30
0.0
 11
32.476295
 21
449.1993
 31
0.0
  0
LINE
  5
31F
330
2D3
100
AcDbEntity
  8
0
  6
Continuous
 62
     0
370
     0
100
AcDbLine
 10
32.04028
 20
501.9193
 30
0.0
 11
32.476295
 21
501.9193
 31
0.0
  0
LINE
  5
320
330
2D3
100
AcDbEntity
  8
0
  6
Continuous
 62
     0
370
     0
100
AcDbLine
 10
-85.244962
 20
531.789541
 30
0.0
 11
-70.465001
 21
546.569501
 31
0.0
  0
LINE
  5
321
330
2D3
100
AcDbEntity
  8
0
  6
Continuous
 62
     0
370
    30
100
AcDbLine
 10
-84.936652
 20
531.481231
 30
0.0
 11
-85.244962
 21
531.789541
 31
0.0
  0
LINE
  5
322
330
2D3
100
AcDbEntity
  8
0
  6
Continuous
 62
     0
370
     0
100
AcDbLine
 10
-70.156692
 20
546.261192
 30
0.0
 11
-84.936652
 21
531.481231
 31
0.0
  0
LINE
  5
323
330
2D3
100
AcDbEntity
  8
0
  6
Continuous
 62
     0
370
     0
100
AcDbLine
 10
-70.465001
 20
546.569501
 30
0.0
 11
-70.156692
 21
546.261192
 31
0.0
  0
LINE
  5
324
330
2D3
100
AcDbEntity
  8
0
  6
Continuous
 62
     0
370
     0
100
AcDbLine
 10
36.894104
 20
449.1993
 30
0.0
 11
36.894104
 21
501.9193
 31
0.0
  0
LINE
  5
325
330
2D3
100
AcDbEntity
  8
0
  6
Continuous
 62
     0
370
     0
100
AcDbLine
 10
37.330119
 20
501.9193
 30
0.0
 11
37.330119
 21
449.163877
 31
0.0
  0
LINE
  5
326
330
2D3
100
AcDbEntity
  8
0
  6
Continuous
 62
     0
370
     0
100
AcDbLine
 10
36.894104
 20
501.9193
 30
0.0
 11
37.330119
 21
501.9193
 31
0.0
  0
LINE
  5
327
330
2D3
100
AcDbEntity
  8
0
  6
Continuous
 62
     0
370
    30
100
AcDbLine
 10
-81.50448
 20
528.04906
 30
0.0
 11
-78.778526
 21
525.323106
 31
0.0
  0
LINE
  5
328
330
2D3
100
AcDbEntity
  8
0
  6
Continuous
 62
     0
370
     0
100
AcDbLine
 10
-63.998566
 20
540.103066
 30
0.0
 11
-66.72452
 21
542.82902
 31
0.0
  0
ARC
  5
329
330
2D3
100
AcDbEntity
  8
0
  6
Continuous
 62
     0
370
     0
100
AcDbCircle
 10
-25.8148
 20
501.9193
 30
0.0
 40
57.85508016952726
100
AcDbArc
 50
0.0
 51
135.0
  0
LINE
  5
32A
330
2D3
100
AcDbEntity
  8
0
  6
Continuous
 62
     0
370
     0
100
AcDbLine
 10
32.04028
 20
501.9193
 30
0.0
 11
28.1852
 21
501.9193
 31
0.0
  0
LINE
  5
32B
330
2D3
100
AcDbEntity
  8
0
  6
Continuous
 62
     0
370
     0
100
AcDbLine
 10
-70.465001
 20
546.569501
 30
0.0
 11
-73.190954
 21
549.295454
 31
0.0
  0
LINE
  5
32C
330
2D3
100
AcDbEntity
  8
0
  6
Continuous
 62
     0
370
    30
100
AcDbLine
 10
-87.970914
 20
534.515494
 30
0.0
 11
-85.244961
 21
531.789541
 31
0.0
  0
LINE
  5
32D
330
2D3
100
AcDbEntity
  8
0
  6
Continuous
 62
     0
370
     0
100
AcDbLine
 10
41.1852
 20
501.9193
 30
0.0
 11
37.330119
 21
501.9193
 31
0.0
  0
ARC
  5
32E
330
2D3
100
AcDbEntity
  8
0
  6
Continuous
 62
     0
370
     0
100
AcDbCircle
 10
-25.8148
 20
501.9193
 30
0.0
 40
63.14491983047269
100
AcDbArc
 50
360.0
 51
135.0
  0
LINE
  5
32F
330
2D3
100
AcDbEntity
  8
0
  6
Continuous
 62
     0
370
    30
100
AcDbLine
 10
-84.936652
 20
531.481231
 30
0.0
 11
-81.812789
 21
528.357369
 31
0.0
  0
LINE
  5
330
330
2D3
100
AcDbEntity
  8
0
  6
Continuous
 62
     0
370
     0
100
AcDbLine
 10
-67.032829
 20
543.137329
 30
0.0
 11
-70.156692
 21
546.261192
 31
0.0
  0
ARC
  5
331
330
2D3
100
AcDbEntity
  8
0
  6
Continuous
 62
     0
370
     0
100
AcDbCircle
 10
-25.8148
 20
501.9193
 30
0.0
 40
62.70890456357687
100
AcDbArc
 50
0.0
 51
135.0
  0
ARC
  5
332
330
2D3
100
AcDbEntity
  8
0
  6
Continuous
 62
     0
370
     0
100
AcDbCircle
 10
-25.8148
 20
501.9193
 30
0.0
 40
58.29109543642308
100
AcDbArc
 50
360.0
 51
135.0
  0
LINE
  5
333
330
2D3
100
AcDbEntity
  8
0
  6
Continuous
 62
     0
370
     0
100
AcDbLine
 10
36.894104
 20
501.9193
 30
0.0
 11
32.476295
 21
501.9193
 31
0.0
  0
LINE
  5
334
330
2D3
100
AcDbEntity
  8
0
  6
Continuous
 62
     0
370
    30
100
AcDbLine
 10
41.1852
 20
413.668921
 30
0.0
 11
41.1852
 21
501.9193
 31
0.0
  0
ARC
  5
335
330
2D3
100
AcDbEntity
  8
0
  6
Continuous
 62
     0
370
    30
100
AcDbCircle
 10
-25.814802
 20
501.919295
 30
0.0
 40
67.00000189858514
100
AcDbArc
 50
0.000004
 51
134.999996
  0
LINE
  5
336
330
2D3
100
AcDbEntity
  8
0
  6
Continuous
 62
     0
370
    30
100
AcDbLine
 10
-73.190954
 20
549.295454
 30
0.0
 11
-87.970914
 21
534.515494
 31
0.0
  0
LINE
  5
337
330
2D3
100
AcDbEntity
  8
0
  6
Continuous
 62
     0
370
    30
100
AcDbLine
 10
28.1852
 20
413.668921
 30
0.0
 11
28.1852
 21
501.9193
 31
0.0
  0
ARC
  5
338
330
2D3
100
AcDbEntity
  8
0
  6
Continuous
 62
     0
370
    30
100
AcDbCircle
 10
-25.814801
 20
501.919297
 30
0.0
 40
54.00000137290469
100
AcDbArc
 50
0.000004
 51
134.999996
  0
LINE
  5
339
330
2D3
100
AcDbEntity
  8
0
  6
Continuous
 62
     0
370
    30
100
AcDbLine
 10
-63.998566
 20
540.103066
 30
0.0
 11
-78.778526
 21
525.323106
 31
0.0
  0
ARC
  5
33A
330
2D3
100
AcDbEntity
  8
0
  6
Continuous
 62
     0
370
    30
100
AcDbCircle
 10
18.506005
 20
332.916658
 30
0.0
 40
80.0026491878423
100
AcDbArc
 50
93.74029
 51
95.072226
  0
ARC
  5
33B
330
2D3
100
AcDbEntity
  8
0
  6
Continuous
 62
     0
370
    30
100
AcDbCircle
 10
50.864396
 20
332.916658
 30
0.0
 40
80.00264918783147
100
AcDbArc
 50
84.927774
 51
86.25971
  0
LINE
  5
33C
330
2D3
100
AcDbEntity
  8
0
  6
Continuous
 62
     0
370
    30
100
AcDbLine
 10
59.011107
 20
412.508513
 30
0.0
 11
57.937546
 21
412.60602
 31
0.0
  0
ARC
  5
33D
330
2D3
100
AcDbEntity
  8
0
  6
Continuous
 62
     0
370
    30
100
AcDbCircle
 10
34.685316
 20
150.636916
 30
0.0
 40
262.9990064146533
100
AcDbArc
 50
83.547416
 51
83.833202
  0
LINE
  5
33E
330
2D3
100
AcDbEntity
  8
0
  6
Continuous
 62
     0
370
    30
100
AcDbLine
 10
10.359294
 20
412.508513
 30
0.0
 11
11.432854
 21
412.60602
 31
0.0
  0
ARC
  5
33F
330
2D3
100
AcDbEntity
  8
0
  6
Continuous
 62
     0
370
    30
100
AcDbCircle
 10
34.685084
 20
150.636916
 30
0.0
 40
262.9990064149462
100
AcDbArc
 50
96.166798
 51
96.452584
  0
ARC
  5
340
330
2D3
100
AcDbEntity
  8
0
  6
Continuous
 62
     0
370
    30
100
AcDbCircle
 10
5.185205
 20
411.473039
 30
0.0
 40
0.5000047175450337
100
AcDbArc
 50
96.459764
 51
179.999517
  0
ARC
  5
341
330
2D3
100
AcDbEntity
  8
0
  6
Continuous
 62
     0
370
    30
100
AcDbCircle
 10
64.185196
 20
411.473039
 30
0.0
 40
0.5000047175436559
100
AcDbArc
 50
0.000483
 51
83.540236
  0
ENDBLK
  5
343
330
2D3
100
AcDbEntity
  8
0
100
AcDbBlockEnd
  0
ENDSEC
  0
SECTION
  2
ENTITIES
  0
INSERT
  5
D7
330
1F
100
AcDbEntity
  8
0
  6
Continuous
 62
   250
370
     0
100
AcDbBlockReference
  2
a
 10
106.769302
 20
80.999611
 30
0.0
  0
INSERT
  5
185
330
1F
100
AcDbEntity
  8
0
  6
Continuous
 62
   250
370
     0
100
AcDbBlockReference
  2
b
 10
106.769302
 20
80.999611
 30
0.0
  0
INSERT
  5
1F7
330
1F
100
AcDbEntity
  8
0
  6
Continuous
 62
   250
370
     0
100
AcDbBlockReference
  2
c
 10
106.769302
 20
1.224525
 30
0.0
  0
INSERT
  5
2D2
330
1F
100
AcDbEntity
  8
0
  6
Continuous
 62
   250
370
     0
100
AcDbBlockReference
  2
d
 10
106.769302
 20
80.999611
 30
0.0
  0
INSERT
  5
344
330
1F
100
AcDbEntity
  8
0
  6
Continuous
 62
   250
370
     0
100
AcDbBlockReference
  2
e
 10
103.400848
 20
0.0
 30
0.0
  0
ENDSEC
  0
SECTION
  2
OBJECTS
  0
DICTIONARY
  5
C
330
0
100
AcDbDictionary
281
     1
  3
ACAD_GROUP
350
D
  3
ACAD_LAYOUT
350
1A
  3
ACAD_MLEADERSTYLE
350
347
  3
ACAD_MLINESTYLE
350
17
  3
ACAD_PLOTSETTINGS
350
19
  3
ACAD_PLOTSTYLENAME
350
E
  3
ACAD_VISUALSTYLE
350
2A
  3
AcDbVariableDictionary
350
345
  0
DICTIONARY
  5
D
102
{ACAD_REACTORS
330
C
102
}
330
C
100
AcDbDictionary
281
     1
  0
DICTIONARY
  5
1A
102
{ACAD_REACTORS
330
C
102
}
330
C
100
AcDbDictionary
281
     1
  3
Layout1
350
1E
  3
Layout2
350
26
  3
Model
350
22
  0
DICTIONARY
  5
347
102
{ACAD_REACTORS
330
C
102
}
330
C
100
AcDbDictionary
281
     1
  0
DICTIONARY
  5
17
102
{ACAD_REACTORS
330
C
102
}
330
C
100
AcDbDictionary
281
     1
  3
Standard
350
18
  0
DICTIONARY
  5
19
102
{ACAD_REACTORS
330
C
102
}
330
C
100
AcDbDictionary
281
     1
  0
ACDBDICTIONARYWDFLT
  5
E
102
{ACAD_REACTORS
330
C
102
}
330
C
100
AcDbDictionary
281
     1
  3
Normal
350
F
100
AcDbDictionaryWithDefault
340
F
  0
DICTIONARY
  5
2A
102
{ACAD_REACTORS
330
C
102
}
330
C
100
AcDbDictionary
281
     1
  3
2dWireframe
350
2F
  3
3D Hidden
350
31
  3
3dWireframe
350
30
  3
Basic
350
32
  3
Brighten
350
36
  3
ColorChange
350
3A
  3
Conceptual
350
34
  3
Dim
350
35
  3
Facepattern
350
39
  3
Flat
350
2B
  3
FlatWithEdges
350
2C
  3
Gouraud
350
2D
  3
GouraudWithEdges
350
2E
  3
Linepattern
350
38
  3
Realistic
350
33
  3
Thicken
350
37
  0
DICTIONARY
  5
345
102
{ACAD_REACTORS
330
C
102
}
330
C
100
AcDbDictionary
281
     1
  3
PSOLHEIGHT
350
349
  3
PSOLWIDTH
350
348
  0
LAYOUT
  5
1E
102
{ACAD_REACTORS
330
1A
102
}
330
1A
100
AcDbPlotSettings
  1

  2
none_device
  4

  6

 40
0.0
 41
0.0
 42
0.0
 43
0.0
 44
0.0
 45
0.0
 46
0.0
 47
0.0
 48
0.0
 49
0.0
140
0.0
141
0.0
142
1.0
143
1.0
 70
   688
 72
     0
 73
     0
 74
     5
  7

 75
    16
147
1.0
148
0.0
149
0.0
100
AcDbLayout
  1
Layout1
 70
     1
 71
     1
 10
0.0
 20
0.0
 11
420.0
 21
297.0
 12
0.0
 22
0.0
 32
0.0
 14
1.000000E+20
 24
1.000000E+20
 34
1.000000E+20
 15
-1.000000E+20
 25
-1.000000E+20
 35
-1.000000E+20
146
0.0
 13
0.0
 23
0.0
 33
0.0
 16
1.0
 26
0.0
 36
0.0
 17
0.0
 27
1.0
 37
0.0
 76
     0
330
1B
  0
LAYOUT
  5
26
102
{ACAD_REACTORS
330
1A
102
}
330
1A
100
AcDbPlotSettings
  1

  2
none_device
  4

  6

 40
0.0
 41
0.0
 42
0.0
 43
0.0
 44
0.0
 45
0.0
 46
0.0
 47
0.0
 48
0.0
 49
0.0
140
0.0
141
0.0
142
1.0
143
1.0
 70
   688
 72
     0
 73
     0
 74
     5
  7

 75
    16
147
1.0
148
0.0
149
0.0
100
AcDbLayout
  1
Layout2
 70
     1
 71
     2
 10
0.0
 20
0.0
 11
0.0
 21
0.0
 12
0.0
 22
0.0
 32
0.0
 14
0.0
 24
0.0
 34
0.0
 15
0.0
 25
0.0
 35
0.0
146
0.0
 13
0.0
 23
0.0
 33
0.0
 16
1.0
 26
0.0
 36
0.0
 17
0.0
 27
1.0
 37
0.0
 76
     0
330
23
  0
LAYOUT
  5
22
102
{ACAD_REACTORS
330
1A
102
}
330
1A
100
AcDbPlotSettings
  1

  2
none_device
  4

  6

 40
0.0
 41
0.0
 42
0.0
 43
0.0
 44
0.0
 45
0.0
 46
0.0
 47
0.0
 48
0.0
 49
0.0
140
0.0
141
0.0
142
1.0
143
1.0
 70
  1712
 72
     0
 73
     0
 74
     0
  7

 75
     0
147
1.0
148
0.0
149
0.0
100
AcDbLayout
  1
Model
 70
     1
 71
     0
 10
-87.970917
 20
64.806305
 11
702.050537
 21
568.910706
 12
0.0
 22
0.0
 32
0.0
 14
-87.970917
 24
64.806305
 34
0.0
 15
702.050537
 25
568.910706
 35
0.0
146
0.0
 13
0.0
 23
0.0
 33
0.0
 16
1.0
 26
0.0
 36
0.0
 17
0.0
 27
1.0
 37
0.0
 76
     0
330
1F
331
29
  0
MLINESTYLE
  5
18
102
{ACAD_REACTORS
330
17
102
}
330
17
100
AcDbMlineStyle
  2
Standard
 70
     0
  3

 62
   256
 51
90.0
 52
90.0
 71
     2
 49
0.5
 62
   256
  6
BYLAYER
 49
-0.5
 62
   256
  6
BYLAYER
  0
ACDBPLACEHOLDER
  5
F
102
{ACAD_REACTORS
330
E
102
}
330
E
  0
VISUALSTYLE
  5
2F
102
{ACAD_REACTORS
330
2A
102
}
330
2A
100
AcDbVisualStyle
  2
2dWireframe
 70
     4
 71
     0
 72
     2
 73
     0
 90
        0
 40
-0.6
 41
-30.0
 62
     5
 63
     7
 74
     1
 91
        4
 64
     7
 65
   257
 75
     1
175
     1
 42
1.0
 92
        0
 66
   257
 43
1.0
 76
     1
 77
     6
 78
     2
 67
     7
 79
     5
170
     0
171
     0
290
     0
174
     0
 93
        1
 44
0.0
173
     0
291
     0
 45
0.0
1001
ACAD
1000
AcDbSavedByObjectVersion
1070
     0
  0
VISUALSTYLE
  5
31
102
{ACAD_REACTORS
330
2A
102
}
330
2A
100
AcDbVisualStyle
  2
3D Hidden
 70
     6
 71
     1
 72
     2
 73
     2
 90
        0
 40
-0.6
 41
-30.0
 62
     5
 63
     7
 74
     2
 91
        2
 64
     7
 65
   257
 75
     2
175
     1
 42
40.0
 92
        0
 66
   257
 43
1.0
 76
     1
 77
     6
 78
     2
 67
     7
 79
     3
170
     0
171
     0
290
     0
174
     0
 93
        1
 44
0.0
173
     0
291
     0
 45
0.0
1001
ACAD
1000
AcDbSavedByObjectVersion
1070
     0
  0
VISUALSTYLE
  5
30
102
{ACAD_REACTORS
330
2A
102
}
330
2A
100
AcDbVisualStyle
  2
3dWireframe
 70
     5
 71
     0
 72
     2
 73
     0
 90
        0
 40
-0.6
 41
-30.0
 62
     5
 63
     7
 74
     1
 91
        4
 64
     7
 65
   257
 75
     1
175
     1
 42
1.0
 92
        0
 66
   257
 43
1.0
 76
     1
 77
     6
 78
     2
 67
     7
 79
     5
170
     0
171
     0
290
     0
174
     0
 93
        1
 44
0.0
173
     0
291
     0
 45
0.0
1001
ACAD
1000
AcDbSavedByObjectVersion
1070
     0
  0
VISUALSTYLE
  5
32
102
{ACAD_REACTORS
330
2A
102
}
330
2A
100
AcDbVisualStyle
  2
Basic
 70
     7
 71
     1
 72
     0
 73
     1
 90
        0
 40
-0.6
 41
-30.0
 62
     5
 63
     7
 74
     0
 91
        4
 64
     7
 65
   257
 75
     1
175
     1
 42
1.0
 92
        8
 66
     7
 43
1.0
 76
     1
 77
     6
 78
     2
 67
     7
 79
     5
170
     0
171
     0
290
     0
174
     0
 93
        1
 44
0.0
173
     0
291
     1
 45
0.0
1001
ACAD
1000
AcDbSavedByObjectVersion
1070
     0
  0
VISUALSTYLE
  5
36
102
{ACAD_REACTORS
330
2A
102
}
330
2A
100
AcDbVisualStyle
  2
Brighten
 70
    12
 71
     2
 72
     2
 73
     0
 90
        0
 40
-0.6
 41
-30.0
 62
     5
 63
     7
 74
     1
 91
        4
 64
     7
 65
   257
 75
     1
175
     1
 42
1.0
 92
        8
 66
     7
 43
1.0
 76
     1
 77
     6
 78
     2
 67
     7
 79
     5
170
     0
171
     0
290
     0
174
     0
 93
        1
 44
50.0
173
     0
291
     1
 45
0.0
1001
ACAD
1000
AcDbSavedByObjectVersion
1070
     0
  0
VISUALSTYLE
  5
3A
102
{ACAD_REACTORS
330
2A
102
}
330
2A
100
AcDbVisualStyle
  2
ColorChange
 70
    16
 71
     2
 72
     2
 73
     3
 90
        0
 40
-0.6
 41
-30.0
 62
     5
 63
     8
 74
     1
 91
        4
 64
     7
 65
   257
 75
     1
175
     1
 42
1.0
 92
        8
 66
     8
 43
1.0
 76
     1
 77
     6
 78
     2
 67
     7
 79
     5
170
     0
171
     0
290
     0
174
     0
 93
        1
 44
0.0
173
     0
291
     1
 45
0.0
1001
ACAD
1000
AcDbSavedByObjectVersion
1070
     0
  0
VISUALSTYLE
  5
34
102
{ACAD_REACTORS
330
2A
102
}
330
2A
100
AcDbVisualStyle
  2
Conceptual
 70
     9
 71
     3
 72
     2
 73
     0
 90
        0
 40
-0.6
 41
-30.0
 62
     5
 63
     7
 74
     2
 91
        2
 64
     7
 65
   257
 75
     1
175
     1
 42
40.0
 92
        8
 66
     7
 43
1.0
 76
     1
 77
     6
 78
     2
 67
     7
 79
     3
170
     0
171
     0
290
     0
174
     0
 93
        1
 44
0.0
173
     0
291
     0
 45
0.0
1001
ACAD
1000
AcDbSavedByObjectVersion
1070
     0
  0
VISUALSTYLE
  5
35
102
{ACAD_REACTORS
330
2A
102
}
330
2A
100
AcDbVisualStyle
  2
Dim
 70
    11
 71
     2
 72
     2
 73
     0
 90
        0
 40
-0.6
 41
-30.0
 62
     5
 63
     7
 74
     1
 91
        4
 64
     7
 65
   257
 75
     1
175
     1
 42
1.0
 92
        8
 66
     7
 43
1.0
 76
     1
 77
     6
 78
     2
 67
     7
 79
     5
170
     0
171
     0
290
     0
174
     0
 93
        1
 44
-50.0
173
     0
291
     1
 45
0.0
1001
ACAD
1000
AcDbSavedByObjectVersion
1070
     0
  0
VISUALSTYLE
  5
39
102
{ACAD_REACTORS
330
2A
102
}
330
2A
100
AcDbVisualStyle
  2
Facepattern
 70
    15
 71
     2
 72
     2
 73
     0
 90
        0
 40
-0.6
 41
-30.0
 62
     5
 63
     7
 74
     1
 91
        4
 64
     7
 65
   257
 75
     1
175
     1
 42
1.0
 92
        8
 66
     7
 43
1.0
 76
     1
 77
     6
 78
     2
 67
     7
 79
     5
170
     0
171
     0
290
     0
174
     0
 93
        1
 44
0.0
173
     0
291
     1
 45
0.0
1001
ACAD
1000
AcDbSavedByObjectVersion
1070
     0
  0
VISUALSTYLE
  5
2B
102
{ACAD_REACTORS
330
2A
102
}
330
2A
100
AcDbVisualStyle
  2
Flat
 70
     0
 71
     2
 72
     1
 73
     1
 90
        2
 40
-0.6
 41
30.0
 62
     5
 63
     7
 74
     0
 91
        4
 64
     7
 65
   257
 75
     1
175
     1
 42
1.0
 92
        8
 66
     7
 43
1.0
 76
     1
 77
     6
 78
     2
 67
     7
 79
     5
170
     0
171
     0
290
     0
174
     0
 93
       13
 44
0.0
173
     0
291
     1
 45
0.0
1001
ACAD
1000
AcDbSavedByObjectVersion
1070
     0
  0
VISUALSTYLE
  5
2C
102
{ACAD_REACTORS
330
2A
102
}
330
2A
100
AcDbVisualStyle
  2
FlatWithEdges
 70
     1
 71
     2
 72
     1
 73
     1
 90
        2
 40
-0.6
 41
30.0
 62
     5
 63
     7
 74
     1
 91
        4
 64
     7
 65
   257
 75
     1
175
     1
 42
1.0
 92
        0
 66
   257
 43
1.0
 76
     1
 77
     6
 78
     2
 67
     7
 79
     5
170
     0
171
     0
290
     0
174
     0
 93
       13
 44
0.0
173
     0
291
     1
 45
0.0
1001
ACAD
1000
AcDbSavedByObjectVersion
1070
     0
  0
VISUALSTYLE
  5
2D
102
{ACAD_REACTORS
330
2A
102
}
330
2A
100
AcDbVisualStyle
  2
Gouraud
 70
     2
 71
     2
 72
     2
 73
     1
 90
        2
 40
-0.6
 41
30.0
 62
     5
 63
     7
 74
     0
 91
        4
 64
     7
 65
   257
 75
     1
175
     1
 42
1.0
 92
        0
 66
     7
 43
1.0
 76
     1
 77
     6
 78
     2
 67
     7
 79
     5
170
     0
171
     0
290
     0
174
     0
 93
       13
 44
0.0
173
     0
291
     1
 45
0.0
1001
ACAD
1000
AcDbSavedByObjectVersion
1070
     0
  0
VISUALSTYLE
  5
2E
102
{ACAD_REACTORS
330
2A
102
}
330
2A
100
AcDbVisualStyle
  2
GouraudWithEdges
 70
     3
 71
     2
 72
     2
 73
     1
 90
        2
 40
-0.6
 41
30.0
 62
     5
 63
     7
 74
     1
 91
        4
 64
     7
 65
   257
 75
     1
175
     1
 42
1.0
 92
        0
 66
   257
 43
1.0
 76
     1
 77
     6
 78
     2
 67
     7
 79
     5
170
     0
171
     0
290
     0
174
     0
 93
       13
 44
0.0
173
     0
291
     1
 45
0.0
1001
ACAD
1000
AcDbSavedByObjectVersion
1070
     0
  0
VISUALSTYLE
  5
38
102
{ACAD_REACTORS
330
2A
102
}
330
2A
100
AcDbVisualStyle
  2
Linepattern
 70
    14
 71
     2
 72
     2
 73
     0
 90
        0
 40
-0.6
 41
-30.0
 62
     5
 63
     7
 74
     1
 91
        4
 64
     7
 65
   257
 75
     7
175
     7
 42
1.0
 92
        8
 66
     7
 43
1.0
 76
     1
 77
     6
 78
     2
 67
     7
 79
     5
170
     0
171
     0
290
     0
174
     0
 93
        1
 44
0.0
173
     0
291
     1
 45
0.0
1001
ACAD
1000
AcDbSavedByObjectVersion
1070
     0
  0
VISUALSTYLE
  5
33
102
{ACAD_REACTORS
330
2A
102
}
330
2A
100
AcDbVisualStyle
  2
Realistic
 70
     8
 71
     2
 72
     2
 73
     0
 90
        0
 40
-0.6
 41
-30.0
 62
     5
 63
     7
 74
     1
 91
        0
 64
     7
 65
   257
 75
     1
175
     1
 42
1.0
 92
        8
 66
     8
 43
1.0
 76
     1
 77
     6
 78
     2
 67
     7
 79
     5
170
     0
171
     0
290
     0
174
     0
 93
       13
 44
0.0
173
     0
291
     0
 45
0.0
1001
ACAD
1000
AcDbSavedByObjectVersion
1070
     0
  0
VISUALSTYLE
  5
37
102
{ACAD_REACTORS
330
2A
102
}
330
2A
100
AcDbVisualStyle
  2
Thicken
 70
    13
 71
     2
 72
     2
 73
     0
 90
        0
 40
-0.6
 41
-30.0
 62
     5
 63
     7
 74
     1
 91
        4
 64
     7
 65
   257
 75
     1
175
     1
 42
1.0
 92
       12
 66
     7
 43
1.0
 76
     1
 77
     6
 78
     2
 67
     7
 79
     5
170
     0
171
     0
290
     0
174
     0
 93
        1
 44
0.0
173
     0
291
     1
 45
0.0
1001
ACAD
1000
AcDbSavedByObjectVersion
1070
     0
  0
DICTIONARYVAR
  5
349
102
{ACAD_REACTORS
330
345
102
}
330
345
100
DictionaryVariables
280
     0
  1
80.000000
  0
DICTIONARYVAR
  5
348
102
{ACAD_REACTORS
330
345
102
}
330
345
100
DictionaryVariables
280
     0
  1
5.000000
  0
ENDSEC
  0
EOF
