  0
SECTION
  2
HEADER
  9
$ACADVER
  1
AC1015
  9
$ACADMAINTVER
 70
     6
  9
$DWGCODEPAGE
  3
ANSI_1252
  9
$INSBASE
 10
0.0
 20
0.0
 30
0.0
  9
$EXTMIN
 10
-198.728134
 20
82.641853
 30
0.0
  9
$EXTMAX
 10
763.924866
 20
544.347534
 30
0.0
  9
$LIMMIN
 10
-198.728134
 20
82.641853
  9
$LIMMAX
 10
763.924866
 20
544.347534
  9
$ORTHOMODE
 70
     0
  9
$REGENMODE
 70
     1
  9
$FILLMODE
 70
     1
  9
$QTEXTMODE
 70
     0
  9
$MIRRTEXT
 70
     1
  9
$LTSCALE
 40
1.0
  9
$ATTMODE
 70
     1
  9
$TEXTSIZE
 40
2.5
  9
$TRACEWID
 40
1.0
  9
$TEXTSTYLE
  7
Standard
  9
$CLAYER
  8
0
  9
$CELTYPE
  6
ByLayer
  9
$CECOLOR
 62
   256
  9
$CELTSCALE
 40
1.0
  9
$DISPSILH
 70
     0
  9
$DIMSCALE
 40
1.0
  9
$DIMASZ
 40
2.5
  9
$DIMEXO
 40
0.625
  9
$DIMDLI
 40
3.75
  9
$DIMRND
 40
0.0
  9
$DIMDLE
 40
0.0
  9
$DIMEXE
 40
1.25
  9
$DIMTP
 40
0.0
  9
$DIMTM
 40
0.0
  9
$DIMTXT
 40
2.5
  9
$DIMCEN
 40
2.5
  9
$DIMTSZ
 40
0.0
  9
$DIMTOL
 70
     0
  9
$DIMLIM
 70
     0
  9
$DIMTIH
 70
     0
  9
$DIMTOH
 70
     0
  9
$DIMSE1
 70
     0
  9
$DIMSE2
 70
     0
  9
$DIMTAD
 70
     1
  9
$DIMZIN
 70
     8
  9
$DIMBLK
  1

  9
$DIMASO
 70
     1
  9
$DIMSHO
 70
     1
  9
$DIMPOST
  1

  9
$DIMAPOST
  1

  9
$DIMALT
 70
     0
  9
$DIMALTD
 70
     3
  9
$DIMALTF
 40
0.03937
  9
$DIMLFAC
 40
1.0
  9
$DIMTOFL
 70
     1
  9
$DIMTVP
 40
0.0
  9
$DIMTIX
 70
     0
  9
$DIMSOXD
 70
     0
  9
$DIMSAH
 70
     0
  9
$DIMBLK1
  1

  9
$DIMBLK2
  1

  9
$DIMSTYLE
  2
ISO-25
  9
$DIMCLRD
 70
     0
  9
$DIMCLRE
 70
     0
  9
$DIMCLRT
 70
     0
  9
$DIMTFAC
 40
1.0
  9
$DIMGAP
 40
0.625
  9
$DIMJUST
 70
     0
  9
$DIMSD1
 70
     0
  9
$DIMSD2
 70
     0
  9
$DIMTOLJ
 70
     0
  9
$DIMTZIN
 70
     8
  9
$DIMALTZ
 70
     0
  9
$DIMALTTZ
 70
     0
  9
$DIMUPT
 70
     0
  9
$DIMDEC
 70
     2
  9
$DIMTDEC
 70
     2
  9
$DIMALTU
 70
     2
  9
$DIMALTTD
 70
     3
  9
$DIMTXSTY
  7
Standard
  9
$DIMAUNIT
 70
     0
  9
$DIMADEC
 70
     0
  9
$DIMALTRND
 40
0.0
  9
$DIMAZIN
 70
     0
  9
$DIMDSEP
 70
    44
  9
$DIMATFIT
 70
     3
  9
$DIMFRAC
 70
     0
  9
$DIMLDRBLK
  1

  9
$DIMLUNIT
 70
     2
  9
$DIMLWD
 70
    -2
  9
$DIMLWE
 70
    -2
  9
$DIMTMOVE
 70
     0
  9
$LUNITS
 70
     2
  9
$LUPREC
 70
     4
  9
$SKETCHINC
 40
1.0
  9
$FILLETRAD
 40
10.0
  9
$AUNITS
 70
     0
  9
$AUPREC
 70
     0
  9
$MENU
  1
.
  9
$ELEVATION
 40
0.0
  9
$PELEVATION
 40
0.0
  9
$THICKNESS
 40
0.0
  9
$LIMCHECK
 70
     0
  9
$CHAMFERA
 40
10.0
  9
$CHAMFERB
 40
10.0
  9
$CHAMFERC
 40
20.0
  9
$CHAMFERD
 40
0.0
  9
$SKPOLY
 70
     0
  9
$TDCREATE
 40
2455576.719533009
  9
$TDUCREATE
 40
2455576.677866342
  9
$TDUPDATE
 40
2455576.719533021
  9
$TDUUPDATE
 40
2455576.677866354
  9
$TDINDWG
 40
0.0000000116
  9
$TDUSRTIMER
 40
0.0000000116
  9
$USRTIMER
 70
     1
  9
$ANGBASE
 50
0.0
  9
$ANGDIR
 70
     0
  9
$PDMODE
 70
     0
  9
$PDSIZE
 40
0.0
  9
$PLINEWID
 40
0.0
  9
$SPLFRAME
 70
     0
  9
$SPLINETYPE
 70
     6
  9
$SPLINESEGS
 70
     8
  9
$HANDSEED
  5
300
  9
$SURFTAB1
 70
     6
  9
$SURFTAB2
 70
     6
  9
$SURFTYPE
 70
     6
  9
$SURFU
 70
     6
  9
$SURFV
 70
     6
  9
$UCSBASE
  2

  9
$UCSNAME
  2

  9
$UCSORG
 10
0.0
 20
0.0
 30
0.0
  9
$UCSXDIR
 10
1.0
 20
0.0
 30
0.0
  9
$UCSYDIR
 10
0.0
 20
1.0
 30
0.0
  9
$UCSORTHOREF
  2

  9
$UCSORTHOVIEW
 70
     0
  9
$UCSORGTOP
 10
0.0
 20
0.0
 30
0.0
  9
$UCSORGBOTTOM
 10
0.0
 20
0.0
 30
0.0
  9
$UCSORGLEFT
 10
0.0
 20
0.0
 30
0.0
  9
$UCSORGRIGHT
 10
0.0
 20
0.0
 30
0.0
  9
$UCSORGFRONT
 10
0.0
 20
0.0
 30
0.0
  9
$UCSORGBACK
 10
0.0
 20
0.0
 30
0.0
  9
$PUCSBASE
  2

  9
$PUCSNAME
  2

  9
$PUCSORG
 10
0.0
 20
0.0
 30
0.0
  9
$PUCSXDIR
 10
1.0
 20
0.0
 30
0.0
  9
$PUCSYDIR
 10
0.0
 20
1.0
 30
0.0
  9
$PUCSORTHOREF
  2

  9
$PUCSORTHOVIEW
 70
     0
  9
$PUCSORGTOP
 10
0.0
 20
0.0
 30
0.0
  9
$PUCSORGBOTTOM
 10
0.0
 20
0.0
 30
0.0
  9
$PUCSORGLEFT
 10
0.0
 20
0.0
 30
0.0
  9
$PUCSORGRIGHT
 10
0.0
 20
0.0
 30
0.0
  9
$PUCSORGFRONT
 10
0.0
 20
0.0
 30
0.0
  9
$PUCSORGBACK
 10
0.0
 20
0.0
 30
0.0
  9
$USERI1
 70
     0
  9
$USERI2
 70
     0
  9
$USERI3
 70
     0
  9
$USERI4
 70
     0
  9
$USERI5
 70
     0
  9
$USERR1
 40
0.0
  9
$USERR2
 40
0.0
  9
$USERR3
 40
0.0
  9
$USERR4
 40
0.0
  9
$USERR5
 40
0.0
  9
$WORLDVIEW
 70
     1
  9
$SHADEDGE
 70
     3
  9
$SHADEDIF
 70
    70
  9
$TILEMODE
 70
     1
  9
$MAXACTVP
 70
    64
  9
$PINSBASE
 10
0.0
 20
0.0
 30
0.0
  9
$PLIMCHECK
 70
     0
  9
$PEXTMIN
 10
1.000000E+20
 20
1.000000E+20
 30
1.000000E+20
  9
$PEXTMAX
 10
-1.000000E+20
 20
-1.000000E+20
 30
-1.000000E+20
  9
$PLIMMIN
 10
0.0
 20
0.0
  9
$PLIMMAX
 10
420.0
 20
297.0
  9
$UNITMODE
 70
     0
  9
$VISRETAIN
 70
     1
  9
$PLINEGEN
 70
     0
  9
$PSLTSCALE
 70
     1
  9
$TREEDEPTH
 70
  3020
  9
$CMLSTYLE
  2
Standard
  9
$CMLJUST
 70
     0
  9
$CMLSCALE
 40
20.0
  9
$PROXYGRAPHICS
 70
     1
  9
$MEASUREMENT
 70
     1
  9
$CELWEIGHT
370
    -1
  9
$ENDCAPS
280
     0
  9
$JOINSTYLE
280
     0
  9
$LWDISPLAY
290
     0
  9
$INSUNITS
 70
     4
  9
$HYPERLINKBASE
  1

  9
$STYLESHEET
  1

  9
$XEDIT
290
     1
  9
$CEPSNTYPE
380
     0
  9
$PSTYLEMODE
290
     1
  9
$FINGERPRINTGUID
  2
{310F0E5C-AF8D-44EE-81E1-BA01878C472A}
  9
$VERSIONGUID
  2
{FAEB1C32-E019-11D5-929B-00C0DF256EC4}
  9
$EXTNAMES
290
     1
  9
$PSVPSCALE
 40
0.0
  9
$OLESTARTUP
290
     0
  0
ENDSEC
  0
SECTION
  2
CLASSES
  0
CLASS
  1
ACDBDICTIONARYWDFLT
  2
AcDbDictionaryWithDefault
  3
ObjectDBX Classes
 90
        0
280
     0
281
     0
  0
CLASS
  1
VISUALSTYLE
  2
AcDbVisualStyle
  3
ObjectDBX Classes
 90
     4095
280
     0
281
     0
  0
CLASS
  1
DICTIONARYVAR
  2
AcDbDictionaryVar
  3
ObjectDBX Classes
 90
        0
280
     0
281
     0
  0
CLASS
  1
ACDBPLACEHOLDER
  2
AcDbPlaceHolder
  3
ObjectDBX Classes
 90
        0
280
     0
281
     0
  0
CLASS
  1
LAYOUT
  2
AcDbLayout
  3
ObjectDBX Classes
 90
        0
280
     0
281
     0
  0
ENDSEC
  0
SECTION
  2
TABLES
  0
TABLE
  2
VPORT
  5
8
330
0
100
AcDbSymbolTable
 70
     1
  0
VPORT
  5
29
330
8
100
AcDbSymbolTableRecord
100
AcDbViewportTableRecord
  2
*Active
 70
     0
 10
0.0
 20
0.0
 11
1.0
 21
1.0
 12
344.186916
 22
148.5
 13
0.0
 23
0.0
 14
10.0
 24
10.0
 15
10.0
 25
10.0
 16
0.0
 26
0.0
 36
1.0
 17
0.0
 27
0.0
 37
0.0
 40
297.0
 41
1.972973
 42
50.0
 43
0.0
 44
0.0
 50
0.0
 51
0.0
 71
     0
 72
   100
 73
     1
 74
     3
 75
     0
 76
     0
 77
     0
 78
     0
281
     0
 65
     1
110
0.0
120
0.0
130
0.0
111
1.0
121
0.0
131
0.0
112
0.0
122
1.0
132
0.0
 79
     0
146
0.0
  0
ENDTAB
  0
TABLE
  2
LTYPE
  5
5
330
0
100
AcDbSymbolTable
 70
     1
  0
LTYPE
  5
14
330
5
100
AcDbSymbolTableRecord
100
AcDbLinetypeTableRecord
  2
ByBlock
 70
     0
  3

 72
    65
 73
     0
 40
0.0
  0
LTYPE
  5
15
330
5
100
AcDbSymbolTableRecord
100
AcDbLinetypeTableRecord
  2
ByLayer
 70
     0
  3

 72
    65
 73
     0
 40
0.0
  0
LTYPE
  5
16
330
5
100
AcDbSymbolTableRecord
100
AcDbLinetypeTableRecord
  2
Continuous
 70
     0
  3
Solid line
 72
    65
 73
     0
 40
0.0
  0
ENDTAB
  0
TABLE
  2
LAYER
  5
2
330
0
100
AcDbSymbolTable
 70
     1
  0
LAYER
  5
10
330
2
100
AcDbSymbolTableRecord
100
AcDbLayerTableRecord
  2
0
 70
     0
 62
   106
  6
Continuous
370
     0
390
F
  0
ENDTAB
  0
TABLE
  2
STYLE
  5
3
330
0
100
AcDbSymbolTable
 70
     4
  0
STYLE
  5
11
330
3
100
AcDbSymbolTableRecord
100
AcDbTextStyleTableRecord
  2
Standard
 70
     0
 40
0.0
 41
1.0
 50
0.0
 71
     0
 42
2.5
  3
txt
  4

  0
STYLE
  5
3B
330
3
100
AcDbSymbolTableRecord
100
AcDbTextStyleTableRecord
  2
Default
 70
     0
 40
0.0
 41
1.0
 50
0.0
 71
     0
 42
0.2
  3

  4

1001
ACAD
1000
txt
1071
        0
  0
STYLE
  5
3C
330
3
100
AcDbSymbolTableRecord
100
AcDbTextStyleTableRecord
  2
ISO
 70
     0
 40
0.0
 41
1.0
 50
0.0
 71
     0
 42
0.2
  3

  4

1001
ACAD
1000
txt
1071
        0
  0
STYLE
  5
3D
330
3
100
AcDbSymbolTableRecord
100
AcDbTextStyleTableRecord
  2
GIANLU
 70
     0
 40
0.0
 41
1.0
 50
0.0
 71
     0
 42
0.2
  3

  4

1001
ACAD
1000
Arial
1071
        0
  0
ENDTAB
  0
TABLE
  2
VIEW
  5
6
330
0
100
AcDbSymbolTable
 70
     0
  0
ENDTAB
  0
TABLE
  2
UCS
  5
7
330
0
100
AcDbSymbolTable
 70
     0
  0
ENDTAB
  0
TABLE
  2
APPID
  5
9
330
0
100
AcDbSymbolTable
 70
     1
  0
APPID
  5
12
330
9
100
AcDbSymbolTableRecord
100
AcDbRegAppTableRecord
  2
ACAD
 70
     0
  0
ENDTAB
  0
TABLE
  2
DIMSTYLE
  5
A
330
0
100
AcDbSymbolTable
 70
     4
100
AcDbDimStyleTable
  0
DIMSTYLE
105
27
330
A
100
AcDbSymbolTableRecord
100
AcDbDimStyleTableRecord
  2
ISO-25
 70
     0
 41
2.5
 42
0.625
 43
3.75
 44
1.25
 73
     0
 74
     0
 77
     1
 78
     8
140
2.5
141
2.5
143
0.03937
147
0.625
171
     3
172
     1
271
     2
272
     2
274
     3
278
    44
283
     0
284
     8
340
11
  0
DIMSTYLE
105
3E
330
A
100
AcDbSymbolTableRecord
100
AcDbDimStyleTableRecord
  2
Default
 70
     0
  3
<>
 41
4.375
 42
1.05
 44
2.1
 73
     0
 74
     0
 77
     1
 78
     8
140
3.5
146
0.4
147
1.75
178
     3
271
     2
272
     3
284
     8
340
3B
341
3F
342
3F
  0
DIMSTYLE
105
46
330
A
100
AcDbSymbolTableRecord
100
AcDbDimStyleTableRecord
  2
ISO
 70
     0
  3
<>
 41
4.375
 42
1.05
 44
2.1
 73
     0
 74
     0
 77
     1
 78
     8
140
3.5
146
0.4
147
1.75
178
     3
271
     2
272
     3
284
     8
340
3C
341
3F
342
3F
  0
DIMSTYLE
105
47
330
A
100
AcDbSymbolTableRecord
100
AcDbDimStyleTableRecord
  2
zucchetti_unico
 70
     0
  3
<>
 41
3.0
 42
0.9
 44
1.8
 73
     0
 74
     0
 77
     1
 78
     8
140
3.0
146
0.6
147
1.5
176
   104
177
     3
178
     3
271
     2
272
     2
284
     8
340
3D
  0
ENDTAB
  0
TABLE
  2
BLOCK_RECORD
  5
1
330
0
100
AcDbSymbolTable
 70
     7
  0
BLOCK_RECORD
  5
1F
330
1
100
AcDbSymbolTableRecord
100
AcDbBlockTableRecord
  2
*Model_Space
340
22
  0
BLOCK_RECORD
  5
1B
330
1
100
AcDbSymbolTableRecord
100
AcDbBlockTableRecord
  2
*Paper_Space
340
1E
  0
BLOCK_RECORD
  5
23
330
1
100
AcDbSymbolTableRecord
100
AcDbBlockTableRecord
  2
*Paper_Space0
340
26
  0
BLOCK_RECORD
  5
3F
330
1
100
AcDbSymbolTableRecord
100
AcDbBlockTableRecord
  2
_CLOSED
340
0
  0
BLOCK_RECORD
  5
48
330
1
100
AcDbSymbolTableRecord
100
AcDbBlockTableRecord
  2
a
340
0
102
{BLKREFS
331
ED
102
}
  0
BLOCK_RECORD
  5
EE
330
1
100
AcDbSymbolTableRecord
100
AcDbBlockTableRecord
  2
b
340
0
102
{BLKREFS
331
16D
102
}
  0
BLOCK_RECORD
  5
16E
330
1
100
AcDbSymbolTableRecord
100
AcDbBlockTableRecord
  2
c
340
0
102
{BLKREFS
331
1D4
102
}
  0
BLOCK_RECORD
  5
1D5
330
1
100
AcDbSymbolTableRecord
100
AcDbBlockTableRecord
  2
d
340
0
102
{BLKREFS
331
293
102
}
  0
BLOCK_RECORD
  5
294
330
1
100
AcDbSymbolTableRecord
100
AcDbBlockTableRecord
  2
e
340
0
102
{BLKREFS
331
2FA
102
}
  0
ENDTAB
  0
ENDSEC
  0
SECTION
  2
BLOCKS
  0
BLOCK
  5
20
330
1F
100
AcDbEntity
  8
0
100
AcDbBlockBegin
  2
*Model_Space
 70
     0
 10
0.0
 20
0.0
 30
0.0
  3
*Model_Space
  1

  0
ENDBLK
  5
21
330
1F
100
AcDbEntity
  8
0
100
AcDbBlockEnd
  0
BLOCK
  5
1C
330
1B
100
AcDbEntity
 67
     1
  8
0
100
AcDbBlockBegin
  2
*Paper_Space
 70
     0
 10
0.0
 20
0.0
 30
0.0
  3
*Paper_Space
  1

  0
ENDBLK
  5
1D
330
1B
100
AcDbEntity
 67
     1
  8
0
100
AcDbBlockEnd
  0
BLOCK
  5
24
330
23
100
AcDbEntity
  8
0
100
AcDbBlockBegin
  2
*Paper_Space0
 70
     0
 10
0.0
 20
0.0
 30
0.0
  3
*Paper_Space0
  1

  0
ENDBLK
  5
25
330
23
100
AcDbEntity
  8
0
100
AcDbBlockEnd
  0
BLOCK
  5
40
330
3F
100
AcDbEntity
  8
0
100
AcDbBlockBegin
  2
_CLOSED
 70
     0
 10
0.0
 20
0.0
 30
0.0
  3
_CLOSED
  1

  0
LINE
  5
42
330
3F
100
AcDbEntity
  8
0
  6
ByBlock
 62
     0
370
    -2
100
AcDbLine
 10
-1.0
 20
0.166667
 30
0.0
 11
0.0
 21
0.0
 31
0.0
  0
LINE
  5
43
330
3F
100
AcDbEntity
  8
0
  6
ByBlock
 62
     0
370
    -2
100
AcDbLine
 10
0.0
 20
0.0
 30
0.0
 11
-1.0
 21
-0.166667
 31
0.0
  0
LINE
  5
44
330
3F
100
AcDbEntity
  8
0
  6
ByBlock
 62
     0
370
    -2
100
AcDbLine
 10
-1.0
 20
0.166667
 30
0.0
 11
-1.0
 21
-0.166667
 31
0.0
  0
LINE
  5
45
330
3F
100
AcDbEntity
  8
0
  6
ByBlock
 62
     0
370
    -2
100
AcDbLine
 10
0.0
 20
0.0
 30
0.0
 11
-1.0
 21
0.0
 31
0.0
  0
ENDBLK
  5
41
330
3F
100
AcDbEntity
  8
0
100
AcDbBlockEnd
  0
BLOCK
  5
EB
330
48
100
AcDbEntity
  8
0
100
AcDbBlockBegin
  2
a
 70
     0
 10
105.071297
 20
98.172943
 30
0.0
  3
a
  1

  0
ELLIPSE
  5
49
330
48
100
AcDbEntity
  8
0
  6
Continuous
 62
     0
370
    30
100
AcDbEllipse
 10
283.351501
 20
443.084364
 30
0.0
 11
0.500000000000012
 21
0.0
 31
0.0
210
0.0
220
0.0
230
1.0
 40
0.258819
 41
5.223754891903945
 42
6.283185307179586
  0
LINE
  5
4A
330
48
100
AcDbEntity
  8
0
  6
Continuous
 62
     0
370
     0
100
AcDbLine
 10
283.596186
 20
444.346188
 30
0.0
 11
283.596186
 21
514.503173
 31
0.0
  0
ELLIPSE
  5
4B
330
48
100
AcDbEntity
  8
0
  6
Continuous
 62
     0
370
    30
100
AcDbEllipse
 10
283.351501
 20
444.233333
 30
0.0
 11
0.499999999999999
 21
7.902038734818671E-17
 31
0.0
210
0.0
220
0.0
230
1.0
 40
0.258819
 41
6.283185307179585
 42
7.342615722455077
  0
LINE
  5
4C
330
48
100
AcDbEntity
  8
0
  6
Continuous
 62
     0
370
    30
100
AcDbLine
 10
283.851501
 20
514.067134
 30
0.0
 11
283.851501
 21
444.233333
 31
0.0
  0
ARC
  5
4D
330
48
100
AcDbEntity
  8
0
  6
Continuous
 62
     0
370
    30
100
AcDbCircle
 10
283.351501
 20
514.067134
 30
0.0
 40
0.500000000000004
100
AcDbArc
 50
0.0
 51
60.700891
  0
LINE
  5
4E
330
48
100
AcDbEntity
  8
0
  6
Continuous
 62
     0
370
    30
100
AcDbLine
 10
253.851501
 20
444.233333
 30
0.0
 11
253.851501
 21
514.067134
 31
0.0
  0
ELLIPSE
  5
4F
330
48
100
AcDbEntity
  8
0
  6
Continuous
 62
     0
370
    30
100
AcDbEllipse
 10
254.351501
 20
444.233333
 30
0.0
 11
0.500000000000002
 21
0.0
 31
0.0
210
0.0
220
0.0
230
1.0
 40
0.258819
 41
2.082162238314277
 42
3.141592653589793
  0
LINE
  5
50
330
48
100
AcDbEntity
  8
0
  6
Continuous
 62
     0
370
     0
100
AcDbLine
 10
254.106817
 20
514.503173
 30
0.0
 11
254.106817
 21
444.346188
 31
0.0
  0
ARC
  5
51
330
48
100
AcDbEntity
  8
0
  6
Continuous
 62
     0
370
    30
100
AcDbCircle
 10
254.351501
 20
514.067134
 30
0.0
 40
0.500000000000002
100
AcDbArc
 50
119.299109
 51
180.0
  0
ELLIPSE
  5
52
330
48
100
AcDbEntity
  8
0
  6
Continuous
 62
     0
370
    30
100
AcDbEllipse
 10
254.351501
 20
443.084364
 30
0.0
 11
0.499999999999995
 21
6.465304419397043E-17
 31
0.0
210
0.0
220
0.0
230
1.0
 40
0.258819
 41
3.141592653589793
 42
4.201023068865309
  0
ELLIPSE
  5
53
330
48
100
AcDbEntity
  8
0
  6
Continuous
 62
     0
370
    30
100
AcDbEllipse
 10
268.851501
 20
449.772154
 30
0.0
 11
30.13
 21
0.0
 31
0.0
210
0.0
220
0.0
230
1.0
 40
0.258819
 41
4.2010230688655
 42
5.223754891903877
  0
LINE
  5
54
330
48
100
AcDbEntity
  8
0
  6
Continuous
 62
     0
370
    30
100
AcDbLine
 10
283.851501
 20
443.084364
 30
0.0
 11
283.851501
 21
444.233333
 31
0.0
  0
ELLIPSE
  5
55
330
48
100
AcDbEntity
  8
0
  6
Continuous
 62
     0
370
    30
100
AcDbEllipse
 10
268.851501
 20
437.545542
 30
0.0
 11
30.13
 21
0.0
 31
0.0
210
0.0
220
0.0
230
1.0
 40
0.258819
 41
1.05943041527571
 42
2.082162238314084
  0
ARC
  5
56
330
48
100
AcDbEntity
  8
0
  6
Continuous
 62
     0
370
    30
100
AcDbCircle
 10
268.851501
 20
488.227496
 30
0.0
 40
30.13
100
AcDbArc
 50
60.700891
 51
119.299109
  0
LINE
  5
57
330
48
100
AcDbEntity
  8
0
  6
Continuous
 62
     0
370
    30
100
AcDbLine
 10
253.851501
 20
444.233333
 30
0.0
 11
253.851501
 21
443.084364
 31
0.0
  0
ARC
  5
58
330
48
100
AcDbEntity
  8
0
  6
Continuous
 62
     0
370
     0
100
AcDbCircle
 10
268.851501
 20
511.847496
 30
0.0
 40
32.12383900928791
100
AcDbArc
 50
90.0
 51
242.163961
  0
ARC
  5
59
330
48
100
AcDbEntity
  8
0
  6
Continuous
 62
     0
370
     0
100
AcDbCircle
 10
268.851501
 20
511.847496
 30
0.0
 40
32.12383900928791
100
AcDbArc
 50
297.836039
 51
90.0
  0
ARC
  5
5A
330
48
100
AcDbEntity
  8
0
  6
Continuous
 62
     0
370
     0
100
AcDbCircle
 10
268.851501
 20
511.847496
 30
0.0
 40
16.99999999999999
100
AcDbArc
 50
331.927513
 51
90.0
  0
ARC
  5
5B
330
48
100
AcDbEntity
  8
0
  6
Continuous
 62
     0
370
     0
100
AcDbCircle
 10
268.851501
 20
511.847496
 30
0.0
 40
16.99999999999999
100
AcDbArc
 50
90.0
 51
208.072487
  0
ARC
  5
5C
330
48
100
AcDbEntity
  8
0
  6
Continuous
 62
     0
370
    30
100
AcDbCircle
 10
268.851501
 20
511.847496
 30
0.0
 40
32.49999999999999
100
AcDbArc
 50
297.486426
 51
90.0
  0
ARC
  5
5D
330
48
100
AcDbEntity
  8
0
  6
Continuous
 62
     0
370
    30
100
AcDbCircle
 10
268.851501
 20
511.847496
 30
0.0
 40
32.49999999999999
100
AcDbArc
 50
90.0
 51
242.513574
  0
LINE
  5
5E
330
48
100
AcDbEntity
  8
0
  6
Continuous
 62
     0
370
    30
100
AcDbLine
 10
283.849838
 20
514.107772
 30
0.0
 11
283.851501
 21
514.067134
 31
0.0
  0
LINE
  5
5F
330
48
100
AcDbEntity
  8
0
  6
Continuous
 62
     0
370
     0
100
AcDbLine
 10
174.563422
 20
515.207081
 30
0.0
 11
174.591243
 21
517.016957
 31
0.0
  0
ARC
  5
60
330
48
100
AcDbEntity
  8
0
  6
Continuous
 62
     0
370
    30
100
AcDbCircle
 10
168.851503
 20
467.348579
 30
0.0
 40
49.99892436392162
100
AcDbArc
 50
83.408068
 51
96.591937
  0
LINE
  5
61
330
48
100
AcDbEntity
  8
0
  6
Continuous
 62
     0
370
     0
100
AcDbLine
 10
163.111759
 20
517.016957
 30
0.0
 11
163.139581
 21
515.207081
 31
0.0
  0
ARC
  5
62
330
48
100
AcDbEntity
  8
0
  6
Continuous
 62
     0
370
     0
100
AcDbCircle
 10
168.851505
 20
-800.187304
 30
0.0
 40
1315.406785982459
100
AcDbArc
 50
89.751203
 51
90.248798
  0
LWPOLYLINE
  5
63
330
48
100
AcDbEntity
  8
0
  6
Continuous
 62
     0
370
     0
100
AcDbPolyline
 90
        3
 70
     0
 43
0.0
 10
190.219025
 20
515.106262
 10
190.364227
 20
515.160034
 10
190.534424
 20
515.174561
  0
LINE
  5
64
330
48
100
AcDbEntity
  8
0
  6
Continuous
 62
     0
370
    30
100
AcDbLine
 10
190.145656
 20
515.219509
 30
0.0
 11
174.591243
 21
517.016957
 31
0.0
  0
ARC
  5
65
330
48
100
AcDbEntity
  8
0
  6
Continuous
 62
     0
370
     0
100
AcDbCircle
 10
158.923584
 20
-3129.513151
 30
0.0
 40
3644.753787463999
100
AcDbArc
 50
89.508027
 51
89.75414
  0
ARC
  5
66
330
48
100
AcDbEntity
  8
0
  6
Continuous
 62
     0
370
    30
100
AcDbCircle
 10
190.41964
 20
509.513835
 30
0.0
 40
1.000033578104448
100
AcDbArc
 50
276.591075
 51
359.998766
  0
LINE
  5
67
330
48
100
AcDbEntity
  8
0
  6
Continuous
 62
     0
370
    30
100
AcDbLine
 10
174.591244
 20
506.678035
 30
0.0
 11
190.145657
 21
508.475485
 31
0.0
  0
ARC
  5
68
330
48
100
AcDbEntity
  8
0
  6
Continuous
 62
     0
370
    30
100
AcDbCircle
 10
168.8515
 20
556.346459
 30
0.0
 40
49.99896991763899
100
AcDbArc
 50
263.408074
 51
276.591931
  0
LINE
  5
69
330
48
100
AcDbEntity
  8
0
  6
Continuous
 62
     0
370
    30
100
AcDbLine
 10
147.553915
 20
508.475879
 30
0.0
 11
163.11176
 21
506.678035
 31
0.0
  0
ARC
  5
6A
330
48
100
AcDbEntity
  8
0
  6
Continuous
 62
     0
370
    30
100
AcDbCircle
 10
147.283363
 20
509.513833
 30
0.0
 40
1.000033531307222
100
AcDbArc
 50
180.001222
 51
263.408931
  0
LINE
  5
6B
330
48
100
AcDbEntity
  8
0
  6
Continuous
 62
     0
370
    30
100
AcDbLine
 10
146.28333
 20
514.181179
 30
0.0
 11
146.28333
 21
509.513811
 31
0.0
  0
ARC
  5
6C
330
48
100
AcDbEntity
  8
0
  6
Continuous
 62
     0
370
    30
100
AcDbCircle
 10
147.283363
 20
514.181158
 30
0.0
 40
1.000033579020016
100
AcDbArc
 50
96.591075
 51
179.998766
  0
LINE
  5
6D
330
48
100
AcDbEntity
  8
0
  6
Continuous
 62
     0
370
    30
100
AcDbLine
 10
163.111759
 20
517.016957
 30
0.0
 11
147.553915
 21
515.219111
 31
0.0
  0
ARC
  5
6E
330
48
100
AcDbEntity
  8
0
  6
Continuous
 62
     0
370
    30
100
AcDbCircle
 10
190.41964
 20
514.181159
 30
0.0
 40
1.000033527255505
100
AcDbArc
 50
0.001221
 51
83.408845
  0
LINE
  5
6F
330
48
100
AcDbEntity
  8
0
  6
Continuous
 62
     0
370
    30
100
AcDbLine
 10
191.419673
 20
509.513813
 30
0.0
 11
191.419673
 21
514.181181
 31
0.0
  0
LWPOLYLINE
  5
70
330
48
100
AcDbEntity
  8
0
  6
Continuous
 62
     0
370
     0
100
AcDbPolyline
 90
        3
 70
     0
 43
0.0
 10
147.168579
 20
515.174561
 10
147.264069
 20
515.173767
 10
147.483978
 20
515.106262
  0
ARC
  5
71
330
48
100
AcDbEntity
  8
0
  6
Continuous
 62
     0
370
     0
100
AcDbCircle
 10
178.784133
 20
-3130.196001
 30
0.0
 40
3645.436651208996
100
AcDbArc
 50
90.245888
 51
90.491955
  0
ARC
  5
72
330
48
100
AcDbEntity
  8
0
  6
Continuous
 62
     0
370
     0
100
AcDbCircle
 10
168.85179
 20
-604.197475
 30
0.0
 40
1118.426616329422
100
AcDbArc
 50
89.70766
 51
90.292371
  0
LINE
  5
73
330
48
100
AcDbEntity
  8
0
  6
Continuous
 62
     0
370
     0
100
AcDbLine
 10
174.563422
 20
515.207081
 30
0.0
 11
174.558313
 21
514.214583
 31
0.0
  0
LINE
  5
74
330
48
100
AcDbEntity
  8
0
  6
Continuous
 62
     0
370
     0
100
AcDbLine
 10
163.144662
 20
514.21458
 30
0.0
 11
163.139581
 21
515.207079
 31
0.0
  0
ARC
  5
75
330
48
100
AcDbEntity
  8
0
  6
Continuous
 62
     0
370
     0
100
AcDbCircle
 10
190.21003
 20
514.106197
 30
0.0
 40
1.000122158136173
100
AcDbArc
 50
0.009049
 51
89.484348
  0
ARC
  5
76
330
48
100
AcDbEntity
  8
0
  6
Continuous
 62
     0
370
     0
100
AcDbCircle
 10
191.386907
 20
513.942175
 30
0.0
 40
0.2412418695359073
100
AcDbArc
 50
82.19385
 51
137.112223
  0
ARC
  5
77
330
48
100
AcDbEntity
  8
0
  6
Continuous
 62
     0
370
     0
100
AcDbCircle
 10
153.062625
 20
-3726.244755
 30
0.0
 40
4240.513820644623
100
AcDbArc
 50
89.498074
 51
89.709559
  0
LINE
  5
78
330
48
100
AcDbEntity
  8
0
  6
Continuous
 62
     0
370
     0
100
AcDbLine
 10
190.219031
 20
515.106276
 30
0.0
 11
190.210191
 21
514.106353
 31
0.0
  0
LINE
  5
79
330
48
100
AcDbEntity
  8
0
  6
Continuous
 62
     0
370
     0
100
AcDbLine
 10
191.210152
 20
509.588639
 30
0.0
 11
191.210152
 21
514.106355
 31
0.0
  0
ARC
  5
7A
330
48
100
AcDbEntity
  8
0
  6
Continuous
 62
     0
370
     0
100
AcDbCircle
 10
191.386907
 20
509.752819
 30
0.0
 40
0.2412417709447238
100
AcDbArc
 50
222.887776
 51
277.806171
  0
ARC
  5
7B
330
48
100
AcDbEntity
  8
0
  6
Continuous
 62
     0
370
     0
100
AcDbCircle
 10
146.316096
 20
513.942173
 30
0.0
 40
0.2412417720735954
100
AcDbArc
 50
42.887776
 51
97.806171
  0
ARC
  5
7C
330
48
100
AcDbEntity
  8
0
  6
Continuous
 62
     0
370
     0
100
AcDbCircle
 10
147.492973
 20
514.106196
 30
0.0
 40
1.000122158353998
100
AcDbArc
 50
90.515657
 51
179.990956
  0
ARC
  5
7D
330
48
100
AcDbEntity
  8
0
  6
Continuous
 62
     0
370
     0
100
AcDbCircle
 10
146.316096
 20
509.752817
 30
0.0
 40
0.2412418666416882
100
AcDbArc
 50
262.19385
 51
317.112223
  0
LINE
  5
7E
330
48
100
AcDbEntity
  8
0
  6
Continuous
 62
     0
370
     0
100
AcDbLine
 10
146.492851
 20
509.588637
 30
0.0
 11
146.492851
 21
514.106353
 31
0.0
  0
ARC
  5
7F
330
48
100
AcDbEntity
  8
0
  6
Continuous
 62
     0
370
     0
100
AcDbCircle
 10
147.492973
 20
509.588795
 30
0.0
 40
1.000122158100408
100
AcDbArc
 50
180.009049
 51
269.484348
  0
LWPOLYLINE
  5
80
330
48
100
AcDbEntity
  8
0
  6
Continuous
 62
     0
370
    30
100
AcDbPolyline
 90
        3
 70
     0
 43
0.0
 10
147.483978
 20
508.588715
 10
147.344421
 20
508.536316
 10
147.168579
 20
508.520416
  0
ARC
  5
81
330
48
100
AcDbEntity
  8
0
  6
Continuous
 62
     0
370
     0
100
AcDbCircle
 10
178.784617
 20
4154.015575
 30
0.0
 40
3645.561234939376
100
AcDbArc
 50
269.508055
 51
269.754113
  0
LINE
  5
82
330
48
100
AcDbEntity
  8
0
  6
Continuous
 62
     0
370
     0
100
AcDbLine
 10
163.139581
 20
508.487911
 30
0.0
 11
163.11176
 21
506.678035
 31
0.0
  0
ARC
  5
83
330
48
100
AcDbEntity
  8
0
  6
Continuous
 62
     0
370
     0
100
AcDbCircle
 10
168.851375
 20
1823.464753
 30
0.0
 40
1314.989246876627
100
AcDbArc
 50
269.751129
 51
270.248882
  0
LINE
  5
84
330
48
100
AcDbEntity
  8
0
  6
Continuous
 62
     0
370
     0
100
AcDbLine
 10
174.563422
 20
508.487912
 30
0.0
 11
174.591244
 21
506.678035
 31
0.0
  0
ARC
  5
85
330
48
100
AcDbEntity
  8
0
  6
Continuous
 62
     0
370
     0
100
AcDbCircle
 10
158.921925
 20
4153.41807
 30
0.0
 40
3644.9637190362
100
AcDbArc
 50
270.245872
 51
270.49197
  0
LWPOLYLINE
  5
86
330
48
100
AcDbEntity
  8
0
  6
Continuous
 62
     0
370
     0
100
AcDbPolyline
 90
        3
 70
     0
 43
0.0
 10
190.219025
 20
508.588715
 10
190.364227
 20
508.534943
 10
190.534424
 20
508.520416
  0
ARC
  5
87
330
48
100
AcDbEntity
  8
0
  6
Continuous
 62
     0
370
     0
100
AcDbCircle
 10
190.21003
 20
509.588797
 30
0.0
 40
1.000122158386221
100
AcDbArc
 50
270.515657
 51
359.990956
  0
ARC
  5
88
330
48
100
AcDbEntity
  8
0
  6
Continuous
 62
     0
370
     0
100
AcDbCircle
 10
184.767327
 20
-3744.901487
 30
0.0
 40
4259.170955689809
100
AcDbArc
 50
90.290877
 51
90.501435
  0
LINE
  5
89
330
48
100
AcDbEntity
  8
0
  6
Continuous
 62
     0
370
     0
100
AcDbLine
 10
147.492816
 20
514.10636
 30
0.0
 11
147.483966
 21
515.106289
 31
0.0
  0
ARC
  5
8A
330
48
100
AcDbEntity
  8
0
  6
Continuous
 62
     0
370
     0
100
AcDbCircle
 10
184.7608
 20
4767.567066
 30
0.0
 40
4258.141523479601
100
AcDbArc
 50
269.498531
 51
269.709141
  0
ARC
  5
8B
330
48
100
AcDbEntity
  8
0
  6
Continuous
 62
     0
370
     0
100
AcDbCircle
 10
168.851872
 20
1627.791263
 30
0.0
 40
1118.325412322968
100
AcDbArc
 50
269.707601
 51
270.29236
  0
ARC
  5
8C
330
48
100
AcDbEntity
  8
0
  6
Continuous
 62
     0
370
     0
100
AcDbCircle
 10
152.933759
 20
4768.430712
 30
0.0
 40
4259.005203048
100
AcDbArc
 50
270.290913
 51
270.501481
  0
LINE
  5
8D
330
48
100
AcDbEntity
  8
0
  6
Continuous
 62
     0
370
     0
100
AcDbLine
 10
190.21019
 20
514.106353
 30
0.0
 11
190.21019
 21
509.588641
 31
0.0
  0
LINE
  5
8E
330
48
100
AcDbEntity
  8
0
  6
Continuous
 62
     0
370
     0
100
AcDbLine
 10
147.492813
 20
509.588634
 30
0.0
 11
147.492813
 21
514.10636
 31
0.0
  0
LINE
  5
8F
330
48
100
AcDbEntity
  8
0
  6
Continuous
 62
     0
370
     0
100
AcDbLine
 10
191.210152
 20
509.588639
 30
0.0
 11
190.21019
 21
509.588639
 31
0.0
  0
LINE
  5
90
330
48
100
AcDbEntity
  8
0
  6
Continuous
 62
     0
370
     0
100
AcDbLine
 10
190.210191
 20
514.106356
 30
0.0
 11
191.210152
 21
514.106356
 31
0.0
  0
LINE
  5
91
330
48
100
AcDbEntity
  8
0
  6
Continuous
 62
     0
370
     0
100
AcDbLine
 10
146.492851
 20
514.106353
 30
0.0
 11
147.492816
 21
514.106353
 31
0.0
  0
LINE
  5
92
330
48
100
AcDbEntity
  8
0
  6
Continuous
 62
     0
370
     0
100
AcDbLine
 10
147.492825
 20
509.588637
 30
0.0
 11
146.492851
 21
509.588637
 31
0.0
  0
LINE
  5
93
330
48
100
AcDbEntity
  8
0
  6
Continuous
 62
     0
370
     0
100
AcDbLine
 10
147.492825
 20
509.588634
 30
0.0
 11
147.483972
 21
508.588706
 31
0.0
  0
LINE
  5
94
330
48
100
AcDbEntity
  8
0
  6
Continuous
 62
     0
370
     0
100
AcDbLine
 10
163.139581
 20
508.487911
 30
0.0
 11
163.144692
 21
509.480409
 31
0.0
  0
LINE
  5
95
330
48
100
AcDbEntity
  8
0
  6
Continuous
 62
     0
370
     0
100
AcDbLine
 10
174.563422
 20
508.487912
 30
0.0
 11
174.558311
 21
509.480408
 31
0.0
  0
LINE
  5
96
330
48
100
AcDbEntity
  8
0
  6
Continuous
 62
     0
370
     0
100
AcDbLine
 10
190.219031
 20
508.588718
 30
0.0
 11
190.210191
 21
509.588641
 31
0.0
  0
ARC
  5
97
330
48
100
AcDbEntity
  8
0
  6
Continuous
 62
     0
370
     0
100
AcDbCircle
 10
168.851501
 20
511.847496
 30
0.0
 40
32.06095238095237
100
AcDbArc
 50
180.0
 51
0.0
  0
ARC
  5
98
330
48
100
AcDbEntity
  8
0
  6
Continuous
 62
     0
370
     0
100
AcDbCircle
 10
168.851501
 20
511.847496
 30
0.0
 40
32.06095238095237
100
AcDbArc
 50
0.0
 51
180.0
  0
ARC
  5
99
330
48
100
AcDbEntity
  8
0
  6
Continuous
 62
     0
370
    30
100
AcDbCircle
 10
168.851501
 20
511.847496
 30
0.0
 40
32.50000000000001
100
AcDbArc
 50
0.0
 51
180.0
  0
ARC
  5
9A
330
48
100
AcDbEntity
  8
0
  6
Continuous
 62
     0
370
    30
100
AcDbCircle
 10
168.851501
 20
511.847496
 30
0.0
 40
32.5
100
AcDbArc
 50
180.0
 51
360.0
  0
LWPOLYLINE
  5
9B
330
48
100
AcDbEntity
  8
0
  6
Continuous
 62
     0
370
     0
100
AcDbPolyline
 90
       14
 70
     0
 43
0.0
 10
174.866852
 20
506.709869
 10
174.133575
 20
505.962891
 10
173.311737
 20
505.315979
 10
172.412262
 20
504.783447
 10
171.44931
 20
504.376129
 10
170.441238
 20
504.09964
 10
169.40567
 20
503.957062
 10
168.360519
 20
503.95282
 10
167.323853
 20
504.087189
 10
166.313614
 20
504.355621
 10
165.347412
 20
504.755157
 10
164.443604
 20
505.280334
 10
163.616806
 20
505.920776
 10
162.836151
 20
506.709869
  0
LWPOLYLINE
  5
9C
330
48
100
AcDbEntity
  8
0
  6
Continuous
 62
     0
370
     0
100
AcDbPolyline
 90
       14
 70
     0
 43
0.0
 10
162.836151
 20
516.985107
 10
163.569427
 20
517.732117
 10
164.391266
 20
518.379028
 10
165.290741
 20
518.91156
 10
166.253693
 20
519.318848
 10
167.261765
 20
519.595337
 10
168.297333
 20
519.737915
 10
169.342484
 20
519.742188
 10
170.37915
 20
519.607788
 10
171.389389
 20
519.339355
 10
172.355591
 20
518.939819
 10
173.259399
 20
518.414673
 10
174.086197
 20
517.774231
 10
174.866852
 20
516.985107
  0
LINE
  5
9D
330
48
100
AcDbEntity
  8
0
  6
Continuous
 62
     0
370
    30
100
AcDbLine
 10
190.533486
 20
508.520304
 30
0.0
 11
190.537342
 21
508.520756
 31
0.0
  0
LINE
  5
9E
330
48
100
AcDbEntity
  8
0
  6
Continuous
 62
     0
370
    30
100
AcDbLine
 10
190.533468
 20
508.520298
 30
0.0
 11
190.145657
 21
508.475485
 31
0.0
  0
LINE
  5
9F
330
48
100
AcDbEntity
  8
0
  6
Continuous
 62
     0
370
    30
100
AcDbLine
 10
147.553915
 20
508.475879
 30
0.0
 11
147.169543
 21
508.520296
 31
0.0
  0
LINE
  5
A0
330
48
100
AcDbEntity
  8
0
  6
Continuous
 62
     0
370
    30
100
AcDbLine
 10
147.169518
 20
508.520302
 30
0.0
 11
147.16566
 21
508.520754
 31
0.0
  0
LINE
  5
A1
330
48
100
AcDbEntity
  8
0
  6
Continuous
 62
     0
370
    30
100
AcDbLine
 10
147.165683
 20
515.174239
 30
0.0
 11
147.169524
 21
515.174689
 31
0.0
  0
LINE
  5
A2
330
48
100
AcDbEntity
  8
0
  6
Continuous
 62
     0
370
    30
100
AcDbLine
 10
190.533485
 20
515.17469
 30
0.0
 11
190.537343
 21
515.174238
 31
0.0
  0
LINE
  5
A3
330
48
100
AcDbEntity
  8
0
  6
Continuous
 62
     0
370
    30
100
AcDbLine
 10
147.553915
 20
515.219111
 30
0.0
 11
147.169543
 21
515.174695
 31
0.0
  0
LINE
  5
A4
330
48
100
AcDbEntity
  8
0
  6
Continuous
 62
     0
370
    30
100
AcDbLine
 10
190.533468
 20
515.174696
 30
0.0
 11
190.145656
 21
515.219509
 31
0.0
  0
ARC
  5
A5
330
48
100
AcDbEntity
  8
0
  6
Continuous
 62
     0
370
     0
100
AcDbCircle
 10
368.851497
 20
-800.187304
 30
0.0
 40
1315.406785982493
100
AcDbArc
 50
89.751202
 51
90.248797
  0
LINE
  5
A6
330
48
100
AcDbEntity
  8
0
  6
Continuous
 62
     0
370
     0
100
AcDbLine
 10
374.591244
 20
517.016957
 30
0.0
 11
374.563422
 21
515.207081
 31
0.0
  0
ARC
  5
A7
330
48
100
AcDbEntity
  8
0
  6
Continuous
 62
     0
370
    30
100
AcDbCircle
 10
368.8515
 20
467.348579
 30
0.0
 40
49.99892436391883
100
AcDbArc
 50
83.408063
 51
96.591932
  0
LINE
  5
A8
330
48
100
AcDbEntity
  8
0
  6
Continuous
 62
     0
370
     0
100
AcDbLine
 10
363.139581
 20
515.207081
 30
0.0
 11
363.11176
 21
517.016957
 31
0.0
  0
ARC
  5
A9
330
48
100
AcDbEntity
  8
0
  6
Continuous
 62
     0
370
     0
100
AcDbCircle
 10
378.779419
 20
-3129.513151
 30
0.0
 40
3644.753787464078
100
AcDbArc
 50
90.24586
 51
90.491973
  0
LINE
  5
AA
330
48
100
AcDbEntity
  8
0
  6
Continuous
 62
     0
370
    30
100
AcDbLine
 10
347.557347
 20
515.219509
 30
0.0
 11
363.11176
 21
517.016957
 31
0.0
  0
LWPOLYLINE
  5
AB
330
48
100
AcDbEntity
  8
0
  6
Continuous
 62
     0
370
     0
100
AcDbPolyline
 90
        3
 70
     0
 43
0.0
 10
347.483978
 20
515.106262
 10
347.338776
 20
515.160034
 10
347.168579
 20
515.174561
  0
LINE
  5
AC
330
48
100
AcDbEntity
  8
0
  6
Continuous
 62
     0
370
    30
100
AcDbLine
 10
346.28333
 20
509.513813
 30
0.0
 11
346.28333
 21
514.181181
 31
0.0
  0
ARC
  5
AD
330
48
100
AcDbEntity
  8
0
  6
Continuous
 62
     0
370
    30
100
AcDbCircle
 10
347.283363
 20
514.181159
 30
0.0
 40
1.000033527249152
100
AcDbArc
 50
96.591155
 51
179.998779
  0
LINE
  5
AE
330
48
100
AcDbEntity
  8
0
  6
Continuous
 62
     0
370
    30
100
AcDbLine
 10
374.591244
 20
517.016957
 30
0.0
 11
390.149088
 21
515.219111
 31
0.0
  0
ARC
  5
AF
330
48
100
AcDbEntity
  8
0
  6
Continuous
 62
     0
370
    30
100
AcDbCircle
 10
390.41964
 20
514.181158
 30
0.0
 40
1.00003357901483
100
AcDbArc
 50
0.001234
 51
83.408925
  0
LINE
  5
B0
330
48
100
AcDbEntity
  8
0
  6
Continuous
 62
     0
370
    30
100
AcDbLine
 10
391.419673
 20
514.181179
 30
0.0
 11
391.419673
 21
509.513811
 31
0.0
  0
ARC
  5
B1
330
48
100
AcDbEntity
  8
0
  6
Continuous
 62
     0
370
    30
100
AcDbCircle
 10
390.41964
 20
509.513833
 30
0.0
 40
1.000033531312202
100
AcDbArc
 50
276.591069
 51
359.998778
  0
LINE
  5
B2
330
48
100
AcDbEntity
  8
0
  6
Continuous
 62
     0
370
    30
100
AcDbLine
 10
390.149087
 20
508.475879
 30
0.0
 11
374.591243
 21
506.678035
 31
0.0
  0
ARC
  5
B3
330
48
100
AcDbEntity
  8
0
  6
Continuous
 62
     0
370
    30
100
AcDbCircle
 10
368.851503
 20
556.346459
 30
0.0
 40
49.99896991764477
100
AcDbArc
 50
263.408069
 51
276.591926
  0
LINE
  5
B4
330
48
100
AcDbEntity
  8
0
  6
Continuous
 62
     0
370
    30
100
AcDbLine
 10
363.111759
 20
506.678035
 30
0.0
 11
347.557346
 21
508.475485
 31
0.0
  0
ARC
  5
B5
330
48
100
AcDbEntity
  8
0
  6
Continuous
 62
     0
370
    30
100
AcDbCircle
 10
347.283363
 20
509.513835
 30
0.0
 40
1.000033578103845
100
AcDbArc
 50
180.001234
 51
263.408925
  0
ARC
  5
B6
330
48
100
AcDbEntity
  8
0
  6
Continuous
 62
     0
370
     0
100
AcDbCircle
 10
358.91887
 20
-3130.196001
 30
0.0
 40
3645.436651209547
100
AcDbArc
 50
89.508045
 51
89.754112
  0
LWPOLYLINE
  5
B7
330
48
100
AcDbEntity
  8
0
  6
Continuous
 62
     0
370
     0
100
AcDbPolyline
 90
        3
 70
     0
 43
0.0
 10
390.534424
 20
515.174561
 10
390.438934
 20
515.173767
 10
390.219025
 20
515.106262
  0
LINE
  5
B8
330
48
100
AcDbEntity
  8
0
  6
Continuous
 62
     0
370
     0
100
AcDbLine
 10
374.558341
 20
514.21458
 30
0.0
 11
374.563422
 21
515.207079
 31
0.0
  0
LINE
  5
B9
330
48
100
AcDbEntity
  8
0
  6
Continuous
 62
     0
370
     0
100
AcDbLine
 10
363.139581
 20
515.207081
 30
0.0
 11
363.14469
 21
514.214583
 31
0.0
  0
ARC
  5
BA
330
48
100
AcDbEntity
  8
0
  6
Continuous
 62
     0
370
     0
100
AcDbCircle
 10
368.851213
 20
-604.197475
 30
0.0
 40
1118.426616329501
100
AcDbArc
 50
89.707629
 51
90.29234
  0
ARC
  5
BB
330
48
100
AcDbEntity
  8
0
  6
Continuous
 62
     0
370
     0
100
AcDbCircle
 10
346.316096
 20
513.942175
 30
0.0
 40
0.2412418695545882
100
AcDbArc
 50
42.887777
 51
97.80615
  0
ARC
  5
BC
330
48
100
AcDbEntity
  8
0
  6
Continuous
 62
     0
370
     0
100
AcDbCircle
 10
347.492973
 20
514.106197
 30
0.0
 40
1.000122158134397
100
AcDbArc
 50
90.515652
 51
179.990951
  0
LINE
  5
BD
330
48
100
AcDbEntity
  8
0
  6
Continuous
 62
     0
370
     0
100
AcDbLine
 10
347.483972
 20
515.106276
 30
0.0
 11
347.492812
 21
514.106353
 31
0.0
  0
ARC
  5
BE
330
48
100
AcDbEntity
  8
0
  6
Continuous
 62
     0
370
     0
100
AcDbCircle
 10
384.640378
 20
-3726.244755
 30
0.0
 40
4240.51382064374
100
AcDbArc
 50
90.290441
 51
90.501926
  0
ARC
  5
BF
330
48
100
AcDbEntity
  8
0
  6
Continuous
 62
     0
370
     0
100
AcDbCircle
 10
346.316096
 20
509.752819
 30
0.0
 40
0.2412417708869749
100
AcDbArc
 50
262.193829
 51
317.112224
  0
LINE
  5
C0
330
48
100
AcDbEntity
  8
0
  6
Continuous
 62
     0
370
     0
100
AcDbLine
 10
346.492851
 20
509.588639
 30
0.0
 11
346.492851
 21
514.106355
 31
0.0
  0
ARC
  5
C1
330
48
100
AcDbEntity
  8
0
  6
Continuous
 62
     0
370
     0
100
AcDbCircle
 10
390.21003
 20
514.106196
 30
0.0
 40
1.000122158362667
100
AcDbArc
 50
0.009044
 51
89.484343
  0
ARC
  5
C2
330
48
100
AcDbEntity
  8
0
  6
Continuous
 62
     0
370
     0
100
AcDbCircle
 10
391.386907
 20
513.942173
 30
0.0
 40
0.2412417720848314
100
AcDbArc
 50
82.193829
 51
137.112224
  0
LINE
  5
C3
330
48
100
AcDbEntity
  8
0
  6
Continuous
 62
     0
370
     0
100
AcDbLine
 10
391.210152
 20
509.588637
 30
0.0
 11
391.210152
 21
514.106353
 31
0.0
  0
ARC
  5
C4
330
48
100
AcDbEntity
  8
0
  6
Continuous
 62
     0
370
     0
100
AcDbCircle
 10
391.386907
 20
509.752817
 30
0.0
 40
0.2412418666347438
100
AcDbArc
 50
222.887777
 51
277.80615
  0
LWPOLYLINE
  5
C5
330
48
100
AcDbEntity
  8
0
  6
Continuous
 62
     0
370
    30
100
AcDbPolyline
 90
        3
 70
     0
 43
0.0
 10
390.219025
 20
508.588715
 10
390.358582
 20
508.536316
 10
390.534424
 20
508.520416
  0
ARC
  5
C6
330
48
100
AcDbEntity
  8
0
  6
Continuous
 62
     0
370
     0
100
AcDbCircle
 10
390.21003
 20
509.588795
 30
0.0
 40
1.000122158108363
100
AcDbArc
 50
270.515652
 51
359.990951
  0
LINE
  5
C7
330
48
100
AcDbEntity
  8
0
  6
Continuous
 62
     0
370
     0
100
AcDbLine
 10
374.563422
 20
508.487911
 30
0.0
 11
374.591243
 21
506.678035
 31
0.0
  0
ARC
  5
C8
330
48
100
AcDbEntity
  8
0
  6
Continuous
 62
     0
370
     0
100
AcDbCircle
 10
358.918386
 20
4154.015575
 30
0.0
 40
3645.561234939109
100
AcDbArc
 50
270.245887
 51
270.491945
  0
LINE
  5
C9
330
48
100
AcDbEntity
  8
0
  6
Continuous
 62
     0
370
     0
100
AcDbLine
 10
363.139581
 20
508.487912
 30
0.0
 11
363.111759
 21
506.678035
 31
0.0
  0
ARC
  5
CA
330
48
100
AcDbEntity
  8
0
  6
Continuous
 62
     0
370
     0
100
AcDbCircle
 10
368.851628
 20
1823.464753
 30
0.0
 40
1314.989246876659
100
AcDbArc
 50
269.751118
 51
270.248871
  0
LWPOLYLINE
  5
CB
330
48
100
AcDbEntity
  8
0
  6
Continuous
 62
     0
370
     0
100
AcDbPolyline
 90
        3
 70
     0
 43
0.0
 10
347.483978
 20
508.588715
 10
347.338776
 20
508.534943
 10
347.168579
 20
508.520416
  0
ARC
  5
CC
330
48
100
AcDbEntity
  8
0
  6
Continuous
 62
     0
370
     0
100
AcDbCircle
 10
378.781078
 20
4153.41807
 30
0.0
 40
3644.963719036199
100
AcDbArc
 50
269.50803
 51
269.754128
  0
ARC
  5
CD
330
48
100
AcDbEntity
  8
0
  6
Continuous
 62
     0
370
     0
100
AcDbCircle
 10
347.492973
 20
509.588797
 30
0.0
 40
1.000122158384704
100
AcDbArc
 50
180.009044
 51
269.484343
  0
LINE
  5
CE
330
48
100
AcDbEntity
  8
0
  6
Continuous
 62
     0
370
     0
100
AcDbLine
 10
390.210187
 20
514.10636
 30
0.0
 11
390.219037
 21
515.106289
 31
0.0
  0
ARC
  5
CF
330
48
100
AcDbEntity
  8
0
  6
Continuous
 62
     0
370
     0
100
AcDbCircle
 10
352.935676
 20
-3744.901487
 30
0.0
 40
4259.170955689504
100
AcDbArc
 50
89.498565
 51
89.709123
  0
LINE
  5
D0
330
48
100
AcDbEntity
  8
0
  6
Continuous
 62
     0
370
     0
100
AcDbLine
 10
390.21019
 20
509.588634
 30
0.0
 11
390.21019
 21
514.10636
 31
0.0
  0
LINE
  5
D1
330
48
100
AcDbEntity
  8
0
  6
Continuous
 62
     0
370
     0
100
AcDbLine
 10
347.492813
 20
514.106353
 30
0.0
 11
347.492813
 21
509.588641
 31
0.0
  0
ARC
  5
D2
330
48
100
AcDbEntity
  8
0
  6
Continuous
 62
     0
370
     0
100
AcDbCircle
 10
384.769244
 20
4768.430712
 30
0.0
 40
4259.005203048251
100
AcDbArc
 50
269.498519
 51
269.709087
  0
ARC
  5
D3
330
48
100
AcDbEntity
  8
0
  6
Continuous
 62
     0
370
     0
100
AcDbCircle
 10
368.851131
 20
1627.791263
 30
0.0
 40
1118.325412323082
100
AcDbArc
 50
269.70764
 51
270.292399
  0
ARC
  5
D4
330
48
100
AcDbEntity
  8
0
  6
Continuous
 62
     0
370
     0
100
AcDbCircle
 10
352.942203
 20
4767.567066
 30
0.0
 40
4258.141523479652
100
AcDbArc
 50
270.290859
 51
270.501469
  0
LINE
  5
D5
330
48
100
AcDbEntity
  8
0
  6
Continuous
 62
     0
370
     0
100
AcDbLine
 10
347.492812
 20
514.106356
 30
0.0
 11
346.492851
 21
514.106356
 31
0.0
  0
LINE
  5
D6
330
48
100
AcDbEntity
  8
0
  6
Continuous
 62
     0
370
     0
100
AcDbLine
 10
346.492851
 20
509.588639
 30
0.0
 11
347.492813
 21
509.588639
 31
0.0
  0
LINE
  5
D7
330
48
100
AcDbEntity
  8
0
  6
Continuous
 62
     0
370
     0
100
AcDbLine
 10
390.210178
 20
509.588637
 30
0.0
 11
391.210152
 21
509.588637
 31
0.0
  0
LINE
  5
D8
330
48
100
AcDbEntity
  8
0
  6
Continuous
 62
     0
370
     0
100
AcDbLine
 10
391.210152
 20
514.106353
 30
0.0
 11
390.210187
 21
514.106353
 31
0.0
  0
LINE
  5
D9
330
48
100
AcDbEntity
  8
0
  6
Continuous
 62
     0
370
     0
100
AcDbLine
 10
374.563422
 20
508.487911
 30
0.0
 11
374.558311
 21
509.480409
 31
0.0
  0
LINE
  5
DA
330
48
100
AcDbEntity
  8
0
  6
Continuous
 62
     0
370
     0
100
AcDbLine
 10
390.210178
 20
509.588634
 30
0.0
 11
390.219031
 21
508.588706
 31
0.0
  0
LINE
  5
DB
330
48
100
AcDbEntity
  8
0
  6
Continuous
 62
     0
370
     0
100
AcDbLine
 10
363.139581
 20
508.487912
 30
0.0
 11
363.144692
 21
509.480408
 31
0.0
  0
LINE
  5
DC
330
48
100
AcDbEntity
  8
0
  6
Continuous
 62
     0
370
     0
100
AcDbLine
 10
347.483972
 20
508.588718
 30
0.0
 11
347.492812
 21
509.588641
 31
0.0
  0
ARC
  5
DD
330
48
100
AcDbEntity
  8
0
  6
Continuous
 62
     0
370
    30
100
AcDbCircle
 10
368.851501
 20
511.847496
 30
0.0
 40
32.5
100
AcDbArc
 50
180.0
 51
360.0
  0
ARC
  5
DE
330
48
100
AcDbEntity
  8
0
  6
Continuous
 62
     0
370
    30
100
AcDbCircle
 10
368.851501
 20
511.847496
 30
0.0
 40
32.5
100
AcDbArc
 50
0.0
 51
180.0
  0
ARC
  5
DF
330
48
100
AcDbEntity
  8
0
  6
Continuous
 62
     0
370
     0
100
AcDbCircle
 10
368.851501
 20
511.847496
 30
0.0
 40
32.06095238095237
100
AcDbArc
 50
360.0
 51
180.0
  0
ARC
  5
E0
330
48
100
AcDbEntity
  8
0
  6
Continuous
 62
     0
370
     0
100
AcDbCircle
 10
368.851501
 20
511.847496
 30
0.0
 40
32.06095238095237
100
AcDbArc
 50
180.0
 51
360.0
  0
LWPOLYLINE
  5
E1
330
48
100
AcDbEntity
  8
0
  6
Continuous
 62
     0
370
     0
100
AcDbPolyline
 90
       14
 70
     0
 43
0.0
 10
374.866852
 20
516.985107
 10
374.133575
 20
517.732117
 10
373.311737
 20
518.379028
 10
372.412262
 20
518.91156
 10
371.44931
 20
519.318848
 10
370.441223
 20
519.595337
 10
369.40567
 20
519.737915
 10
368.360504
 20
519.742188
 10
367.323853
 20
519.607788
 10
366.313599
 20
519.339355
 10
365.347412
 20
518.939819
 10
364.443604
 20
518.414673
 10
363.616791
 20
517.774231
 10
362.836151
 20
516.985107
  0
LWPOLYLINE
  5
E2
330
48
100
AcDbEntity
  8
0
  6
Continuous
 62
     0
370
     0
100
AcDbPolyline
 90
       14
 70
     0
 43
0.0
 10
362.836151
 20
506.709869
 10
363.569427
 20
505.962891
 10
364.391266
 20
505.315979
 10
365.290741
 20
504.783447
 10
366.253693
 20
504.376129
 10
367.26178
 20
504.09964
 10
368.297333
 20
503.957062
 10
369.342499
 20
503.95282
 10
370.37915
 20
504.087189
 10
371.389404
 20
504.355621
 10
372.355591
 20
504.755157
 10
373.259399
 20
505.280334
 10
374.086212
 20
505.920776
 10
374.866852
 20
506.709869
  0
LINE
  5
E3
330
48
100
AcDbEntity
  8
0
  6
Continuous
 62
     0
370
    30
100
AcDbLine
 10
347.169517
 20
508.520304
 30
0.0
 11
347.165661
 21
508.520756
 31
0.0
  0
LINE
  5
E4
330
48
100
AcDbEntity
  8
0
  6
Continuous
 62
     0
370
    30
100
AcDbLine
 10
347.169535
 20
508.520298
 30
0.0
 11
347.557346
 21
508.475485
 31
0.0
  0
LINE
  5
E5
330
48
100
AcDbEntity
  8
0
  6
Continuous
 62
     0
370
    30
100
AcDbLine
 10
390.149087
 20
508.475879
 30
0.0
 11
390.53346
 21
508.520296
 31
0.0
  0
LINE
  5
E6
330
48
100
AcDbEntity
  8
0
  6
Continuous
 62
     0
370
    30
100
AcDbLine
 10
390.533485
 20
508.520302
 30
0.0
 11
390.537343
 21
508.520754
 31
0.0
  0
LINE
  5
E7
330
48
100
AcDbEntity
  8
0
  6
Continuous
 62
     0
370
    30
100
AcDbLine
 10
390.53732
 20
515.174239
 30
0.0
 11
390.533479
 21
515.174689
 31
0.0
  0
LINE
  5
E8
330
48
100
AcDbEntity
  8
0
  6
Continuous
 62
     0
370
    30
100
AcDbLine
 10
347.169518
 20
515.17469
 30
0.0
 11
347.16566
 21
515.174238
 31
0.0
  0
LINE
  5
E9
330
48
100
AcDbEntity
  8
0
  6
Continuous
 62
     0
370
    30
100
AcDbLine
 10
390.149088
 20
515.219111
 30
0.0
 11
390.53346
 21
515.174695
 31
0.0
  0
LINE
  5
EA
330
48
100
AcDbEntity
  8
0
  6
Continuous
 62
     0
370
    30
100
AcDbLine
 10
347.169535
 20
515.174696
 30
0.0
 11
347.557347
 21
515.219509
 31
0.0
  0
ENDBLK
  5
EC
330
48
100
AcDbEntity
  8
0
100
AcDbBlockEnd
  0
BLOCK
  5
16B
330
EE
100
AcDbEntity
  8
0
100
AcDbBlockBegin
  2
b
 70
     0
 10
23.968742
 20
98.172943
 30
0.0
  3
b
  1

  0
LINE
  5
EF
330
EE
100
AcDbEntity
  8
0
  6
Continuous
 62
     0
370
     0
100
AcDbLine
 10
283.596186
 20
106.375486
 30
0.0
 11
283.596186
 21
197.805845
 31
0.0
  0
ELLIPSE
  5
F0
330
EE
100
AcDbEntity
  8
0
  6
Continuous
 62
     0
370
    30
100
AcDbEllipse
 10
283.351501
 20
106.796666
 30
0.0
 11
0.499999999999999
 21
2.949081485264854E-16
 31
0.0
210
0.0
220
0.0
230
-1.0
 40
0.965926
 41
0.0000000000000006
 42
1.05943041527548
  0
LINE
  5
F1
330
EE
100
AcDbEntity
  8
0
  6
Continuous
 62
     0
370
    30
100
AcDbLine
 10
283.851501
 20
197.805845
 30
0.0
 11
283.851501
 21
106.796666
 31
0.0
  0
LINE
  5
F2
330
EE
100
AcDbEntity
  8
0
  6
Continuous
 62
     0
370
     0
100
AcDbLine
 10
283.596186
 20
197.805845
 30
0.0
 11
283.851501
 21
197.805845
 31
0.0
  0
LINE
  5
F3
330
EE
100
AcDbEntity
  8
0
  6
Continuous
 62
     0
370
    30
100
AcDbLine
 10
283.851501
 20
312.805845
 30
0.0
 11
283.851501
 21
197.805845
 31
0.0
  0
LINE
  5
F4
330
EE
100
AcDbEntity
  8
0
  6
Continuous
 62
     0
370
     0
100
AcDbLine
 10
283.596186
 20
197.805845
 30
0.0
 11
283.596186
 21
312.805845
 31
0.0
  0
LINE
  5
F5
330
EE
100
AcDbEntity
  8
0
  6
Continuous
 62
     0
370
    30
100
AcDbLine
 10
253.851501
 20
106.796666
 30
0.0
 11
253.851501
 21
197.805845
 31
0.0
  0
ELLIPSE
  5
F6
330
EE
100
AcDbEntity
  8
0
  6
Continuous
 62
     0
370
    30
100
AcDbEllipse
 10
254.351501
 20
106.796666
 30
0.0
 11
0.500000000000002
 21
0.0
 31
0.0
210
0.0
220
0.0
230
-1.0
 40
0.965926
 41
2.082162238314316
 42
3.141592653589793
  0
LINE
  5
F7
330
EE
100
AcDbEntity
  8
0
  6
Continuous
 62
     0
370
     0
100
AcDbLine
 10
254.106817
 20
197.805845
 30
0.0
 11
254.106817
 21
106.375486
 31
0.0
  0
LINE
  5
F8
330
EE
100
AcDbEntity
  8
0
  6
Continuous
 62
     0
370
     0
100
AcDbLine
 10
253.851501
 20
197.805845
 30
0.0
 11
254.106817
 21
197.805845
 31
0.0
  0
LINE
  5
F9
330
EE
100
AcDbEntity
  8
0
  6
Continuous
 62
     0
370
     0
100
AcDbLine
 10
254.106817
 20
312.805845
 30
0.0
 11
254.106817
 21
197.805845
 31
0.0
  0
LINE
  5
FA
330
EE
100
AcDbEntity
  8
0
  6
Continuous
 62
     0
370
    30
100
AcDbLine
 10
253.851501
 20
197.805845
 30
0.0
 11
253.851501
 21
312.805845
 31
0.0
  0
ELLIPSE
  5
FB
330
EE
100
AcDbEntity
  8
0
  6
Continuous
 62
     0
370
    30
100
AcDbEllipse
 10
268.851501
 20
131.755841
 30
0.0
 11
30.13
 21
0.0
 31
0.0
210
0.0
220
0.0
230
-1.0
 40
0.965926
 41
1.059430415275709
 42
2.082162238314085
  0
LINE
  5
FC
330
EE
100
AcDbEntity
  8
0
  6
Continuous
 62
     0
370
     0
100
AcDbLine
 10
254.106817
 20
197.805846
 30
0.0
 11
283.596186
 21
197.805846
 31
0.0
  0
LINE
  5
FD
330
EE
100
AcDbEntity
  8
0
  6
Continuous
 62
     0
370
     0
100
AcDbLine
 10
236.727662
 20
314.708406
 30
0.0
 11
268.851501
 21
314.708406
 31
0.0
  0
LINE
  5
FE
330
EE
100
AcDbEntity
  8
0
  6
Continuous
 62
     0
370
     0
100
AcDbLine
 10
268.851501
 20
314.708406
 30
0.0
 11
300.97534
 21
314.708406
 31
0.0
  0
LINE
  5
FF
330
EE
100
AcDbEntity
  8
0
  6
Continuous
 62
     0
370
    30
100
AcDbLine
 10
285.851501
 20
312.805845
 30
0.0
 11
268.851501
 21
312.805845
 31
0.0
  0
LINE
  5
100
330
EE
100
AcDbEntity
  8
0
  6
Continuous
 62
     0
370
    30
100
AcDbLine
 10
268.851501
 20
312.805845
 30
0.0
 11
251.851501
 21
312.805845
 31
0.0
  0
LINE
  5
101
330
EE
100
AcDbEntity
  8
0
  6
Continuous
 62
     0
370
     0
100
AcDbLine
 10
301.351501
 20
315.192827
 30
0.0
 11
268.851501
 21
315.192827
 31
0.0
  0
LINE
  5
102
330
EE
100
AcDbEntity
  8
0
  6
Continuous
 62
     0
370
     0
100
AcDbLine
 10
268.851501
 20
315.192827
 30
0.0
 11
236.351501
 21
315.192827
 31
0.0
  0
LINE
  5
103
330
EE
100
AcDbEntity
  8
0
  6
Continuous
 62
     0
370
    30
100
AcDbLine
 10
236.351501
 20
322.805845
 30
0.0
 11
268.851501
 21
322.805845
 31
0.0
  0
LINE
  5
104
330
EE
100
AcDbEntity
  8
0
  6
Continuous
 62
     0
370
    30
100
AcDbLine
 10
268.851501
 20
322.805845
 30
0.0
 11
301.351501
 21
322.805845
 31
0.0
  0
ARC
  5
105
330
EE
100
AcDbEntity
  8
0
  6
Continuous
 62
     0
370
    30
100
AcDbCircle
 10
300.851494
 20
315.192833
 30
0.0
 40
0.5000073150968709
100
AcDbArc
 50
284.347898
 51
359.999349
  0
ARC
  5
106
330
EE
100
AcDbEntity
  8
0
  6
Continuous
 62
     0
370
    30
100
AcDbCircle
 10
236.851509
 20
315.192833
 30
0.0
 40
0.5000073150970399
100
AcDbArc
 50
180.000651
 51
255.652102
  0
LINE
  5
107
330
EE
100
AcDbEntity
  8
0
  6
Continuous
 62
     0
370
    30
100
AcDbLine
 10
236.351501
 20
322.805845
 30
0.0
 11
236.351501
 21
315.192827
 31
0.0
  0
LINE
  5
108
330
EE
100
AcDbEntity
  8
0
  6
Continuous
 62
     0
370
    30
100
AcDbLine
 10
301.351501
 20
322.805845
 30
0.0
 11
301.351501
 21
315.192827
 31
0.0
  0
ARC
  5
109
330
EE
100
AcDbEntity
  8
0
  6
Continuous
 62
     0
370
    30
100
AcDbCircle
 10
251.851511
 20
373.868423
 30
0.0
 40
61.06257733035322
100
AcDbArc
 50
255.659857
 51
269.984258
  0
ARC
  5
10A
330
EE
100
AcDbEntity
  8
0
  6
Continuous
 62
     0
370
    30
100
AcDbCircle
 10
285.851492
 20
373.868423
 30
0.0
 40
61.06257733035319
100
AcDbArc
 50
270.015742
 51
284.340143
  0
LINE
  5
10B
330
EE
100
AcDbEntity
  8
0
  6
Continuous
 62
     0
370
    30
100
AcDbLine
 10
173.751501
 20
307.525845
 30
0.0
 11
173.751501
 21
302.775845
 31
0.0
  0
LINE
  5
10C
330
EE
100
AcDbEntity
  8
0
  6
Continuous
 62
     0
370
    30
100
AcDbLine
 10
163.951501
 20
302.775845
 30
0.0
 11
163.951501
 21
307.525845
 31
0.0
  0
LINE
  5
10D
330
EE
100
AcDbEntity
  8
0
  6
Continuous
 62
     0
370
     0
100
AcDbLine
 10
173.751501
 20
302.775845
 30
0.0
 11
163.951501
 21
302.775845
 31
0.0
  0
ARC
  5
10E
330
EE
100
AcDbEntity
  8
0
  6
Continuous
 62
     0
370
     0
100
AcDbCircle
 10
-16230.185644
 20
309.385415
 30
0.0
 40
16404.77832172641
100
AcDbArc
 50
359.891792
 51
359.976042
  0
LINE
  5
10F
330
EE
100
AcDbEntity
  8
0
  6
Continuous
 62
     0
370
    30
100
AcDbLine
 10
174.591243
 20
302.525845
 30
0.0
 11
163.111759
 21
302.525845
 31
0.0
  0
ARC
  5
110
330
EE
100
AcDbEntity
  8
0
  6
Continuous
 62
     0
370
     0
100
AcDbCircle
 10
16567.797132
 20
309.385415
 30
0.0
 40
16404.68680695604
100
AcDbArc
 50
180.023958
 51
180.108208
  0
ARC
  5
111
330
EE
100
AcDbEntity
  8
0
  6
Continuous
 62
     0
370
     0
100
AcDbCircle
 10
168.851825
 20
1280.823213
 30
0.0
 40
1002.435792269926
100
AcDbArc
 50
269.673506
 51
270.326457
  0
ARC
  5
112
330
EE
100
AcDbEntity
  8
0
  6
Continuous
 62
     0
370
     0
100
AcDbCircle
 10
-2545.528308
 20
326.462293
 30
0.0
 40
2736.16743598389
100
AcDbArc
 50
358.99597
 51
359.498761
  0
LINE
  5
113
330
EE
100
AcDbEntity
  8
0
  6
Continuous
 62
     0
370
    30
100
AcDbLine
 10
190.534426
 20
302.525845
 30
0.0
 11
174.591243
 21
302.525845
 31
0.0
  0
ARC
  5
114
330
EE
100
AcDbEntity
  8
0
  6
Continuous
 62
     0
370
     0
100
AcDbCircle
 10
144.979226
 20
5440.143004
 30
0.0
 40
5161.824090544505
100
AcDbArc
 50
270.328384
 51
270.502164
  0
LINE
  5
115
330
EE
100
AcDbEntity
  8
0
  6
Continuous
 62
     0
370
    30
100
AcDbLine
 10
147.168577
 20
302.525845
 30
0.0
 11
146.28333
 21
302.525845
 31
0.0
  0
LINE
  5
116
330
EE
100
AcDbEntity
  8
0
  6
Continuous
 62
     0
370
    30
100
AcDbLine
 10
163.111759
 20
302.525845
 30
0.0
 11
147.168577
 21
302.525845
 31
0.0
  0
LINE
  5
117
330
EE
100
AcDbEntity
  8
0
  6
Continuous
 62
     0
370
    30
100
AcDbLine
 10
191.419673
 20
302.525845
 30
0.0
 11
190.534427
 21
302.525845
 31
0.0
  0
ARC
  5
118
330
EE
100
AcDbEntity
  8
0
  6
Continuous
 62
     0
370
     0
100
AcDbCircle
 10
2883.222872
 20
326.46218
 30
0.0
 40
2736.15899674044
100
AcDbArc
 50
180.501239
 51
181.004031
  0
ARC
  5
119
330
EE
100
AcDbEntity
  8
0
  6
Continuous
 62
     0
370
     0
100
AcDbCircle
 10
192.836278
 20
5455.771679
 30
0.0
 40
5177.453154292201
100
AcDbArc
 50
269.498107
 51
269.671363
  0
LINE
  5
11A
330
EE
100
AcDbEntity
  8
0
  6
Continuous
 62
     0
370
    30
100
AcDbLine
 10
174.558313
 20
277.525845
 30
0.0
 11
163.144662
 21
277.525845
 31
0.0
  0
ARC
  5
11B
330
EE
100
AcDbEntity
  8
0
  6
Continuous
 62
     0
370
     0
100
AcDbCircle
 10
134.210495
 20
278.199591
 30
0.0
 40
40.35344246443924
100
AcDbArc
 50
359.043339
 51
0.289795
  0
ARC
  5
11C
330
EE
100
AcDbEntity
  8
0
  6
Continuous
 62
     0
370
     0
100
AcDbCircle
 10
203.714248
 20
278.199593
 30
0.0
 40
40.57518029927576
100
AcDbArc
 50
179.711787
 51
180.951435
  0
LWPOLYLINE
  5
11D
330
EE
100
AcDbEntity
  8
0
  6
Continuous
 62
     0
370
     0
100
AcDbPolyline
 90
        5
 70
     0
 43
0.0
 10
191.210159
 20
278.51712
 10
191.136139
 20
278.514526
 10
190.925034
 20
278.51358
 10
190.6082
 20
278.514465
 10
190.219025
 20
278.517151
  0
LINE
  5
11E
330
EE
100
AcDbEntity
  8
0
  6
Continuous
 62
     0
370
    30
100
AcDbLine
 10
191.419673
 20
302.525845
 30
0.0
 11
191.210152
 21
278.517119
 31
0.0
  0
LINE
  5
11F
330
EE
100
AcDbEntity
  8
0
  6
Continuous
 62
     0
370
    30
100
AcDbLine
 10
190.210191
 20
277.525845
 30
0.0
 11
174.558313
 21
277.525845
 31
0.0
  0
LWPOLYLINE
  5
120
330
EE
100
AcDbEntity
  8
0
  6
Continuous
 62
     0
370
     0
100
AcDbPolyline
 90
        5
 70
     0
 43
0.0
 10
190.219025
 20
278.517151
 10
190.218353
 20
278.140198
 10
190.216461
 20
277.820404
 10
190.213638
 20
277.60495
 10
190.21019
 20
277.525848
  0
LINE
  5
121
330
EE
100
AcDbEntity
  8
0
  6
Continuous
 62
     0
370
    30
100
AcDbLine
 10
146.28333
 20
302.525845
 30
0.0
 11
146.492851
 21
278.517119
 31
0.0
  0
LWPOLYLINE
  5
122
330
EE
100
AcDbEntity
  8
0
  6
Continuous
 62
     0
370
     0
100
AcDbPolyline
 90
        5
 70
     0
 43
0.0
 10
146.492844
 20
278.51712
 10
146.566864
 20
278.514526
 10
146.777969
 20
278.51358
 10
147.094803
 20
278.514465
 10
147.483978
 20
278.517151
  0
ARC
  5
123
330
EE
100
AcDbEntity
  8
0
  6
Continuous
 62
     0
370
    30
100
AcDbCircle
 10
174.001501
 20
302.775845
 30
0.0
 40
0.2499999999999041
100
AcDbArc
 50
180.0
 51
269.999999
  0
ARC
  5
124
330
EE
100
AcDbEntity
  8
0
  6
Continuous
 62
     0
370
    30
100
AcDbCircle
 10
163.701501
 20
302.775845
 30
0.0
 40
0.2499999999998077
100
AcDbArc
 50
270.000001
 51
360.0
  0
LINE
  5
125
330
EE
100
AcDbEntity
  8
0
  6
Continuous
 62
     0
370
    30
100
AcDbLine
 10
163.144662
 20
277.525845
 30
0.0
 11
147.492816
 21
277.525845
 31
0.0
  0
LWPOLYLINE
  5
126
330
EE
100
AcDbEntity
  8
0
  6
Continuous
 62
     0
370
     0
100
AcDbPolyline
 90
        5
 70
     0
 43
0.0
 10
147.492813
 20
277.525848
 10
147.489471
 20
277.599854
 10
147.486633
 20
277.811035
 10
147.484695
 20
278.12796
 10
147.483963
 20
278.517151
  0
ARC
  5
127
330
EE
100
AcDbEntity
  8
0
  6
Continuous
 62
     0
370
    30
100
AcDbCircle
 10
190.21019
 20
278.525845
 30
0.0
 40
1.0
100
AcDbArc
 50
270.000038
 51
359.5
  0
ARC
  5
128
330
EE
100
AcDbEntity
  8
0
  6
Continuous
 62
     0
370
    30
100
AcDbCircle
 10
147.492813
 20
278.525845
 30
0.0
 40
1.0
100
AcDbArc
 50
180.5
 51
270.00018
  0
ARC
  5
129
330
EE
100
AcDbEntity
  8
0
  6
Continuous
 62
     0
370
    30
100
AcDbCircle
 10
200.851501
 20
315.247817
 30
0.0
 40
0.5000000000006177
100
AcDbArc
 50
277.002045
 51
360.0
  0
LINE
  5
12A
330
EE
100
AcDbEntity
  8
0
  6
Continuous
 62
     0
370
     0
100
AcDbLine
 10
136.790549
 20
314.751546
 30
0.0
 11
200.912454
 21
314.751546
 31
0.0
  0
LINE
  5
12B
330
EE
100
AcDbEntity
  8
0
  6
Continuous
 62
     0
370
     0
100
AcDbLine
 10
201.351501
 20
315.247817
 30
0.0
 11
136.351501
 21
315.247817
 31
0.0
  0
LWPOLYLINE
  5
12C
330
EE
100
AcDbEntity
  8
0
  6
Continuous
 62
     0
370
     0
100
AcDbPolyline
 90
       24
 70
     0
 43
0.0
 10
160.941727
 20
312.908997
 10
161.014267
 20
312.909058
 10
161.237625
 20
312.908966
 10
161.599533
 20
312.908966
 10
162.092117
 20
312.909058
 10
162.714005
 20
312.909058
 10
163.453308
 20
312.908936
 10
164.289276
 20
312.908966
 10
165.209061
 20
312.909027
 10
166.197952
 20
312.909027
 10
167.235931
 20
312.908997
 10
168.303604
 20
312.909027
 10
169.381363
 20
312.909027
 10
170.449371
 20
312.908997
 10
171.487991
 20
312.909027
 10
172.477875
 20
312.909027
 10
173.398972
 20
312.908997
 10
174.23642
 20
312.908936
 10
174.977509
 20
312.909058
 10
175.601532
 20
312.909088
 10
176.096283
 20
312.908966
 10
176.460403
 20
312.908966
 10
176.686203
 20
312.909058
 10
176.761276
 20
312.908997
  0
LINE
  5
12D
330
EE
100
AcDbEntity
  8
0
  6
Continuous
 62
     0
370
    30
100
AcDbLine
 10
201.351501
 20
315.247817
 30
0.0
 11
201.351501
 21
322.805845
 31
0.0
  0
LINE
  5
12E
330
EE
100
AcDbEntity
  8
0
  6
Continuous
 62
     0
370
    30
100
AcDbLine
 10
201.351501
 20
322.805845
 30
0.0
 11
136.351501
 21
322.805845
 31
0.0
  0
LINE
  5
12F
330
EE
100
AcDbEntity
  8
0
  6
Continuous
 62
     0
370
    30
100
AcDbLine
 10
173.851501
 20
307.525845
 30
0.0
 11
173.851501
 21
309.910368
 31
0.0
  0
LINE
  5
130
330
EE
100
AcDbEntity
  8
0
  6
Continuous
 62
     0
370
     0
100
AcDbLine
 10
173.851501
 20
309.910368
 30
0.0
 11
163.851501
 21
309.910368
 31
0.0
  0
LINE
  5
131
330
EE
100
AcDbEntity
  8
0
  6
Continuous
 62
     0
370
    30
100
AcDbLine
 10
163.851501
 20
307.525845
 30
0.0
 11
173.851501
 21
307.525845
 31
0.0
  0
ARC
  5
132
330
EE
100
AcDbEntity
  8
0
  6
Continuous
 62
     0
370
    30
100
AcDbCircle
 10
176.851501
 20
309.910368
 30
0.0
 40
2.999999999999983
100
AcDbArc
 50
91.723441
 51
180.0
  0
ARC
  5
133
330
EE
100
AcDbEntity
  8
0
  6
Continuous
 62
     0
370
    30
100
AcDbCircle
 10
160.851502
 20
309.910368
 30
0.0
 40
2.999999642721694
100
AcDbArc
 50
359.999993
 51
88.276565
  0
LWPOLYLINE
  5
134
330
EE
100
AcDbEntity
  8
0
  6
Continuous
 62
     0
370
    30
100
AcDbPolyline
 90
        2
 70
     0
 43
0.0
 10
176.761276
 20
312.908997
 10
176.761276
 20
312.908997
  0
LINE
  5
135
330
EE
100
AcDbEntity
  8
0
  6
Continuous
 62
     0
370
    30
100
AcDbLine
 10
163.851501
 20
307.525845
 30
0.0
 11
163.851501
 21
309.910368
 31
0.0
  0
LINE
  5
136
330
EE
100
AcDbEntity
  8
0
  6
Continuous
 62
     0
370
    30
100
AcDbLine
 10
136.351501
 20
315.247817
 30
0.0
 11
136.351501
 21
322.805845
 31
0.0
  0
LWPOLYLINE
  5
137
330
EE
100
AcDbEntity
  8
0
  6
Continuous
 62
     0
370
    30
100
AcDbPolyline
 90
       30
 70
     0
 43
0.0
 10
200.91246
 20
314.751556
 10
200.083344
 20
314.651062
 10
199.253922
 20
314.553192
 10
198.424194
 20
314.457947
 10
197.594162
 20
314.365356
 10
196.76384
 20
314.275421
 10
195.933228
 20
314.18808
 10
195.102356
 20
314.103424
 10
194.271225
 20
314.021362
 10
193.439819
 20
313.941956
 10
192.608185
 20
313.865204
 10
191.776291
 20
313.791077
 10
190.944183
 20
313.719604
 10
190.111847
 20
313.650757
 10
189.279297
 20
313.584595
 10
188.446533
 20
313.521027
 10
187.613571
 20
313.460083
 10
186.780426
 20
313.401794
 10
185.947113
 20
313.346222
 10
185.113617
 20
313.293365
 10
184.279953
 20
313.242981
 10
183.446106
 20
313.194977
 10
182.612198
 20
313.150482
 10
181.778198
 20
313.109222
 10
180.943649
 20
313.066315
 10
180.109024
 20
313.026764
 10
179.276199
 20
313.008057
 10
178.441544
 20
312.975616
 10
177.599869
 20
312.879059
 10
176.761276
 20
312.908997
  0
LWPOLYLINE
  5
138
330
EE
100
AcDbEntity
  8
0
  6
Continuous
 62
     0
370
    30
100
AcDbPolyline
 90
       30
 70
     0
 43
0.0
 10
136.790543
 20
314.751556
 10
137.619659
 20
314.651062
 10
138.449081
 20
314.553192
 10
139.278809
 20
314.457947
 10
140.108841
 20
314.365356
 10
140.939163
 20
314.275421
 10
141.769775
 20
314.18808
 10
142.600647
 20
314.103424
 10
143.431778
 20
314.021362
 10
144.263184
 20
313.941956
 10
145.094818
 20
313.865204
 10
145.926712
 20
313.791077
 10
146.75882
 20
313.719604
 10
147.591156
 20
313.650757
 10
148.423706
 20
313.584595
 10
149.25647
 20
313.521027
 10
150.089432
 20
313.460083
 10
150.922577
 20
313.401794
 10
151.75589
 20
313.346222
 10
152.589386
 20
313.293365
 10
153.42305
 20
313.242981
 10
154.256897
 20
313.194977
 10
155.090805
 20
313.150482
 10
155.924805
 20
313.109222
 10
156.759354
 20
313.066315
 10
157.593979
 20
313.026764
 10
158.426804
 20
313.008057
 10
159.261459
 20
312.975616
 10
160.103134
 20
312.879059
 10
160.941727
 20
312.908997
  0
ARC
  5
139
330
EE
100
AcDbEntity
  8
0
  6
Continuous
 62
     0
370
    30
100
AcDbCircle
 10
136.851591
 20
315.247896
 30
0.0
 40
0.5000896921805095
100
AcDbArc
 50
180.009087
 51
262.988868
  0
LINE
  5
13A
330
EE
100
AcDbEntity
  8
0
  6
Continuous
 62
     0
370
    30
100
AcDbLine
 10
190.225279
 20
277.52597
 30
0.0
 11
190.210193
 21
277.52585
 31
0.0
  0
LINE
  5
13B
330
EE
100
AcDbEntity
  8
0
  6
Continuous
 62
     0
370
     0
100
AcDbLine
 10
363.951501
 20
302.775845
 30
0.0
 11
373.751501
 21
302.775845
 31
0.0
  0
LINE
  5
13C
330
EE
100
AcDbEntity
  8
0
  6
Continuous
 62
     0
370
    30
100
AcDbLine
 10
373.751501
 20
302.775845
 30
0.0
 11
373.751501
 21
307.525845
 31
0.0
  0
LINE
  5
13D
330
EE
100
AcDbEntity
  8
0
  6
Continuous
 62
     0
370
    30
100
AcDbLine
 10
363.951501
 20
307.525845
 30
0.0
 11
363.951501
 21
302.775845
 31
0.0
  0
ARC
  5
13E
330
EE
100
AcDbEntity
  8
0
  6
Continuous
 62
     0
370
     0
100
AcDbCircle
 10
368.851178
 20
1280.823213
 30
0.0
 40
1002.435792269902
100
AcDbArc
 50
269.673543
 51
270.326494
  0
ARC
  5
13F
330
EE
100
AcDbEntity
  8
0
  6
Continuous
 62
     0
370
     0
100
AcDbCircle
 10
-16030.094129
 20
309.385415
 30
0.0
 40
16404.68680702273
100
AcDbArc
 50
359.891792
 51
359.976042
  0
LINE
  5
140
330
EE
100
AcDbEntity
  8
0
  6
Continuous
 62
     0
370
    30
100
AcDbLine
 10
363.11176
 20
302.525845
 30
0.0
 11
374.591244
 21
302.525845
 31
0.0
  0
ARC
  5
141
330
EE
100
AcDbEntity
  8
0
  6
Continuous
 62
     0
370
     0
100
AcDbCircle
 10
16767.888647
 20
309.385415
 30
0.0
 40
16404.77832169592
100
AcDbArc
 50
180.023958
 51
180.108208
  0
ARC
  5
142
330
EE
100
AcDbEntity
  8
0
  6
Continuous
 62
     0
370
     0
100
AcDbCircle
 10
392.723777
 20
5440.143004
 30
0.0
 40
5161.824090544025
100
AcDbArc
 50
269.497836
 51
269.671616
  0
LINE
  5
143
330
EE
100
AcDbEntity
  8
0
  6
Continuous
 62
     0
370
    30
100
AcDbLine
 10
347.168577
 20
302.525845
 30
0.0
 11
363.11176
 21
302.525845
 31
0.0
  0
ARC
  5
144
330
EE
100
AcDbEntity
  8
0
  6
Continuous
 62
     0
370
     0
100
AcDbCircle
 10
3083.231311
 20
326.462293
 30
0.0
 40
2736.167435982585
100
AcDbArc
 50
180.501239
 51
181.00403
  0
LINE
  5
145
330
EE
100
AcDbEntity
  8
0
  6
Continuous
 62
     0
370
    30
100
AcDbLine
 10
346.28333
 20
302.525845
 30
0.0
 11
347.168576
 21
302.525845
 31
0.0
  0
LINE
  5
146
330
EE
100
AcDbEntity
  8
0
  6
Continuous
 62
     0
370
    30
100
AcDbLine
 10
374.591244
 20
302.525845
 30
0.0
 11
390.534426
 21
302.525845
 31
0.0
  0
LINE
  5
147
330
EE
100
AcDbEntity
  8
0
  6
Continuous
 62
     0
370
    30
100
AcDbLine
 10
390.534426
 20
302.525845
 30
0.0
 11
391.419673
 21
302.525845
 31
0.0
  0
ARC
  5
148
330
EE
100
AcDbEntity
  8
0
  6
Continuous
 62
     0
370
     0
100
AcDbCircle
 10
344.866725
 20
5455.771679
 30
0.0
 40
5177.453154292547
100
AcDbArc
 50
270.328637
 51
270.501893
  0
ARC
  5
149
330
EE
100
AcDbEntity
  8
0
  6
Continuous
 62
     0
370
     0
100
AcDbCircle
 10
-2345.519869
 20
326.46218
 30
0.0
 40
2736.158996745738
100
AcDbArc
 50
358.995969
 51
359.498761
  0
ARC
  5
14A
330
EE
100
AcDbEntity
  8
0
  6
Continuous
 62
     0
370
     0
100
AcDbCircle
 10
333.988755
 20
278.199593
 30
0.0
 40
40.57518029648736
100
AcDbArc
 50
359.048565
 51
0.288213
  0
ARC
  5
14B
330
EE
100
AcDbEntity
  8
0
  6
Continuous
 62
     0
370
     0
100
AcDbCircle
 10
403.492508
 20
278.199591
 30
0.0
 40
40.35344246641274
100
AcDbArc
 50
179.710205
 51
180.956661
  0
LINE
  5
14C
330
EE
100
AcDbEntity
  8
0
  6
Continuous
 62
     0
370
    30
100
AcDbLine
 10
363.14469
 20
277.525845
 30
0.0
 11
374.558341
 21
277.525845
 31
0.0
  0
LINE
  5
14D
330
EE
100
AcDbEntity
  8
0
  6
Continuous
 62
     0
370
    30
100
AcDbLine
 10
346.28333
 20
302.525845
 30
0.0
 11
346.492851
 21
278.517119
 31
0.0
  0
LWPOLYLINE
  5
14E
330
EE
100
AcDbEntity
  8
0
  6
Continuous
 62
     0
370
     0
100
AcDbPolyline
 90
        5
 70
     0
 43
0.0
 10
346.492859
 20
278.51712
 10
346.566864
 20
278.514526
 10
346.777954
 20
278.51358
 10
347.094788
 20
278.514465
 10
347.483978
 20
278.517151
  0
LWPOLYLINE
  5
14F
330
EE
100
AcDbEntity
  8
0
  6
Continuous
 62
     0
370
     0
100
AcDbPolyline
 90
        5
 70
     0
 43
0.0
 10
347.483978
 20
278.517151
 10
347.48465
 20
278.140198
 10
347.486542
 20
277.820404
 10
347.48938
 20
277.60495
 10
347.492798
 20
277.525848
  0
LINE
  5
150
330
EE
100
AcDbEntity
  8
0
  6
Continuous
 62
     0
370
    30
100
AcDbLine
 10
347.492812
 20
277.525845
 30
0.0
 11
363.14469
 21
277.525845
 31
0.0
  0
LWPOLYLINE
  5
151
330
EE
100
AcDbEntity
  8
0
  6
Continuous
 62
     0
370
     0
100
AcDbPolyline
 90
        5
 70
     0
 43
0.0
 10
391.210144
 20
278.51712
 10
391.136139
 20
278.514526
 10
390.925049
 20
278.51358
 10
390.608215
 20
278.514465
 10
390.219025
 20
278.517151
  0
LINE
  5
152
330
EE
100
AcDbEntity
  8
0
  6
Continuous
 62
     0
370
    30
100
AcDbLine
 10
391.419673
 20
302.525845
 30
0.0
 11
391.210152
 21
278.517119
 31
0.0
  0
ARC
  5
153
330
EE
100
AcDbEntity
  8
0
  6
Continuous
 62
     0
370
    30
100
AcDbCircle
 10
374.001501
 20
302.775845
 30
0.0
 40
0.24999999997784
100
AcDbArc
 50
180.0
 51
269.999999
  0
ARC
  5
154
330
EE
100
AcDbEntity
  8
0
  6
Continuous
 62
     0
370
    30
100
AcDbCircle
 10
363.701501
 20
302.775845
 30
0.0
 40
0.2499999999972609
100
AcDbArc
 50
270.000001
 51
0.0
  0
LWPOLYLINE
  5
155
330
EE
100
AcDbEntity
  8
0
  6
Continuous
 62
     0
370
     0
100
AcDbPolyline
 90
        5
 70
     0
 43
0.0
 10
390.210175
 20
277.525848
 10
390.213531
 20
277.599854
 10
390.21637
 20
277.811035
 10
390.218292
 20
278.12796
 10
390.219025
 20
278.517151
  0
LINE
  5
156
330
EE
100
AcDbEntity
  8
0
  6
Continuous
 62
     0
370
    30
100
AcDbLine
 10
374.558341
 20
277.525845
 30
0.0
 11
390.210187
 21
277.525845
 31
0.0
  0
ARC
  5
157
330
EE
100
AcDbEntity
  8
0
  6
Continuous
 62
     0
370
    30
100
AcDbCircle
 10
347.492813
 20
278.525845
 30
0.0
 40
1.0
100
AcDbArc
 50
180.5
 51
269.999962
  0
ARC
  5
158
330
EE
100
AcDbEntity
  8
0
  6
Continuous
 62
     0
370
    30
100
AcDbCircle
 10
390.21019
 20
278.525845
 30
0.0
 40
1.0
100
AcDbArc
 50
269.99982
 51
359.5
  0
LINE
  5
159
330
EE
100
AcDbEntity
  8
0
  6
Continuous
 62
     0
370
     0
100
AcDbLine
 10
336.351501
 20
315.247817
 30
0.0
 11
401.351501
 21
315.247817
 31
0.0
  0
ARC
  5
15A
330
EE
100
AcDbEntity
  8
0
  6
Continuous
 62
     0
370
    30
100
AcDbCircle
 10
336.851501
 20
315.247817
 30
0.0
 40
0.5000000000041099
100
AcDbArc
 50
180.0
 51
262.997955
  0
LINE
  5
15B
330
EE
100
AcDbEntity
  8
0
  6
Continuous
 62
     0
370
     0
100
AcDbLine
 10
400.912454
 20
314.751546
 30
0.0
 11
336.790549
 21
314.751546
 31
0.0
  0
LWPOLYLINE
  5
15C
330
EE
100
AcDbEntity
  8
0
  6
Continuous
 62
     0
370
     0
100
AcDbPolyline
 90
       24
 70
     0
 43
0.0
 10
376.761261
 20
312.908997
 10
376.688721
 20
312.909058
 10
376.465363
 20
312.908966
 10
376.103455
 20
312.908966
 10
375.610901
 20
312.909058
 10
374.989014
 20
312.909058
 10
374.249695
 20
312.908936
 10
373.413727
 20
312.908966
 10
372.493958
 20
312.909027
 10
371.505066
 20
312.909027
 10
370.467072
 20
312.908997
 10
369.399414
 20
312.909027
 10
368.321655
 20
312.909027
 10
367.253632
 20
312.908997
 10
366.214996
 20
312.909027
 10
365.225128
 20
312.909027
 10
364.304016
 20
312.908997
 10
363.466583
 20
312.908936
 10
362.725494
 20
312.909058
 10
362.101471
 20
312.909088
 10
361.60672
 20
312.908966
 10
361.242584
 20
312.908966
 10
361.016785
 20
312.909058
 10
360.941742
 20
312.908997
  0
LINE
  5
15D
330
EE
100
AcDbEntity
  8
0
  6
Continuous
 62
     0
370
    30
100
AcDbLine
 10
336.351501
 20
315.247817
 30
0.0
 11
336.351501
 21
322.805845
 31
0.0
  0
LINE
  5
15E
330
EE
100
AcDbEntity
  8
0
  6
Continuous
 62
     0
370
    30
100
AcDbLine
 10
336.351501
 20
322.805845
 30
0.0
 11
401.351501
 21
322.805845
 31
0.0
  0
LINE
  5
15F
330
EE
100
AcDbEntity
  8
0
  6
Continuous
 62
     0
370
    30
100
AcDbLine
 10
373.851501
 20
307.525845
 30
0.0
 11
363.851501
 21
307.525845
 31
0.0
  0
LINE
  5
160
330
EE
100
AcDbEntity
  8
0
  6
Continuous
 62
     0
370
    30
100
AcDbLine
 10
363.851501
 20
307.525845
 30
0.0
 11
363.851501
 21
309.910368
 31
0.0
  0
LINE
  5
161
330
EE
100
AcDbEntity
  8
0
  6
Continuous
 62
     0
370
     0
100
AcDbLine
 10
363.851501
 20
309.910368
 30
0.0
 11
373.851501
 21
309.910368
 31
0.0
  0
ARC
  5
162
330
EE
100
AcDbEntity
  8
0
  6
Continuous
 62
     0
370
    30
100
AcDbCircle
 10
360.851501
 20
309.910368
 30
0.0
 40
2.999999999998802
100
AcDbArc
 50
360.0
 51
88.276559
  0
ARC
  5
163
330
EE
100
AcDbEntity
  8
0
  6
Continuous
 62
     0
370
    30
100
AcDbCircle
 10
376.851501
 20
309.910368
 30
0.0
 40
2.999999642720737
100
AcDbArc
 50
91.723435
 51
180.000007
  0
LWPOLYLINE
  5
164
330
EE
100
AcDbEntity
  8
0
  6
Continuous
 62
     0
370
    30
100
AcDbPolyline
 90
        2
 70
     0
 43
0.0
 10
360.941742
 20
312.908997
 10
360.941742
 20
312.908997
  0
LINE
  5
165
330
EE
100
AcDbEntity
  8
0
  6
Continuous
 62
     0
370
    30
100
AcDbLine
 10
373.851501
 20
309.910368
 30
0.0
 11
373.851501
 21
307.525845
 31
0.0
  0
LINE
  5
166
330
EE
100
AcDbEntity
  8
0
  6
Continuous
 62
     0
370
    30
100
AcDbLine
 10
401.351501
 20
322.805845
 30
0.0
 11
401.351501
 21
315.247817
 31
0.0
  0
LWPOLYLINE
  5
167
330
EE
100
AcDbEntity
  8
0
  6
Continuous
 62
     0
370
    30
100
AcDbPolyline
 90
       30
 70
     0
 43
0.0
 10
336.790558
 20
314.751556
 10
337.619659
 20
314.651062
 10
338.449066
 20
314.553192
 10
339.278809
 20
314.457947
 10
340.108856
 20
314.365356
 10
340.939178
 20
314.275421
 10
341.769775
 20
314.18808
 10
342.600647
 20
314.103424
 10
343.431793
 20
314.021362
 10
344.263184
 20
313.941956
 10
345.094818
 20
313.865204
 10
345.926697
 20
313.791077
 10
346.75882
 20
313.719604
 10
347.591156
 20
313.650757
 10
348.423706
 20
313.584595
 10
349.25647
 20
313.521027
 10
350.089417
 20
313.460083
 10
350.922577
 20
313.401794
 10
351.75589
 20
313.346222
 10
352.589386
 20
313.293365
 10
353.423035
 20
313.242981
 10
354.256897
 20
313.194977
 10
355.09082
 20
313.150482
 10
355.924805
 20
313.109222
 10
356.759369
 20
313.066315
 10
357.593964
 20
313.026764
 10
358.426819
 20
313.008057
 10
359.261444
 20
312.975616
 10
360.103119
 20
312.879059
 10
360.941742
 20
312.908997
  0
LWPOLYLINE
  5
168
330
EE
100
AcDbEntity
  8
0
  6
Continuous
 62
     0
370
    30
100
AcDbPolyline
 90
       30
 70
     0
 43
0.0
 10
400.912445
 20
314.751556
 10
400.083344
 20
314.651062
 10
399.253937
 20
314.553192
 10
398.424194
 20
314.457947
 10
397.594147
 20
314.365356
 10
396.763824
 20
314.275421
 10
395.933228
 20
314.18808
 10
395.102356
 20
314.103424
 10
394.27121
 20
314.021362
 10
393.439819
 20
313.941956
 10
392.608185
 20
313.865204
 10
391.776306
 20
313.791077
 10
390.944183
 20
313.719604
 10
390.111847
 20
313.650757
 10
389.279297
 20
313.584595
 10
388.446533
 20
313.521027
 10
387.613586
 20
313.460083
 10
386.780426
 20
313.401794
 10
385.947113
 20
313.346222
 10
385.113617
 20
313.293365
 10
384.279968
 20
313.242981
 10
383.446106
 20
313.194977
 10
382.612183
 20
313.150482
 10
381.778198
 20
313.109222
 10
380.943634
 20
313.066315
 10
380.109039
 20
313.026764
 10
379.276184
 20
313.008057
 10
378.441559
 20
312.975616
 10
377.599884
 20
312.879059
 10
376.761261
 20
312.908997
  0
ARC
  5
169
330
EE
100
AcDbEntity
  8
0
  6
Continuous
 62
     0
370
    30
100
AcDbCircle
 10
400.851412
 20
315.247896
 30
0.0
 40
0.5000896921699121
100
AcDbArc
 50
277.011132
 51
359.990913
  0
LINE
  5
16A
330
EE
100
AcDbEntity
  8
0
  6
Continuous
 62
     0
370
    30
100
AcDbLine
 10
347.477724
 20
277.52597
 30
0.0
 11
347.49281
 21
277.52585
 31
0.0
  0
ENDBLK
  5
16C
330
EE
100
AcDbEntity
  8
0
100
AcDbBlockEnd
  0
BLOCK
  5
1D2
330
16E
100
AcDbEntity
  8
0
100
AcDbBlockBegin
  2
c
 70
     0
 10
189.94442
 20
98.172943
 30
0.0
  3
c
  1

  0
ARC
  5
16F
330
16E
100
AcDbEntity
  8
0
  6
Continuous
 62
     0
370
     0
100
AcDbCircle
 10
645.243222
 20
419.847496
 30
0.0
 40
94.21963815536125
100
AcDbArc
 50
15.0
 51
90.0
  0
LINE
  5
170
330
16E
100
AcDbEntity
  8
0
  6
Continuous
 62
     0
370
    30
100
AcDbLine
 10
736.673585
 20
444.346188
 30
0.0
 11
736.252404
 21
444.233333
 31
0.0
  0
ARC
  5
171
330
16E
100
AcDbEntity
  8
0
  6
Continuous
 62
     0
370
     0
100
AcDbCircle
 10
645.243222
 20
419.847496
 30
0.0
 40
94.65567659875242
100
AcDbArc
 50
15.0
 51
90.0
  0
LINE
  5
172
330
16E
100
AcDbEntity
  8
0
  6
Continuous
 62
     0
370
     0
100
AcDbLine
 10
645.243222
 20
514.067134
 30
0.0
 11
645.243222
 21
514.503173
 31
0.0
  0
LINE
  5
173
330
16E
100
AcDbEntity
  8
0
  6
Continuous
 62
     0
370
     0
100
AcDbLine
 10
565.484792
 20
514.503173
 30
0.0
 11
645.243222
 21
514.503173
 31
0.0
  0
LINE
  5
174
330
16E
100
AcDbEntity
  8
0
  6
Continuous
 62
     0
370
     0
100
AcDbLine
 10
645.243222
 20
514.067134
 30
0.0
 11
565.523222
 21
514.067134
 31
0.0
  0
ARC
  5
175
330
16E
100
AcDbEntity
  8
0
  6
Continuous
 62
     0
370
     0
100
AcDbCircle
 10
645.243222
 20
419.847496
 30
0.0
 40
89.34432340124758
100
AcDbArc
 50
15.0
 51
90.0
  0
LINE
  5
176
330
16E
100
AcDbEntity
  8
0
  6
Continuous
 62
     0
370
    30
100
AcDbLine
 10
731.964393
 20
443.084364
 30
0.0
 11
731.543212
 21
442.971509
 31
0.0
  0
ARC
  5
177
330
16E
100
AcDbEntity
  8
0
  6
Continuous
 62
     0
370
     0
100
AcDbCircle
 10
645.243222
 20
419.847496
 30
0.0
 40
89.78036184463878
100
AcDbArc
 50
15.0
 51
90.0
  0
LINE
  5
178
330
16E
100
AcDbEntity
  8
0
  6
Continuous
 62
     0
370
     0
100
AcDbLine
 10
645.243222
 20
509.191819
 30
0.0
 11
645.243222
 21
509.627858
 31
0.0
  0
LINE
  5
179
330
16E
100
AcDbEntity
  8
0
  6
Continuous
 62
     0
370
     0
100
AcDbLine
 10
565.523222
 20
509.627858
 30
0.0
 11
645.243222
 21
509.627858
 31
0.0
  0
LINE
  5
17A
330
16E
100
AcDbEntity
  8
0
  6
Continuous
 62
     0
370
     0
100
AcDbLine
 10
645.243222
 20
509.191819
 30
0.0
 11
565.484792
 21
509.191819
 31
0.0
  0
LINE
  5
17B
330
16E
100
AcDbEntity
  8
0
  6
Continuous
 62
     0
370
     0
100
AcDbLine
 10
645.243222
 20
505.337496
 30
0.0
 11
645.243222
 21
509.191819
 31
0.0
  0
LINE
  5
17C
330
16E
100
AcDbEntity
  8
0
  6
Continuous
 62
     0
370
    30
100
AcDbLine
 10
731.543212
 20
442.971509
 30
0.0
 11
727.820221
 21
441.973936
 31
0.0
  0
LINE
  5
17D
330
16E
100
AcDbEntity
  8
0
  6
Continuous
 62
     0
370
    30
100
AcDbLine
 10
740.396575
 20
445.34376
 30
0.0
 11
736.673585
 21
444.346188
 31
0.0
  0
LINE
  5
17E
330
16E
100
AcDbEntity
  8
0
  6
Continuous
 62
     0
370
     0
100
AcDbLine
 10
645.243222
 20
514.503173
 30
0.0
 11
645.243222
 21
518.357496
 31
0.0
  0
LINE
  5
17F
330
16E
100
AcDbEntity
  8
0
  6
Continuous
 62
     0
370
    30
100
AcDbLine
 10
736.252404
 20
444.233333
 30
0.0
 11
731.964393
 21
443.084364
 31
0.0
  0
LINE
  5
180
330
16E
100
AcDbEntity
  8
0
  6
Continuous
 62
     0
370
     0
100
AcDbLine
 10
645.243222
 20
509.627858
 30
0.0
 11
645.243222
 21
514.067134
 31
0.0
  0
ARC
  5
181
330
16E
100
AcDbEntity
  8
0
  6
Continuous
 62
     0
370
    30
100
AcDbCircle
 10
469.180722
 20
528.847496
 30
0.0
 40
61.0625
100
AcDbArc
 50
0.0
 51
14.340152
  0
LINE
  5
182
330
16E
100
AcDbEntity
  8
0
  6
Continuous
 62
     0
370
     0
100
AcDbLine
 10
528.340661
 20
543.55523
 30
0.0
 11
528.340661
 21
543.971335
 31
0.0
  0
LINE
  5
183
330
16E
100
AcDbEntity
  8
0
  6
Continuous
 62
     0
370
    30
100
AcDbLine
 10
530.243222
 20
504.6324
 30
0.0
 11
530.243222
 21
494.847496
 31
0.0
  0
LINE
  5
184
330
16E
100
AcDbEntity
  8
0
  6
Continuous
 62
     0
370
    30
100
AcDbLine
 10
530.243222
 20
528.847496
 30
0.0
 11
530.243222
 21
519.062592
 31
0.0
  0
LINE
  5
185
330
16E
100
AcDbEntity
  8
0
  6
Continuous
 62
     0
370
     0
100
AcDbLine
 10
527.85624
 20
479.350542
 30
0.0
 11
527.85624
 21
479.347496
 31
0.0
  0
LINE
  5
186
330
16E
100
AcDbEntity
  8
0
  6
Continuous
 62
     0
370
     0
100
AcDbLine
 10
527.85624
 20
544.347496
 30
0.0
 11
527.85624
 21
544.34445
 31
0.0
  0
ARC
  5
187
330
16E
100
AcDbEntity
  8
0
  6
Continuous
 62
     0
370
    30
100
AcDbCircle
 10
527.85624
 20
543.847496
 30
0.0
 40
0.5
100
AcDbArc
 50
14.340152
 51
90.0
  0
ARC
  5
188
330
16E
100
AcDbEntity
  8
0
  6
Continuous
 62
     0
370
    30
100
AcDbCircle
 10
527.856234
 20
479.847504
 30
0.0
 40
0.500007803043923
100
AcDbArc
 50
270.000694
 51
345.659154
  0
ARC
  5
189
330
16E
100
AcDbEntity
  8
0
  6
Continuous
 62
     0
370
    30
100
AcDbCircle
 10
469.180647
 20
494.847505
 30
0.0
 40
61.06257509306499
100
AcDbArc
 50
345.659857
 51
359.998561
  0
LINE
  5
18A
330
16E
100
AcDbEntity
  8
0
  6
Continuous
 62
     0
370
    30
100
AcDbLine
 10
530.53487
 20
518.357496
 30
0.0
 11
645.243222
 21
518.357496
 31
0.0
  0
ARC
  5
18B
330
16E
100
AcDbEntity
  8
0
  6
Continuous
 62
     0
370
    30
100
AcDbCircle
 10
645.24309
 20
419.847324
 30
0.0
 40
98.51017174094338
100
AcDbArc
 50
15.000077
 51
89.999923
  0
LINE
  5
18C
330
16E
100
AcDbEntity
  8
0
  6
Continuous
 62
     0
370
    30
100
AcDbLine
 10
530.53487
 20
505.337496
 30
0.0
 11
645.243222
 21
505.337496
 31
0.0
  0
ARC
  5
18D
330
16E
100
AcDbEntity
  8
0
  6
Continuous
 62
     0
370
    30
100
AcDbCircle
 10
645.243216
 20
419.847488
 30
0.0
 40
85.49000782037977
100
AcDbArc
 50
15.000004
 51
89.999996
  0
LINE
  5
18E
330
16E
100
AcDbEntity
  8
0
  6
Continuous
 62
     0
370
     0
100
AcDbLine
 10
540.273226
 20
511.847496
 30
0.0
 11
535.523226
 21
511.847496
 31
0.0
  0
LINE
  5
18F
330
16E
100
AcDbEntity
  8
0
  6
Continuous
 62
     0
370
     0
100
AcDbLine
 10
540.273226
 20
516.747496
 30
0.0
 11
540.273226
 21
511.847496
 31
0.0
  0
LINE
  5
190
330
16E
100
AcDbEntity
  8
0
  6
Continuous
 62
     0
370
     0
100
AcDbLine
 10
540.273226
 20
511.847496
 30
0.0
 11
540.273226
 21
506.947496
 31
0.0
  0
LINE
  5
191
330
16E
100
AcDbEntity
  8
0
  6
Continuous
 62
     0
370
    30
100
AcDbLine
 10
540.523226
 20
517.347503
 30
0.0
 11
540.523226
 21
517.016957
 31
0.0
  0
ARC
  5
192
330
16E
100
AcDbEntity
  8
0
  6
Continuous
 62
     0
370
     0
100
AcDbCircle
 10
533.567866
 20
262.659694
 30
0.0
 40
254.4523419235324
100
AcDbArc
 50
82.984671
 51
88.433646
  0
LINE
  5
193
330
16E
100
AcDbEntity
  8
0
  6
Continuous
 62
     0
370
     0
100
AcDbLine
 10
564.65884
 20
515.217369
 30
0.0
 11
564.659855
 21
515.21813
 31
0.0
  0
LINE
  5
194
330
16E
100
AcDbEntity
  8
0
  6
Continuous
 62
     0
370
     0
100
AcDbLine
 10
564.645375
 20
515.207081
 30
0.0
 11
564.65884
 21
515.217369
 31
0.0
  0
LINE
  5
195
330
16E
100
AcDbEntity
  8
0
  6
Continuous
 62
     0
370
    30
100
AcDbLine
 10
540.523226
 20
506.678035
 30
0.0
 11
540.523226
 21
506.347489
 31
0.0
  0
LINE
  5
196
330
16E
100
AcDbEntity
  8
0
  6
Continuous
 62
     0
370
    30
100
AcDbLine
 10
540.523227
 20
508.520409
 30
0.0
 11
540.523226
 21
506.678035
 31
0.0
  0
LINE
  5
197
330
16E
100
AcDbEntity
  8
0
  6
Continuous
 62
     0
370
    30
100
AcDbLine
 10
540.523227
 20
509.513811
 30
0.0
 11
540.523227
 21
508.520409
 31
0.0
  0
LINE
  5
198
330
16E
100
AcDbEntity
  8
0
  6
Continuous
 62
     0
370
    30
100
AcDbLine
 10
540.523227
 20
514.181179
 30
0.0
 11
540.523227
 21
509.513811
 31
0.0
  0
LINE
  5
199
330
16E
100
AcDbEntity
  8
0
  6
Continuous
 62
     0
370
    30
100
AcDbLine
 10
540.523227
 20
515.174582
 30
0.0
 11
540.523227
 21
514.181179
 31
0.0
  0
LINE
  5
19A
330
16E
100
AcDbEntity
  8
0
  6
Continuous
 62
     0
370
    30
100
AcDbLine
 10
540.523226
 20
517.016957
 30
0.0
 11
540.523227
 21
515.174582
 31
0.0
  0
LWPOLYLINE
  5
19B
330
16E
100
AcDbEntity
  8
0
  6
Continuous
 62
     0
370
     0
100
AcDbPolyline
 90
        3
 70
     0
 43
0.0
 10
540.523254
 20
515.174561
 10
548.684631
 20
515.174988
 10
564.531921
 20
515.106262
  0
ARC
  5
19C
330
16E
100
AcDbEntity
  8
0
  6
Continuous
 62
     0
370
     0
100
AcDbCircle
 10
565.386574
 20
514.258514
 30
0.0
 40
1.203806194646168
100
AcDbArc
 50
128.003507
 51
135.232344
  0
ARC
  5
19D
330
16E
100
AcDbEntity
  8
0
  6
Continuous
 62
     0
370
     0
100
AcDbCircle
 10
564.523181
 20
514.214527
 30
0.0
 40
1.000045039857205
100
AcDbArc
 50
0.002987
 51
82.98156
  0
LWPOLYLINE
  5
19E
330
16E
100
AcDbEntity
  8
0
  6
Continuous
 62
     0
370
     0
100
AcDbPolyline
 90
        8
 70
     0
 43
0.0
 10
540.523254
 20
514.181152
 10
543.918213
 20
514.183167
 10
547.328674
 20
514.181885
 10
550.657593
 20
514.176941
 10
553.973694
 20
514.167969
 10
557.289673
 20
514.15448
 10
560.605469
 20
514.135803
 10
564.531982
 20
514.106323
  0
LWPOLYLINE
  5
19F
330
16E
100
AcDbEntity
  8
0
  6
Continuous
 62
     0
370
     0
100
AcDbPolyline
 90
        5
 70
     0
 43
0.0
 10
564.531982
 20
514.106323
 10
564.534546
 20
514.483887
 10
564.535461
 20
514.80542
 10
564.534607
 20
515.023682
 10
564.531921
 20
515.106262
  0
LWPOLYLINE
  5
1A0
330
16E
100
AcDbEntity
  8
0
  6
Continuous
 62
     0
370
     0
100
AcDbPolyline
 90
        8
 70
     0
 43
0.0
 10
540.523254
 20
509.513824
 10
543.925232
 20
509.51181
 10
547.342529
 20
509.513123
 10
550.678101
 20
509.518066
 10
554.000977
 20
509.5271
 10
557.32373
 20
509.54071
 10
560.646362
 20
509.559448
 10
564.531982
 20
509.588623
  0
LINE
  5
1A1
330
16E
100
AcDbEntity
  8
0
  6
Continuous
 62
     0
370
     0
100
AcDbLine
 10
564.531954
 20
509.588637
 30
0.0
 11
564.531954
 21
514.106353
 31
0.0
  0
LWPOLYLINE
  5
1A2
330
16E
100
AcDbEntity
  8
0
  6
Continuous
 62
     0
370
     0
100
AcDbPolyline
 90
        5
 70
     0
 43
0.0
 10
564.531982
 20
509.588623
 10
564.534546
 20
509.211121
 10
564.535461
 20
508.889557
 10
564.534607
 20
508.671326
 10
564.531921
 20
508.588715
  0
LWPOLYLINE
  5
1A3
330
16E
100
AcDbEntity
  8
0
  6
Continuous
 62
     0
370
     0
100
AcDbPolyline
 90
        8
 70
     0
 43
0.0
 10
564.531921
 20
508.588715
 10
561.220947
 20
508.563934
 10
557.904602
 20
508.54538
 10
554.588196
 20
508.532227
 10
551.271851
 20
508.523773
 10
547.950317
 20
508.519226
 10
544.553528
 20
508.518036
 10
540.523254
 20
508.520416
  0
ARC
  5
1A4
330
16E
100
AcDbEntity
  8
0
  6
Continuous
 62
     0
370
     0
100
AcDbCircle
 10
565.385611
 20
509.435429
 30
0.0
 40
1.202386555980872
100
AcDbArc
 50
224.764458
 51
232.001901
  0
ARC
  5
1A5
330
16E
100
AcDbEntity
  8
0
  6
Continuous
 62
     0
370
     0
100
AcDbCircle
 10
533.567866
 20
761.035297
 30
0.0
 40
254.4523415793611
100
AcDbArc
 50
271.566354
 51
277.01533
  0
LINE
  5
1A6
330
16E
100
AcDbEntity
  8
0
  6
Continuous
 62
     0
370
     0
100
AcDbLine
 10
564.658803
 20
508.477619
 30
0.0
 11
564.659812
 21
508.476857
 31
0.0
  0
LINE
  5
1A7
330
16E
100
AcDbEntity
  8
0
  6
Continuous
 62
     0
370
     0
100
AcDbLine
 10
564.645374
 20
508.487911
 30
0.0
 11
564.658803
 21
508.477619
 31
0.0
  0
LINE
  5
1A8
330
16E
100
AcDbEntity
  8
0
  6
Continuous
 62
     0
370
     0
100
AcDbLine
 10
540.523226
 20
511.847496
 30
0.0
 11
540.273226
 21
511.847496
 31
0.0
  0
LINE
  5
1A9
330
16E
100
AcDbEntity
  8
0
  6
Continuous
 62
     0
370
    30
100
AcDbLine
 10
565.523226
 20
514.214582
 30
0.0
 11
565.523227
 21
514.10636
 31
0.0
  0
ARC
  5
1AA
330
16E
100
AcDbEntity
  8
0
  6
Continuous
 62
     0
370
     0
100
AcDbCircle
 10
564.523175
 20
514.106276
 30
0.0
 40
1.000051553859685
100
AcDbArc
 50
0.004833
 51
89.499575
  0
LINE
  5
1AB
330
16E
100
AcDbEntity
  8
0
  6
Continuous
 62
     0
370
    30
100
AcDbLine
 10
565.523226
 20
509.480409
 30
0.0
 11
565.523227
 21
509.588634
 31
0.0
  0
LINE
  5
1AC
330
16E
100
AcDbEntity
  8
0
  6
Continuous
 62
     0
370
    30
100
AcDbLine
 10
565.523227
 20
509.588634
 30
0.0
 11
565.523227
 21
514.10636
 31
0.0
  0
LINE
  5
1AD
330
16E
100
AcDbEntity
  8
0
  6
Continuous
 62
     0
370
     0
100
AcDbLine
 10
564.531954
 20
514.106353
 30
0.0
 11
565.523227
 21
514.106353
 31
0.0
  0
LINE
  5
1AE
330
16E
100
AcDbEntity
  8
0
  6
Continuous
 62
     0
370
     0
100
AcDbLine
 10
565.523227
 20
509.588637
 30
0.0
 11
564.531954
 21
509.588637
 31
0.0
  0
ARC
  5
1AF
330
16E
100
AcDbEntity
  8
0
  6
Continuous
 62
     0
370
     0
100
AcDbCircle
 10
564.523743
 20
509.588156
 30
0.0
 40
0.9994837267958321
100
AcDbArc
 50
270.468209
 51
0.027388
  0
ARC
  5
1B0
330
16E
100
AcDbEntity
  8
0
  6
Continuous
 62
     0
370
     0
100
AcDbCircle
 10
564.523182
 20
509.480462
 30
0.0
 40
1.000044581499584
100
AcDbArc
 50
277.018611
 51
359.996987
  0
LINE
  5
1B1
330
16E
100
AcDbEntity
  8
0
  6
Continuous
 62
     0
370
     0
100
AcDbLine
 10
528.297525
 20
479.786544
 30
0.0
 11
528.297526
 21
511.847496
 31
0.0
  0
LINE
  5
1B2
330
16E
100
AcDbEntity
  8
0
  6
Continuous
 62
     0
370
     0
100
AcDbLine
 10
528.297526
 20
511.847496
 30
0.0
 11
528.297525
 21
543.908448
 31
0.0
  0
LINE
  5
1B3
330
16E
100
AcDbEntity
  8
0
  6
Continuous
 62
     0
370
     0
100
AcDbLine
 10
527.801254
 20
544.347496
 30
0.0
 11
527.801256
 21
511.847496
 31
0.0
  0
LINE
  5
1B4
330
16E
100
AcDbEntity
  8
0
  6
Continuous
 62
     0
370
     0
100
AcDbLine
 10
527.801256
 20
511.847496
 30
0.0
 11
527.801254
 21
479.347496
 31
0.0
  0
LINE
  5
1B5
330
16E
100
AcDbEntity
  8
0
  6
Continuous
 62
     0
370
     0
100
AcDbLine
 10
530.140048
 20
503.937307
 30
0.0
 11
530.140061
 21
511.847496
 31
0.0
  0
LINE
  5
1B6
330
16E
100
AcDbEntity
  8
0
  6
Continuous
 62
     0
370
     0
100
AcDbLine
 10
530.140061
 20
511.847496
 30
0.0
 11
530.140048
 21
519.757685
 31
0.0
  0
LINE
  5
1B7
330
16E
100
AcDbEntity
  8
0
  6
Continuous
 62
     0
370
    30
100
AcDbLine
 10
520.243226
 20
544.347496
 30
0.0
 11
520.243226
 21
511.847496
 31
0.0
  0
LINE
  5
1B8
330
16E
100
AcDbEntity
  8
0
  6
Continuous
 62
     0
370
    30
100
AcDbLine
 10
520.243226
 20
511.847496
 30
0.0
 11
520.243226
 21
479.347496
 31
0.0
  0
LWPOLYLINE
  5
1B9
330
16E
100
AcDbEntity
  8
0
  6
Continuous
 62
     0
370
     0
100
AcDbPolyline
 90
       12
 70
     0
 43
0.0
 10
522.122253
 20
479.347504
 10
522.1875
 20
479.350708
 10
522.379395
 20
479.359314
 10
522.680664
 20
479.370544
 10
523.068848
 20
479.38092
 10
523.510864
 20
479.387115
 10
523.971619
 20
479.387146
 10
524.413879
 20
479.380981
 10
524.802979
 20
479.370667
 10
525.104858
 20
479.359406
 10
525.296448
 20
479.350769
 10
525.364197
 20
479.347504
  0
LINE
  5
1BA
330
16E
100
AcDbEntity
  8
0
  6
Continuous
 62
     0
370
     0
100
AcDbLine
 10
533.138703
 20
516.847496
 30
0.0
 11
533.138703
 21
511.847496
 31
0.0
  0
LINE
  5
1BB
330
16E
100
AcDbEntity
  8
0
  6
Continuous
 62
     0
370
     0
100
AcDbLine
 10
533.138703
 20
511.847496
 30
0.0
 11
533.138703
 21
506.847496
 31
0.0
  0
LINE
  5
1BC
330
16E
100
AcDbEntity
  8
0
  6
Continuous
 62
     0
370
    30
100
AcDbLine
 10
535.523226
 20
506.847496
 30
0.0
 11
535.523226
 21
511.847496
 31
0.0
  0
LINE
  5
1BD
330
16E
100
AcDbEntity
  8
0
  6
Continuous
 62
     0
370
    30
100
AcDbLine
 10
535.523226
 20
511.847496
 30
0.0
 11
535.523226
 21
516.847496
 31
0.0
  0
LINE
  5
1BE
330
16E
100
AcDbEntity
  8
0
  6
Continuous
 62
     0
370
    30
100
AcDbLine
 10
522.122226
 20
479.347496
 30
0.0
 11
525.364226
 21
479.347496
 31
0.0
  0
ARC
  5
1BF
330
16E
100
AcDbEntity
  8
0
  6
Continuous
 62
     0
370
    30
100
AcDbCircle
 10
533.138703
 20
503.847496
 30
0.0
 40
3.000000042508119
100
AcDbArc
 50
90.0
 51
178.263297
  0
ARC
  5
1C0
330
16E
100
AcDbEntity
  8
0
  6
Continuous
 62
     0
370
    30
100
AcDbCircle
 10
533.138703
 20
519.847496
 30
0.0
 40
3.000000042539296
100
AcDbArc
 50
181.736704
 51
270.0
  0
LINE
  5
1C1
330
16E
100
AcDbEntity
  8
0
  6
Continuous
 62
     0
370
    30
100
AcDbLine
 10
535.523226
 20
506.847496
 30
0.0
 11
533.138703
 21
506.847496
 31
0.0
  0
LINE
  5
1C2
330
16E
100
AcDbEntity
  8
0
  6
Continuous
 62
     0
370
    30
100
AcDbLine
 10
535.523226
 20
516.847496
 30
0.0
 11
533.138703
 21
516.847496
 31
0.0
  0
LINE
  5
1C3
330
16E
100
AcDbEntity
  8
0
  6
Continuous
 62
     0
370
    30
100
AcDbLine
 10
527.801254
 20
479.347496
 30
0.0
 11
525.364226
 21
479.347496
 31
0.0
  0
LINE
  5
1C4
330
16E
100
AcDbEntity
  8
0
  6
Continuous
 62
     0
370
    30
100
AcDbLine
 10
522.122226
 20
479.347496
 30
0.0
 11
520.243226
 21
479.347496
 31
0.0
  0
LINE
  5
1C5
330
16E
100
AcDbEntity
  8
0
  6
Continuous
 62
     0
370
    30
100
AcDbLine
 10
527.801254
 20
544.347496
 30
0.0
 11
520.243226
 21
544.347496
 31
0.0
  0
LWPOLYLINE
  5
1C6
330
16E
100
AcDbEntity
  8
0
  6
Continuous
 62
     0
370
    30
100
AcDbPolyline
 90
       46
 70
     0
 43
0.0
 10
528.297546
 20
543.908386
 10
528.36261
 20
543.374023
 10
528.426575
 20
542.8396
 10
528.489441
 20
542.304993
 10
528.55127
 20
541.770264
 10
528.611938
 20
541.235413
 10
528.67157
 20
540.700378
 10
528.730042
 20
540.165283
 10
528.787476
 20
539.630066
 10
528.843811
 20
539.094727
 10
528.898987
 20
538.559326
 10
528.953125
 20
538.023743
 10
529.006165
 20
537.488037
 10
529.058105
 20
536.952271
 10
529.108948
 20
536.416382
 10
529.158691
 20
535.880432
 10
529.207336
 20
535.34436
 10
529.254883
 20
534.808167
 10
529.301331
 20
534.271851
 10
529.346619
 20
533.735474
 10
529.390869
 20
533.199036
 10
529.434021
 20
532.662476
 10
529.476074
 20
532.125854
 10
529.51709
 20
531.589111
 10
529.556946
 20
531.052246
 10
529.595764
 20
530.515381
 10
529.633484
 20
529.978394
 10
529.670044
 20
529.441345
 10
529.705383
 20
528.904236
 10
529.739563
 20
528.367126
 10
529.772705
 20
527.829895
 10
529.805054
 20
527.29248
 10
529.836731
 20
526.754944
 10
529.866943
 20
526.217407
 10
529.894836
 20
525.680176
 10
529.92041
 20
525.143311
 10
529.946716
 20
524.605774
 10
529.977295
 20
524.066528
 10
530.009644
 20
523.526367
 10
530.031006
 20
522.989197
 10
530.02948
 20
522.45874
 10
530.025085
 20
521.928772
 10
530.067688
 20
521.38385
 10
530.190857
 20
520.813721
 10
530.279663
 20
520.253845
 10
530.140076
 20
519.757629
  0
ARC
  5
1C7
330
16E
100
AcDbEntity
  8
0
  6
Continuous
 62
     0
370
    30
100
AcDbCircle
 10
527.801175
 20
479.847586
 30
0.0
 40
0.5000896921807021
100
AcDbArc
 50
270.009087
 51
352.988868
  0
ARC
  5
1C8
330
16E
100
AcDbEntity
  8
0
  6
Continuous
 62
     0
370
    30
100
AcDbCircle
 10
527.801175
 20
543.847406
 30
0.0
 40
0.5000896921812052
100
AcDbArc
 50
7.011132
 51
89.990913
  0
LINE
  5
1C9
330
16E
100
AcDbEntity
  8
0
  6
Continuous
 62
     0
370
    30
100
AcDbLine
 10
565.523189
 20
509.580726
 30
0.0
 11
565.523223
 21
509.588637
 31
0.0
  0
ARC
  5
1CA
330
16E
100
AcDbEntity
  8
0
  6
Continuous
 62
     0
370
    30
100
AcDbCircle
 10
564.523148
 20
509.465918
 30
0.0
 40
1.000077725548224
100
AcDbArc
 50
277.959796
 51
359.996125
  0
ARC
  5
1CB
330
16E
100
AcDbEntity
  8
0
  6
Continuous
 62
     0
370
    30
100
AcDbCircle
 10
540.27319
 20
516.997532
 30
0.0
 40
0.2500359660659883
100
AcDbArc
 50
270.008236
 51
359.959348
  0
ARC
  5
1CC
330
16E
100
AcDbEntity
  8
0
  6
Continuous
 62
     0
370
    30
100
AcDbCircle
 10
540.27319
 20
506.69746
 30
0.0
 40
0.2500359660661233
100
AcDbArc
 50
0.040652
 51
89.991764
  0
ARC
  5
1CD
330
16E
100
AcDbEntity
  8
0
  6
Continuous
 62
     0
370
    30
100
AcDbCircle
 10
531.713871
 20
744.243421
 30
0.0
 40
238.0589831044649
100
AcDbArc
 50
272.12071
 51
277.955365
  0
ARC
  5
1CE
330
16E
100
AcDbEntity
  8
0
  6
Continuous
 62
     0
370
    30
100
AcDbCircle
 10
564.523149
 20
514.229073
 30
0.0
 40
1.000077320015675
100
AcDbArc
 50
0.003864
 51
82.040204
  0
ARC
  5
1CF
330
16E
100
AcDbEntity
  8
0
  6
Continuous
 62
     0
370
    30
100
AcDbCircle
 10
531.713871
 20
279.451572
 30
0.0
 40
238.0589820408822
100
AcDbArc
 50
82.044626
 51
87.87929
  0
LINE
  5
1D0
330
16E
100
AcDbEntity
  8
0
  6
Continuous
 62
     0
370
    30
100
AcDbLine
 10
535.523226
 20
506.947496
 30
0.0
 11
540.273226
 21
506.947496
 31
0.0
  0
LINE
  5
1D1
330
16E
100
AcDbEntity
  8
0
  6
Continuous
 62
     0
370
    30
100
AcDbLine
 10
535.523226
 20
516.747496
 30
0.0
 11
540.273226
 21
516.747496
 31
0.0
  0
ENDBLK
  5
1D3
330
16E
100
AcDbEntity
  8
0
100
AcDbBlockEnd
  0
BLOCK
  5
291
330
1D5
100
AcDbEntity
  8
0
100
AcDbBlockBegin
  2
d
 70
     0
 10
165.347664
 20
108.239746
 30
0.0
  3
d
  1

  0
ELLIPSE
  5
1D6
330
1D5
100
AcDbEntity
  8
0
  6
Continuous
 62
     0
370
     0
100
AcDbEllipse
 10
592.451492
 20
147.182998
 30
0.0
 11
-44.8901809223194
 21
-77.75207411841632
 31
0.0
210
0.0
220
0.0
230
-0.9999999999999997
 40
0.57735
 41
1.047197551196598
 42
2.356194490192344
  0
ELLIPSE
  5
1D7
330
1D5
100
AcDbEntity
  8
0
  6
Continuous
 62
     0
370
    30
100
AcDbEllipse
 10
530.776811
 20
130.956176
 30
0.0
 11
0.4898488596330966
 21
-0.100240185136336
 31
0.0
210
0.0
220
0.0
230
-0.9999999999999998
 40
0.408248
 41
6.283104667262148
 42
6.967904510181832
  0
ELLIPSE
  5
1D8
330
1D5
100
AcDbEntity
  8
0
  6
Continuous
 62
     0
370
     0
100
AcDbEllipse
 10
592.097939
 20
220.692481
 30
0.0
 11
-0.2500000000000061
 21
0.4330127018922297
 31
0.0
210
0.0
220
0.0
230
-0.9999999999999997
 40
0.57735
 41
2.356194490192345
 42
3.141592622099958
  0
ELLIPSE
  5
1D9
330
1D5
100
AcDbEntity
  8
0
  6
Continuous
 62
     0
370
    30
100
AcDbEllipse
 10
673.415219
 20
267.641034
 30
0.0
 11
-0.2500000000000001
 21
0.4330127018922194
 31
0.0
210
0.0
220
0.0
230
-0.9999999999999997
 40
0.57735
 41
2.356194490192345
 42
3.141592622099929
  0
LINE
  5
1DA
330
1D5
100
AcDbEntity
  8
0
  6
Continuous
 62
     0
370
     0
100
AcDbLine
 10
592.451492
 20
220.488357
 30
0.0
 11
673.768772
 21
267.43691
 31
0.0
  0
ELLIPSE
  5
1DB
330
1D5
100
AcDbEntity
  8
0
  6
Continuous
 62
     0
370
     0
100
AcDbEllipse
 10
592.270957
 20
147.28723
 30
0.0
 11
-47.32783829937622
 21
-81.97422054692382
 31
0.0
210
0.0
220
0.0
230
-0.9999999999999999
 40
0.57735
 41
1.047197551196598
 42
2.356194490192345
  0
ELLIPSE
  5
1DC
330
1D5
100
AcDbEntity
  8
0
  6
Continuous
 62
     0
370
    30
100
AcDbEllipse
 10
527.744729
 20
130.143732
 30
0.0
 11
0.4898488596330827
 21
-0.1002401851363388
 31
0.0
210
0.0
220
0.0
230
-1.0
 40
0.408248
 41
0.6847192030022814
 42
1.744149618277759
  0
ELLIPSE
  5
1DD
330
1D5
100
AcDbEntity
  8
0
  6
Continuous
 62
     0
370
     0
100
AcDbEllipse
 10
592.451492
 20
147.182998
 30
0.0
 11
47.10981907768063
 21
81.59660017792044
 31
0.0
210
0.0
220
0.0
230
0.9999999999999999
 40
0.57735
 41
0.7853981633974483
 42
2.094395102393195
  0
ELLIPSE
  5
1DE
330
1D5
100
AcDbEntity
  8
0
  6
Continuous
 62
     0
370
     0
100
AcDbEllipse
 10
592.097939
 20
224.317135
 30
0.0
 11
-0.2500000000000021
 21
0.4330127018922227
 31
0.0
210
0.0
220
0.0
230
-1.0
 40
0.57735
 41
1.29676407491662
 42
2.356194490192345
  0
LINE
  5
1DF
330
1D5
100
AcDbEntity
  8
0
  6
Continuous
 62
     0
370
     0
100
AcDbLine
 10
673.768772
 20
271.061564
 30
0.0
 11
592.451492
 21
224.113011
 31
0.0
  0
ELLIPSE
  5
1E0
330
1D5
100
AcDbEntity
  8
0
  6
Continuous
 62
     0
370
    30
100
AcDbEllipse
 10
673.415219
 20
271.265688
 30
0.0
 11
-0.2500000000000006
 21
0.4330127018922202
 31
0.0
210
0.0
220
0.0
230
-0.9999999999999998
 40
0.57735
 41
1.29676407491662
 42
2.356194490192303
  0
LINE
  5
1E1
330
1D5
100
AcDbEntity
  8
0
  6
Continuous
 62
     0
370
     0
100
AcDbLine
 10
592.270957
 20
224.573267
 30
0.0
 11
673.588237
 21
271.52182
 31
0.0
  0
ELLIPSE
  5
1E2
330
1D5
100
AcDbEntity
  8
0
  6
Continuous
 62
     0
370
    30
100
AcDbEllipse
 10
507.238633
 20
141.982932
 30
0.0
 11
0.4898488596330867
 21
-0.1002401851363343
 31
0.0
210
0.0
220
0.0
230
-1.0
 40
0.408248
 41
2.76688144131657
 42
3.144530393867215
  0
ELLIPSE
  5
1E3
330
1D5
100
AcDbEntity
  8
0
  6
Continuous
 62
     0
370
     0
100
AcDbEllipse
 10
571.418824
 20
159.326215
 30
0.0
 11
47.32783829937622
 21
81.97422054692382
 31
0.0
210
0.0
220
0.0
230
0.9999999999999999
 40
0.57735
 41
0.7853981633974483
 42
2.094395102393195
  0
ELLIPSE
  5
1E4
330
1D5
100
AcDbEntity
  8
0
  6
Continuous
 62
     0
370
     0
100
AcDbEllipse
 10
571.591842
 20
236.156335
 30
0.0
 11
-0.2500000000000011
 21
0.4330127018922211
 31
0.0
210
0.0
220
0.0
230
-0.9999999999999997
 40
0.57735
 41
6.283084096937419
 42
6.557217559057799
  0
LINE
  5
1E5
330
1D5
100
AcDbEntity
  8
0
  6
Continuous
 62
     0
370
     0
100
AcDbLine
 10
652.736104
 20
283.560805
 30
0.0
 11
571.418824
 21
236.612251
 31
0.0
  0
ELLIPSE
  5
1E6
330
1D5
100
AcDbEntity
  8
0
  6
Continuous
 62
     0
370
    30
100
AcDbEllipse
 10
652.909122
 20
283.104889
 30
0.0
 11
-0.2500000000000011
 21
0.4330127018922211
 31
0.0
210
0.0
220
0.0
230
-0.9999999999999997
 40
0.57735
 41
6.283185275689746
 42
6.557217559057796
  0
LINE
  5
1E7
330
1D5
100
AcDbEntity
  8
0
  6
Continuous
 62
     0
370
    30
100
AcDbLine
 10
531.130365
 20
130.752052
 30
0.0
 11
528.098283
 21
129.939608
 31
0.0
  0
LINE
  5
1E8
330
1D5
100
AcDbEntity
  8
0
  6
Continuous
 62
     0
370
     0
100
AcDbLine
 10
592.451492
 20
224.113011
 30
0.0
 11
592.451492
 21
220.488357
 31
0.0
  0
LINE
  5
1E9
330
1D5
100
AcDbEntity
  8
0
  6
Continuous
 62
     0
370
    30
100
AcDbLine
 10
673.768772
 20
267.43691
 30
0.0
 11
673.768772
 21
271.061564
 31
0.0
  0
ELLIPSE
  5
1EA
330
1D5
100
AcDbEntity
  8
0
  6
Continuous
 62
     0
370
    30
100
AcDbEllipse
 10
535.140482
 20
140.792314
 30
0.0
 11
29.51829228148965
 21
-6.040473556315674
 31
0.0
210
0.0
220
0.0
230
-1.0
 40
0.408248
 41
1.744149618277992
 42
2.766881441316369
  0
ELLIPSE
  5
1EB
330
1D5
100
AcDbEntity
  8
0
  6
Continuous
 62
     0
370
     0
100
AcDbEllipse
 10
581.844891
 20
209.138759
 30
0.0
 11
-15.065
 21
26.09334541602514
 31
0.0
210
0.0
220
0.0
230
-0.9999999999999997
 40
0.57735
 41
0.2740322518782613
 42
1.296764074916635
  0
ELLIPSE
  5
1EC
330
1D5
100
AcDbEntity
  8
0
  6
Continuous
 62
     0
370
    30
100
AcDbEllipse
 10
663.16217
 20
256.087312
 30
0.0
 11
15.065
 21
-26.09334541602514
 31
0.0
210
0.0
220
0.0
230
0.9999999999999997
 40
0.57735
 41
1.844828578673159
 42
2.867560401711531
  0
ELLIPSE
  5
1ED
330
1D5
100
AcDbEntity
  8
0
  6
Continuous
 62
     0
370
     0
100
AcDbEllipse
 10
664.507484
 20
276.149679
 30
0.0
 11
-16.06191950464396
 21
27.82006064912486
 31
0.0
210
0.0
220
0.0
230
-0.9999999999999997
 40
0.57735
 41
5.106075774726815
 42
7.068583470577035
  0
ELLIPSE
  5
1EE
330
1D5
100
AcDbEntity
  8
0
  6
Continuous
 62
     0
370
     0
100
AcDbEllipse
 10
664.507484
 20
276.149679
 30
0.0
 11
-16.06191950464396
 21
27.82006064912486
 31
0.0
210
0.0
220
0.0
230
-0.9999999999999997
 40
0.57735
 41
3.926990816987241
 42
4.318702123062879
  0
ELLIPSE
  5
1EF
330
1D5
100
AcDbEntity
  8
0
  6
Continuous
 62
     0
370
     0
100
AcDbEllipse
 10
664.507484
 20
276.149679
 30
0.0
 11
-16.06191950464396
 21
27.82006064912486
 31
0.0
210
0.0
220
0.0
230
-0.9999999999999997
 40
0.57735
 41
0.7853981633974483
 42
3.926990816987241
  0
ELLIPSE
  5
1F0
330
1D5
100
AcDbEntity
  8
0
  6
Continuous
 62
     0
370
     0
100
AcDbEllipse
 10
663.16217
 20
275.372961
 30
0.0
 11
8.499999999999995
 21
-14.72243186433545
 31
0.0
210
0.0
220
0.0
230
0.9999999999999999
 40
0.57735
 41
5.5232158736315
 42
8.63937979737193
  0
ELLIPSE
  5
1F1
330
1D5
100
AcDbEntity
  8
0
  6
Continuous
 62
     0
370
     0
100
AcDbEllipse
 10
663.16217
 20
275.372961
 30
0.0
 11
8.499999999999995
 21
-14.72243186433545
 31
0.0
210
0.0
220
0.0
230
0.9999999999999999
 40
0.57735
 41
2.356194490192345
 42
3.901562150117563
  0
ELLIPSE
  5
1F2
330
1D5
100
AcDbEntity
  8
0
  6
Continuous
 62
     0
370
     0
100
AcDbEllipse
 10
664.850022
 20
276.347443
 30
0.0
 11
16.25
 21
-28.14582562299424
 31
0.0
210
0.0
220
0.0
230
0.9999999999999998
 40
0.57735
 41
6.283175969456381
 42
8.63937979737193
  0
ELLIPSE
  5
1F3
330
1D5
100
AcDbEntity
  8
0
  6
Continuous
 62
     0
370
     0
100
AcDbEllipse
 10
664.850022
 20
276.347443
 30
0.0
 11
16.25
 21
-28.14582562299424
 31
0.0
210
0.0
220
0.0
230
0.9999999999999998
 40
0.57735
 41
2.356194490192345
 42
3.146588440551991
  0
ELLIPSE
  5
1F4
330
1D5
100
AcDbEntity
  8
0
  6
Continuous
 62
     0
370
    30
100
AcDbEllipse
 10
670.233238
 20
279.455444
 30
0.0
 11
-16.25
 21
28.14582562299424
 31
0.0
210
0.0
220
0.0
230
-0.9999999999999998
 40
0.57735
 41
6.283185275689744
 42
7.068583470577035
  0
ELLIPSE
  5
1F5
330
1D5
100
AcDbEntity
  8
0
  6
Continuous
 62
     0
370
    30
100
AcDbEllipse
 10
670.233238
 20
279.455444
 30
0.0
 11
-16.25
 21
28.14582562299424
 31
0.0
210
0.0
220
0.0
230
-0.9999999999999998
 40
0.57735
 41
0.7853981633974486
 42
3.14159262209995
  0
LWPOLYLINE
  5
1F6
330
1D5
100
AcDbEntity
  8
0
  6
Continuous
 62
     0
370
    30
100
AcDbPolyline
 90
       18
 70
     0
 43
0.0
 10
643.477356
 20
278.236816
 10
642.917969
 20
280.279907
 10
642.463257
 20
282.30423
 10
642.115417
 20
284.300171
 10
641.876465
 20
286.25824
 10
641.747314
 20
288.169434
 10
641.728821
 20
290.024811
 10
641.821533
 20
291.815582
 10
642.025146
 20
293.533478
 10
642.339233
 20
295.170471
 10
642.762695
 20
296.719025
 10
643.294067
 20
298.171783
 10
643.931458
 20
299.521576
 10
644.672668
 20
300.761322
 10
645.514587
 20
301.884369
 10
646.453247
 20
302.884766
 10
647.484253
 20
303.756561
 10
648.601074
 20
304.493896
  0
LWPOLYLINE
  5
1F7
330
1D5
100
AcDbEntity
  8
0
  6
Continuous
 62
     0
370
    30
100
AcDbPolyline
 90
       19
 70
     0
 43
0.0
 10
681.099854
 20
248.201523
 10
679.975525
 20
247.634399
 10
678.7854
 20
247.192429
 10
677.536682
 20
246.878113
 10
676.235779
 20
246.692581
 10
674.88855
 20
246.635895
 10
673.500854
 20
246.70755
 10
672.078857
 20
246.906708
 10
670.628662
 20
247.231934
 10
669.156128
 20
247.681366
 10
667.667053
 20
248.252762
 10
666.16748
 20
248.943359
 10
664.663452
 20
249.750198
 10
663.16095
 20
250.669571
 10
661.666199
 20
251.697632
 10
660.185242
 20
252.829956
 10
658.724243
 20
254.061783
 10
657.289185
 20
255.387878
 10
655.799988
 20
256.893524
  0
LINE
  5
1F8
330
1D5
100
AcDbEntity
  8
0
  6
Continuous
 62
     0
370
    30
100
AcDbLine
 10
653.983238
 20
307.60127
 30
0.0
 11
648.600021
 21
304.493268
 31
0.0
  0
LINE
  5
1F9
330
1D5
100
AcDbEntity
  8
0
  6
Continuous
 62
     0
370
    30
100
AcDbLine
 10
686.483239
 20
251.309619
 30
0.0
 11
681.100022
 21
248.201618
 31
0.0
  0
LINE
  5
1FA
330
1D5
100
AcDbEntity
  8
0
  6
Continuous
 62
     0
370
    30
100
AcDbLine
 10
571.341842
 20
236.589348
 30
0.0
 11
652.659122
 21
283.537901
 31
0.0
  0
LWPOLYLINE
  5
1FB
330
1D5
100
AcDbEntity
  8
0
  6
Continuous
 62
     0
370
    30
100
AcDbPolyline
 90
       30
 70
     0
 43
0.0
 10
571.341797
 20
236.58934
 10
568.322937
 20
234.767624
 10
565.310608
 20
232.792694
 10
562.311401
 20
230.669113
 10
559.331177
 20
228.401108
 10
556.375854
 20
225.992905
 10
553.451355
 20
223.44931
 10
550.56366
 20
220.775574
 10
547.718567
 20
217.977264
 10
544.921692
 20
215.06015
 10
542.178711
 20
212.030029
 10
539.495178
 20
208.893005
 10
536.876648
 20
205.655334
 10
534.328247
 20
202.323685
 10
531.855164
 20
198.904846
 10
529.462524
 20
195.405655
 10
527.155029
 20
191.833237
 10
524.937378
 20
188.194885
 10
522.814148
 20
184.497925
 10
520.789551
 20
180.749847
 10
518.867798
 20
176.958252
 10
517.052612
 20
173.130844
 10
515.347717
 20
169.275391
 10
513.756531
 20
165.399628
 10
512.282532
 20
161.511444
 10
510.928711
 20
157.618774
 10
509.697754
 20
153.729477
 10
508.591919
 20
149.851212
 10
507.613342
 20
145.991669
 10
506.748779
 20
142.08316
  0
LINE
  5
1FC
330
1D5
100
AcDbEntity
  8
0
  6
Continuous
 62
     0
370
    30
100
AcDbLine
 10
592.347939
 20
220.259468
 30
0.0
 11
673.665219
 21
267.208022
 31
0.0
  0
LWPOLYLINE
  5
1FD
330
1D5
100
AcDbEntity
  8
0
  6
Continuous
 62
     0
370
    30
100
AcDbPolyline
 90
       29
 70
     0
 43
0.0
 10
592.347961
 20
220.259476
 10
589.397827
 20
218.476379
 10
586.452942
 20
216.537109
 10
583.520386
 20
214.446472
 10
580.606567
 20
212.208923
 10
577.717834
 20
209.828934
 10
574.860596
 20
207.311752
 10
572.04126
 20
204.662979
 10
569.26593
 20
201.888611
 10
566.54071
 20
198.994751
 10
563.871643
 20
195.987656
 10
561.264587
 20
192.873856
 10
558.725403
 20
189.660141
 10
556.259521
 20
186.353668
 10
553.872375
 20
182.96167
 10
551.569336
 20
179.491516
 10
549.355286
 20
175.950882
 10
547.235107
 20
172.347534
 10
545.213562
 20
168.689301
 10
543.295044
 20
164.984253
 10
541.483704
 20
161.240524
 10
539.783386
 20
157.466339
 10
538.197937
 20
153.669937
 10
536.730896
 20
149.859619
 10
535.385559
 20
146.043869
 10
534.164917
 20
142.231064
 10
533.071228
 20
138.429382
 10
532.106873
 20
134.647018
 10
531.266663
 20
130.855957
  0
LINE
  5
1FE
330
1D5
100
AcDbEntity
  8
0
  6
Continuous
 62
     0
370
     0
100
AcDbLine
 10
592.182792
 20
312.041823
 30
0.0
 11
591.985476
 21
311.927903
 31
0.0
  0
ELLIPSE
  5
1FF
330
1D5
100
AcDbEntity
  8
0
  6
Continuous
 62
     0
370
    30
100
AcDbEllipse
 10
588.717969
 20
314.04224
 30
0.0
 11
-2.450000000000001
 21
4.24352447854375
 31
0.0
210
0.0
220
0.0
230
-0.9999999999999998
 40
0.57735
 41
6.283185275689743
 42
8.639379754480142
  0
ELLIPSE
  5
200
330
1D5
100
AcDbEntity
  8
0
  6
Continuous
 62
     0
370
    30
100
AcDbEllipse
 10
588.717969
 20
314.04224
 30
0.0
 11
-2.450000000000001
 21
4.24352447854375
 31
0.0
210
0.0
220
0.0
230
-0.9999999999999998
 40
0.57735
 41
2.356194447300557
 42
2.419534303811699
  0
LWPOLYLINE
  5
201
330
1D5
100
AcDbEntity
  8
0
  6
Continuous
 62
     0
370
     0
100
AcDbPolyline
 90
        5
 70
     0
 43
0.0
 10
572.164429
 20
302.564392
 10
576.168335
 20
305.383759
 10
580.179993
 20
308.105927
 10
584.197266
 20
310.729431
 10
589.241028
 20
313.878601
  0
LWPOLYLINE
  5
202
330
1D5
100
AcDbEntity
  8
0
  6
Continuous
 62
     0
370
    30
100
AcDbPolyline
 90
        5
 70
     0
 43
0.0
 10
589.241028
 20
313.878601
 10
587.263123
 20
315.219696
 10
585.282898
 20
316.433594
 10
583.302551
 20
317.519348
 10
581.12384
 20
318.565094
  0
LWPOLYLINE
  5
203
330
1D5
100
AcDbEntity
  8
0
  6
Continuous
 62
     0
370
     0
100
AcDbPolyline
 90
        5
 70
     0
 43
0.0
 10
581.12384
 20
318.565094
 10
577.09375
 20
316.055969
 10
573.069458
 20
313.444153
 10
569.052979
 20
310.731049
 10
564.086548
 20
307.228149
  0
ARC
  5
204
330
1D5
100
AcDbEntity
  8
0
  6
Continuous
 62
     0
370
     0
100
AcDbCircle
 10
2554.196477
 20
3744.869903
 30
0.0
 40
3972.142789424774
100
AcDbArc
 50
239.932712
 51
240.067256
  0
LWPOLYLINE
  5
205
330
1D5
100
AcDbEntity
  8
0
  6
Continuous
 62
     0
370
     0
100
AcDbPolyline
 90
        3
 70
     0
 43
0.0
 10
583.31488
 20
296.137024
 10
586.908081
 20
298.172394
 10
600.514587
 20
305.86554
  0
LINE
  5
206
330
1D5
100
AcDbEntity
  8
0
  6
Continuous
 62
     0
370
    30
100
AcDbLine
 10
600.514577
 20
305.865537
 30
0.0
 11
589.241045
 21
313.878606
 31
0.0
  0
ARC
  5
207
330
1D5
100
AcDbEntity
  8
0
  6
Continuous
 62
     0
370
     0
100
AcDbCircle
 10
-5327.487614
 20
-9945.262097
 30
0.0
 40
11824.71317862356
100
AcDbArc
 50
60.008695
 51
60.071057
  0
LWPOLYLINE
  5
208
330
1D5
100
AcDbEntity
  8
0
  6
Continuous
 62
     0
370
    30
100
AcDbPolyline
 90
        3
 70
     0
 43
0.0
 10
600.92865
 20
300.421661
 10
601.084717
 20
300.596344
 10
601.140564
 20
300.882141
  0
LWPOLYLINE
  5
209
330
1D5
100
AcDbEntity
  8
0
  6
Continuous
 62
     0
370
    30
100
AcDbPolyline
 90
        3
 70
     0
 43
0.0
 10
569.850281
 20
323.56958
 10
569.659363
 20
323.622314
 10
569.426636
 20
323.574799
  0
LINE
  5
20A
330
1D5
100
AcDbEntity
  8
0
  6
Continuous
 62
     0
370
    30
100
AcDbLine
 10
581.123824
 20
318.565085
 30
0.0
 11
569.850292
 21
323.569569
 31
0.0
  0
LWPOLYLINE
  5
20B
330
1D5
100
AcDbEntity
  8
0
  6
Continuous
 62
     0
370
    30
100
AcDbPolyline
 90
        5
 70
     0
 43
0.0
 10
601.140564
 20
304.693024
 10
601.10083
 20
304.985779
 10
600.986145
 20
305.291443
 10
600.809387
 20
305.575775
 10
600.514587
 20
305.86554
  0
LINE
  5
20C
330
1D5
100
AcDbEntity
  8
0
  6
Continuous
 62
     0
370
    30
100
AcDbLine
 10
601.140542
 20
300.882136
 30
0.0
 11
601.140542
 21
304.693026
 31
0.0
  0
LWPOLYLINE
  5
20D
330
1D5
100
AcDbEntity
  8
0
  6
Continuous
 62
     0
370
     0
100
AcDbPolyline
 90
        3
 70
     0
 43
0.0
 10
569.850281
 20
323.56958
 10
563.59021
 20
319.879059
 10
553.096619
 20
313.583527
  0
ARC
  5
20E
330
1D5
100
AcDbEntity
  8
0
  6
Continuous
 62
     0
370
     0
100
AcDbCircle
 10
-5190.11702
 20
-9630.449951
 30
0.0
 40
11483.39256079363
100
AcDbArc
 50
59.927915
 51
59.991258
  0
ARC
  5
20F
330
1D5
100
AcDbEntity
  8
0
  6
Continuous
 62
     0
370
     0
100
AcDbCircle
 10
40.28425
 20
-609.445683
 30
0.0
 40
1054.451734481143
100
AcDbArc
 50
59.746824
 51
60.253203
  0
LWPOLYLINE
  5
210
330
1D5
100
AcDbEntity
  8
0
  6
Continuous
 62
     0
370
     0
100
AcDbPolyline
 90
        5
 70
     0
 43
0.0
 10
572.164429
 20
302.564392
 10
571.93811
 20
302.35614
 10
571.746521
 20
302.087463
 10
571.610535
 20
301.787781
 10
571.5401
 20
301.397705
  0
LWPOLYLINE
  5
211
330
1D5
100
AcDbEntity
  8
0
  6
Continuous
 62
     0
370
     0
100
AcDbPolyline
 90
        5
 70
     0
 43
0.0
 10
563.469421
 20
306.057312
 10
563.50769
 20
306.349243
 10
563.619812
 20
306.653442
 10
563.79364
 20
306.936615
 10
564.086548
 20
307.228149
  0
LWPOLYLINE
  5
212
330
1D5
100
AcDbEntity
  8
0
  6
Continuous
 62
     0
370
     0
100
AcDbPolyline
 90
        5
 70
     0
 43
0.0
 10
584.015625
 20
294.915955
 10
583.96582
 20
295.238525
 10
583.827454
 20
295.573181
 10
583.619446
 20
295.874542
 10
583.31488
 20
296.137024
  0
ARC
  5
213
330
1D5
100
AcDbEntity
  8
0
  6
Continuous
 62
     0
370
     0
100
AcDbCircle
 10
1777.141825
 20
-1774.999059
 30
0.0
 40
2389.162653900954
100
AcDbArc
 50
119.486811
 51
119.959713
  0
ARC
  5
214
330
1D5
100
AcDbEntity
  8
0
  6
Continuous
 62
     0
370
     0
100
AcDbCircle
 10
-1463.528815
 20
-3188.055846
 30
0.0
 40
4039.528634150738
100
AcDbArc
 50
59.567129
 51
59.749023
  0
LWPOLYLINE
  5
215
330
1D5
100
AcDbEntity
  8
0
  6
Continuous
 62
     0
370
     0
100
AcDbPolyline
 90
        5
 70
     0
 43
0.0
 10
583.31488
 20
296.137024
 10
583.05835
 20
295.931274
 10
582.836792
 20
295.64325
 10
582.680237
 20
295.312317
 10
582.607666
 20
294.919495
  0
LINE
  5
216
330
1D5
100
AcDbEntity
  8
0
  6
Continuous
 62
     0
370
     0
100
AcDbLine
 10
584.015655
 20
291.227246
 30
0.0
 11
584.015655
 21
294.915947
 31
0.0
  0
LWPOLYLINE
  5
217
330
1D5
100
AcDbEntity
  8
0
  6
Continuous
 62
     0
370
     0
100
AcDbPolyline
 90
        7
 70
     0
 43
0.0
 10
601.140564
 20
300.882141
 10
598.276062
 20
299.25528
 10
595.421997
 20
297.638184
 10
592.627563
 20
296.059204
 10
589.834229
 20
294.485748
 10
587.041016
 20
292.91803
 10
584.015625
 20
291.227234
  0
LWPOLYLINE
  5
218
330
1D5
100
AcDbEntity
  8
0
  6
Continuous
 62
     0
370
     0
100
AcDbPolyline
 90
        4
 70
     0
 43
0.0
 10
552.587219
 20
313.619965
 10
552.695068
 20
313.66507
 10
552.819702
 20
313.673859
 10
553.096619
 20
313.583527
  0
LWPOLYLINE
  5
219
330
1D5
100
AcDbEntity
  8
0
  6
Continuous
 62
     0
370
     0
100
AcDbPolyline
 90
        3
 70
     0
 43
0.0
 10
584.015625
 20
291.227234
 10
583.959412
 20
290.943542
 10
583.801147
 20
290.76535
  0
ARC
  5
21A
330
1D5
100
AcDbEntity
  8
0
  6
Continuous
 62
     0
370
     0
100
AcDbCircle
 10
-1408.346908
 20
-3144.249994
 30
0.0
 40
3974.000524160486
100
AcDbArc
 50
60.252463
 51
60.436082
  0
LWPOLYLINE
  5
21B
330
1D5
100
AcDbEntity
  8
0
  6
Continuous
 62
     0
370
     0
100
AcDbPolyline
 90
        5
 70
     0
 43
0.0
 10
552.401917
 20
312.358795
 10
552.447754
 20
312.684143
 10
552.583801
 20
313.020752
 10
552.791321
 20
313.322815
 10
553.096619
 20
313.583557
  0
ARC
  5
21C
330
1D5
100
AcDbEntity
  8
0
  6
Continuous
 62
     0
370
     0
100
AcDbCircle
 10
2607.025177
 20
3806.146913
 30
0.0
 40
4056.330978317702
100
AcDbArc
 50
239.567522
 51
239.748663
  0
ARC
  5
21D
330
1D5
100
AcDbEntity
  8
0
  6
Continuous
 62
     0
370
     0
100
AcDbCircle
 10
1094.685638
 20
1212.965526
 30
0.0
 40
1054.371517340551
100
AcDbArc
 50
239.746776
 51
240.25319
  0
ARC
  5
21E
330
1D5
100
AcDbEntity
  8
0
  6
Continuous
 62
     0
370
     0
100
AcDbCircle
 10
2543.292916
 20
3747.733049
 30
0.0
 40
3973.876518471917
100
AcDbArc
 50
240.252495
 51
240.436121
  0
LINE
  5
21F
330
1D5
100
AcDbEntity
  8
0
  6
Continuous
 62
     0
370
     0
100
AcDbLine
 10
582.607639
 20
294.919492
 30
0.0
 11
582.607639
 21
291.230795
 31
0.0
  0
LINE
  5
220
330
1D5
100
AcDbEntity
  8
0
  6
Continuous
 62
     0
370
     0
100
AcDbLine
 10
552.401891
 20
308.670086
 30
0.0
 11
552.401891
 21
312.358794
 31
0.0
  0
ELLIPSE
  5
221
330
1D5
100
AcDbEntity
  8
0
  6
Continuous
 62
     0
370
     0
100
AcDbEllipse
 10
583.314746
 20
291.639042
 30
0.0
 11
0.9999999999999993
 21
3.714539903443281E-8
 31
0.0
210
0.0
220
0.0
230
-1.0
 40
0.57735
 41
0.794124831104629
 42
2.356194511638176
  0
ELLIPSE
  5
222
330
1D5
100
AcDbEntity
  8
0
  6
Continuous
 62
     0
370
     0
100
AcDbEllipse
 10
583.314745
 20
295.327742
 30
0.0
 11
-0.9999999999999993
 21
-3.714539903443281E-8
 31
0.0
210
0.0
220
0.0
230
1.0
 40
0.57735
 41
0.7853988127515734
 42
2.347467822485093
  0
ELLIPSE
  5
223
330
1D5
100
AcDbEntity
  8
0
  6
Continuous
 62
     0
370
     0
100
AcDbEllipse
 10
553.108998
 20
312.767037
 30
0.0
 11
-0.9999999999999993
 21
-3.714539875687706E-8
 31
0.0
210
0.0
220
0.0
230
1.0
 40
0.57735
 41
6.283185298539897
 42
7.068586590031193
  0
ELLIPSE
  5
224
330
1D5
100
AcDbEntity
  8
0
  6
Continuous
 62
     0
370
     0
100
AcDbEllipse
 10
553.108998
 20
309.078336
 30
0.0
 11
0.9999999999999993
 21
3.714539875687706E-8
 31
0.0
210
0.0
220
0.0
230
-1.0
 40
0.57735
 41
2.356182024138196
 42
3.141592662229474
  0
LWPOLYLINE
  5
225
330
1D5
100
AcDbEntity
  8
0
  6
Continuous
 62
     0
370
     0
100
AcDbPolyline
 90
        4
 70
     0
 43
0.0
 10
552.401917
 20
308.670074
 10
552.414917
 20
308.516479
 10
552.45636
 20
308.383911
 10
552.613037
 20
308.20993
  0
LWPOLYLINE
  5
226
330
1D5
100
AcDbEntity
  8
0
  6
Continuous
 62
     0
370
     0
100
AcDbPolyline
 90
        3
 70
     0
 43
0.0
 10
563.674988
 20
301.735016
 10
563.523865
 20
301.90683
 10
563.469421
 20
302.191864
  0
LWPOLYLINE
  5
227
330
1D5
100
AcDbEntity
  8
0
  6
Continuous
 62
     0
370
     0
100
AcDbPolyline
 90
        3
 70
     0
 43
0.0
 10
571.751099
 20
297.072266
 10
571.597595
 20
297.245422
 10
571.5401
 20
297.532288
  0
LWPOLYLINE
  5
228
330
1D5
100
AcDbEntity
  8
0
  6
Continuous
 62
     0
370
     0
100
AcDbPolyline
 90
        4
 70
     0
 43
0.0
 10
582.83374
 20
290.762573
 10
582.737549
 20
290.835938
 10
582.665955
 20
290.943512
 10
582.607666
 20
291.230804
  0
LWPOLYLINE
  5
229
330
1D5
100
AcDbEntity
  8
0
  6
Continuous
 62
     0
370
     0
100
AcDbPolyline
 90
        5
 70
     0
 43
0.0
 10
571.977966
 20
322.625061
 10
571.617798
 20
324.562561
 10
571.364319
 20
326.42746
 10
571.212708
 20
328.211029
 10
571.156799
 20
330.080963
  0
LWPOLYLINE
  5
22A
330
1D5
100
AcDbEntity
  8
0
  6
Continuous
 62
     0
370
     0
100
AcDbPolyline
 90
       28
 70
     0
 43
0.0
 10
616.497803
 20
303.90329
 10
616.456909
 20
302.354279
 10
616.330322
 20
300.823944
 10
616.113159
 20
299.323639
 10
615.801086
 20
297.865448
 10
615.390686
 20
296.461823
 10
614.879822
 20
295.125336
 10
614.267578
 20
293.868469
 10
613.554321
 20
292.703247
 10
612.742004
 20
291.64093
 10
611.834167
 20
290.691742
 10
610.835571
 20
289.864563
 10
609.752686
 20
289.166626
 10
608.593018
 20
288.603394
 10
607.365295
 20
288.178345
 10
606.079163
 20
287.892944
 10
604.744751
 20
287.746643
 10
603.372742
 20
287.736938
 10
601.973877
 20
287.859589
 10
600.558777
 20
288.108643
 10
599.137634
 20
288.476837
 10
597.720154
 20
288.95575
 10
596.315308
 20
289.536133
 10
594.931152
 20
290.208191
 10
593.573792
 20
290.962463
 10
592.20636
 20
291.817322
 10
590.813538
 20
292.786804
 10
589.381287
 20
293.88974
  0
LWPOLYLINE
  5
22B
330
1D5
100
AcDbEntity
  8
0
  6
Continuous
 62
     0
370
     0
100
AcDbPolyline
 90
       48
 70
     0
 43
0.0
 10
571.156799
 20
330.080963
 10
571.198853
 20
331.65036
 10
571.328857
 20
333.20047
 10
571.552002
 20
334.719391
 10
571.872803
 20
336.19458
 10
572.294617
 20
337.613098
 10
572.819702
 20
338.961823
 10
573.448914
 20
340.227783
 10
574.181702
 20
341.39859
 10
575.015808
 20
342.462555
 10
575.947571
 20
343.40921
 10
576.97168
 20
344.229523
 10
578.081238
 20
344.916199
 10
579.268311
 20
345.463928
 10
580.523621
 20
345.869354
 10
581.836975
 20
346.131378
 10
583.197754
 20
346.250946
 10
584.594727
 20
346.231049
 10
586.016846
 20
346.076508
 10
587.453186
 20
345.793884
 10
588.893066
 20
345.390991
 10
590.32666
 20
344.876892
 10
591.744934
 20
344.261353
 10
593.139709
 20
343.554749
 10
594.512146
 20
342.762421
 10
595.90686
 20
341.858795
 10
597.325073
 20
340.836914
 10
598.758667
 20
339.695831
 10
600.198547
 20
338.436279
 10
601.634888
 20
337.060699
 10
603.057007
 20
335.573303
 10
604.454102
 20
333.980255
 10
605.814941
 20
332.289642
 10
607.128418
 20
330.51123
 10
608.38385
 20
328.656464
 10
609.571045
 20
326.738159
 10
610.680786
 20
324.770294
 10
611.705078
 20
322.767517
 10
612.637024
 20
320.744995
 10
613.471313
 20
318.717865
 10
614.204285
 20
316.700928
 10
614.83374
 20
314.708313
 10
615.35907
 20
312.753174
 10
615.781067
 20
310.847473
 10
616.102051
 20
309.00174
 10
616.325439
 20
307.224976
 10
616.455627
 20
305.524597
 10
616.497803
 20
303.90329
  0
LWPOLYLINE
  5
22C
330
1D5
100
AcDbEntity
  8
0
  6
Continuous
 62
     0
370
     0
100
AcDbPolyline
 90
       37
 70
     0
 43
0.0
 10
617.15918
 20
303.926666
 10
617.118408
 20
305.530884
 10
616.99231
 20
307.215057
 10
616.776001
 20
308.973694
 10
616.465088
 20
310.799835
 10
616.056396
 20
312.685028
 10
615.547546
 20
314.619385
 10
614.937683
 20
316.591736
 10
614.227051
 20
318.589691
 10
613.417542
 20
320.600006
 10
612.512451
 20
322.608643
 10
611.516541
 20
324.601257
 10
610.435852
 20
326.563477
 10
609.277832
 20
328.481171
 10
608.051025
 20
330.340881
 10
606.764771
 20
332.130066
 10
605.429199
 20
333.837463
 10
604.054626
 20
335.453125
 10
602.651794
 20
336.968903
 10
601.231201
 20
338.378204
 10
599.802979
 20
339.676331
 10
598.376831
 20
340.860168
 10
596.961731
 20
341.928436
 10
595.565918
 20
342.881256
 10
594.196594
 20
343.720245
 10
592.828125
 20
344.464508
 10
591.432922
 20
345.125824
 10
590.01825
 20
345.694244
 10
588.592285
 20
346.160065
 10
587.164001
 20
346.514282
 10
585.743042
 20
346.748718
 10
584.3396
 20
346.856323
 10
582.964172
 20
346.831482
 10
581.62738
 20
346.670105
 10
580.339661
 20
346.369904
 10
579.111084
 20
345.930573
 10
577.928223
 20
345.340546
  0
LWPOLYLINE
  5
22D
330
1D5
100
AcDbEntity
  8
0
  6
Continuous
 62
     0
370
     0
100
AcDbPolyline
 90
       13
 70
     0
 43
0.0
 10
610.428223
 20
289.048889
 10
611.508484
 20
289.761627
 10
612.504211
 20
290.602386
 10
613.409302
 20
291.563904
 10
614.218994
 20
292.63736
 10
614.929993
 20
293.812592
 10
615.540527
 20
295.078461
 10
616.050171
 20
296.423065
 10
616.4599
 20
297.834076
 10
616.771912
 20
299.299164
 10
616.989502
 20
300.805969
 10
617.116943
 20
302.342712
 10
617.15918
 20
303.926666
  0
LWPOLYLINE
  5
22E
330
1D5
100
AcDbEntity
  8
0
  6
Continuous
 62
     0
370
     0
100
AcDbPolyline
 90
        2
 70
     0
 43
0.0
 10
586.959045
 20
318.800232
 10
586.931396
 20
319.469055
  0
LWPOLYLINE
  5
22F
330
1D5
100
AcDbEntity
  8
0
  6
Continuous
 62
     0
370
     0
100
AcDbPolyline
 90
        8
 70
     0
 43
0.0
 10
598.117493
 20
313.010742
 10
598.070679
 20
312.197052
 10
597.925842
 20
311.450378
 10
597.690735
 20
310.78656
 10
597.370728
 20
310.215729
 10
596.966858
 20
309.747986
 10
596.484009
 20
309.394165
 10
595.902283
 20
309.14389
  0
LWPOLYLINE
  5
230
330
1D5
100
AcDbEntity
  8
0
  6
Continuous
 62
     0
370
     0
100
AcDbPolyline
 90
       24
 70
     0
 43
0.0
 10
586.931396
 20
319.469055
 10
586.982727
 20
320.317993
 10
587.140564
 20
321.092926
 10
587.396484
 20
321.77594
 10
587.744812
 20
322.356659
 10
588.18457
 20
322.821625
 10
588.707214
 20
323.161774
 10
589.29834
 20
323.377197
 10
589.94873
 20
323.460571
 10
590.647949
 20
323.407623
 10
591.381836
 20
323.221252
 10
592.13678
 20
322.906586
 10
592.898865
 20
322.467651
 10
593.653992
 20
321.912537
 10
594.388428
 20
321.253143
 10
595.088379
 20
320.500244
 10
595.739685
 20
319.667145
 10
596.331848
 20
318.770142
 10
596.855957
 20
317.827026
 10
597.297241
 20
316.854675
 10
597.647095
 20
315.871826
 10
597.904602
 20
314.893158
 10
598.064392
 20
313.935242
 10
598.117493
 20
313.010742
  0
ELLIPSE
  5
231
330
1D5
100
AcDbEntity
  8
0
  6
Continuous
 62
     0
370
    30
100
AcDbEllipse
 10
599.52256
 20
320.280273
 30
0.0
 11
16.25
 21
-28.14582562299426
 31
0.0
210
0.0
220
0.0
230
0.9999999999999999
 40
0.57735
 41
0.7853981633974492
 42
3.141592685079636
  0
ELLIPSE
  5
232
330
1D5
100
AcDbEntity
  8
0
  6
Continuous
 62
     0
370
    30
100
AcDbEllipse
 10
599.52256
 20
320.280273
 30
0.0
 11
16.25
 21
-28.14582562299426
 31
0.0
210
0.0
220
0.0
230
0.9999999999999999
 40
0.57735
 41
0.0000000314898436
 42
0.7853981633974483
  0
ELLIPSE
  5
233
330
1D5
100
AcDbEntity
  8
0
  6
Continuous
 62
     0
370
     0
100
AcDbEllipse
 10
590.404081
 20
315.015717
 30
0.0
 11
2.5
 21
-4.330127018922192
 31
0.0
210
0.0
220
0.0
230
0.9999999999999997
 40
0.57735
 41
0.7853981633974483
 42
3.141592695916763
  0
ELLIPSE
  5
234
330
1D5
100
AcDbEntity
  8
0
  6
Continuous
 62
     0
370
     0
100
AcDbEllipse
 10
590.404081
 20
315.015717
 30
0.0
 11
2.5
 21
-4.330127018922192
 31
0.0
210
0.0
220
0.0
230
0.9999999999999997
 40
0.57735
 41
0.1721485081682097
 42
0.7853981633974483
  0
ELLIPSE
  5
235
330
1D5
100
AcDbEntity
  8
0
  6
Continuous
 62
     0
370
    30
100
AcDbEllipse
 10
588.717969
 20
314.04224
 30
0.0
 11
-2.5
 21
4.330127018922192
 31
0.0
210
0.0
220
0.0
230
-0.9999999999999997
 40
0.57735
 41
2.356194490192345
 42
2.420569371302531
  0
ELLIPSE
  5
236
330
1D5
100
AcDbEntity
  8
0
  6
Continuous
 62
     0
370
    30
100
AcDbEllipse
 10
588.717969
 20
314.04224
 30
0.0
 11
-2.5
 21
4.330127018922192
 31
0.0
210
0.0
220
0.0
230
-0.9999999999999997
 40
0.57735
 41
6.08285043336666
 42
8.63937979737193
  0
LWPOLYLINE
  5
237
330
1D5
100
AcDbEntity
  8
0
  6
Continuous
 62
     0
370
    30
100
AcDbPolyline
 90
        3
 70
     0
 43
0.0
 10
587.965149
 20
319.392578
 10
587.963562
 20
319.390869
 10
587.904053
 20
319.345856
  0
LINE
  5
238
330
1D5
100
AcDbEntity
  8
0
  6
Continuous
 62
     0
370
    30
100
AcDbLine
 10
586.217968
 20
318.372367
 30
0.0
 11
587.904081
 21
319.345844
 31
0.0
  0
LINE
  5
239
330
1D5
100
AcDbEntity
  8
0
  6
Continuous
 62
     0
370
    30
100
AcDbLine
 10
610.435232
 20
289.05294
 30
0.0
 11
615.772561
 21
292.134448
 31
0.0
  0
LINE
  5
23A
330
1D5
100
AcDbEntity
  8
0
  6
Continuous
 62
     0
370
    30
100
AcDbLine
 10
577.928227
 20
345.340547
 30
0.0
 11
583.27256
 21
348.426099
 31
0.0
  0
LWPOLYLINE
  5
23B
330
1D5
100
AcDbEntity
  8
0
  6
Continuous
 62
     0
370
    30
100
AcDbPolyline
 90
       16
 70
     0
 43
0.0
 10
589.304382
 20
293.846527
 10
590.791321
 20
292.693604
 10
592.293091
 20
291.645264
 10
593.803467
 20
290.706238
 10
595.316223
 20
289.88089
 10
596.825195
 20
289.172577
 10
598.324219
 20
288.584473
 10
599.807312
 20
288.119507
 10
601.26825
 20
287.779938
 10
602.701172
 20
287.567596
 10
604.100037
 20
287.484161
 10
605.458679
 20
287.530731
 10
606.770935
 20
287.707489
 10
608.030518
 20
288.014191
 10
609.231262
 20
288.450256
 10
610.428223
 20
289.048889
  0
LWPOLYLINE
  5
23C
330
1D5
100
AcDbEntity
  8
0
  6
Continuous
 62
     0
370
    30
100
AcDbPolyline
 90
       17
 70
     0
 43
0.0
 10
577.928223
 20
345.340546
 10
576.865662
 20
344.643738
 10
575.880493
 20
343.8255
 10
574.978149
 20
342.890625
 10
574.162415
 20
341.844299
 10
573.436707
 20
340.691742
 10
572.803894
 20
339.438568
 10
572.266174
 20
338.090607
 10
571.825195
 20
336.653992
 10
571.482361
 20
335.134827
 10
571.238647
 20
333.539642
 10
571.094788
 20
331.875092
 10
571.051025
 20
330.148193
 10
571.107361
 20
328.366119
 10
571.263428
 20
326.536377
 10
571.518127
 20
324.666779
 10
571.891846
 20
322.6633
  0
ARC
  5
23D
330
1D5
100
AcDbEntity
  8
0
  6
Continuous
 62
     0
370
    30
100
AcDbCircle
 10
553.109492
 20
309.078615
 30
0.0
 40
1.000489529104792
100
AcDbArc
 50
180.136661
 51
238.725048
  0
ARC
  5
23E
330
1D5
100
AcDbEntity
  8
0
  6
Continuous
 62
     0
370
    30
100
AcDbCircle
 10
553.109416
 20
312.766626
 30
0.0
 40
1.000427725170602
100
AcDbArc
 50
120.834872
 51
179.999866
  0
LWPOLYLINE
  5
23F
330
1D5
100
AcDbEntity
  8
0
  6
Continuous
 62
     0
370
    30
100
AcDbPolyline
 90
        5
 70
     0
 43
0.0
 10
582.820862
 20
290.769775
 10
583.055115
 20
290.673523
 10
583.306213
 20
290.639191
 10
583.5578
 20
290.66922
 10
583.801575
 20
290.765717
  0
ARC
  5
240
330
1D5
100
AcDbEntity
  8
0
  6
Continuous
 62
     0
370
    30
100
AcDbCircle
 10
2543.340142
 20
3746.991245
 30
0.0
 40
3973.55058729193
100
AcDbArc
 50
240.25253
 51
240.436217
  0
ARC
  5
241
330
1D5
100
AcDbEntity
  8
0
  6
Continuous
 62
     0
370
    30
100
AcDbCircle
 10
1095.277382
 20
1213.174249
 30
0.0
 40
1055.141020245268
100
AcDbArc
 50
239.74672
 51
240.253251
  0
ARC
  5
242
330
1D5
100
AcDbEntity
  8
0
  6
Continuous
 62
     0
370
    30
100
AcDbCircle
 10
2608.651326
 20
3808.119533
 30
0.0
 40
4059.145311395388
100
AcDbArc
 50
239.567521
 51
239.748581
  0
LINE
  5
243
330
1D5
100
AcDbEntity
  8
0
  6
Continuous
 62
     0
370
    30
100
AcDbLine
 10
552.108998
 20
312.767037
 30
0.0
 11
552.108998
 21
309.078336
 31
0.0
  0
LWPOLYLINE
  5
244
330
1D5
100
AcDbEntity
  8
0
  6
Continuous
 62
     0
370
    30
100
AcDbPolyline
 90
        3
 70
     0
 43
0.0
 10
600.931458
 20
300.423279
 10
597.091797
 20
298.243408
 10
583.801697
 20
290.765625
  0
ARC
  5
245
330
1D5
100
AcDbEntity
  8
0
  6
Continuous
 62
     0
370
    30
100
AcDbCircle
 10
1767.82219
 20
-1722.866339
 30
0.0
 40
2371.51286603765
100
AcDbArc
 50
120.353151
 51
120.825596
  0
LINE
  5
246
330
1D5
100
AcDbEntity
  8
0
  6
Continuous
 62
     0
370
    30
100
AcDbLine
 10
586.267968
 20
318.285764
 30
0.0
 11
584.156642
 21
317.066789
 31
0.0
  0
LINE
  5
247
330
1D5
100
AcDbEntity
  8
0
  6
Continuous
 62
     0
370
     0
100
AcDbLine
 10
733.406832
 20
230.278244
 30
0.0
 11
733.604148
 21
230.392165
 31
0.0
  0
ELLIPSE
  5
248
330
1D5
100
AcDbEntity
  8
0
  6
Continuous
 62
     0
370
    30
100
AcDbEllipse
 10
730.139325
 20
232.392581
 30
0.0
 11
2.450000000000001
 21
-4.243524478543749
 31
0.0
210
0.0
220
0.0
230
1.0
 40
0.57735
 41
0.785398120505663
 42
3.141592685079639
  0
ELLIPSE
  5
249
330
1D5
100
AcDbEntity
  8
0
  6
Continuous
 62
     0
370
    30
100
AcDbEllipse
 10
730.139325
 20
232.392581
 30
0.0
 11
2.450000000000001
 21
-4.243524478543749
 31
0.0
210
0.0
220
0.0
230
1.0
 40
0.57735
 41
0.7220581869804468
 42
0.785398120505663
  0
ARC
  5
24A
330
1D5
100
AcDbEntity
  8
0
  6
Continuous
 62
     0
370
     0
100
AcDbCircle
 10
2695.621928
 20
3663.231738
 30
0.0
 40
3972.15479094418
100
AcDbArc
 50
239.932744
 51
240.067288
  0
LWPOLYLINE
  5
24B
330
1D5
100
AcDbEntity
  8
0
  6
Continuous
 62
     0
370
     0
100
AcDbPolyline
 90
        5
 70
     0
 43
0.0
 10
730.662415
 20
232.228943
 10
726.641113
 20
229.731216
 10
722.622803
 20
227.133026
 10
718.609497
 20
224.435837
 10
713.585815
 20
220.914719
  0
LWPOLYLINE
  5
24C
330
1D5
100
AcDbEntity
  8
0
  6
Continuous
 62
     0
370
    30
100
AcDbPolyline
 90
        5
 70
     0
 43
0.0
 10
722.545166
 20
236.915421
 10
724.523132
 20
235.972595
 10
726.503357
 20
234.899902
 10
728.483704
 20
233.698959
 10
730.662415
 20
232.228943
  0
LWPOLYLINE
  5
24D
330
1D5
100
AcDbEntity
  8
0
  6
Continuous
 62
     0
370
     0
100
AcDbPolyline
 90
        5
 70
     0
 43
0.0
 10
705.507935
 20
225.578491
 10
709.511597
 20
228.415176
 10
713.525818
 20
231.152374
 10
717.548462
 20
233.788651
 10
722.545166
 20
236.915421
  0
ARC
  5
24E
330
1D5
100
AcDbEntity
  8
0
  6
Continuous
 62
     0
370
     0
100
AcDbCircle
 10
-5086.839981
 20
-9778.055243
 30
0.0
 40
11559.58398382909
100
AcDbArc
 50
59.928112
 51
59.991037
  0
LINE
  5
24F
330
1D5
100
AcDbEntity
  8
0
  6
Continuous
 62
     0
370
    30
100
AcDbLine
 10
711.271648
 20
241.919912
 30
0.0
 11
722.54518
 21
236.915427
 31
0.0
  0
LWPOLYLINE
  5
250
330
1D5
100
AcDbEntity
  8
0
  6
Continuous
 62
     0
370
     0
100
AcDbPolyline
 90
        3
 70
     0
 43
0.0
 10
694.517944
 20
231.933884
 10
700.742676
 20
235.686996
 10
711.271667
 20
241.919907
  0
LWPOLYLINE
  5
251
330
1D5
100
AcDbEntity
  8
0
  6
Continuous
 62
     0
370
    30
100
AcDbPolyline
 90
        3
 70
     0
 43
0.0
 10
710.848022
 20
241.925156
 10
711.004456
 20
241.973618
 10
711.271667
 20
241.919907
  0
LINE
  5
252
330
1D5
100
AcDbEntity
  8
0
  6
Continuous
 62
     0
370
    30
100
AcDbLine
 10
730.662402
 20
232.228947
 30
0.0
 11
741.935934
 21
224.215877
 31
0.0
  0
LWPOLYLINE
  5
253
330
1D5
100
AcDbEntity
  8
0
  6
Continuous
 62
     0
370
    30
100
AcDbPolyline
 90
        5
 70
     0
 43
0.0
 10
741.935913
 20
224.215881
 10
742.163452
 20
224.00798
 10
742.356323
 20
223.73761
 10
742.492859
 20
223.435135
 10
742.56189
 20
223.043365
  0
LINE
  5
254
330
1D5
100
AcDbEntity
  8
0
  6
Continuous
 62
     0
370
    30
100
AcDbLine
 10
742.561898
 20
223.043367
 30
0.0
 11
742.561898
 21
219.232477
 31
0.0
  0
LWPOLYLINE
  5
255
330
1D5
100
AcDbEntity
  8
0
  6
Continuous
 62
     0
370
    30
100
AcDbPolyline
 90
        3
 70
     0
 43
0.0
 10
742.56189
 20
219.232483
 10
742.507507
 20
218.949799
 10
742.350037
 20
218.772003
  0
ARC
  5
256
330
1D5
100
AcDbEntity
  8
0
  6
Continuous
 62
     0
370
     0
100
AcDbCircle
 10
-5147.37143
 20
-9959.777703
 30
0.0
 40
11747.22596012376
100
AcDbArc
 50
60.008478
 51
60.071251
  0
LWPOLYLINE
  5
257
330
1D5
100
AcDbEntity
  8
0
  6
Continuous
 62
     0
370
     0
100
AcDbPolyline
 90
        3
 70
     0
 43
0.0
 10
741.935913
 20
224.215881
 10
738.366821
 20
222.196564
 10
724.736206
 20
214.487366
  0
LWPOLYLINE
  5
258
330
1D5
100
AcDbEntity
  8
0
  6
Continuous
 62
     0
370
     0
100
AcDbPolyline
 90
        5
 70
     0
 43
0.0
 10
712.961487
 20
219.748047
 10
713.002075
 20
220.038589
 10
713.116333
 20
220.341568
 10
713.291748
 20
220.623779
 10
713.585815
 20
220.914719
  0
LWPOLYLINE
  5
259
330
1D5
100
AcDbEntity
  8
0
  6
Continuous
 62
     0
370
     0
100
AcDbPolyline
 90
        5
 70
     0
 43
0.0
 10
705.507935
 20
225.578491
 10
705.282288
 20
225.369843
 10
705.092102
 20
225.100342
 10
704.958069
 20
224.799484
 10
704.890808
 20
224.407654
  0
ARC
  5
25A
330
1D5
100
AcDbEntity
  8
0
  6
Continuous
 62
     0
370
     0
100
AcDbCircle
 10
181.697638
 20
-691.1082
 30
0.0
 40
1054.466854457758
100
AcDbArc
 50
59.7468
 51
60.253173
  0
LWPOLYLINE
  5
25B
330
1D5
100
AcDbEntity
  8
0
  6
Continuous
 62
     0
370
     0
100
AcDbPolyline
 90
        4
 70
     0
 43
0.0
 10
694.008606
 20
231.970306
 10
694.116455
 20
232.015411
 10
694.241028
 20
232.024216
 10
694.517944
 20
231.933884
  0
LWPOLYLINE
  5
25C
330
1D5
100
AcDbEntity
  8
0
  6
Continuous
 62
     0
370
     0
100
AcDbPolyline
 90
        5
 70
     0
 43
0.0
 10
694.517944
 20
231.933884
 10
694.262268
 20
231.72757
 10
694.043213
 20
231.438095
 10
693.890442
 20
231.104965
 10
693.823242
 20
230.709137
  0
ARC
  5
25D
330
1D5
100
AcDbEntity
  8
0
  6
Continuous
 62
     0
370
     0
100
AcDbCircle
 10
-1258.314952
 20
-3210.779897
 30
0.0
 40
3956.600848067995
100
AcDbArc
 50
60.252083
 51
60.43651
  0
LWPOLYLINE
  5
25E
330
1D5
100
AcDbEntity
  8
0
  6
Continuous
 62
     0
370
     0
100
AcDbPolyline
 90
        5
 70
     0
 43
0.0
 10
725.437012
 20
213.266281
 10
725.387146
 20
213.588852
 10
725.248779
 20
213.923523
 10
725.040833
 20
214.224869
 10
724.736206
 20
214.487366
  0
ARC
  5
25F
330
1D5
100
AcDbEntity
  8
0
  6
Continuous
 62
     0
370
     0
100
AcDbCircle
 10
1918.563698
 20
-1856.649631
 30
0.0
 40
2389.163702665585
100
AcDbArc
 50
119.486811
 51
119.959713
  0
LINE
  5
260
330
1D5
100
AcDbEntity
  8
0
  6
Continuous
 62
     0
370
     0
100
AcDbLine
 10
725.437011
 20
209.577587
 30
0.0
 11
725.437011
 21
213.266287
 31
0.0
  0
LWPOLYLINE
  5
261
330
1D5
100
AcDbEntity
  8
0
  6
Continuous
 62
     0
370
     0
100
AcDbPolyline
 90
        7
 70
     0
 43
0.0
 10
742.56189
 20
219.232483
 10
739.697937
 20
217.605927
 10
736.84436
 20
215.98912
 10
734.050476
 20
214.410416
 10
731.25769
 20
212.83728
 10
728.465027
 20
211.269836
 10
725.437012
 20
209.577591
  0
LWPOLYLINE
  5
262
330
1D5
100
AcDbEntity
  8
0
  6
Continuous
 62
     0
370
     0
100
AcDbPolyline
 90
        3
 70
     0
 43
0.0
 10
725.437012
 20
209.577591
 10
725.380737
 20
209.293854
 10
725.222473
 20
209.115677
  0
LWPOLYLINE
  5
263
330
1D5
100
AcDbEntity
  8
0
  6
Continuous
 62
     0
370
     0
100
AcDbPolyline
 90
        5
 70
     0
 43
0.0
 10
724.028992
 20
213.269836
 10
724.079407
 20
213.592514
 10
724.219299
 20
213.926834
 10
724.429565
 20
214.22728
 10
724.736206
 20
214.487366
  0
ARC
  5
264
330
1D5
100
AcDbEntity
  8
0
  6
Continuous
 62
     0
370
     0
100
AcDbCircle
 10
-1331.088381
 20
-3285.052064
 30
0.0
 40
4057.309892760589
100
AcDbArc
 50
59.567551
 51
59.748648
  0
LINE
  5
265
330
1D5
100
AcDbEntity
  8
0
  6
Continuous
 62
     0
370
     0
100
AcDbLine
 10
724.028995
 20
209.581131
 30
0.0
 11
724.028995
 21
213.269839
 31
0.0
  0
LINE
  5
266
330
1D5
100
AcDbEntity
  8
0
  6
Continuous
 62
     0
370
     0
100
AcDbLine
 10
693.823248
 20
230.70913
 30
0.0
 11
693.823248
 21
227.020434
 31
0.0
  0
ARC
  5
267
330
1D5
100
AcDbEntity
  8
0
  6
Continuous
 62
     0
370
     0
100
AcDbCircle
 10
2748.847436
 20
3725.17816
 30
0.0
 40
4057.121133864031
100
AcDbArc
 50
239.567511
 51
239.748618
  0
ARC
  5
268
330
1D5
100
AcDbEntity
  8
0
  6
Continuous
 62
     0
370
     0
100
AcDbCircle
 10
1236.098831
 20
1131.302939
 30
0.0
 40
1054.356238981094
100
AcDbArc
 50
239.746806
 51
240.253228
  0
ARC
  5
269
330
1D5
100
AcDbEntity
  8
0
  6
Continuous
 62
     0
370
     0
100
AcDbCircle
 10
2684.30128
 20
3665.353967
 30
0.0
 40
3973.038298888144
100
AcDbArc
 50
240.252447
 51
240.436111
  0
ELLIPSE
  5
26A
330
1D5
100
AcDbEntity
  8
0
  6
Continuous
 62
     0
370
     0
100
AcDbEllipse
 10
694.530354
 20
231.11738
 30
0.0
 11
0.9999999999999993
 21
-3.714540014465584E-8
 31
0.0
210
0.0
220
0.0
230
-1.0
 40
0.57735
 41
2.3561951395465
 42
3.141592662229467
  0
ELLIPSE
  5
26B
330
1D5
100
AcDbEntity
  8
0
  6
Continuous
 62
     0
370
     0
100
AcDbEllipse
 10
694.530354
 20
227.42868
 30
0.0
 11
-0.9999999999999993
 21
3.714540014465584E-8
 31
0.0
210
0.0
220
0.0
230
1.0
 40
0.57735
 41
6.283050998348643
 42
7.068583492022714
  0
ELLIPSE
  5
26C
330
1D5
100
AcDbEntity
  8
0
  6
Continuous
 62
     0
370
     0
100
AcDbEllipse
 10
724.736102
 20
209.989382
 30
0.0
 11
-0.9999999999999993
 21
3.714540047772275E-8
 31
0.0
210
0.0
220
0.0
230
1.0
 40
0.57735
 41
0.7853856973431794
 42
2.347467865376773
  0
ELLIPSE
  5
26D
330
1D5
100
AcDbEntity
  8
0
  6
Continuous
 62
     0
370
     0
100
AcDbEllipse
 10
724.736102
 20
213.678082
 30
0.0
 11
0.9999999999999993
 21
-3.714540047772275E-8
 31
0.0
210
0.0
220
0.0
230
-1.0
 40
0.57735
 41
0.7941247882129132
 42
2.356197609646621
  0
LWPOLYLINE
  5
26E
330
1D5
100
AcDbEntity
  8
0
  6
Continuous
 62
     0
370
     0
100
AcDbPolyline
 90
        3
 70
     0
 43
0.0
 10
713.172485
 20
215.422607
 10
713.018738
 20
215.595932
 10
712.961426
 20
215.882614
  0
LWPOLYLINE
  5
26F
330
1D5
100
AcDbEntity
  8
0
  6
Continuous
 62
     0
370
     0
100
AcDbPolyline
 90
        4
 70
     0
 43
0.0
 10
724.028992
 20
209.581131
 10
724.045471
 20
209.421509
 10
724.092041
 20
209.284576
 10
724.255798
 20
209.112274
  0
LWPOLYLINE
  5
270
330
1D5
100
AcDbEntity
  8
0
  6
Continuous
 62
     0
370
     0
100
AcDbPolyline
 90
        3
 70
     0
 43
0.0
 10
705.094116
 20
220.08667
 10
704.945496
 20
220.256989
 10
704.890808
 20
220.542206
  0
LWPOLYLINE
  5
271
330
1D5
100
AcDbEntity
  8
0
  6
Continuous
 62
     0
370
     0
100
AcDbPolyline
 90
        3
 70
     0
 43
0.0
 10
694.023804
 20
226.566513
 10
693.876709
 20
226.735931
 10
693.823242
 20
227.020432
  0
LWPOLYLINE
  5
272
330
1D5
100
AcDbEntity
  8
0
  6
Continuous
 62
     0
370
     0
100
AcDbPolyline
 90
       13
 70
     0
 43
0.0
 10
758.580566
 20
222.276993
 10
758.539856
 20
220.721375
 10
758.414001
 20
219.184189
 10
758.19812
 20
217.676712
 10
757.887817
 20
216.21077
 10
757.479919
 20
214.79863
 10
756.972107
 20
213.452713
 10
756.363464
 20
212.185303
 10
755.654236
 20
211.008316
 10
754.846313
 20
209.932907
 10
753.942932
 20
208.969254
 10
752.948792
 20
208.126205
 10
751.849548
 20
207.399231
  0
LWPOLYLINE
  5
273
330
1D5
100
AcDbEntity
  8
0
  6
Continuous
 62
     0
370
     0
100
AcDbPolyline
 90
       37
 70
     0
 43
0.0
 10
719.336182
 20
263.683136
 10
720.494202
 20
264.264587
 10
721.72113
 20
264.708466
 10
723.007568
 20
265.013153
 10
724.343506
 20
265.178894
 10
725.718384
 20
265.207916
 10
727.121582
 20
265.104218
 10
728.542664
 20
264.873413
 10
729.971375
 20
264.522522
 10
731.39801
 20
264.059692
 10
732.813599
 20
263.493958
 10
734.209961
 20
262.83493
 10
735.579773
 20
262.092621
 10
736.94873
 20
261.2565
 10
738.34436
 20
260.306549
 10
739.759521
 20
259.241089
 10
741.185974
 20
258.059937
 10
742.614746
 20
256.764404
 10
744.036194
 20
255.357483
 10
745.440125
 20
253.843887
 10
746.815979
 20
252.230118
 10
748.153137
 20
250.524368
 10
749.441162
 20
248.736465
 10
750.669983
 20
246.877701
 10
751.8302
 20
244.960602
 10
752.913147
 20
242.998611
 10
753.91156
 20
241.005844
 10
754.819092
 20
238.996735
 10
755.631104
 20
236.985626
 10
756.344238
 20
234.986557
 10
756.956604
 20
233.012833
 10
757.467773
 20
231.076843
 10
757.878784
 20
229.18985
 10
758.191772
 20
227.361725
 10
758.410156
 20
225.600998
 10
758.538025
 20
223.914642
 10
758.580566
 20
222.276993
  0
LWPOLYLINE
  5
274
330
1D5
100
AcDbEntity
  8
0
  6
Continuous
 62
     0
370
     0
100
AcDbPolyline
 90
       48
 70
     0
 43
0.0
 10
757.919189
 20
222.253632
 10
757.877136
 20
223.871597
 10
757.747131
 20
225.571808
 10
757.523987
 20
227.348434
 10
757.203186
 20
229.194046
 10
756.781372
 20
231.099625
 10
756.256287
 20
233.054672
 10
755.627014
 20
235.047226
 10
754.894287
 20
237.064133
 10
754.06012
 20
239.091263
 10
753.128418
 20
241.113815
 10
752.104309
 20
243.116623
 10
750.99469
 20
245.084579
 10
749.807678
 20
247.002991
 10
748.552368
 20
248.857895
 10
747.239014
 20
250.63649
 10
745.878235
 20
252.327301
 10
744.481262
 20
253.920532
 10
743.059082
 20
255.408142
 10
741.622803
 20
256.783966
 10
740.182922
 20
258.043762
 10
738.749268
 20
259.185059
 10
737.330994
 20
260.207214
 10
735.936279
 20
261.111084
 10
734.563843
 20
261.903564
 10
733.169128
 20
262.610382
 10
731.750916
 20
263.226105
 10
730.317322
 20
263.740417
 10
728.877441
 20
264.143524
 10
727.441101
 20
264.426422
 10
726.018921
 20
264.581207
 10
724.621887
 20
264.601379
 10
723.261047
 20
264.482117
 10
721.947571
 20
264.220367
 10
720.692139
 20
263.815216
 10
719.504944
 20
263.267792
 10
718.395142
 20
262.58139
 10
717.370911
 20
261.761322
 10
716.438965
 20
260.814911
 10
715.604614
 20
259.75119
 10
714.871643
 20
258.580597
 10
714.242249
 20
257.314789
 10
713.716919
 20
255.966232
 10
713.294922
 20
254.547852
 10
712.973877
 20
253.072754
 10
712.750549
 20
251.553909
 10
712.620361
 20
250.003845
 10
712.578125
 20
248.43129
  0
LWPOLYLINE
  5
275
330
1D5
100
AcDbEntity
  8
0
  6
Continuous
 62
     0
370
     0
100
AcDbPolyline
 90
       28
 70
     0
 43
0.0
 10
730.802612
 20
212.240082
 10
732.21344
 20
211.152878
 10
733.606567
 20
210.181641
 10
734.974487
 20
209.325027
 10
736.331543
 20
208.569473
 10
737.715332
 20
207.896103
 10
739.119873
 20
207.314224
 10
740.537231
 20
206.833694
 10
741.958435
 20
206.463745
 10
743.373718
 20
206.212814
 10
744.772888
 20
206.088181
 10
746.145386
 20
206.09581
 10
747.480408
 20
206.23999
 10
748.767395
 20
206.523254
 10
749.996094
 20
206.946182
 10
751.15686
 20
207.507324
 10
752.241028
 20
208.203232
 10
753.240906
 20
209.028488
 10
754.150208
 20
209.975861
 10
754.963989
 20
211.036514
 10
755.678772
 20
212.200256
 10
756.292603
 20
213.455826
 10
756.804993
 20
214.791183
 10
757.216919
 20
216.193878
 10
757.530457
 20
217.651321
 10
757.749084
 20
219.151062
 10
757.876953
 20
220.681046
 10
757.919189
 20
222.253632
  0
LWPOLYLINE
  5
276
330
1D5
100
AcDbEntity
  8
0
  6
Continuous
 62
     0
370
     0
100
AcDbPolyline
 90
        5
 70
     0
 43
0.0
 10
712.578125
 20
248.43129
 10
712.623718
 20
246.745636
 10
712.764832
 20
244.971146
 10
713.007263
 20
243.114487
 10
713.399353
 20
240.975403
  0
LWPOLYLINE
  5
277
330
1D5
100
AcDbEntity
  8
0
  6
Continuous
 62
     0
370
     0
100
AcDbPolyline
 90
       24
 70
     0
 43
0.0
 10
739.538879
 20
231.361099
 10
739.48761
 20
232.269272
 10
739.32959
 20
233.226547
 10
739.07373
 20
234.205048
 10
738.725464
 20
235.187927
 10
738.285767
 20
236.160629
 10
737.762939
 20
237.104401
 10
737.171875
 20
238.002335
 10
736.521545
 20
238.8367
 10
735.822327
 20
239.591156
 10
735.088379
 20
240.252243
 10
734.333435
 20
240.809296
 10
733.571411
 20
241.25032
 10
732.816223
 20
241.5672
 10
732.081787
 20
241.755859
 10
731.381897
 20
241.811157
 10
730.73053
 20
241.730133
 10
730.138306
 20
241.516937
 10
729.614319
 20
241.178955
 10
729.173096
 20
240.716156
 10
728.82312
 20
240.137283
 10
728.565552
 20
239.455994
 10
728.405945
 20
238.682526
 10
728.352722
 20
237.819397
  0
LWPOLYLINE
  5
278
330
1D5
100
AcDbEntity
  8
0
  6
Continuous
 62
     0
370
     0
100
AcDbPolyline
 90
        8
 70
     0
 43
0.0
 10
737.323669
 20
227.494232
 10
737.875488
 20
227.727615
 10
738.362427
 20
228.074875
 10
738.771179
 20
228.536194
 10
739.095947
 20
229.101532
 10
739.33606
 20
229.760132
 10
739.486328
 20
230.502518
 10
739.538879
 20
231.361099
  0
LWPOLYLINE
  5
279
330
1D5
100
AcDbEntity
  8
0
  6
Continuous
 62
     0
370
     0
100
AcDbPolyline
 90
        2
 70
     0
 43
0.0
 10
728.352722
 20
237.819397
 10
728.380432
 20
237.150574
  0
ELLIPSE
  5
27A
330
1D5
100
AcDbEntity
  8
0
  6
Continuous
 62
     0
370
    30
100
AcDbEllipse
 10
740.943916
 20
238.630615
 30
0.0
 11
-16.25
 21
28.14582562299426
 31
0.0
210
0.0
220
0.0
230
-0.9999999999999999
 40
0.57735
 41
2.356194490192344
 42
3.14159262209995
  0
ELLIPSE
  5
27B
330
1D5
100
AcDbEntity
  8
0
  6
Continuous
 62
     0
370
    30
100
AcDbEllipse
 10
740.943916
 20
238.630615
 30
0.0
 11
-16.25
 21
28.14582562299426
 31
0.0
210
0.0
220
0.0
230
-0.9999999999999999
 40
0.57735
 41
6.283185275689743
 42
8.63937979737193
  0
ELLIPSE
  5
27C
330
1D5
100
AcDbEntity
  8
0
  6
Continuous
 62
     0
370
    30
100
AcDbEllipse
 10
730.139325
 20
232.392581
 30
0.0
 11
2.5
 21
-4.330127018922192
 31
0.0
210
0.0
220
0.0
230
0.9999999999999997
 40
0.57735
 41
0.7853981633974483
 42
3.341927527402713
  0
ELLIPSE
  5
27D
330
1D5
100
AcDbEntity
  8
0
  6
Continuous
 62
     0
370
    30
100
AcDbEllipse
 10
730.139325
 20
232.392581
 30
0.0
 11
2.5
 21
-4.330127018922192
 31
0.0
210
0.0
220
0.0
230
0.9999999999999997
 40
0.57735
 41
0.7210231210337987
 42
0.7853981633974483
  0
ELLIPSE
  5
27E
330
1D5
100
AcDbEntity
  8
0
  6
Continuous
 62
     0
370
     0
100
AcDbEllipse
 10
731.825437
 20
233.366059
 30
0.0
 11
-2.5
 21
4.330127018922192
 31
0.0
210
0.0
220
0.0
230
-0.9999999999999997
 40
0.57735
 41
2.356194490192345
 42
2.969444357927268
  0
ELLIPSE
  5
27F
330
1D5
100
AcDbEntity
  8
0
  6
Continuous
 62
     0
370
     0
100
AcDbEllipse
 10
731.825437
 20
233.366059
 30
0.0
 11
-2.5
 21
4.330127018922192
 31
0.0
210
0.0
220
0.0
230
-0.9999999999999997
 40
0.57735
 41
6.283185274416496
 42
8.63937979737193
  0
ARC
  5
280
330
1D5
100
AcDbEntity
  8
0
  6
Continuous
 62
     0
370
    30
100
AcDbCircle
 10
729.181352
 20
237.947834
 30
0.0
 40
0.2899778510193464
100
AcDbArc
 50
299.793957
 51
315.024669
  0
LINE
  5
281
330
1D5
100
AcDbEntity
  8
0
  6
Continuous
 62
     0
370
    30
100
AcDbLine
 10
729.325437
 20
237.696186
 30
0.0
 11
727.639325
 21
236.722708
 31
0.0
  0
LINE
  5
282
330
1D5
100
AcDbEntity
  8
0
  6
Continuous
 62
     0
370
    30
100
AcDbLine
 10
757.193917
 20
210.48479
 30
0.0
 11
751.863593
 21
207.407326
 31
0.0
  0
LINE
  5
283
330
1D5
100
AcDbEntity
  8
0
  6
Continuous
 62
     0
370
    30
100
AcDbLine
 10
724.693916
 20
266.776441
 30
0.0
 11
719.349583
 21
263.690889
 31
0.0
  0
LWPOLYLINE
  5
284
330
1D5
100
AcDbEntity
  8
0
  6
Continuous
 62
     0
370
    30
100
AcDbPolyline
 90
       16
 70
     0
 43
0.0
 10
730.725769
 20
212.196869
 10
732.212708
 20
211.04393
 10
733.714478
 20
209.99559
 10
735.224854
 20
209.056564
 10
736.737549
 20
208.231232
 10
738.246521
 20
207.522919
 10
739.745605
 20
206.934799
 10
741.228638
 20
206.469879
 10
742.689636
 20
206.13031
 10
744.122559
 20
205.917953
 10
745.521362
 20
205.834503
 10
746.880005
 20
205.881073
 10
748.192261
 20
206.057846
 10
749.451904
 20
206.364532
 10
750.652649
 20
206.800598
 10
751.849609
 20
207.399231
  0
LWPOLYLINE
  5
285
330
1D5
100
AcDbEntity
  8
0
  6
Continuous
 62
     0
370
    30
100
AcDbPolyline
 90
        5
 70
     0
 43
0.0
 10
712.472168
 20
248.609009
 10
712.52002
 20
246.869354
 10
712.66333
 20
245.083206
 10
712.901306
 20
243.25824
 10
713.313232
 20
241.013641
  0
LWPOLYLINE
  5
286
330
1D5
100
AcDbEntity
  8
0
  6
Continuous
 62
     0
370
    30
100
AcDbPolyline
 90
       13
 70
     0
 43
0.0
 10
712.472168
 20
248.609009
 10
712.521179
 20
250.314331
 10
712.668213
 20
251.958252
 10
712.913025
 20
253.533905
 10
713.254822
 20
255.034943
 10
713.692566
 20
256.4552
 10
714.225098
 20
257.788483
 10
714.850708
 20
259.028992
 10
715.5672
 20
260.171112
 10
716.372009
 20
261.209351
 10
717.26178
 20
262.138458
 10
718.232605
 20
262.953583
 10
719.349609
 20
263.690887
  0
ARC
  5
287
330
1D5
100
AcDbEntity
  8
0
  6
Continuous
 62
     0
370
    30
100
AcDbCircle
 10
724.735968
 20
209.989377
 30
0.0
 40
0.9999167348773853
100
AcDbArc
 50
240.42585
 51
299.183492
  0
ARC
  5
288
330
1D5
100
AcDbEntity
  8
0
  6
Continuous
 62
     0
370
    30
100
AcDbCircle
 10
694.530764
 20
231.116974
 30
0.0
 40
1.000418988412373
100
AcDbArc
 50
120.834293
 51
179.999898
  0
ARC
  5
289
330
1D5
100
AcDbEntity
  8
0
  6
Continuous
 62
     0
370
    30
100
AcDbCircle
 10
694.530692
 20
227.428924
 30
0.0
 40
1.0003476093978
100
AcDbArc
 50
180.009508
 51
239.437277
  0
ARC
  5
28A
330
1D5
100
AcDbEntity
  8
0
  6
Continuous
 62
     0
370
    30
100
AcDbCircle
 10
2748.937205
 20
3724.523023
 30
0.0
 40
4056.891531219656
100
AcDbArc
 50
239.567421
 51
239.748582
  0
ARC
  5
28B
330
1D5
100
AcDbEntity
  8
0
  6
Continuous
 62
     0
370
    30
100
AcDbCircle
 10
1236.697968
 20
1131.524378
 30
0.0
 40
1055.140450455157
100
AcDbArc
 50
239.74675
 51
240.253281
  0
ARC
  5
28C
330
1D5
100
AcDbEntity
  8
0
  6
Continuous
 62
     0
370
    30
100
AcDbCircle
 10
2685.864994
 20
3667.272604
 30
0.0
 40
3975.774662843856
100
AcDbArc
 50
240.252531
 51
240.436115
  0
LINE
  5
28D
330
1D5
100
AcDbEntity
  8
0
  6
Continuous
 62
     0
370
    30
100
AcDbLine
 10
693.530354
 20
227.42868
 30
0.0
 11
693.530354
 21
231.11738
 31
0.0
  0
LWPOLYLINE
  5
28E
330
1D5
100
AcDbEntity
  8
0
  6
Continuous
 62
     0
370
    30
100
AcDbPolyline
 90
        3
 70
     0
 43
0.0
 10
742.352844
 20
218.773605
 10
738.513184
 20
216.59375
 10
725.223022
 20
209.115967
  0
ARC
  5
28F
330
1D5
100
AcDbEntity
  8
0
  6
Continuous
 62
     0
370
    30
100
AcDbCircle
 10
1909.244396
 20
-1804.517427
 30
0.0
 40
2371.514529773773
100
AcDbArc
 50
120.353151
 51
120.825596
  0
LINE
  5
290
330
1D5
100
AcDbEntity
  8
0
  6
Continuous
 62
     0
370
    30
100
AcDbLine
 10
725.577998
 20
235.417131
 30
0.0
 11
727.689325
 21
236.636106
 31
0.0
  0
ENDBLK
  5
292
330
1D5
100
AcDbEntity
  8
0
100
AcDbBlockEnd
  0
BLOCK
  5
2F8
330
294
100
AcDbEntity
  8
0
100
AcDbBlockBegin
  2
e
 70
     0
 10
56.864563
 20
0.0
 30
0.0
  3
e
  1

  0
ARC
  5
295
330
294
100
AcDbEntity
  8
0
  6
Continuous
 62
     0
370
     0
100
AcDbCircle
 10
-103.574788
 20
419.847496
 30
0.0
 40
89.78036184463879
100
AcDbArc
 50
90.0
 51
165.0
  0
LINE
  5
296
330
294
100
AcDbEntity
  8
0
  6
Continuous
 62
     0
370
    30
100
AcDbLine
 10
-189.874778
 20
442.971509
 30
0.0
 11
-190.295959
 21
443.084364
 31
0.0
  0
ARC
  5
297
330
294
100
AcDbEntity
  8
0
  6
Continuous
 62
     0
370
     0
100
AcDbCircle
 10
-103.574788
 20
419.847496
 30
0.0
 40
89.34432340124758
100
AcDbArc
 50
90.0
 51
165.0
  0
LINE
  5
298
330
294
100
AcDbEntity
  8
0
  6
Continuous
 62
     0
370
     0
100
AcDbLine
 10
-103.574788
 20
509.627858
 30
0.0
 11
-103.574788
 21
509.191819
 31
0.0
  0
LINE
  5
299
330
294
100
AcDbEntity
  8
0
  6
Continuous
 62
     0
370
     0
100
AcDbLine
 10
-23.816358
 20
509.191819
 30
0.0
 11
-103.574788
 21
509.191819
 31
0.0
  0
LINE
  5
29A
330
294
100
AcDbEntity
  8
0
  6
Continuous
 62
     0
370
     0
100
AcDbLine
 10
-103.574788
 20
509.627858
 30
0.0
 11
-23.854788
 21
509.627858
 31
0.0
  0
ARC
  5
29B
330
294
100
AcDbEntity
  8
0
  6
Continuous
 62
     0
370
     0
100
AcDbCircle
 10
-103.574788
 20
419.847496
 30
0.0
 40
94.65567659875242
100
AcDbArc
 50
90.0
 51
165.0
  0
LINE
  5
29C
330
294
100
AcDbEntity
  8
0
  6
Continuous
 62
     0
370
    30
100
AcDbLine
 10
-194.58397
 20
444.233333
 30
0.0
 11
-195.005151
 21
444.346188
 31
0.0
  0
ARC
  5
29D
330
294
100
AcDbEntity
  8
0
  6
Continuous
 62
     0
370
     0
100
AcDbCircle
 10
-103.574788
 20
419.847496
 30
0.0
 40
94.21963815536125
100
AcDbArc
 50
90.0
 51
165.0
  0
LINE
  5
29E
330
294
100
AcDbEntity
  8
0
  6
Continuous
 62
     0
370
     0
100
AcDbLine
 10
-103.574788
 20
514.503173
 30
0.0
 11
-103.574788
 21
514.067134
 31
0.0
  0
LINE
  5
29F
330
294
100
AcDbEntity
  8
0
  6
Continuous
 62
     0
370
     0
100
AcDbLine
 10
-23.854788
 20
514.067134
 30
0.0
 11
-103.574788
 21
514.067134
 31
0.0
  0
LINE
  5
2A0
330
294
100
AcDbEntity
  8
0
  6
Continuous
 62
     0
370
     0
100
AcDbLine
 10
-103.574788
 20
514.503173
 30
0.0
 11
-23.816358
 21
514.503173
 31
0.0
  0
LINE
  5
2A1
330
294
100
AcDbEntity
  8
0
  6
Continuous
 62
     0
370
     0
100
AcDbLine
 10
-103.574788
 20
509.191819
 30
0.0
 11
-103.574788
 21
505.337496
 31
0.0
  0
LINE
  5
2A2
330
294
100
AcDbEntity
  8
0
  6
Continuous
 62
     0
370
    30
100
AcDbLine
 10
-186.151787
 20
441.973936
 30
0.0
 11
-189.874778
 21
442.971509
 31
0.0
  0
LINE
  5
2A3
330
294
100
AcDbEntity
  8
0
  6
Continuous
 62
     0
370
    30
100
AcDbLine
 10
-190.295959
 20
443.084364
 30
0.0
 11
-194.58397
 21
444.233333
 31
0.0
  0
LINE
  5
2A4
330
294
100
AcDbEntity
  8
0
  6
Continuous
 62
     0
370
     0
100
AcDbLine
 10
-103.574788
 20
514.067134
 30
0.0
 11
-103.574788
 21
509.627858
 31
0.0
  0
LINE
  5
2A5
330
294
100
AcDbEntity
  8
0
  6
Continuous
 62
     0
370
    30
100
AcDbLine
 10
-195.005151
 20
444.346188
 30
0.0
 11
-198.728141
 21
445.34376
 31
0.0
  0
LINE
  5
2A6
330
294
100
AcDbEntity
  8
0
  6
Continuous
 62
     0
370
     0
100
AcDbLine
 10
-103.574788
 20
518.357496
 30
0.0
 11
-103.574788
 21
514.503173
 31
0.0
  0
ARC
  5
2A7
330
294
100
AcDbEntity
  8
0
  6
Continuous
 62
     0
370
    30
100
AcDbCircle
 10
72.487712
 20
528.847496
 30
0.0
 40
61.0625
100
AcDbArc
 50
165.659848
 51
180.0
  0
LINE
  5
2A8
330
294
100
AcDbEntity
  8
0
  6
Continuous
 62
     0
370
     0
100
AcDbLine
 10
13.327773
 20
543.971335
 30
0.0
 11
13.327773
 21
543.55523
 31
0.0
  0
LINE
  5
2A9
330
294
100
AcDbEntity
  8
0
  6
Continuous
 62
     0
370
    30
100
AcDbLine
 10
11.425212
 20
519.062592
 30
0.0
 11
11.425212
 21
528.847496
 31
0.0
  0
LINE
  5
2AA
330
294
100
AcDbEntity
  8
0
  6
Continuous
 62
     0
370
    30
100
AcDbLine
 10
11.425212
 20
494.847496
 30
0.0
 11
11.425212
 21
504.6324
 31
0.0
  0
LINE
  5
2AB
330
294
100
AcDbEntity
  8
0
  6
Continuous
 62
     0
370
     0
100
AcDbLine
 10
13.812194
 20
544.34445
 30
0.0
 11
13.812194
 21
544.347496
 31
0.0
  0
LINE
  5
2AC
330
294
100
AcDbEntity
  8
0
  6
Continuous
 62
     0
370
     0
100
AcDbLine
 10
13.812194
 20
479.347496
 30
0.0
 11
13.812194
 21
479.350542
 31
0.0
  0
ARC
  5
2AD
330
294
100
AcDbEntity
  8
0
  6
Continuous
 62
     0
370
    30
100
AcDbCircle
 10
13.812194
 20
543.847496
 30
0.0
 40
0.5
100
AcDbArc
 50
90.0
 51
165.659848
  0
ARC
  5
2AE
330
294
100
AcDbEntity
  8
0
  6
Continuous
 62
     0
370
    30
100
AcDbCircle
 10
13.8122
 20
479.847504
 30
0.0
 40
0.5000078030434546
100
AcDbArc
 50
194.340846
 51
269.999306
  0
ARC
  5
2AF
330
294
100
AcDbEntity
  8
0
  6
Continuous
 62
     0
370
    30
100
AcDbCircle
 10
72.487787
 20
494.847505
 30
0.0
 40
61.06257509306553
100
AcDbArc
 50
180.001439
 51
194.340143
  0
LINE
  5
2B0
330
294
100
AcDbEntity
  8
0
  6
Continuous
 62
     0
370
    30
100
AcDbLine
 10
11.133564
 20
518.357496
 30
0.0
 11
-103.574788
 21
518.357496
 31
0.0
  0
ARC
  5
2B1
330
294
100
AcDbEntity
  8
0
  6
Continuous
 62
     0
370
    30
100
AcDbCircle
 10
-103.574656
 20
419.847324
 30
0.0
 40
98.51017174094335
100
AcDbArc
 50
90.000077
 51
164.999923
  0
LINE
  5
2B2
330
294
100
AcDbEntity
  8
0
  6
Continuous
 62
     0
370
    30
100
AcDbLine
 10
11.133564
 20
505.337496
 30
0.0
 11
-103.574788
 21
505.337496
 31
0.0
  0
ARC
  5
2B3
330
294
100
AcDbEntity
  8
0
  6
Continuous
 62
     0
370
    30
100
AcDbCircle
 10
-103.574782
 20
419.847488
 30
0.0
 40
85.49000782037969
100
AcDbArc
 50
90.000004
 51
164.999996
  0
LINE
  5
2B4
330
294
100
AcDbEntity
  8
0
  6
Continuous
 62
     0
370
     0
100
AcDbLine
 10
1.395208
 20
516.747496
 30
0.0
 11
1.395208
 21
511.847496
 31
0.0
  0
LINE
  5
2B5
330
294
100
AcDbEntity
  8
0
  6
Continuous
 62
     0
370
     0
100
AcDbLine
 10
1.395208
 20
511.847496
 30
0.0
 11
6.145208
 21
511.847496
 31
0.0
  0
LINE
  5
2B6
330
294
100
AcDbEntity
  8
0
  6
Continuous
 62
     0
370
     0
100
AcDbLine
 10
1.395208
 20
511.847496
 30
0.0
 11
1.395208
 21
506.947496
 31
0.0
  0
LINE
  5
2B7
330
294
100
AcDbEntity
  8
0
  6
Continuous
 62
     0
370
     0
100
AcDbLine
 10
-22.990406
 20
515.217369
 30
0.0
 11
-22.991421
 21
515.21813
 31
0.0
  0
LINE
  5
2B8
330
294
100
AcDbEntity
  8
0
  6
Continuous
 62
     0
370
     0
100
AcDbLine
 10
-22.976941
 20
515.207081
 30
0.0
 11
-22.990406
 21
515.217369
 31
0.0
  0
ARC
  5
2B9
330
294
100
AcDbEntity
  8
0
  6
Continuous
 62
     0
370
     0
100
AcDbCircle
 10
8.100568
 20
262.659694
 30
0.0
 40
254.4523419235324
100
AcDbArc
 50
91.566354
 51
97.015329
  0
LINE
  5
2BA
330
294
100
AcDbEntity
  8
0
  6
Continuous
 62
     0
370
    30
100
AcDbLine
 10
1.145208
 20
517.347503
 30
0.0
 11
1.145208
 21
517.016957
 31
0.0
  0
LINE
  5
2BB
330
294
100
AcDbEntity
  8
0
  6
Continuous
 62
     0
370
    30
100
AcDbLine
 10
1.145208
 20
517.016957
 30
0.0
 11
1.145207
 21
515.174582
 31
0.0
  0
LINE
  5
2BC
330
294
100
AcDbEntity
  8
0
  6
Continuous
 62
     0
370
    30
100
AcDbLine
 10
1.145207
 20
515.174582
 30
0.0
 11
1.145207
 21
514.181179
 31
0.0
  0
LINE
  5
2BD
330
294
100
AcDbEntity
  8
0
  6
Continuous
 62
     0
370
    30
100
AcDbLine
 10
1.145207
 20
514.181179
 30
0.0
 11
1.145207
 21
509.513811
 31
0.0
  0
LINE
  5
2BE
330
294
100
AcDbEntity
  8
0
  6
Continuous
 62
     0
370
    30
100
AcDbLine
 10
1.145207
 20
509.513811
 30
0.0
 11
1.145207
 21
508.520409
 31
0.0
  0
LINE
  5
2BF
330
294
100
AcDbEntity
  8
0
  6
Continuous
 62
     0
370
    30
100
AcDbLine
 10
1.145207
 20
508.520409
 30
0.0
 11
1.145208
 21
506.678035
 31
0.0
  0
LINE
  5
2C0
330
294
100
AcDbEntity
  8
0
  6
Continuous
 62
     0
370
    30
100
AcDbLine
 10
1.145208
 20
506.678035
 30
0.0
 11
1.145208
 21
506.347489
 31
0.0
  0
ARC
  5
2C1
330
294
100
AcDbEntity
  8
0
  6
Continuous
 62
     0
370
     0
100
AcDbCircle
 10
-23.71814
 20
514.258514
 30
0.0
 40
1.203806194670446
100
AcDbArc
 50
44.767656
 51
51.996493
  0
LWPOLYLINE
  5
2C2
330
294
100
AcDbEntity
  8
0
  6
Continuous
 62
     0
370
     0
100
AcDbPolyline
 90
        3
 70
     0
 43
0.0
 10
1.145207
 20
515.174561
 10
-7.016215
 20
515.174988
 10
-22.863476
 20
515.106262
  0
ARC
  5
2C3
330
294
100
AcDbEntity
  8
0
  6
Continuous
 62
     0
370
     0
100
AcDbCircle
 10
-22.854747
 20
514.214527
 30
0.0
 40
1.000045039857123
100
AcDbArc
 50
97.01844
 51
179.997013
  0
LWPOLYLINE
  5
2C4
330
294
100
AcDbEntity
  8
0
  6
Continuous
 62
     0
370
     0
100
AcDbPolyline
 90
        5
 70
     0
 43
0.0
 10
-22.86352
 20
514.106323
 10
-22.866123
 20
514.483887
 10
-22.867048
 20
514.80542
 10
-22.866163
 20
515.023682
 10
-22.863478
 20
515.106262
  0
LWPOLYLINE
  5
2C5
330
294
100
AcDbEntity
  8
0
  6
Continuous
 62
     0
370
     0
100
AcDbPolyline
 90
        8
 70
     0
 43
0.0
 10
1.145207
 20
514.181152
 10
-2.249782
 20
514.183167
 10
-5.660219
 20
514.181885
 10
-8.989154
 20
514.176941
 10
-12.305232
 20
514.167969
 10
-15.621212
 20
514.15448
 10
-18.937048
 20
514.135803
 10
-22.86352
 20
514.106323
  0
LINE
  5
2C6
330
294
100
AcDbEntity
  8
0
  6
Continuous
 62
     0
370
     0
100
AcDbLine
 10
-22.86352
 20
509.588637
 30
0.0
 11
-22.86352
 21
514.106353
 31
0.0
  0
LWPOLYLINE
  5
2C7
330
294
100
AcDbEntity
  8
0
  6
Continuous
 62
     0
370
     0
100
AcDbPolyline
 90
        8
 70
     0
 43
0.0
 10
1.145207
 20
509.513824
 10
-2.256824
 20
509.51181
 10
-5.67411
 20
509.513123
 10
-9.009661
 20
509.518066
 10
-12.332538
 20
509.5271
 10
-15.655313
 20
509.54071
 10
-18.977943
 20
509.559448
 10
-22.86352
 20
509.588623
  0
LWPOLYLINE
  5
2C8
330
294
100
AcDbEntity
  8
0
  6
Continuous
 62
     0
370
     0
100
AcDbPolyline
 90
        8
 70
     0
 43
0.0
 10
-22.863478
 20
508.588715
 10
-19.552523
 20
508.563934
 10
-16.236166
 20
508.54538
 10
-12.919764
 20
508.532227
 10
-9.603395
 20
508.523773
 10
-6.281863
 20
508.519226
 10
-2.885106
 20
508.518036
 10
1.145207
 20
508.520416
  0
LWPOLYLINE
  5
2C9
330
294
100
AcDbEntity
  8
0
  6
Continuous
 62
     0
370
     0
100
AcDbPolyline
 90
        5
 70
     0
 43
0.0
 10
-22.86352
 20
509.588623
 10
-22.866123
 20
509.211121
 10
-22.867048
 20
508.889557
 10
-22.866163
 20
508.671326
 10
-22.863478
 20
508.588715
  0
ARC
  5
2CA
330
294
100
AcDbEntity
  8
0
  6
Continuous
 62
     0
370
     0
100
AcDbCircle
 10
8.100568
 20
761.035297
 30
0.0
 40
254.4523415793611
100
AcDbArc
 50
262.98467
 51
268.433646
  0
ARC
  5
2CB
330
294
100
AcDbEntity
  8
0
  6
Continuous
 62
     0
370
     0
100
AcDbCircle
 10
-23.717177
 20
509.435429
 30
0.0
 40
1.202386556014751
100
AcDbArc
 50
307.998099
 51
315.235542
  0
LINE
  5
2CC
330
294
100
AcDbEntity
  8
0
  6
Continuous
 62
     0
370
     0
100
AcDbLine
 10
-22.990369
 20
508.477619
 30
0.0
 11
-22.991378
 21
508.476857
 31
0.0
  0
LINE
  5
2CD
330
294
100
AcDbEntity
  8
0
  6
Continuous
 62
     0
370
     0
100
AcDbLine
 10
-22.97694
 20
508.487911
 30
0.0
 11
-22.990369
 21
508.477619
 31
0.0
  0
LINE
  5
2CE
330
294
100
AcDbEntity
  8
0
  6
Continuous
 62
     0
370
     0
100
AcDbLine
 10
1.145208
 20
511.847496
 30
0.0
 11
1.395208
 21
511.847496
 31
0.0
  0
ARC
  5
2CF
330
294
100
AcDbEntity
  8
0
  6
Continuous
 62
     0
370
     0
100
AcDbCircle
 10
-22.854741
 20
514.106276
 30
0.0
 40
1.000051553859607
100
AcDbArc
 50
90.500425
 51
179.995167
  0
LINE
  5
2D0
330
294
100
AcDbEntity
  8
0
  6
Continuous
 62
     0
370
    30
100
AcDbLine
 10
-23.854792
 20
514.214582
 30
0.0
 11
-23.854793
 21
514.10636
 31
0.0
  0
LINE
  5
2D1
330
294
100
AcDbEntity
  8
0
  6
Continuous
 62
     0
370
    30
100
AcDbLine
 10
-23.854793
 20
509.588634
 30
0.0
 11
-23.854793
 21
514.10636
 31
0.0
  0
LINE
  5
2D2
330
294
100
AcDbEntity
  8
0
  6
Continuous
 62
     0
370
    30
100
AcDbLine
 10
-23.854792
 20
509.480409
 30
0.0
 11
-23.854793
 21
509.588634
 31
0.0
  0
LINE
  5
2D3
330
294
100
AcDbEntity
  8
0
  6
Continuous
 62
     0
370
     0
100
AcDbLine
 10
-23.854793
 20
509.588637
 30
0.0
 11
-22.86352
 21
509.588637
 31
0.0
  0
LINE
  5
2D4
330
294
100
AcDbEntity
  8
0
  6
Continuous
 62
     0
370
     0
100
AcDbLine
 10
-22.86352
 20
514.106353
 30
0.0
 11
-23.854793
 21
514.106353
 31
0.0
  0
ARC
  5
2D5
330
294
100
AcDbEntity
  8
0
  6
Continuous
 62
     0
370
     0
100
AcDbCircle
 10
-22.854748
 20
509.480462
 30
0.0
 40
1.000044581499594
100
AcDbArc
 50
180.003013
 51
262.981389
  0
ARC
  5
2D6
330
294
100
AcDbEntity
  8
0
  6
Continuous
 62
     0
370
     0
100
AcDbCircle
 10
-22.855309
 20
509.588156
 30
0.0
 40
0.99948372679593
100
AcDbArc
 50
179.972612
 51
269.531791
  0
LINE
  5
2D7
330
294
100
AcDbEntity
  8
0
  6
Continuous
 62
     0
370
     0
100
AcDbLine
 10
13.867178
 20
511.847496
 30
0.0
 11
13.86718
 21
479.347496
 31
0.0
  0
LINE
  5
2D8
330
294
100
AcDbEntity
  8
0
  6
Continuous
 62
     0
370
     0
100
AcDbLine
 10
13.86718
 20
544.347496
 30
0.0
 11
13.867178
 21
511.847496
 31
0.0
  0
LINE
  5
2D9
330
294
100
AcDbEntity
  8
0
  6
Continuous
 62
     0
370
     0
100
AcDbLine
 10
13.370907
 20
511.847496
 30
0.0
 11
13.370909
 21
543.908448
 31
0.0
  0
LINE
  5
2DA
330
294
100
AcDbEntity
  8
0
  6
Continuous
 62
     0
370
     0
100
AcDbLine
 10
13.370909
 20
479.786544
 30
0.0
 11
13.370907
 21
511.847496
 31
0.0
  0
LINE
  5
2DB
330
294
100
AcDbEntity
  8
0
  6
Continuous
 62
     0
370
     0
100
AcDbLine
 10
11.528373
 20
511.847496
 30
0.0
 11
11.528386
 21
519.757685
 31
0.0
  0
LINE
  5
2DC
330
294
100
AcDbEntity
  8
0
  6
Continuous
 62
     0
370
     0
100
AcDbLine
 10
11.528386
 20
503.937307
 30
0.0
 11
11.528373
 21
511.847496
 31
0.0
  0
LINE
  5
2DD
330
294
100
AcDbEntity
  8
0
  6
Continuous
 62
     0
370
    30
100
AcDbLine
 10
21.425208
 20
511.847496
 30
0.0
 11
21.425208
 21
479.347496
 31
0.0
  0
LINE
  5
2DE
330
294
100
AcDbEntity
  8
0
  6
Continuous
 62
     0
370
    30
100
AcDbLine
 10
21.425208
 20
544.347496
 30
0.0
 11
21.425208
 21
511.847496
 31
0.0
  0
LWPOLYLINE
  5
2DF
330
294
100
AcDbEntity
  8
0
  6
Continuous
 62
     0
370
     0
100
AcDbPolyline
 90
       12
 70
     0
 43
0.0
 10
19.546207
 20
479.347504
 10
19.480942
 20
479.350708
 10
19.289055
 20
479.359314
 10
18.987745
 20
479.370544
 10
18.5996
 20
479.38092
 10
18.157591
 20
479.387115
 10
17.69681
 20
479.387146
 10
17.254581
 20
479.380981
 10
16.865486
 20
479.370667
 10
16.563547
 20
479.359406
 10
16.371975
 20
479.350769
 10
16.304209
 20
479.347504
  0
LINE
  5
2E0
330
294
100
AcDbEntity
  8
0
  6
Continuous
 62
     0
370
    30
100
AcDbLine
 10
6.145208
 20
511.847496
 30
0.0
 11
6.145208
 21
516.847496
 31
0.0
  0
LINE
  5
2E1
330
294
100
AcDbEntity
  8
0
  6
Continuous
 62
     0
370
    30
100
AcDbLine
 10
6.145208
 20
506.847496
 30
0.0
 11
6.145208
 21
511.847496
 31
0.0
  0
LINE
  5
2E2
330
294
100
AcDbEntity
  8
0
  6
Continuous
 62
     0
370
     0
100
AcDbLine
 10
8.529731
 20
511.847496
 30
0.0
 11
8.529731
 21
506.847496
 31
0.0
  0
LINE
  5
2E3
330
294
100
AcDbEntity
  8
0
  6
Continuous
 62
     0
370
     0
100
AcDbLine
 10
8.529731
 20
516.847496
 30
0.0
 11
8.529731
 21
511.847496
 31
0.0
  0
LINE
  5
2E4
330
294
100
AcDbEntity
  8
0
  6
Continuous
 62
     0
370
    30
100
AcDbLine
 10
19.546208
 20
479.347496
 30
0.0
 11
16.304208
 21
479.347496
 31
0.0
  0
ARC
  5
2E5
330
294
100
AcDbEntity
  8
0
  6
Continuous
 62
     0
370
    30
100
AcDbCircle
 10
8.529731
 20
503.847496
 30
0.0
 40
3.000000042508104
100
AcDbArc
 50
1.736703
 51
90.0
  0
ARC
  5
2E6
330
294
100
AcDbEntity
  8
0
  6
Continuous
 62
     0
370
    30
100
AcDbCircle
 10
8.529731
 20
519.847496
 30
0.0
 40
3.000000042539294
100
AcDbArc
 50
270.0
 51
358.263296
  0
LINE
  5
2E7
330
294
100
AcDbEntity
  8
0
  6
Continuous
 62
     0
370
    30
100
AcDbLine
 10
8.529731
 20
506.847496
 30
0.0
 11
6.145208
 21
506.847496
 31
0.0
  0
LINE
  5
2E8
330
294
100
AcDbEntity
  8
0
  6
Continuous
 62
     0
370
    30
100
AcDbLine
 10
8.529731
 20
516.847496
 30
0.0
 11
6.145208
 21
516.847496
 31
0.0
  0
LINE
  5
2E9
330
294
100
AcDbEntity
  8
0
  6
Continuous
 62
     0
370
    30
100
AcDbLine
 10
21.425208
 20
479.347496
 30
0.0
 11
19.546208
 21
479.347496
 31
0.0
  0
LINE
  5
2EA
330
294
100
AcDbEntity
  8
0
  6
Continuous
 62
     0
370
    30
100
AcDbLine
 10
16.304208
 20
479.347496
 30
0.0
 11
13.86718
 21
479.347496
 31
0.0
  0
LINE
  5
2EB
330
294
100
AcDbEntity
  8
0
  6
Continuous
 62
     0
370
    30
100
AcDbLine
 10
21.425208
 20
544.347496
 30
0.0
 11
13.86718
 21
544.347496
 31
0.0
  0
LWPOLYLINE
  5
2EC
330
294
100
AcDbEntity
  8
0
  6
Continuous
 62
     0
370
    30
100
AcDbPolyline
 90
       46
 70
     0
 43
0.0
 10
13.3709
 20
543.908386
 10
13.305827
 20
543.374023
 10
13.241849
 20
542.8396
 10
13.178964
 20
542.304993
 10
13.117172
 20
541.770264
 10
13.056476
 20
541.235413
 10
12.996874
 20
540.700378
 10
12.938368
 20
540.165283
 10
12.880957
 20
539.630066
 10
12.824642
 20
539.094727
 10
12.769423
 20
538.559326
 10
12.715301
 20
538.023743
 10
12.662273
 20
537.488037
 10
12.610342
 20
536.952271
 10
12.559506
 20
536.416382
 10
12.509766
 20
535.880432
 10
12.461122
 20
535.34436
 10
12.413576
 20
534.808167
 10
12.36713
 20
534.271851
 10
12.321786
 20
533.735474
 10
12.277544
 20
533.199036
 10
12.234404
 20
532.662476
 10
12.192351
 20
532.125854
 10
12.151372
 20
531.589111
 10
12.111465
 20
531.052246
 10
12.072654
 20
530.515381
 10
12.034964
 20
529.978394
 10
11.998419
 20
529.441345
 10
11.963045
 20
528.904236
 10
11.928854
 20
528.367126
 10
11.895703
 20
527.829895
 10
11.863358
 20
527.29248
 10
11.831718
 20
526.754944
 10
11.801476
 20
526.217407
 10
11.773598
 20
525.680176
 10
11.748038
 20
525.143311
 10
11.721733
 20
524.605774
 10
11.691133
 20
524.066528
 10
11.658806
 20
523.526367
 10
11.637416
 20
522.989197
 10
11.638974
 20
522.45874
 10
11.643371
 20
521.928772
 10
11.600766
 20
521.38385
 10
11.477586
 20
520.813721
 10
11.388772
 20
520.253845
 10
11.528384
 20
519.757629
  0
ARC
  5
2ED
330
294
100
AcDbEntity
  8
0
  6
Continuous
 62
     0
370
    30
100
AcDbCircle
 10
13.867259
 20
479.847586
 30
0.0
 40
0.500089692180836
100
AcDbArc
 50
187.011132
 51
269.990913
  0
ARC
  5
2EE
330
294
100
AcDbEntity
  8
0
  6
Continuous
 62
     0
370
    30
100
AcDbCircle
 10
13.867259
 20
543.847406
 30
0.0
 40
0.5000896921808089
100
AcDbArc
 50
90.009087
 51
172.988868
  0
LINE
  5
2EF
330
294
100
AcDbEntity
  8
0
  6
Continuous
 62
     0
370
    30
100
AcDbLine
 10
-23.854755
 20
509.580726
 30
0.0
 11
-23.854789
 21
509.588637
 31
0.0
  0
ARC
  5
2F0
330
294
100
AcDbEntity
  8
0
  6
Continuous
 62
     0
370
    30
100
AcDbCircle
 10
-22.854714
 20
509.465918
 30
0.0
 40
1.000077725548086
100
AcDbArc
 50
180.003875
 51
262.040204
  0
ARC
  5
2F1
330
294
100
AcDbEntity
  8
0
  6
Continuous
 62
     0
370
    30
100
AcDbCircle
 10
1.395244
 20
516.997532
 30
0.0
 40
0.2500359660660572
100
AcDbArc
 50
180.040652
 51
269.991764
  0
ARC
  5
2F2
330
294
100
AcDbEntity
  8
0
  6
Continuous
 62
     0
370
    30
100
AcDbCircle
 10
1.395244
 20
506.69746
 30
0.0
 40
0.2500359660659821
100
AcDbArc
 50
90.008236
 51
179.959348
  0
ARC
  5
2F3
330
294
100
AcDbEntity
  8
0
  6
Continuous
 62
     0
370
    30
100
AcDbCircle
 10
9.954563
 20
744.243421
 30
0.0
 40
238.0589831044642
100
AcDbArc
 50
262.044635
 51
267.87929
  0
ARC
  5
2F4
330
294
100
AcDbEntity
  8
0
  6
Continuous
 62
     0
370
    30
100
AcDbCircle
 10
-22.854715
 20
514.229073
 30
0.0
 40
1.000077320015057
100
AcDbArc
 50
97.959796
 51
179.996136
  0
ARC
  5
2F5
330
294
100
AcDbEntity
  8
0
  6
Continuous
 62
     0
370
    30
100
AcDbCircle
 10
9.954563
 20
279.451572
 30
0.0
 40
238.0589820408806
100
AcDbArc
 50
92.12071
 51
97.955374
  0
LINE
  5
2F6
330
294
100
AcDbEntity
  8
0
  6
Continuous
 62
     0
370
    30
100
AcDbLine
 10
1.395208
 20
506.947496
 30
0.0
 11
6.145208
 21
506.947496
 31
0.0
  0
LINE
  5
2F7
330
294
100
AcDbEntity
  8
0
  6
Continuous
 62
     0
370
    30
100
AcDbLine
 10
1.395208
 20
516.747496
 30
0.0
 11
6.145208
 21
516.747496
 31
0.0
  0
ENDBLK
  5
2F9
330
294
100
AcDbEntity
  8
0
100
AcDbBlockEnd
  0
ENDSEC
  0
SECTION
  2
ENTITIES
  0
INSERT
  5
ED
330
1F
100
AcDbEntity
  8
0
  6
Continuous
 62
   250
370
     0
100
AcDbBlockReference
  2
a
 10
105.071297
 20
98.172943
 30
0.0
  0
INSERT
  5
16D
330
1F
100
AcDbEntity
  8
0
  6
Continuous
 62
   250
370
     0
100
AcDbBlockReference
  2
b
 10
23.968742
 20
98.172943
 30
0.0
  0
INSERT
  5
1D4
330
1F
100
AcDbEntity
  8
0
  6
Continuous
 62
   250
370
     0
100
AcDbBlockReference
  2
c
 10
189.94442
 20
98.172943
 30
0.0
  0
INSERT
  5
293
330
1F
100
AcDbEntity
  8
0
  6
Continuous
 62
   250
370
     0
100
AcDbBlockReference
  2
d
 10
165.347664
 20
108.239746
 30
0.0
  0
INSERT
  5
2FA
330
1F
100
AcDbEntity
  8
0
  6
Continuous
 62
   250
370
     0
100
AcDbBlockReference
  2
e
 10
56.864563
 20
0.0
 30
0.0
  0
ENDSEC
  0
SECTION
  2
OBJECTS
  0
DICTIONARY
  5
C
330
0
100
AcDbDictionary
281
     1
  3
ACAD_GROUP
350
D
  3
ACAD_LAYOUT
350
1A
  3
ACAD_MLEADERSTYLE
350
2FD
  3
ACAD_MLINESTYLE
350
17
  3
ACAD_PLOTSETTINGS
350
19
  3
ACAD_PLOTSTYLENAME
350
E
  3
ACAD_VISUALSTYLE
350
2A
  3
AcDbVariableDictionary
350
2FB
  0
DICTIONARY
  5
D
102
{ACAD_REACTORS
330
C
102
}
330
C
100
AcDbDictionary
281
     1
  0
DICTIONARY
  5
1A
102
{ACAD_REACTORS
330
C
102
}
330
C
100
AcDbDictionary
281
     1
  3
Layout1
350
1E
  3
Layout2
350
26
  3
Model
350
22
  0
DICTIONARY
  5
2FD
102
{ACAD_REACTORS
330
C
102
}
330
C
100
AcDbDictionary
281
     1
  0
DICTIONARY
  5
17
102
{ACAD_REACTORS
330
C
102
}
330
C
100
AcDbDictionary
281
     1
  3
Standard
350
18
  0
DICTIONARY
  5
19
102
{ACAD_REACTORS
330
C
102
}
330
C
100
AcDbDictionary
281
     1
  0
ACDBDICTIONARYWDFLT
  5
E
102
{ACAD_REACTORS
330
C
102
}
330
C
100
AcDbDictionary
281
     1
  3
Normal
350
F
100
AcDbDictionaryWithDefault
340
F
  0
DICTIONARY
  5
2A
102
{ACAD_REACTORS
330
C
102
}
330
C
100
AcDbDictionary
281
     1
  3
2dWireframe
350
2F
  3
3D Hidden
350
31
  3
3dWireframe
350
30
  3
Basic
350
32
  3
Brighten
350
36
  3
ColorChange
350
3A
  3
Conceptual
350
34
  3
Dim
350
35
  3
Facepattern
350
39
  3
Flat
350
2B
  3
FlatWithEdges
350
2C
  3
Gouraud
350
2D
  3
GouraudWithEdges
350
2E
  3
Linepattern
350
38
  3
Realistic
350
33
  3
Thicken
350
37
  0
DICTIONARY
  5
2FB
102
{ACAD_REACTORS
330
C
102
}
330
C
100
AcDbDictionary
281
     1
  3
PSOLHEIGHT
350
2FF
  3
PSOLWIDTH
350
2FE
  0
LAYOUT
  5
1E
102
{ACAD_REACTORS
330
1A
102
}
330
1A
100
AcDbPlotSettings
  1

  2
none_device
  4

  6

 40
0.0
 41
0.0
 42
0.0
 43
0.0
 44
0.0
 45
0.0
 46
0.0
 47
0.0
 48
0.0
 49
0.0
140
0.0
141
0.0
142
1.0
143
1.0
 70
   688
 72
     0
 73
     0
 74
     5
  7

 75
    16
147
1.0
148
0.0
149
0.0
100
AcDbLayout
  1
Layout1
 70
     1
 71
     1
 10
0.0
 20
0.0
 11
420.0
 21
297.0
 12
0.0
 22
0.0
 32
0.0
 14
1.000000E+20
 24
1.000000E+20
 34
1.000000E+20
 15
-1.000000E+20
 25
-1.000000E+20
 35
-1.000000E+20
146
0.0
 13
0.0
 23
0.0
 33
0.0
 16
1.0
 26
0.0
 36
0.0
 17
0.0
 27
1.0
 37
0.0
 76
     0
330
1B
  0
LAYOUT
  5
26
102
{ACAD_REACTORS
330
1A
102
}
330
1A
100
AcDbPlotSettings
  1

  2
none_device
  4

  6

 40
0.0
 41
0.0
 42
0.0
 43
0.0
 44
0.0
 45
0.0
 46
0.0
 47
0.0
 48
0.0
 49
0.0
140
0.0
141
0.0
142
1.0
143
1.0
 70
   688
 72
     0
 73
     0
 74
     5
  7

 75
    16
147
1.0
148
0.0
149
0.0
100
AcDbLayout
  1
Layout2
 70
     1
 71
     2
 10
0.0
 20
0.0
 11
0.0
 21
0.0
 12
0.0
 22
0.0
 32
0.0
 14
0.0
 24
0.0
 34
0.0
 15
0.0
 25
0.0
 35
0.0
146
0.0
 13
0.0
 23
0.0
 33
0.0
 16
1.0
 26
0.0
 36
0.0
 17
0.0
 27
1.0
 37
0.0
 76
     0
330
23
  0
LAYOUT
  5
22
102
{ACAD_REACTORS
330
1A
102
}
330
1A
100
AcDbPlotSettings
  1

  2
none_device
  4

  6

 40
0.0
 41
0.0
 42
0.0
 43
0.0
 44
0.0
 45
0.0
 46
0.0
 47
0.0
 48
0.0
 49
0.0
140
0.0
141
0.0
142
1.0
143
1.0
 70
  1712
 72
     0
 73
     0
 74
     0
  7

 75
     0
147
1.0
148
0.0
149
0.0
100
AcDbLayout
  1
Model
 70
     1
 71
     0
 10
-198.728134
 20
82.641853
 11
763.924866
 21
544.347534
 12
0.0
 22
0.0
 32
0.0
 14
-198.728134
 24
82.641853
 34
0.0
 15
763.924866
 25
544.347534
 35
0.0
146
0.0
 13
0.0
 23
0.0
 33
0.0
 16
1.0
 26
0.0
 36
0.0
 17
0.0
 27
1.0
 37
0.0
 76
     0
330
1F
331
29
  0
MLINESTYLE
  5
18
102
{ACAD_REACTORS
330
17
102
}
330
17
100
AcDbMlineStyle
  2
Standard
 70
     0
  3

 62
   256
 51
90.0
 52
90.0
 71
     2
 49
0.5
 62
   256
  6
BYLAYER
 49
-0.5
 62
   256
  6
BYLAYER
  0
ACDBPLACEHOLDER
  5
F
102
{ACAD_REACTORS
330
E
102
}
330
E
  0
VISUALSTYLE
  5
2F
102
{ACAD_REACTORS
330
2A
102
}
330
2A
100
AcDbVisualStyle
  2
2dWireframe
 70
     4
 71
     0
 72
     2
 73
     0
 90
        0
 40
-0.6
 41
-30.0
 62
     5
 63
     7
 74
     1
 91
        4
 64
     7
 65
   257
 75
     1
175
     1
 42
1.0
 92
        0
 66
   257
 43
1.0
 76
     1
 77
     6
 78
     2
 67
     7
 79
     5
170
     0
171
     0
290
     0
174
     0
 93
        1
 44
0.0
173
     0
291
     0
 45
0.0
1001
ACAD
1000
AcDbSavedByObjectVersion
1070
     0
  0
VISUALSTYLE
  5
31
102
{ACAD_REACTORS
330
2A
102
}
330
2A
100
AcDbVisualStyle
  2
3D Hidden
 70
     6
 71
     1
 72
     2
 73
     2
 90
        0
 40
-0.6
 41
-30.0
 62
     5
 63
     7
 74
     2
 91
        2
 64
     7
 65
   257
 75
     2
175
     1
 42
40.0
 92
        0
 66
   257
 43
1.0
 76
     1
 77
     6
 78
     2
 67
     7
 79
     3
170
     0
171
     0
290
     0
174
     0
 93
        1
 44
0.0
173
     0
291
     0
 45
0.0
1001
ACAD
1000
AcDbSavedByObjectVersion
1070
     0
  0
VISUALSTYLE
  5
30
102
{ACAD_REACTORS
330
2A
102
}
330
2A
100
AcDbVisualStyle
  2
3dWireframe
 70
     5
 71
     0
 72
     2
 73
     0
 90
        0
 40
-0.6
 41
-30.0
 62
     5
 63
     7
 74
     1
 91
        4
 64
     7
 65
   257
 75
     1
175
     1
 42
1.0
 92
        0
 66
   257
 43
1.0
 76
     1
 77
     6
 78
     2
 67
     7
 79
     5
170
     0
171
     0
290
     0
174
     0
 93
        1
 44
0.0
173
     0
291
     0
 45
0.0
1001
ACAD
1000
AcDbSavedByObjectVersion
1070
     0
  0
VISUALSTYLE
  5
32
102
{ACAD_REACTORS
330
2A
102
}
330
2A
100
AcDbVisualStyle
  2
Basic
 70
     7
 71
     1
 72
     0
 73
     1
 90
        0
 40
-0.6
 41
-30.0
 62
     5
 63
     7
 74
     0
 91
        4
 64
     7
 65
   257
 75
     1
175
     1
 42
1.0
 92
        8
 66
     7
 43
1.0
 76
     1
 77
     6
 78
     2
 67
     7
 79
     5
170
     0
171
     0
290
     0
174
     0
 93
        1
 44
0.0
173
     0
291
     1
 45
0.0
1001
ACAD
1000
AcDbSavedByObjectVersion
1070
     0
  0
VISUALSTYLE
  5
36
102
{ACAD_REACTORS
330
2A
102
}
330
2A
100
AcDbVisualStyle
  2
Brighten
 70
    12
 71
     2
 72
     2
 73
     0
 90
        0
 40
-0.6
 41
-30.0
 62
     5
 63
     7
 74
     1
 91
        4
 64
     7
 65
   257
 75
     1
175
     1
 42
1.0
 92
        8
 66
     7
 43
1.0
 76
     1
 77
     6
 78
     2
 67
     7
 79
     5
170
     0
171
     0
290
     0
174
     0
 93
        1
 44
50.0
173
     0
291
     1
 45
0.0
1001
ACAD
1000
AcDbSavedByObjectVersion
1070
     0
  0
VISUALSTYLE
  5
3A
102
{ACAD_REACTORS
330
2A
102
}
330
2A
100
AcDbVisualStyle
  2
ColorChange
 70
    16
 71
     2
 72
     2
 73
     3
 90
        0
 40
-0.6
 41
-30.0
 62
     5
 63
     8
 74
     1
 91
        4
 64
     7
 65
   257
 75
     1
175
     1
 42
1.0
 92
        8
 66
     8
 43
1.0
 76
     1
 77
     6
 78
     2
 67
     7
 79
     5
170
     0
171
     0
290
     0
174
     0
 93
        1
 44
0.0
173
     0
291
     1
 45
0.0
1001
ACAD
1000
AcDbSavedByObjectVersion
1070
     0
  0
VISUALSTYLE
  5
34
102
{ACAD_REACTORS
330
2A
102
}
330
2A
100
AcDbVisualStyle
  2
Conceptual
 70
     9
 71
     3
 72
     2
 73
     0
 90
        0
 40
-0.6
 41
-30.0
 62
     5
 63
     7
 74
     2
 91
        2
 64
     7
 65
   257
 75
     1
175
     1
 42
40.0
 92
        8
 66
     7
 43
1.0
 76
     1
 77
     6
 78
     2
 67
     7
 79
     3
170
     0
171
     0
290
     0
174
     0
 93
        1
 44
0.0
173
     0
291
     0
 45
0.0
1001
ACAD
1000
AcDbSavedByObjectVersion
1070
     0
  0
VISUALSTYLE
  5
35
102
{ACAD_REACTORS
330
2A
102
}
330
2A
100
AcDbVisualStyle
  2
Dim
 70
    11
 71
     2
 72
     2
 73
     0
 90
        0
 40
-0.6
 41
-30.0
 62
     5
 63
     7
 74
     1
 91
        4
 64
     7
 65
   257
 75
     1
175
     1
 42
1.0
 92
        8
 66
     7
 43
1.0
 76
     1
 77
     6
 78
     2
 67
     7
 79
     5
170
     0
171
     0
290
     0
174
     0
 93
        1
 44
-50.0
173
     0
291
     1
 45
0.0
1001
ACAD
1000
AcDbSavedByObjectVersion
1070
     0
  0
VISUALSTYLE
  5
39
102
{ACAD_REACTORS
330
2A
102
}
330
2A
100
AcDbVisualStyle
  2
Facepattern
 70
    15
 71
     2
 72
     2
 73
     0
 90
        0
 40
-0.6
 41
-30.0
 62
     5
 63
     7
 74
     1
 91
        4
 64
     7
 65
   257
 75
     1
175
     1
 42
1.0
 92
        8
 66
     7
 43
1.0
 76
     1
 77
     6
 78
     2
 67
     7
 79
     5
170
     0
171
     0
290
     0
174
     0
 93
        1
 44
0.0
173
     0
291
     1
 45
0.0
1001
ACAD
1000
AcDbSavedByObjectVersion
1070
     0
  0
VISUALSTYLE
  5
2B
102
{ACAD_REACTORS
330
2A
102
}
330
2A
100
AcDbVisualStyle
  2
Flat
 70
     0
 71
     2
 72
     1
 73
     1
 90
        2
 40
-0.6
 41
30.0
 62
     5
 63
     7
 74
     0
 91
        4
 64
     7
 65
   257
 75
     1
175
     1
 42
1.0
 92
        8
 66
     7
 43
1.0
 76
     1
 77
     6
 78
     2
 67
     7
 79
     5
170
     0
171
     0
290
     0
174
     0
 93
       13
 44
0.0
173
     0
291
     1
 45
0.0
1001
ACAD
1000
AcDbSavedByObjectVersion
1070
     0
  0
VISUALSTYLE
  5
2C
102
{ACAD_REACTORS
330
2A
102
}
330
2A
100
AcDbVisualStyle
  2
FlatWithEdges
 70
     1
 71
     2
 72
     1
 73
     1
 90
        2
 40
-0.6
 41
30.0
 62
     5
 63
     7
 74
     1
 91
        4
 64
     7
 65
   257
 75
     1
175
     1
 42
1.0
 92
        0
 66
   257
 43
1.0
 76
     1
 77
     6
 78
     2
 67
     7
 79
     5
170
     0
171
     0
290
     0
174
     0
 93
       13
 44
0.0
173
     0
291
     1
 45
0.0
1001
ACAD
1000
AcDbSavedByObjectVersion
1070
     0
  0
VISUALSTYLE
  5
2D
102
{ACAD_REACTORS
330
2A
102
}
330
2A
100
AcDbVisualStyle
  2
Gouraud
 70
     2
 71
     2
 72
     2
 73
     1
 90
        2
 40
-0.6
 41
30.0
 62
     5
 63
     7
 74
     0
 91
        4
 64
     7
 65
   257
 75
     1
175
     1
 42
1.0
 92
        0
 66
     7
 43
1.0
 76
     1
 77
     6
 78
     2
 67
     7
 79
     5
170
     0
171
     0
290
     0
174
     0
 93
       13
 44
0.0
173
     0
291
     1
 45
0.0
1001
ACAD
1000
AcDbSavedByObjectVersion
1070
     0
  0
VISUALSTYLE
  5
2E
102
{ACAD_REACTORS
330
2A
102
}
330
2A
100
AcDbVisualStyle
  2
GouraudWithEdges
 70
     3
 71
     2
 72
     2
 73
     1
 90
        2
 40
-0.6
 41
30.0
 62
     5
 63
     7
 74
     1
 91
        4
 64
     7
 65
   257
 75
     1
175
     1
 42
1.0
 92
        0
 66
   257
 43
1.0
 76
     1
 77
     6
 78
     2
 67
     7
 79
     5
170
     0
171
     0
290
     0
174
     0
 93
       13
 44
0.0
173
     0
291
     1
 45
0.0
1001
ACAD
1000
AcDbSavedByObjectVersion
1070
     0
  0
VISUALSTYLE
  5
38
102
{ACAD_REACTORS
330
2A
102
}
330
2A
100
AcDbVisualStyle
  2
Linepattern
 70
    14
 71
     2
 72
     2
 73
     0
 90
        0
 40
-0.6
 41
-30.0
 62
     5
 63
     7
 74
     1
 91
        4
 64
     7
 65
   257
 75
     7
175
     7
 42
1.0
 92
        8
 66
     7
 43
1.0
 76
     1
 77
     6
 78
     2
 67
     7
 79
     5
170
     0
171
     0
290
     0
174
     0
 93
        1
 44
0.0
173
     0
291
     1
 45
0.0
1001
ACAD
1000
AcDbSavedByObjectVersion
1070
     0
  0
VISUALSTYLE
  5
33
102
{ACAD_REACTORS
330
2A
102
}
330
2A
100
AcDbVisualStyle
  2
Realistic
 70
     8
 71
     2
 72
     2
 73
     0
 90
        0
 40
-0.6
 41
-30.0
 62
     5
 63
     7
 74
     1
 91
        0
 64
     7
 65
   257
 75
     1
175
     1
 42
1.0
 92
        8
 66
     8
 43
1.0
 76
     1
 77
     6
 78
     2
 67
     7
 79
     5
170
     0
171
     0
290
     0
174
     0
 93
       13
 44
0.0
173
     0
291
     0
 45
0.0
1001
ACAD
1000
AcDbSavedByObjectVersion
1070
     0
  0
VISUALSTYLE
  5
37
102
{ACAD_REACTORS
330
2A
102
}
330
2A
100
AcDbVisualStyle
  2
Thicken
 70
    13
 71
     2
 72
     2
 73
     0
 90
        0
 40
-0.6
 41
-30.0
 62
     5
 63
     7
 74
     1
 91
        4
 64
     7
 65
   257
 75
     1
175
     1
 42
1.0
 92
       12
 66
     7
 43
1.0
 76
     1
 77
     6
 78
     2
 67
     7
 79
     5
170
     0
171
     0
290
     0
174
     0
 93
        1
 44
0.0
173
     0
291
     1
 45
0.0
1001
ACAD
1000
AcDbSavedByObjectVersion
1070
     0
  0
DICTIONARYVAR
  5
2FF
102
{ACAD_REACTORS
330
2FB
102
}
330
2FB
100
DictionaryVariables
280
     0
  1
80.000000
  0
DICTIONARYVAR
  5
2FE
102
{ACAD_REACTORS
330
2FB
102
}
330
2FB
100
DictionaryVariables
280
     0
  1
5.000000
  0
ENDSEC
  0
EOF
