  0
SECTION
  2
HEADER
  9
$ACADVER
  1
AC1015
  9
$ACADMAINTVER
 70
     6
  9
$DWGCODEPAGE
  3
ANSI_1252
  9
$INSBASE
 10
0.0
 20
0.0
 30
0.0
  9
$EXTMIN
 10
121.857239
 20
205.262497
 30
0.0
  9
$EXTMAX
 10
582.827637
 20
485.98291
 30
0.0
  9
$LIMMIN
 10
121.857239
 20
205.262497
  9
$LIMMAX
 10
582.827637
 20
485.98291
  9
$ORTHOMODE
 70
     0
  9
$REGENMODE
 70
     1
  9
$FILLMODE
 70
     1
  9
$QTEXTMODE
 70
     0
  9
$MIRRTEXT
 70
     1
  9
$LTSCALE
 40
1.0
  9
$ATTMODE
 70
     1
  9
$TEXTSIZE
 40
2.5
  9
$TRACEWID
 40
1.0
  9
$TEXTSTYLE
  7
Standard
  9
$CLAYER
  8
0
  9
$CELTYPE
  6
ByLayer
  9
$CECOLOR
 62
   256
  9
$CELTSCALE
 40
1.0
  9
$DISPSILH
 70
     0
  9
$DIMSCALE
 40
1.0
  9
$DIMASZ
 40
2.5
  9
$DIMEXO
 40
0.625
  9
$DIMDLI
 40
3.75
  9
$DIMRND
 40
0.0
  9
$DIMDLE
 40
0.0
  9
$DIMEXE
 40
1.25
  9
$DIMTP
 40
0.0
  9
$DIMTM
 40
0.0
  9
$DIMTXT
 40
2.5
  9
$DIMCEN
 40
2.5
  9
$DIMTSZ
 40
0.0
  9
$DIMTOL
 70
     0
  9
$DIMLIM
 70
     0
  9
$DIMTIH
 70
     0
  9
$DIMTOH
 70
     0
  9
$DIMSE1
 70
     0
  9
$DIMSE2
 70
     0
  9
$DIMTAD
 70
     1
  9
$DIMZIN
 70
     8
  9
$DIMBLK
  1

  9
$DIMASO
 70
     1
  9
$DIMSHO
 70
     1
  9
$DIMPOST
  1

  9
$DIMAPOST
  1

  9
$DIMALT
 70
     0
  9
$DIMALTD
 70
     3
  9
$DIMALTF
 40
0.03937
  9
$DIMLFAC
 40
1.0
  9
$DIMTOFL
 70
     1
  9
$DIMTVP
 40
0.0
  9
$DIMTIX
 70
     0
  9
$DIMSOXD
 70
     0
  9
$DIMSAH
 70
     0
  9
$DIMBLK1
  1

  9
$DIMBLK2
  1

  9
$DIMSTYLE
  2
ISO-25
  9
$DIMCLRD
 70
     0
  9
$DIMCLRE
 70
     0
  9
$DIMCLRT
 70
     0
  9
$DIMTFAC
 40
1.0
  9
$DIMGAP
 40
0.625
  9
$DIMJUST
 70
     0
  9
$DIMSD1
 70
     0
  9
$DIMSD2
 70
     0
  9
$DIMTOLJ
 70
     0
  9
$DIMTZIN
 70
     8
  9
$DIMALTZ
 70
     0
  9
$DIMALTTZ
 70
     0
  9
$DIMUPT
 70
     0
  9
$DIMDEC
 70
     2
  9
$DIMTDEC
 70
     2
  9
$DIMALTU
 70
     2
  9
$DIMALTTD
 70
     3
  9
$DIMTXSTY
  7
Standard
  9
$DIMAUNIT
 70
     0
  9
$DIMADEC
 70
     0
  9
$DIMALTRND
 40
0.0
  9
$DIMAZIN
 70
     0
  9
$DIMDSEP
 70
    44
  9
$DIMATFIT
 70
     3
  9
$DIMFRAC
 70
     0
  9
$DIMLDRBLK
  1

  9
$DIMLUNIT
 70
     2
  9
$DIMLWD
 70
    -2
  9
$DIMLWE
 70
    -2
  9
$DIMTMOVE
 70
     0
  9
$LUNITS
 70
     2
  9
$LUPREC
 70
     4
  9
$SKETCHINC
 40
1.0
  9
$FILLETRAD
 40
10.0
  9
$AUNITS
 70
     0
  9
$AUPREC
 70
     0
  9
$MENU
  1
.
  9
$ELEVATION
 40
0.0
  9
$PELEVATION
 40
0.0
  9
$THICKNESS
 40
0.0
  9
$LIMCHECK
 70
     0
  9
$CHAMFERA
 40
10.0
  9
$CHAMFERB
 40
10.0
  9
$CHAMFERC
 40
20.0
  9
$CHAMFERD
 40
0.0
  9
$SKPOLY
 70
     0
  9
$TDCREATE
 40
2455608.414690903
  9
$TDUCREATE
 40
2455608.373024236
  9
$TDUPDATE
 40
2455608.414690915
  9
$TDUUPDATE
 40
2455608.373024248
  9
$TDINDWG
 40
0.0000000116
  9
$TDUSRTIMER
 40
0.0000000116
  9
$USRTIMER
 70
     1
  9
$ANGBASE
 50
0.0
  9
$ANGDIR
 70
     0
  9
$PDMODE
 70
     0
  9
$PDSIZE
 40
0.0
  9
$PLINEWID
 40
0.0
  9
$SPLFRAME
 70
     0
  9
$SPLINETYPE
 70
     6
  9
$SPLINESEGS
 70
     8
  9
$HANDSEED
  5
235
  9
$SURFTAB1
 70
     6
  9
$SURFTAB2
 70
     6
  9
$SURFTYPE
 70
     6
  9
$SURFU
 70
     6
  9
$SURFV
 70
     6
  9
$UCSBASE
  2

  9
$UCSNAME
  2

  9
$UCSORG
 10
0.0
 20
0.0
 30
0.0
  9
$UCSXDIR
 10
1.0
 20
0.0
 30
0.0
  9
$UCSYDIR
 10
0.0
 20
1.0
 30
0.0
  9
$UCSORTHOREF
  2

  9
$UCSORTHOVIEW
 70
     0
  9
$UCSORGTOP
 10
0.0
 20
0.0
 30
0.0
  9
$UCSORGBOTTOM
 10
0.0
 20
0.0
 30
0.0
  9
$UCSORGLEFT
 10
0.0
 20
0.0
 30
0.0
  9
$UCSORGRIGHT
 10
0.0
 20
0.0
 30
0.0
  9
$UCSORGFRONT
 10
0.0
 20
0.0
 30
0.0
  9
$UCSORGBACK
 10
0.0
 20
0.0
 30
0.0
  9
$PUCSBASE
  2

  9
$PUCSNAME
  2

  9
$PUCSORG
 10
0.0
 20
0.0
 30
0.0
  9
$PUCSXDIR
 10
1.0
 20
0.0
 30
0.0
  9
$PUCSYDIR
 10
0.0
 20
1.0
 30
0.0
  9
$PUCSORTHOREF
  2

  9
$PUCSORTHOVIEW
 70
     0
  9
$PUCSORGTOP
 10
0.0
 20
0.0
 30
0.0
  9
$PUCSORGBOTTOM
 10
0.0
 20
0.0
 30
0.0
  9
$PUCSORGLEFT
 10
0.0
 20
0.0
 30
0.0
  9
$PUCSORGRIGHT
 10
0.0
 20
0.0
 30
0.0
  9
$PUCSORGFRONT
 10
0.0
 20
0.0
 30
0.0
  9
$PUCSORGBACK
 10
0.0
 20
0.0
 30
0.0
  9
$USERI1
 70
     0
  9
$USERI2
 70
     0
  9
$USERI3
 70
     0
  9
$USERI4
 70
     0
  9
$USERI5
 70
     0
  9
$USERR1
 40
0.0
  9
$USERR2
 40
0.0
  9
$USERR3
 40
0.0
  9
$USERR4
 40
0.0
  9
$USERR5
 40
0.0
  9
$WORLDVIEW
 70
     1
  9
$SHADEDGE
 70
     3
  9
$SHADEDIF
 70
    70
  9
$TILEMODE
 70
     1
  9
$MAXACTVP
 70
    64
  9
$PINSBASE
 10
0.0
 20
0.0
 30
0.0
  9
$PLIMCHECK
 70
     0
  9
$PEXTMIN
 10
1.000000E+20
 20
1.000000E+20
 30
1.000000E+20
  9
$PEXTMAX
 10
-1.000000E+20
 20
-1.000000E+20
 30
-1.000000E+20
  9
$PLIMMIN
 10
0.0
 20
0.0
  9
$PLIMMAX
 10
420.0
 20
297.0
  9
$UNITMODE
 70
     0
  9
$VISRETAIN
 70
     1
  9
$PLINEGEN
 70
     0
  9
$PSLTSCALE
 70
     1
  9
$TREEDEPTH
 70
  3020
  9
$CMLSTYLE
  2
Standard
  9
$CMLJUST
 70
     0
  9
$CMLSCALE
 40
20.0
  9
$PROXYGRAPHICS
 70
     1
  9
$MEASUREMENT
 70
     1
  9
$CELWEIGHT
370
    -1
  9
$ENDCAPS
280
     0
  9
$JOINSTYLE
280
     0
  9
$LWDISPLAY
290
     0
  9
$INSUNITS
 70
     4
  9
$HYPERLINKBASE
  1

  9
$STYLESHEET
  1

  9
$XEDIT
290
     1
  9
$CEPSNTYPE
380
     0
  9
$PSTYLEMODE
290
     1
  9
$FINGERPRINTGUID
  2
{1C53C56D-5643-47D6-A9FB-E57A9BDA8AA0}
  9
$VERSIONGUID
  2
{FAEB1C32-E019-11D5-929B-00C0DF256EC4}
  9
$EXTNAMES
290
     1
  9
$PSVPSCALE
 40
0.0
  9
$OLESTARTUP
290
     0
  0
ENDSEC
  0
SECTION
  2
CLASSES
  0
CLASS
  1
ACDBDICTIONARYWDFLT
  2
AcDbDictionaryWithDefault
  3
ObjectDBX Classes
 90
        0
280
     0
281
     0
  0
CLASS
  1
VISUALSTYLE
  2
AcDbVisualStyle
  3
ObjectDBX Classes
 90
     4095
280
     0
281
     0
  0
CLASS
  1
DICTIONARYVAR
  2
AcDbDictionaryVar
  3
ObjectDBX Classes
 90
        0
280
     0
281
     0
  0
CLASS
  1
ACDBPLACEHOLDER
  2
AcDbPlaceHolder
  3
ObjectDBX Classes
 90
        0
280
     0
281
     0
  0
CLASS
  1
LAYOUT
  2
AcDbLayout
  3
ObjectDBX Classes
 90
        0
280
     0
281
     0
  0
ENDSEC
  0
SECTION
  2
TABLES
  0
TABLE
  2
VPORT
  5
8
330
0
100
AcDbSymbolTable
 70
     1
  0
VPORT
  5
29
330
8
100
AcDbSymbolTableRecord
100
AcDbViewportTableRecord
  2
*Active
 70
     0
 10
0.0
 20
0.0
 11
1.0
 21
1.0
 12
344.186916
 22
148.5
 13
0.0
 23
0.0
 14
10.0
 24
10.0
 15
10.0
 25
10.0
 16
0.0
 26
0.0
 36
1.0
 17
0.0
 27
0.0
 37
0.0
 40
297.0
 41
1.972973
 42
50.0
 43
0.0
 44
0.0
 50
0.0
 51
0.0
 71
     0
 72
   100
 73
     1
 74
     3
 75
     0
 76
     0
 77
     0
 78
     0
281
     0
 65
     1
110
0.0
120
0.0
130
0.0
111
1.0
121
0.0
131
0.0
112
0.0
122
1.0
132
0.0
 79
     0
146
0.0
  0
ENDTAB
  0
TABLE
  2
LTYPE
  5
5
330
0
100
AcDbSymbolTable
 70
     1
  0
LTYPE
  5
14
330
5
100
AcDbSymbolTableRecord
100
AcDbLinetypeTableRecord
  2
ByBlock
 70
     0
  3

 72
    65
 73
     0
 40
0.0
  0
LTYPE
  5
15
330
5
100
AcDbSymbolTableRecord
100
AcDbLinetypeTableRecord
  2
ByLayer
 70
     0
  3

 72
    65
 73
     0
 40
0.0
  0
LTYPE
  5
16
330
5
100
AcDbSymbolTableRecord
100
AcDbLinetypeTableRecord
  2
Continuous
 70
     0
  3
Solid line
 72
    65
 73
     0
 40
0.0
  0
ENDTAB
  0
TABLE
  2
LAYER
  5
2
330
0
100
AcDbSymbolTable
 70
     1
  0
LAYER
  5
10
330
2
100
AcDbSymbolTableRecord
100
AcDbLayerTableRecord
  2
0
 70
     0
 62
   106
  6
Continuous
370
     0
390
F
  0
ENDTAB
  0
TABLE
  2
STYLE
  5
3
330
0
100
AcDbSymbolTable
 70
     4
  0
STYLE
  5
11
330
3
100
AcDbSymbolTableRecord
100
AcDbTextStyleTableRecord
  2
Standard
 70
     0
 40
0.0
 41
1.0
 50
0.0
 71
     0
 42
2.5
  3
txt
  4

  0
STYLE
  5
3B
330
3
100
AcDbSymbolTableRecord
100
AcDbTextStyleTableRecord
  2
Default
 70
     0
 40
0.0
 41
1.0
 50
0.0
 71
     0
 42
0.2
  3

  4

1001
ACAD
1000
txt
1071
        0
  0
STYLE
  5
3C
330
3
100
AcDbSymbolTableRecord
100
AcDbTextStyleTableRecord
  2
ISO
 70
     0
 40
0.0
 41
1.0
 50
0.0
 71
     0
 42
0.2
  3

  4

1001
ACAD
1000
txt
1071
        0
  0
STYLE
  5
3D
330
3
100
AcDbSymbolTableRecord
100
AcDbTextStyleTableRecord
  2
GIANLU
 70
     0
 40
0.0
 41
1.0
 50
0.0
 71
     0
 42
0.2
  3

  4

1001
ACAD
1000
Arial
1071
 33554432
  0
ENDTAB
  0
TABLE
  2
VIEW
  5
6
330
0
100
AcDbSymbolTable
 70
     0
  0
ENDTAB
  0
TABLE
  2
UCS
  5
7
330
0
100
AcDbSymbolTable
 70
     0
  0
ENDTAB
  0
TABLE
  2
APPID
  5
9
330
0
100
AcDbSymbolTable
 70
     1
  0
APPID
  5
12
330
9
100
AcDbSymbolTableRecord
100
AcDbRegAppTableRecord
  2
ACAD
 70
     0
  0
ENDTAB
  0
TABLE
  2
DIMSTYLE
  5
A
330
0
100
AcDbSymbolTable
 70
     4
100
AcDbDimStyleTable
  0
DIMSTYLE
105
27
330
A
100
AcDbSymbolTableRecord
100
AcDbDimStyleTableRecord
  2
ISO-25
 70
     0
 41
2.5
 42
0.625
 43
3.75
 44
1.25
 73
     0
 74
     0
 77
     1
 78
     8
140
2.5
141
2.5
143
0.03937
147
0.625
171
     3
172
     1
271
     2
272
     2
274
     3
278
    44
283
     0
284
     8
340
11
  0
DIMSTYLE
105
3E
330
A
100
AcDbSymbolTableRecord
100
AcDbDimStyleTableRecord
  2
Default
 70
     0
  3
<>
 41
4.375
 42
1.05
 44
2.1
 73
     0
 74
     0
 77
     1
 78
     8
140
3.5
146
0.4
147
1.75
178
     3
271
     2
272
     3
284
     8
340
3B
341
3F
342
3F
  0
DIMSTYLE
105
46
330
A
100
AcDbSymbolTableRecord
100
AcDbDimStyleTableRecord
  2
ISO
 70
     0
  3
<>
 41
4.375
 42
1.05
 44
2.1
 73
     0
 74
     0
 77
     1
 78
     8
140
3.5
146
0.4
147
1.75
178
     3
271
     2
272
     3
284
     8
340
3C
341
3F
342
3F
  0
DIMSTYLE
105
47
330
A
100
AcDbSymbolTableRecord
100
AcDbDimStyleTableRecord
  2
zucchetti_unico
 70
     0
  3
<>
 41
3.5
 42
1.05
 44
2.1
 73
     0
 74
     0
 77
     1
 78
     8
140
3.5
146
0.6
147
1.75
176
     3
177
     3
178
     3
271
     2
272
     2
284
     8
340
3B
  0
ENDTAB
  0
TABLE
  2
BLOCK_RECORD
  5
1
330
0
100
AcDbSymbolTable
 70
     5
  0
BLOCK_RECORD
  5
1F
330
1
100
AcDbSymbolTableRecord
100
AcDbBlockTableRecord
  2
*Model_Space
340
22
  0
BLOCK_RECORD
  5
1B
330
1
100
AcDbSymbolTableRecord
100
AcDbBlockTableRecord
  2
*Paper_Space
340
1E
  0
BLOCK_RECORD
  5
23
330
1
100
AcDbSymbolTableRecord
100
AcDbBlockTableRecord
  2
*Paper_Space0
340
26
  0
BLOCK_RECORD
  5
3F
330
1
100
AcDbSymbolTableRecord
100
AcDbBlockTableRecord
  2
_CLOSED
340
0
  0
BLOCK_RECORD
  5
48
330
1
100
AcDbSymbolTableRecord
100
AcDbBlockTableRecord
  2
a
340
0
102
{BLKREFS
331
12E
102
}
  0
BLOCK_RECORD
  5
12F
330
1
100
AcDbSymbolTableRecord
100
AcDbBlockTableRecord
  2
b
340
0
102
{BLKREFS
331
1ED
102
}
  0
BLOCK_RECORD
  5
1EE
330
1
100
AcDbSymbolTableRecord
100
AcDbBlockTableRecord
  2
c
340
0
102
{BLKREFS
331
22F
102
}
  0
ENDTAB
  0
ENDSEC
  0
SECTION
  2
BLOCKS
  0
BLOCK
  5
20
330
1F
100
AcDbEntity
  8
0
100
AcDbBlockBegin
  2
*Model_Space
 70
     0
 10
0.0
 20
0.0
 30
0.0
  3
*Model_Space
  1

  0
ENDBLK
  5
21
330
1F
100
AcDbEntity
  8
0
100
AcDbBlockEnd
  0
BLOCK
  5
1C
330
1B
100
AcDbEntity
 67
     1
  8
0
100
AcDbBlockBegin
  2
*Paper_Space
 70
     0
 10
0.0
 20
0.0
 30
0.0
  3
*Paper_Space
  1

  0
ENDBLK
  5
1D
330
1B
100
AcDbEntity
 67
     1
  8
0
100
AcDbBlockEnd
  0
BLOCK
  5
24
330
23
100
AcDbEntity
  8
0
100
AcDbBlockBegin
  2
*Paper_Space0
 70
     0
 10
0.0
 20
0.0
 30
0.0
  3
*Paper_Space0
  1

  0
ENDBLK
  5
25
330
23
100
AcDbEntity
  8
0
100
AcDbBlockEnd
  0
BLOCK
  5
40
330
3F
100
AcDbEntity
  8
0
100
AcDbBlockBegin
  2
_CLOSED
 70
     0
 10
0.0
 20
0.0
 30
0.0
  3
_CLOSED
  1

  0
LINE
  5
42
330
3F
100
AcDbEntity
  8
0
  6
ByBlock
 62
     0
370
    -2
100
AcDbLine
 10
-1.0
 20
0.166667
 30
0.0
 11
0.0
 21
0.0
 31
0.0
  0
LINE
  5
43
330
3F
100
AcDbEntity
  8
0
  6
ByBlock
 62
     0
370
    -2
100
AcDbLine
 10
0.0
 20
0.0
 30
0.0
 11
-1.0
 21
-0.166667
 31
0.0
  0
LINE
  5
44
330
3F
100
AcDbEntity
  8
0
  6
ByBlock
 62
     0
370
    -2
100
AcDbLine
 10
-1.0
 20
0.166667
 30
0.0
 11
-1.0
 21
-0.166667
 31
0.0
  0
LINE
  5
45
330
3F
100
AcDbEntity
  8
0
  6
ByBlock
 62
     0
370
    -2
100
AcDbLine
 10
0.0
 20
0.0
 30
0.0
 11
-1.0
 21
0.0
 31
0.0
  0
ENDBLK
  5
41
330
3F
100
AcDbEntity
  8
0
100
AcDbBlockEnd
  0
BLOCK
  5
12C
330
48
100
AcDbEntity
  8
0
100
AcDbBlockBegin
  2
a
 70
     0
 10
88.693298
 20
167.156876
 30
0.0
  3
a
  1

  0
ARC
  5
49
330
48
100
AcDbEntity
  8
0
  6
Continuous
 62
     0
370
     0
100
AcDbCircle
 10
156.603157
 20
451.23698
 30
0.0
 40
15.32162671768681
100
AcDbArc
 50
35.727269
 51
87.634185
  0
ARC
  5
4A
330
48
100
AcDbEntity
  8
0
  6
Continuous
 62
     0
370
     0
100
AcDbCircle
 10
156.603157
 20
451.23698
 30
0.0
 40
15.32162671768681
100
AcDbArc
 50
125.727269
 51
177.634185
  0
ARC
  5
4B
330
48
100
AcDbEntity
  8
0
  6
Continuous
 62
     0
370
     0
100
AcDbCircle
 10
156.603157
 20
451.23698
 30
0.0
 40
15.32162671768681
100
AcDbArc
 50
215.727269
 51
267.634185
  0
ARC
  5
4C
330
48
100
AcDbEntity
  8
0
  6
Continuous
 62
     0
370
     0
100
AcDbCircle
 10
156.603157
 20
451.23698
 30
0.0
 40
15.32162671768681
100
AcDbArc
 50
305.727269
 51
357.634185
  0
ARC
  5
4D
330
48
100
AcDbEntity
  8
0
  6
Continuous
 62
     0
370
     0
100
AcDbCircle
 10
156.603157
 20
451.23698
 30
0.0
 40
23.20500521730931
100
AcDbArc
 50
0.0
 51
4.160759
  0
ARC
  5
4E
330
48
100
AcDbEntity
  8
0
  6
Continuous
 62
     0
370
     0
100
AcDbCircle
 10
156.603157
 20
451.23698
 30
0.0
 40
23.20500521730931
100
AcDbArc
 50
29.200695
 51
94.160759
  0
ARC
  5
4F
330
48
100
AcDbEntity
  8
0
  6
Continuous
 62
     0
370
     0
100
AcDbCircle
 10
156.603157
 20
451.23698
 30
0.0
 40
23.20500521730931
100
AcDbArc
 50
119.200695
 51
184.160759
  0
ARC
  5
50
330
48
100
AcDbEntity
  8
0
  6
Continuous
 62
     0
370
     0
100
AcDbCircle
 10
156.603157
 20
451.23698
 30
0.0
 40
23.20500521730931
100
AcDbArc
 50
209.200695
 51
274.160759
  0
ARC
  5
51
330
48
100
AcDbEntity
  8
0
  6
Continuous
 62
     0
370
     0
100
AcDbCircle
 10
156.603157
 20
451.23698
 30
0.0
 40
23.20500521730931
100
AcDbArc
 50
299.200695
 51
0.0
  0
ARC
  5
52
330
48
100
AcDbEntity
  8
0
  6
Continuous
 62
     0
370
     0
100
AcDbCircle
 10
156.603157
 20
451.23698
 30
0.0
 40
27.32755986930916
100
AcDbArc
 50
0.0
 51
3.576851
  0
ARC
  5
53
330
48
100
AcDbEntity
  8
0
  6
Continuous
 62
     0
370
     0
100
AcDbCircle
 10
156.603157
 20
451.23698
 30
0.0
 40
27.32755986930916
100
AcDbArc
 50
29.784604
 51
93.576851
  0
ARC
  5
54
330
48
100
AcDbEntity
  8
0
  6
Continuous
 62
     0
370
     0
100
AcDbCircle
 10
156.603157
 20
451.23698
 30
0.0
 40
27.32755986930916
100
AcDbArc
 50
119.784604
 51
183.576851
  0
ARC
  5
55
330
48
100
AcDbEntity
  8
0
  6
Continuous
 62
     0
370
     0
100
AcDbCircle
 10
156.603157
 20
451.23698
 30
0.0
 40
27.32755986930916
100
AcDbArc
 50
209.784604
 51
273.576851
  0
ARC
  5
56
330
48
100
AcDbEntity
  8
0
  6
Continuous
 62
     0
370
     0
100
AcDbCircle
 10
156.603157
 20
451.23698
 30
0.0
 40
27.32755986930916
100
AcDbArc
 50
299.784604
 51
0.0
  0
ARC
  5
57
330
48
100
AcDbEntity
  8
0
  6
Continuous
 62
     0
370
     0
100
AcDbCircle
 10
156.603157
 20
451.23698
 30
0.0
 40
30.00436063267573
100
AcDbArc
 50
0.0
 51
1.821759
  0
ARC
  5
58
330
48
100
AcDbEntity
  8
0
  6
Continuous
 62
     0
370
     0
100
AcDbCircle
 10
156.603157
 20
451.23698
 30
0.0
 40
30.00436063267573
100
AcDbArc
 50
31.539695
 51
91.821759
  0
ARC
  5
59
330
48
100
AcDbEntity
  8
0
  6
Continuous
 62
     0
370
     0
100
AcDbCircle
 10
156.603157
 20
451.23698
 30
0.0
 40
30.00436063267573
100
AcDbArc
 50
121.539695
 51
181.821759
  0
ARC
  5
5A
330
48
100
AcDbEntity
  8
0
  6
Continuous
 62
     0
370
     0
100
AcDbCircle
 10
156.603157
 20
451.23698
 30
0.0
 40
30.00436063267573
100
AcDbArc
 50
211.539695
 51
271.821759
  0
ARC
  5
5B
330
48
100
AcDbEntity
  8
0
  6
Continuous
 62
     0
370
     0
100
AcDbCircle
 10
156.603157
 20
451.23698
 30
0.0
 40
30.00436063267573
100
AcDbArc
 50
301.539695
 51
0.0
  0
ARC
  5
5C
330
48
100
AcDbEntity
  8
0
  6
Continuous
 62
     0
370
    30
100
AcDbCircle
 10
156.603157
 20
451.23698
 30
0.0
 40
32.49999999986922
100
AcDbArc
 50
0.0
 51
2.660303
  0
ARC
  5
5D
330
48
100
AcDbEntity
  8
0
  6
Continuous
 62
     0
370
    30
100
AcDbCircle
 10
156.603157
 20
451.23698
 30
0.0
 40
32.49999999986922
100
AcDbArc
 50
30.701151
 51
92.660303
  0
ARC
  5
5E
330
48
100
AcDbEntity
  8
0
  6
Continuous
 62
     0
370
    30
100
AcDbCircle
 10
156.603157
 20
451.23698
 30
0.0
 40
32.49999999986922
100
AcDbArc
 50
120.701151
 51
182.660303
  0
ARC
  5
5F
330
48
100
AcDbEntity
  8
0
  6
Continuous
 62
     0
370
    30
100
AcDbCircle
 10
156.603157
 20
451.23698
 30
0.0
 40
32.49999999986922
100
AcDbArc
 50
210.701151
 51
272.660303
  0
ARC
  5
60
330
48
100
AcDbEntity
  8
0
  6
Continuous
 62
     0
370
    30
100
AcDbCircle
 10
156.603157
 20
451.23698
 30
0.0
 40
32.49999999986922
100
AcDbArc
 50
300.701151
 51
0.0
  0
ARC
  5
61
330
48
100
AcDbEntity
  8
0
  6
Continuous
 62
     0
370
    30
100
AcDbCircle
 10
156.603157
 20
451.23698
 30
0.0
 40
32.50036058926875
100
AcDbArc
 50
0.0
 51
2.660648
  0
ARC
  5
62
330
48
100
AcDbEntity
  8
0
  6
Continuous
 62
     0
370
    30
100
AcDbCircle
 10
156.603157
 20
451.23698
 30
0.0
 40
32.50036058926875
100
AcDbArc
 50
30.700806
 51
92.660648
  0
ARC
  5
63
330
48
100
AcDbEntity
  8
0
  6
Continuous
 62
     0
370
    30
100
AcDbCircle
 10
156.603157
 20
451.23698
 30
0.0
 40
32.50036058926875
100
AcDbArc
 50
120.700806
 51
182.660648
  0
ARC
  5
64
330
48
100
AcDbEntity
  8
0
  6
Continuous
 62
     0
370
    30
100
AcDbCircle
 10
156.603157
 20
451.23698
 30
0.0
 40
32.50036058926875
100
AcDbArc
 50
210.700806
 51
272.660648
  0
ARC
  5
65
330
48
100
AcDbEntity
  8
0
  6
Continuous
 62
     0
370
    30
100
AcDbCircle
 10
156.603157
 20
451.23698
 30
0.0
 40
32.50036058926875
100
AcDbArc
 50
300.700806
 51
0.0
  0
ARC
  5
66
330
48
100
AcDbEntity
  8
0
  6
Continuous
 62
     0
370
     0
100
AcDbCircle
 10
266.603157
 20
451.23698
 30
0.0
 40
15.32162671768673
100
AcDbArc
 50
35.727269
 51
177.634185
  0
ARC
  5
67
330
48
100
AcDbEntity
  8
0
  6
Continuous
 62
     0
370
     0
100
AcDbCircle
 10
266.603157
 20
451.23698
 30
0.0
 40
15.32162671768673
100
AcDbArc
 50
215.727269
 51
357.634185
  0
ARC
  5
68
330
48
100
AcDbEntity
  8
0
  6
Continuous
 62
     0
370
     0
100
AcDbCircle
 10
266.603157
 20
451.23698
 30
0.0
 40
23.20500521730908
100
AcDbArc
 50
0.0
 51
4.160759
  0
ARC
  5
69
330
48
100
AcDbEntity
  8
0
  6
Continuous
 62
     0
370
     0
100
AcDbCircle
 10
266.603157
 20
451.23698
 30
0.0
 40
23.20500521730908
100
AcDbArc
 50
29.200695
 51
184.160759
  0
ARC
  5
6A
330
48
100
AcDbEntity
  8
0
  6
Continuous
 62
     0
370
     0
100
AcDbCircle
 10
266.603157
 20
451.23698
 30
0.0
 40
23.20500521730908
100
AcDbArc
 50
209.200695
 51
0.0
  0
ARC
  5
6B
330
48
100
AcDbEntity
  8
0
  6
Continuous
 62
     0
370
     0
100
AcDbCircle
 10
266.603157
 20
451.23698
 30
0.0
 40
27.32755986930918
100
AcDbArc
 50
0.0
 51
3.576851
  0
ARC
  5
6C
330
48
100
AcDbEntity
  8
0
  6
Continuous
 62
     0
370
     0
100
AcDbCircle
 10
266.603157
 20
451.23698
 30
0.0
 40
27.32755986930918
100
AcDbArc
 50
29.784604
 51
183.576851
  0
ARC
  5
6D
330
48
100
AcDbEntity
  8
0
  6
Continuous
 62
     0
370
     0
100
AcDbCircle
 10
266.603157
 20
451.23698
 30
0.0
 40
27.32755986930918
100
AcDbArc
 50
209.784604
 51
0.0
  0
ARC
  5
6E
330
48
100
AcDbEntity
  8
0
  6
Continuous
 62
     0
370
     0
100
AcDbCircle
 10
266.603157
 20
451.23698
 30
0.0
 40
30.00436063267613
100
AcDbArc
 50
0.0
 51
1.821759
  0
ARC
  5
6F
330
48
100
AcDbEntity
  8
0
  6
Continuous
 62
     0
370
     0
100
AcDbCircle
 10
266.603157
 20
451.23698
 30
0.0
 40
30.00436063267613
100
AcDbArc
 50
31.539695
 51
181.821759
  0
ARC
  5
70
330
48
100
AcDbEntity
  8
0
  6
Continuous
 62
     0
370
     0
100
AcDbCircle
 10
266.603157
 20
451.23698
 30
0.0
 40
30.00436063267613
100
AcDbArc
 50
211.539695
 51
0.0
  0
ARC
  5
71
330
48
100
AcDbEntity
  8
0
  6
Continuous
 62
     0
370
    30
100
AcDbCircle
 10
266.603157
 20
451.23698
 30
0.0
 40
32.49999999986906
100
AcDbArc
 50
0.0
 51
2.660303
  0
ARC
  5
72
330
48
100
AcDbEntity
  8
0
  6
Continuous
 62
     0
370
    30
100
AcDbCircle
 10
266.603157
 20
451.23698
 30
0.0
 40
32.49999999986906
100
AcDbArc
 50
30.701151
 51
182.660303
  0
ARC
  5
73
330
48
100
AcDbEntity
  8
0
  6
Continuous
 62
     0
370
    30
100
AcDbCircle
 10
266.603157
 20
451.23698
 30
0.0
 40
32.49999999986906
100
AcDbArc
 50
210.701151
 51
0.0
  0
ARC
  5
74
330
48
100
AcDbEntity
  8
0
  6
Continuous
 62
     0
370
    30
100
AcDbCircle
 10
266.603157
 20
451.23698
 30
0.0
 40
32.50036058926859
100
AcDbArc
 50
0.0
 51
2.660648
  0
ARC
  5
75
330
48
100
AcDbEntity
  8
0
  6
Continuous
 62
     0
370
    30
100
AcDbCircle
 10
266.603157
 20
451.23698
 30
0.0
 40
32.50036058926859
100
AcDbArc
 50
30.700806
 51
182.660648
  0
ARC
  5
76
330
48
100
AcDbEntity
  8
0
  6
Continuous
 62
     0
370
    30
100
AcDbCircle
 10
266.603157
 20
451.23698
 30
0.0
 40
32.50036058926859
100
AcDbArc
 50
210.700806
 51
0.0
  0
ARC
  5
77
330
48
100
AcDbEntity
  8
0
  6
Continuous
 62
     0
370
     0
100
AcDbCircle
 10
376.603157
 20
451.23698
 30
0.0
 40
15.3216267176287
100
AcDbArc
 50
35.727269
 51
87.634185
  0
ARC
  5
78
330
48
100
AcDbEntity
  8
0
  6
Continuous
 62
     0
370
     0
100
AcDbCircle
 10
376.603157
 20
451.23698
 30
0.0
 40
15.3216267176287
100
AcDbArc
 50
125.727269
 51
177.634185
  0
ARC
  5
79
330
48
100
AcDbEntity
  8
0
  6
Continuous
 62
     0
370
     0
100
AcDbCircle
 10
376.603157
 20
451.23698
 30
0.0
 40
15.3216267176287
100
AcDbArc
 50
215.727269
 51
267.634185
  0
ARC
  5
7A
330
48
100
AcDbEntity
  8
0
  6
Continuous
 62
     0
370
     0
100
AcDbCircle
 10
376.603157
 20
451.23698
 30
0.0
 40
15.3216267176287
100
AcDbArc
 50
305.727269
 51
357.634185
  0
ARC
  5
7B
330
48
100
AcDbEntity
  8
0
  6
Continuous
 62
     0
370
     0
100
AcDbCircle
 10
376.603157
 20
451.23698
 30
0.0
 40
23.20500521730943
100
AcDbArc
 50
0.0
 51
4.160759
  0
ARC
  5
7C
330
48
100
AcDbEntity
  8
0
  6
Continuous
 62
     0
370
     0
100
AcDbCircle
 10
376.603157
 20
451.23698
 30
0.0
 40
23.20500521730943
100
AcDbArc
 50
29.200695
 51
94.160759
  0
ARC
  5
7D
330
48
100
AcDbEntity
  8
0
  6
Continuous
 62
     0
370
     0
100
AcDbCircle
 10
376.603157
 20
451.23698
 30
0.0
 40
23.20500521730943
100
AcDbArc
 50
119.200695
 51
184.160759
  0
ARC
  5
7E
330
48
100
AcDbEntity
  8
0
  6
Continuous
 62
     0
370
     0
100
AcDbCircle
 10
376.603157
 20
451.23698
 30
0.0
 40
23.20500521730943
100
AcDbArc
 50
209.200695
 51
274.160759
  0
ARC
  5
7F
330
48
100
AcDbEntity
  8
0
  6
Continuous
 62
     0
370
     0
100
AcDbCircle
 10
376.603157
 20
451.23698
 30
0.0
 40
23.20500521730943
100
AcDbArc
 50
299.200695
 51
0.0
  0
ARC
  5
80
330
48
100
AcDbEntity
  8
0
  6
Continuous
 62
     0
370
     0
100
AcDbCircle
 10
376.603157
 20
451.23698
 30
0.0
 40
27.32755986930937
100
AcDbArc
 50
0.0
 51
3.576851
  0
ARC
  5
81
330
48
100
AcDbEntity
  8
0
  6
Continuous
 62
     0
370
     0
100
AcDbCircle
 10
376.603157
 20
451.23698
 30
0.0
 40
27.32755986930937
100
AcDbArc
 50
29.784604
 51
93.576851
  0
ARC
  5
82
330
48
100
AcDbEntity
  8
0
  6
Continuous
 62
     0
370
     0
100
AcDbCircle
 10
376.603157
 20
451.23698
 30
0.0
 40
27.32755986930937
100
AcDbArc
 50
119.784604
 51
183.576851
  0
ARC
  5
83
330
48
100
AcDbEntity
  8
0
  6
Continuous
 62
     0
370
     0
100
AcDbCircle
 10
376.603157
 20
451.23698
 30
0.0
 40
27.32755986930937
100
AcDbArc
 50
209.784604
 51
273.576851
  0
ARC
  5
84
330
48
100
AcDbEntity
  8
0
  6
Continuous
 62
     0
370
     0
100
AcDbCircle
 10
376.603157
 20
451.23698
 30
0.0
 40
27.32755986930937
100
AcDbArc
 50
299.784604
 51
0.0
  0
ARC
  5
85
330
48
100
AcDbEntity
  8
0
  6
Continuous
 62
     0
370
     0
100
AcDbCircle
 10
376.603157
 20
451.23698
 30
0.0
 40
30.0043606326756
100
AcDbArc
 50
0.0
 51
1.821759
  0
ARC
  5
86
330
48
100
AcDbEntity
  8
0
  6
Continuous
 62
     0
370
     0
100
AcDbCircle
 10
376.603157
 20
451.23698
 30
0.0
 40
30.0043606326756
100
AcDbArc
 50
31.539695
 51
91.821759
  0
ARC
  5
87
330
48
100
AcDbEntity
  8
0
  6
Continuous
 62
     0
370
     0
100
AcDbCircle
 10
376.603157
 20
451.23698
 30
0.0
 40
30.0043606326756
100
AcDbArc
 50
121.539695
 51
181.821759
  0
ARC
  5
88
330
48
100
AcDbEntity
  8
0
  6
Continuous
 62
     0
370
     0
100
AcDbCircle
 10
376.603157
 20
451.23698
 30
0.0
 40
30.0043606326756
100
AcDbArc
 50
211.539695
 51
271.821759
  0
ARC
  5
89
330
48
100
AcDbEntity
  8
0
  6
Continuous
 62
     0
370
     0
100
AcDbCircle
 10
376.603157
 20
451.23698
 30
0.0
 40
30.0043606326756
100
AcDbArc
 50
301.539695
 51
0.0
  0
ARC
  5
8A
330
48
100
AcDbEntity
  8
0
  6
Continuous
 62
     0
370
    30
100
AcDbCircle
 10
376.603157
 20
451.23698
 30
0.0
 40
32.49999999987168
100
AcDbArc
 50
0.0
 51
2.660303
  0
ARC
  5
8B
330
48
100
AcDbEntity
  8
0
  6
Continuous
 62
     0
370
    30
100
AcDbCircle
 10
376.603157
 20
451.23698
 30
0.0
 40
32.49999999987168
100
AcDbArc
 50
30.701151
 51
92.660303
  0
ARC
  5
8C
330
48
100
AcDbEntity
  8
0
  6
Continuous
 62
     0
370
    30
100
AcDbCircle
 10
376.603157
 20
451.23698
 30
0.0
 40
32.49999999987168
100
AcDbArc
 50
120.701151
 51
182.660303
  0
ARC
  5
8D
330
48
100
AcDbEntity
  8
0
  6
Continuous
 62
     0
370
    30
100
AcDbCircle
 10
376.603157
 20
451.23698
 30
0.0
 40
32.49999999987168
100
AcDbArc
 50
210.701151
 51
272.660303
  0
ARC
  5
8E
330
48
100
AcDbEntity
  8
0
  6
Continuous
 62
     0
370
    30
100
AcDbCircle
 10
376.603157
 20
451.23698
 30
0.0
 40
32.49999999987168
100
AcDbArc
 50
300.701151
 51
0.0
  0
ARC
  5
8F
330
48
100
AcDbEntity
  8
0
  6
Continuous
 62
     0
370
    30
100
AcDbCircle
 10
376.603157
 20
451.23698
 30
0.0
 40
32.50036058926898
100
AcDbArc
 50
0.0
 51
2.660648
  0
ARC
  5
90
330
48
100
AcDbEntity
  8
0
  6
Continuous
 62
     0
370
    30
100
AcDbCircle
 10
376.603157
 20
451.23698
 30
0.0
 40
32.50036058926898
100
AcDbArc
 50
30.700806
 51
92.660648
  0
ARC
  5
91
330
48
100
AcDbEntity
  8
0
  6
Continuous
 62
     0
370
    30
100
AcDbCircle
 10
376.603157
 20
451.23698
 30
0.0
 40
32.50036058926898
100
AcDbArc
 50
120.700806
 51
182.660648
  0
ARC
  5
92
330
48
100
AcDbEntity
  8
0
  6
Continuous
 62
     0
370
    30
100
AcDbCircle
 10
376.603157
 20
451.23698
 30
0.0
 40
32.50036058926898
100
AcDbArc
 50
210.700806
 51
272.660648
  0
ARC
  5
93
330
48
100
AcDbEntity
  8
0
  6
Continuous
 62
     0
370
    30
100
AcDbCircle
 10
376.603157
 20
451.23698
 30
0.0
 40
32.50036058926898
100
AcDbArc
 50
300.700806
 51
0.0
  0
LINE
  5
94
330
48
100
AcDbEntity
  8
0
  6
Continuous
 62
     0
370
     0
100
AcDbLine
 10
396.121813
 20
462.30535
 30
0.0
 11
397.557005
 21
457.515754
 31
0.0
  0
LINE
  5
95
330
48
100
AcDbEntity
  8
0
  6
Continuous
 62
     0
370
     0
100
AcDbLine
 10
397.557005
 20
457.515754
 30
0.0
 11
398.992196
 21
452.726159
 31
0.0
  0
LINE
  5
96
330
48
100
AcDbEntity
  8
0
  6
Continuous
 62
     0
370
     0
100
AcDbLine
 10
401.432319
 20
466.133622
 30
0.0
 11
403.482593
 21
459.291343
 31
0.0
  0
LINE
  5
97
330
48
100
AcDbEntity
  8
0
  6
Continuous
 62
     0
370
     0
100
AcDbLine
 10
403.482593
 20
459.291343
 30
0.0
 11
405.532866
 21
452.449064
 31
0.0
  0
LINE
  5
98
330
48
100
AcDbEntity
  8
0
  6
Continuous
 62
     0
370
     0
100
AcDbLine
 10
407.193059
 20
466.965019
 30
0.0
 11
408.9973
 21
460.943813
 31
0.0
  0
LINE
  5
99
330
48
100
AcDbEntity
  8
0
  6
Continuous
 62
     0
370
     0
100
AcDbLine
 10
408.9973
 20
460.943813
 30
0.0
 11
410.801541
 21
454.922607
 31
0.0
  0
LINE
  5
9A
330
48
100
AcDbEntity
  8
0
  6
Continuous
 62
     0
370
     0
100
AcDbLine
 10
365.534788
 20
470.755637
 30
0.0
 11
370.324383
 21
472.190828
 31
0.0
  0
LINE
  5
9B
330
48
100
AcDbEntity
  8
0
  6
Continuous
 62
     0
370
     0
100
AcDbLine
 10
370.324383
 20
472.190828
 30
0.0
 11
375.113979
 21
473.62602
 31
0.0
  0
LINE
  5
9C
330
48
100
AcDbEntity
  8
0
  6
Continuous
 62
     0
370
     0
100
AcDbLine
 10
361.706515
 20
476.066142
 30
0.0
 11
368.548794
 21
478.116416
 31
0.0
  0
LINE
  5
9D
330
48
100
AcDbEntity
  8
0
  6
Continuous
 62
     0
370
     0
100
AcDbLine
 10
368.548794
 20
478.116416
 30
0.0
 11
375.391074
 21
480.16669
 31
0.0
  0
LINE
  5
9E
330
48
100
AcDbEntity
  8
0
  6
Continuous
 62
     0
370
     0
100
AcDbLine
 10
360.875119
 20
481.826882
 30
0.0
 11
366.896325
 21
483.631123
 31
0.0
  0
LINE
  5
9F
330
48
100
AcDbEntity
  8
0
  6
Continuous
 62
     0
370
     0
100
AcDbLine
 10
366.896325
 20
483.631123
 30
0.0
 11
372.91753
 21
485.435364
 31
0.0
  0
LINE
  5
A0
330
48
100
AcDbEntity
  8
0
  6
Continuous
 62
     0
370
     0
100
AcDbLine
 10
357.084501
 20
440.168611
 30
0.0
 11
355.649309
 21
444.958207
 31
0.0
  0
LINE
  5
A1
330
48
100
AcDbEntity
  8
0
  6
Continuous
 62
     0
370
     0
100
AcDbLine
 10
355.649309
 20
444.958207
 30
0.0
 11
354.214118
 21
449.747802
 31
0.0
  0
LINE
  5
A2
330
48
100
AcDbEntity
  8
0
  6
Continuous
 62
     0
370
     0
100
AcDbLine
 10
351.773995
 20
436.340338
 30
0.0
 11
349.723722
 21
443.182618
 31
0.0
  0
LINE
  5
A3
330
48
100
AcDbEntity
  8
0
  6
Continuous
 62
     0
370
     0
100
AcDbLine
 10
349.723722
 20
443.182618
 30
0.0
 11
347.673448
 21
450.024897
 31
0.0
  0
LINE
  5
A4
330
48
100
AcDbEntity
  8
0
  6
Continuous
 62
     0
370
     0
100
AcDbLine
 10
346.013255
 20
435.508942
 30
0.0
 11
344.209014
 21
441.530148
 31
0.0
  0
LINE
  5
A5
330
48
100
AcDbEntity
  8
0
  6
Continuous
 62
     0
370
     0
100
AcDbLine
 10
344.209014
 20
441.530148
 30
0.0
 11
342.404773
 21
447.551354
 31
0.0
  0
LINE
  5
A6
330
48
100
AcDbEntity
  8
0
  6
Continuous
 62
     0
370
     0
100
AcDbLine
 10
387.671526
 20
431.718324
 30
0.0
 11
382.881931
 21
430.283133
 31
0.0
  0
LINE
  5
A7
330
48
100
AcDbEntity
  8
0
  6
Continuous
 62
     0
370
     0
100
AcDbLine
 10
382.881931
 20
430.283133
 30
0.0
 11
378.092335
 21
428.847941
 31
0.0
  0
LINE
  5
A8
330
48
100
AcDbEntity
  8
0
  6
Continuous
 62
     0
370
     0
100
AcDbLine
 10
391.499799
 20
426.407819
 30
0.0
 11
384.65752
 21
424.357545
 31
0.0
  0
LINE
  5
A9
330
48
100
AcDbEntity
  8
0
  6
Continuous
 62
     0
370
     0
100
AcDbLine
 10
384.65752
 20
424.357545
 30
0.0
 11
377.81524
 21
422.307271
 31
0.0
  0
LINE
  5
AA
330
48
100
AcDbEntity
  8
0
  6
Continuous
 62
     0
370
     0
100
AcDbLine
 10
392.331195
 20
420.647079
 30
0.0
 11
386.309989
 21
418.842838
 31
0.0
  0
LINE
  5
AB
330
48
100
AcDbEntity
  8
0
  6
Continuous
 62
     0
370
     0
100
AcDbLine
 10
386.309989
 20
418.842838
 30
0.0
 11
380.288784
 21
417.038597
 31
0.0
  0
CIRCLE
  5
AC
330
48
100
AcDbEntity
  8
0
  6
Continuous
 62
     0
370
    30
100
AcDbCircle
 10
376.603157
 20
451.23698
 30
0.0
 40
13.00000326245959
  0
CIRCLE
  5
AD
330
48
100
AcDbEntity
  8
0
  6
Continuous
 62
     0
370
     0
100
AcDbCircle
 10
376.603157
 20
451.23698
 30
0.0
 40
8.000003262459584
  0
CIRCLE
  5
AE
330
48
100
AcDbEntity
  8
0
  6
Continuous
 62
     0
370
    30
100
AcDbCircle
 10
376.603157
 20
451.23698
 30
0.0
 40
7.100003262459608
  0
CIRCLE
  5
AF
330
48
100
AcDbEntity
  8
0
  6
Continuous
 62
     0
370
    30
100
AcDbCircle
 10
376.603157
 20
451.23698
 30
0.0
 40
7.0
  0
ARC
  5
B0
330
48
100
AcDbEntity
  8
0
  6
Continuous
 62
     0
370
    30
100
AcDbCircle
 10
383.718846
 20
427.490136
 30
0.0
 40
10.999999999956
100
AcDbArc
 50
251.830823
 51
286.680727
  0
ARC
  5
B1
330
48
100
AcDbEntity
  8
0
  6
Continuous
 62
     0
370
    30
100
AcDbCircle
 10
383.718846
 20
427.490136
 30
0.0
 40
10.999999999956
100
AcDbArc
 50
286.680727
 51
321.530632
  0
ARC
  5
B2
330
48
100
AcDbEntity
  8
0
  6
Continuous
 62
     0
370
    30
100
AcDbCircle
 10
381.536079
 20
420.839157
 30
0.0
 40
3.999999999984001
100
AcDbArc
 50
158.467516
 51
251.830823
  0
ARC
  5
B3
330
48
100
AcDbEntity
  8
0
  6
Continuous
 62
     0
370
    30
100
AcDbCircle
 10
389.199432
 20
423.135463
 30
0.0
 40
3.999999999984001
100
AcDbArc
 50
321.530632
 51
54.893938
  0
ARC
  5
B4
330
48
100
AcDbEntity
  8
0
  6
Continuous
 62
     0
370
    30
100
AcDbCircle
 10
368.513144
 20
425.977558
 30
0.0
 40
9.999999999960004
100
AcDbArc
 50
338.467516
 51
16.680727
  0
ARC
  5
B5
330
48
100
AcDbEntity
  8
0
  6
Continuous
 62
     0
370
    30
100
AcDbCircle
 10
397.250717
 20
434.588707
 30
0.0
 40
9.999999999960004
100
AcDbArc
 50
196.680727
 51
234.893938
  0
LINE
  5
B6
330
48
100
AcDbEntity
  8
0
  6
Continuous
 62
     0
370
    30
100
AcDbLine
 10
375.258024
 20
438.306751
 30
0.0
 11
378.092335
 21
428.847941
 31
0.0
  0
LINE
  5
B7
330
48
100
AcDbEntity
  8
0
  6
Continuous
 62
     0
370
    30
100
AcDbLine
 10
384.837215
 20
441.177134
 30
0.0
 11
387.671526
 21
431.718324
 31
0.0
  0
ARC
  5
B8
330
48
100
AcDbEntity
  8
0
  6
Continuous
 62
     0
370
    30
100
AcDbCircle
 10
352.856313
 20
444.121292
 30
0.0
 40
10.999999999956
100
AcDbArc
 50
161.830823
 51
196.680727
  0
ARC
  5
B9
330
48
100
AcDbEntity
  8
0
  6
Continuous
 62
     0
370
    30
100
AcDbCircle
 10
352.856313
 20
444.121292
 30
0.0
 40
10.999999999956
100
AcDbArc
 50
196.680727
 51
231.530632
  0
ARC
  5
BA
330
48
100
AcDbEntity
  8
0
  6
Continuous
 62
     0
370
    30
100
AcDbCircle
 10
346.205333
 20
446.304058
 30
0.0
 40
3.999999999984001
100
AcDbArc
 50
68.467516
 51
161.830823
  0
ARC
  5
BB
330
48
100
AcDbEntity
  8
0
  6
Continuous
 62
     0
370
    30
100
AcDbCircle
 10
348.50164
 20
438.640706
 30
0.0
 40
3.999999999984001
100
AcDbArc
 50
231.530632
 51
324.893938
  0
ARC
  5
BC
330
48
100
AcDbEntity
  8
0
  6
Continuous
 62
     0
370
    30
100
AcDbCircle
 10
351.343734
 20
459.326993
 30
0.0
 40
9.999999999960004
100
AcDbArc
 50
248.467516
 51
286.680727
  0
ARC
  5
BD
330
48
100
AcDbEntity
  8
0
  6
Continuous
 62
     0
370
    30
100
AcDbCircle
 10
359.954884
 20
430.58942
 30
0.0
 40
9.999999999960004
100
AcDbArc
 50
106.680727
 51
144.893938
  0
LINE
  5
BE
330
48
100
AcDbEntity
  8
0
  6
Continuous
 62
     0
370
    30
100
AcDbLine
 10
363.672928
 20
452.582114
 30
0.0
 11
354.214118
 21
449.747802
 31
0.0
  0
LINE
  5
BF
330
48
100
AcDbEntity
  8
0
  6
Continuous
 62
     0
370
    30
100
AcDbLine
 10
366.543311
 20
443.002923
 30
0.0
 11
357.084501
 21
440.168611
 31
0.0
  0
ARC
  5
C0
330
48
100
AcDbEntity
  8
0
  6
Continuous
 62
     0
370
    30
100
AcDbCircle
 10
369.487468
 20
474.983825
 30
0.0
 40
10.999999999956
100
AcDbArc
 50
71.830823
 51
106.680727
  0
ARC
  5
C1
330
48
100
AcDbEntity
  8
0
  6
Continuous
 62
     0
370
    30
100
AcDbCircle
 10
369.487468
 20
474.983825
 30
0.0
 40
10.999999999956
100
AcDbArc
 50
106.680727
 51
141.530632
  0
ARC
  5
C2
330
48
100
AcDbEntity
  8
0
  6
Continuous
 62
     0
370
    30
100
AcDbCircle
 10
371.670235
 20
481.634804
 30
0.0
 40
3.999999999984001
100
AcDbArc
 50
338.467516
 51
71.830823
  0
ARC
  5
C3
330
48
100
AcDbEntity
  8
0
  6
Continuous
 62
     0
370
    30
100
AcDbCircle
 10
364.006882
 20
479.338498
 30
0.0
 40
3.999999999984001
100
AcDbArc
 50
141.530632
 51
234.893938
  0
ARC
  5
C4
330
48
100
AcDbEntity
  8
0
  6
Continuous
 62
     0
370
    30
100
AcDbCircle
 10
384.69317
 20
476.496403
 30
0.0
 40
9.999999999960004
100
AcDbArc
 50
158.467516
 51
196.680727
  0
ARC
  5
C5
330
48
100
AcDbEntity
  8
0
  6
Continuous
 62
     0
370
    30
100
AcDbCircle
 10
355.955597
 20
467.885253
 30
0.0
 40
9.999999999960004
100
AcDbArc
 50
16.680727
 51
54.893938
  0
LINE
  5
C6
330
48
100
AcDbEntity
  8
0
  6
Continuous
 62
     0
370
    30
100
AcDbLine
 10
377.94829
 20
464.16721
 30
0.0
 11
375.113979
 21
473.62602
 31
0.0
  0
LINE
  5
C7
330
48
100
AcDbEntity
  8
0
  6
Continuous
 62
     0
370
    30
100
AcDbLine
 10
368.369099
 20
461.296827
 30
0.0
 11
365.534788
 21
470.755637
 31
0.0
  0
ARC
  5
C8
330
48
100
AcDbEntity
  8
0
  6
Continuous
 62
     0
370
    30
100
AcDbCircle
 10
400.350001
 20
458.352669
 30
0.0
 40
10.999999999956
100
AcDbArc
 50
341.830823
 51
16.680727
  0
ARC
  5
C9
330
48
100
AcDbEntity
  8
0
  6
Continuous
 62
     0
370
    30
100
AcDbCircle
 10
400.350001
 20
458.352669
 30
0.0
 40
10.999999999956
100
AcDbArc
 50
16.680727
 51
51.530632
  0
ARC
  5
CA
330
48
100
AcDbEntity
  8
0
  6
Continuous
 62
     0
370
    30
100
AcDbCircle
 10
407.000981
 20
456.169902
 30
0.0
 40
3.999999999984001
100
AcDbArc
 50
248.467516
 51
341.830823
  0
ARC
  5
CB
330
48
100
AcDbEntity
  8
0
  6
Continuous
 62
     0
370
    30
100
AcDbCircle
 10
404.704674
 20
463.833255
 30
0.0
 40
3.999999999984001
100
AcDbArc
 50
51.530632
 51
144.893938
  0
ARC
  5
CC
330
48
100
AcDbEntity
  8
0
  6
Continuous
 62
     0
370
    30
100
AcDbCircle
 10
401.86258
 20
443.146968
 30
0.0
 40
9.999999999960004
100
AcDbArc
 50
68.467516
 51
106.680727
  0
ARC
  5
CD
330
48
100
AcDbEntity
  8
0
  6
Continuous
 62
     0
370
    30
100
AcDbCircle
 10
393.25143
 20
471.884541
 30
0.0
 40
9.999999999960004
100
AcDbArc
 50
286.680727
 51
324.893938
  0
LINE
  5
CE
330
48
100
AcDbEntity
  8
0
  6
Continuous
 62
     0
370
    30
100
AcDbLine
 10
389.533386
 20
449.891847
 30
0.0
 11
398.992196
 21
452.726159
 31
0.0
  0
LINE
  5
CF
330
48
100
AcDbEntity
  8
0
  6
Continuous
 62
     0
370
    30
100
AcDbLine
 10
386.663003
 20
459.471038
 30
0.0
 11
396.121813
 21
462.30535
 31
0.0
  0
LINE
  5
D0
330
48
100
AcDbEntity
  8
0
  6
Continuous
 62
     0
370
     0
100
AcDbLine
 10
176.121813
 20
462.30535
 30
0.0
 11
177.557005
 21
457.515754
 31
0.0
  0
LINE
  5
D1
330
48
100
AcDbEntity
  8
0
  6
Continuous
 62
     0
370
     0
100
AcDbLine
 10
177.557005
 20
457.515754
 30
0.0
 11
178.992196
 21
452.726159
 31
0.0
  0
LINE
  5
D2
330
48
100
AcDbEntity
  8
0
  6
Continuous
 62
     0
370
     0
100
AcDbLine
 10
181.432319
 20
466.133622
 30
0.0
 11
183.482593
 21
459.291343
 31
0.0
  0
LINE
  5
D3
330
48
100
AcDbEntity
  8
0
  6
Continuous
 62
     0
370
     0
100
AcDbLine
 10
183.482593
 20
459.291343
 30
0.0
 11
185.532866
 21
452.449064
 31
0.0
  0
LINE
  5
D4
330
48
100
AcDbEntity
  8
0
  6
Continuous
 62
     0
370
     0
100
AcDbLine
 10
187.193059
 20
466.965019
 30
0.0
 11
188.9973
 21
460.943813
 31
0.0
  0
LINE
  5
D5
330
48
100
AcDbEntity
  8
0
  6
Continuous
 62
     0
370
     0
100
AcDbLine
 10
188.9973
 20
460.943813
 30
0.0
 11
190.801541
 21
454.922607
 31
0.0
  0
LINE
  5
D6
330
48
100
AcDbEntity
  8
0
  6
Continuous
 62
     0
370
     0
100
AcDbLine
 10
145.534788
 20
470.755637
 30
0.0
 11
150.324383
 21
472.190828
 31
0.0
  0
LINE
  5
D7
330
48
100
AcDbEntity
  8
0
  6
Continuous
 62
     0
370
     0
100
AcDbLine
 10
150.324383
 20
472.190828
 30
0.0
 11
155.113979
 21
473.62602
 31
0.0
  0
LINE
  5
D8
330
48
100
AcDbEntity
  8
0
  6
Continuous
 62
     0
370
     0
100
AcDbLine
 10
141.706515
 20
476.066142
 30
0.0
 11
148.548794
 21
478.116416
 31
0.0
  0
LINE
  5
D9
330
48
100
AcDbEntity
  8
0
  6
Continuous
 62
     0
370
     0
100
AcDbLine
 10
148.548794
 20
478.116416
 30
0.0
 11
155.391074
 21
480.16669
 31
0.0
  0
LINE
  5
DA
330
48
100
AcDbEntity
  8
0
  6
Continuous
 62
     0
370
     0
100
AcDbLine
 10
140.875119
 20
481.826882
 30
0.0
 11
146.896325
 21
483.631123
 31
0.0
  0
LINE
  5
DB
330
48
100
AcDbEntity
  8
0
  6
Continuous
 62
     0
370
     0
100
AcDbLine
 10
146.896325
 20
483.631123
 30
0.0
 11
152.91753
 21
485.435364
 31
0.0
  0
LINE
  5
DC
330
48
100
AcDbEntity
  8
0
  6
Continuous
 62
     0
370
     0
100
AcDbLine
 10
137.084501
 20
440.168611
 30
0.0
 11
135.649309
 21
444.958207
 31
0.0
  0
LINE
  5
DD
330
48
100
AcDbEntity
  8
0
  6
Continuous
 62
     0
370
     0
100
AcDbLine
 10
135.649309
 20
444.958207
 30
0.0
 11
134.214118
 21
449.747802
 31
0.0
  0
LINE
  5
DE
330
48
100
AcDbEntity
  8
0
  6
Continuous
 62
     0
370
     0
100
AcDbLine
 10
131.773995
 20
436.340338
 30
0.0
 11
129.723722
 21
443.182618
 31
0.0
  0
LINE
  5
DF
330
48
100
AcDbEntity
  8
0
  6
Continuous
 62
     0
370
     0
100
AcDbLine
 10
129.723722
 20
443.182618
 30
0.0
 11
127.673448
 21
450.024897
 31
0.0
  0
LINE
  5
E0
330
48
100
AcDbEntity
  8
0
  6
Continuous
 62
     0
370
     0
100
AcDbLine
 10
126.013255
 20
435.508942
 30
0.0
 11
124.209014
 21
441.530148
 31
0.0
  0
LINE
  5
E1
330
48
100
AcDbEntity
  8
0
  6
Continuous
 62
     0
370
     0
100
AcDbLine
 10
124.209014
 20
441.530148
 30
0.0
 11
122.404773
 21
447.551354
 31
0.0
  0
LINE
  5
E2
330
48
100
AcDbEntity
  8
0
  6
Continuous
 62
     0
370
     0
100
AcDbLine
 10
167.671526
 20
431.718324
 30
0.0
 11
162.881931
 21
430.283133
 31
0.0
  0
LINE
  5
E3
330
48
100
AcDbEntity
  8
0
  6
Continuous
 62
     0
370
     0
100
AcDbLine
 10
162.881931
 20
430.283133
 30
0.0
 11
158.092335
 21
428.847941
 31
0.0
  0
LINE
  5
E4
330
48
100
AcDbEntity
  8
0
  6
Continuous
 62
     0
370
     0
100
AcDbLine
 10
171.499799
 20
426.407819
 30
0.0
 11
164.65752
 21
424.357545
 31
0.0
  0
LINE
  5
E5
330
48
100
AcDbEntity
  8
0
  6
Continuous
 62
     0
370
     0
100
AcDbLine
 10
164.65752
 20
424.357545
 30
0.0
 11
157.81524
 21
422.307271
 31
0.0
  0
LINE
  5
E6
330
48
100
AcDbEntity
  8
0
  6
Continuous
 62
     0
370
     0
100
AcDbLine
 10
172.331195
 20
420.647079
 30
0.0
 11
166.309989
 21
418.842838
 31
0.0
  0
LINE
  5
E7
330
48
100
AcDbEntity
  8
0
  6
Continuous
 62
     0
370
     0
100
AcDbLine
 10
166.309989
 20
418.842838
 30
0.0
 11
160.288784
 21
417.038597
 31
0.0
  0
CIRCLE
  5
E8
330
48
100
AcDbEntity
  8
0
  6
Continuous
 62
     0
370
    30
100
AcDbCircle
 10
156.603157
 20
451.23698
 30
0.0
 40
13.00000326245959
  0
CIRCLE
  5
E9
330
48
100
AcDbEntity
  8
0
  6
Continuous
 62
     0
370
     0
100
AcDbCircle
 10
156.603157
 20
451.23698
 30
0.0
 40
8.000003262459584
  0
CIRCLE
  5
EA
330
48
100
AcDbEntity
  8
0
  6
Continuous
 62
     0
370
    30
100
AcDbCircle
 10
156.603157
 20
451.23698
 30
0.0
 40
7.100003262459608
  0
CIRCLE
  5
EB
330
48
100
AcDbEntity
  8
0
  6
Continuous
 62
     0
370
    30
100
AcDbCircle
 10
156.603157
 20
451.23698
 30
0.0
 40
7.0
  0
ARC
  5
EC
330
48
100
AcDbEntity
  8
0
  6
Continuous
 62
     0
370
    30
100
AcDbCircle
 10
163.718846
 20
427.490136
 30
0.0
 40
10.999999999956
100
AcDbArc
 50
251.830823
 51
286.680727
  0
ARC
  5
ED
330
48
100
AcDbEntity
  8
0
  6
Continuous
 62
     0
370
    30
100
AcDbCircle
 10
163.718846
 20
427.490136
 30
0.0
 40
10.999999999956
100
AcDbArc
 50
286.680727
 51
321.530632
  0
ARC
  5
EE
330
48
100
AcDbEntity
  8
0
  6
Continuous
 62
     0
370
    30
100
AcDbCircle
 10
161.536079
 20
420.839157
 30
0.0
 40
3.999999999984001
100
AcDbArc
 50
158.467516
 51
251.830823
  0
ARC
  5
EF
330
48
100
AcDbEntity
  8
0
  6
Continuous
 62
     0
370
    30
100
AcDbCircle
 10
169.199432
 20
423.135463
 30
0.0
 40
3.999999999984001
100
AcDbArc
 50
321.530632
 51
54.893938
  0
ARC
  5
F0
330
48
100
AcDbEntity
  8
0
  6
Continuous
 62
     0
370
    30
100
AcDbCircle
 10
148.513144
 20
425.977558
 30
0.0
 40
9.999999999960004
100
AcDbArc
 50
338.467516
 51
16.680727
  0
ARC
  5
F1
330
48
100
AcDbEntity
  8
0
  6
Continuous
 62
     0
370
    30
100
AcDbCircle
 10
177.250717
 20
434.588707
 30
0.0
 40
9.999999999960004
100
AcDbArc
 50
196.680727
 51
234.893938
  0
LINE
  5
F2
330
48
100
AcDbEntity
  8
0
  6
Continuous
 62
     0
370
    30
100
AcDbLine
 10
155.258024
 20
438.306751
 30
0.0
 11
158.092335
 21
428.847941
 31
0.0
  0
LINE
  5
F3
330
48
100
AcDbEntity
  8
0
  6
Continuous
 62
     0
370
    30
100
AcDbLine
 10
164.837215
 20
441.177134
 30
0.0
 11
167.671526
 21
431.718324
 31
0.0
  0
ARC
  5
F4
330
48
100
AcDbEntity
  8
0
  6
Continuous
 62
     0
370
    30
100
AcDbCircle
 10
132.856313
 20
444.121292
 30
0.0
 40
10.999999999956
100
AcDbArc
 50
161.830823
 51
196.680727
  0
ARC
  5
F5
330
48
100
AcDbEntity
  8
0
  6
Continuous
 62
     0
370
    30
100
AcDbCircle
 10
132.856313
 20
444.121292
 30
0.0
 40
10.999999999956
100
AcDbArc
 50
196.680727
 51
231.530632
  0
ARC
  5
F6
330
48
100
AcDbEntity
  8
0
  6
Continuous
 62
     0
370
    30
100
AcDbCircle
 10
126.205333
 20
446.304058
 30
0.0
 40
3.999999999984001
100
AcDbArc
 50
68.467516
 51
161.830823
  0
ARC
  5
F7
330
48
100
AcDbEntity
  8
0
  6
Continuous
 62
     0
370
    30
100
AcDbCircle
 10
128.50164
 20
438.640706
 30
0.0
 40
3.999999999984001
100
AcDbArc
 50
231.530632
 51
324.893938
  0
ARC
  5
F8
330
48
100
AcDbEntity
  8
0
  6
Continuous
 62
     0
370
    30
100
AcDbCircle
 10
131.343734
 20
459.326993
 30
0.0
 40
9.999999999960004
100
AcDbArc
 50
248.467516
 51
286.680727
  0
ARC
  5
F9
330
48
100
AcDbEntity
  8
0
  6
Continuous
 62
     0
370
    30
100
AcDbCircle
 10
139.954884
 20
430.58942
 30
0.0
 40
9.999999999960004
100
AcDbArc
 50
106.680727
 51
144.893938
  0
LINE
  5
FA
330
48
100
AcDbEntity
  8
0
  6
Continuous
 62
     0
370
    30
100
AcDbLine
 10
143.672928
 20
452.582114
 30
0.0
 11
134.214118
 21
449.747802
 31
0.0
  0
LINE
  5
FB
330
48
100
AcDbEntity
  8
0
  6
Continuous
 62
     0
370
    30
100
AcDbLine
 10
146.543311
 20
443.002923
 30
0.0
 11
137.084501
 21
440.168611
 31
0.0
  0
ARC
  5
FC
330
48
100
AcDbEntity
  8
0
  6
Continuous
 62
     0
370
    30
100
AcDbCircle
 10
149.487468
 20
474.983825
 30
0.0
 40
10.999999999956
100
AcDbArc
 50
71.830823
 51
106.680727
  0
ARC
  5
FD
330
48
100
AcDbEntity
  8
0
  6
Continuous
 62
     0
370
    30
100
AcDbCircle
 10
149.487468
 20
474.983825
 30
0.0
 40
10.999999999956
100
AcDbArc
 50
106.680727
 51
141.530632
  0
ARC
  5
FE
330
48
100
AcDbEntity
  8
0
  6
Continuous
 62
     0
370
    30
100
AcDbCircle
 10
151.670235
 20
481.634804
 30
0.0
 40
3.999999999984001
100
AcDbArc
 50
338.467516
 51
71.830823
  0
ARC
  5
FF
330
48
100
AcDbEntity
  8
0
  6
Continuous
 62
     0
370
    30
100
AcDbCircle
 10
144.006882
 20
479.338498
 30
0.0
 40
3.999999999984001
100
AcDbArc
 50
141.530632
 51
234.893938
  0
ARC
  5
100
330
48
100
AcDbEntity
  8
0
  6
Continuous
 62
     0
370
    30
100
AcDbCircle
 10
164.69317
 20
476.496403
 30
0.0
 40
9.999999999960004
100
AcDbArc
 50
158.467516
 51
196.680727
  0
ARC
  5
101
330
48
100
AcDbEntity
  8
0
  6
Continuous
 62
     0
370
    30
100
AcDbCircle
 10
135.955597
 20
467.885253
 30
0.0
 40
9.999999999960004
100
AcDbArc
 50
16.680727
 51
54.893938
  0
LINE
  5
102
330
48
100
AcDbEntity
  8
0
  6
Continuous
 62
     0
370
    30
100
AcDbLine
 10
157.94829
 20
464.16721
 30
0.0
 11
155.113979
 21
473.62602
 31
0.0
  0
LINE
  5
103
330
48
100
AcDbEntity
  8
0
  6
Continuous
 62
     0
370
    30
100
AcDbLine
 10
148.369099
 20
461.296827
 30
0.0
 11
145.534788
 21
470.755637
 31
0.0
  0
ARC
  5
104
330
48
100
AcDbEntity
  8
0
  6
Continuous
 62
     0
370
    30
100
AcDbCircle
 10
180.350001
 20
458.352669
 30
0.0
 40
10.999999999956
100
AcDbArc
 50
341.830823
 51
16.680727
  0
ARC
  5
105
330
48
100
AcDbEntity
  8
0
  6
Continuous
 62
     0
370
    30
100
AcDbCircle
 10
180.350001
 20
458.352669
 30
0.0
 40
10.999999999956
100
AcDbArc
 50
16.680727
 51
51.530632
  0
ARC
  5
106
330
48
100
AcDbEntity
  8
0
  6
Continuous
 62
     0
370
    30
100
AcDbCircle
 10
187.000981
 20
456.169902
 30
0.0
 40
3.999999999984001
100
AcDbArc
 50
248.467516
 51
341.830823
  0
ARC
  5
107
330
48
100
AcDbEntity
  8
0
  6
Continuous
 62
     0
370
    30
100
AcDbCircle
 10
184.704674
 20
463.833255
 30
0.0
 40
3.999999999984001
100
AcDbArc
 50
51.530632
 51
144.893938
  0
ARC
  5
108
330
48
100
AcDbEntity
  8
0
  6
Continuous
 62
     0
370
    30
100
AcDbCircle
 10
181.86258
 20
443.146968
 30
0.0
 40
9.999999999960004
100
AcDbArc
 50
68.467516
 51
106.680727
  0
ARC
  5
109
330
48
100
AcDbEntity
  8
0
  6
Continuous
 62
     0
370
    30
100
AcDbCircle
 10
173.25143
 20
471.884541
 30
0.0
 40
9.999999999960004
100
AcDbArc
 50
286.680727
 51
324.893938
  0
LINE
  5
10A
330
48
100
AcDbEntity
  8
0
  6
Continuous
 62
     0
370
    30
100
AcDbLine
 10
169.533386
 20
449.891847
 30
0.0
 11
178.992196
 21
452.726159
 31
0.0
  0
LINE
  5
10B
330
48
100
AcDbEntity
  8
0
  6
Continuous
 62
     0
370
    30
100
AcDbLine
 10
166.663003
 20
459.471038
 30
0.0
 11
176.121813
 21
462.30535
 31
0.0
  0
LINE
  5
10C
330
48
100
AcDbEntity
  8
0
  6
Continuous
 62
     0
370
     0
100
AcDbLine
 10
286.121813
 20
462.30535
 30
0.0
 11
287.557005
 21
457.515754
 31
0.0
  0
LINE
  5
10D
330
48
100
AcDbEntity
  8
0
  6
Continuous
 62
     0
370
     0
100
AcDbLine
 10
287.557005
 20
457.515754
 30
0.0
 11
288.992196
 21
452.726159
 31
0.0
  0
LINE
  5
10E
330
48
100
AcDbEntity
  8
0
  6
Continuous
 62
     0
370
     0
100
AcDbLine
 10
291.432319
 20
466.133622
 30
0.0
 11
293.482593
 21
459.291343
 31
0.0
  0
LINE
  5
10F
330
48
100
AcDbEntity
  8
0
  6
Continuous
 62
     0
370
     0
100
AcDbLine
 10
293.482593
 20
459.291343
 30
0.0
 11
295.532866
 21
452.449064
 31
0.0
  0
LINE
  5
110
330
48
100
AcDbEntity
  8
0
  6
Continuous
 62
     0
370
     0
100
AcDbLine
 10
297.193059
 20
466.965019
 30
0.0
 11
298.9973
 21
460.943813
 31
0.0
  0
LINE
  5
111
330
48
100
AcDbEntity
  8
0
  6
Continuous
 62
     0
370
     0
100
AcDbLine
 10
298.9973
 20
460.943813
 30
0.0
 11
300.801541
 21
454.922607
 31
0.0
  0
ARC
  5
112
330
48
100
AcDbEntity
  8
0
  6
Continuous
 62
     0
370
    30
100
AcDbCircle
 10
290.350001
 20
458.352669
 30
0.0
 40
10.999999999956
100
AcDbArc
 50
341.830823
 51
16.680727
  0
ARC
  5
113
330
48
100
AcDbEntity
  8
0
  6
Continuous
 62
     0
370
    30
100
AcDbCircle
 10
290.350001
 20
458.352669
 30
0.0
 40
10.999999999956
100
AcDbArc
 50
16.680727
 51
51.530632
  0
ARC
  5
114
330
48
100
AcDbEntity
  8
0
  6
Continuous
 62
     0
370
    30
100
AcDbCircle
 10
297.000981
 20
456.169902
 30
0.0
 40
3.999999999984001
100
AcDbArc
 50
248.467516
 51
341.830823
  0
ARC
  5
115
330
48
100
AcDbEntity
  8
0
  6
Continuous
 62
     0
370
    30
100
AcDbCircle
 10
294.704674
 20
463.833255
 30
0.0
 40
3.999999999984001
100
AcDbArc
 50
51.530632
 51
144.893938
  0
ARC
  5
116
330
48
100
AcDbEntity
  8
0
  6
Continuous
 62
     0
370
    30
100
AcDbCircle
 10
291.86258
 20
443.146968
 30
0.0
 40
9.999999999960004
100
AcDbArc
 50
68.467516
 51
106.680727
  0
ARC
  5
117
330
48
100
AcDbEntity
  8
0
  6
Continuous
 62
     0
370
    30
100
AcDbCircle
 10
283.25143
 20
471.884541
 30
0.0
 40
9.999999999960004
100
AcDbArc
 50
286.680727
 51
324.893938
  0
LINE
  5
118
330
48
100
AcDbEntity
  8
0
  6
Continuous
 62
     0
370
    30
100
AcDbLine
 10
279.533381
 20
449.891846
 30
0.0
 11
288.992196
 21
452.726159
 31
0.0
  0
LINE
  5
119
330
48
100
AcDbEntity
  8
0
  6
Continuous
 62
     0
370
    30
100
AcDbLine
 10
276.662998
 20
459.471037
 30
0.0
 11
286.121813
 21
462.30535
 31
0.0
  0
LINE
  5
11A
330
48
100
AcDbEntity
  8
0
  6
Continuous
 62
     0
370
     0
100
AcDbLine
 10
247.084501
 20
440.168611
 30
0.0
 11
245.649309
 21
444.958207
 31
0.0
  0
LINE
  5
11B
330
48
100
AcDbEntity
  8
0
  6
Continuous
 62
     0
370
     0
100
AcDbLine
 10
245.649309
 20
444.958207
 30
0.0
 11
244.214118
 21
449.747802
 31
0.0
  0
LINE
  5
11C
330
48
100
AcDbEntity
  8
0
  6
Continuous
 62
     0
370
     0
100
AcDbLine
 10
241.773995
 20
436.340338
 30
0.0
 11
239.723722
 21
443.182618
 31
0.0
  0
LINE
  5
11D
330
48
100
AcDbEntity
  8
0
  6
Continuous
 62
     0
370
     0
100
AcDbLine
 10
239.723722
 20
443.182618
 30
0.0
 11
237.673448
 21
450.024897
 31
0.0
  0
LINE
  5
11E
330
48
100
AcDbEntity
  8
0
  6
Continuous
 62
     0
370
     0
100
AcDbLine
 10
236.013255
 20
435.508942
 30
0.0
 11
234.209014
 21
441.530148
 31
0.0
  0
LINE
  5
11F
330
48
100
AcDbEntity
  8
0
  6
Continuous
 62
     0
370
     0
100
AcDbLine
 10
234.209014
 20
441.530148
 30
0.0
 11
232.404773
 21
447.551354
 31
0.0
  0
ARC
  5
120
330
48
100
AcDbEntity
  8
0
  6
Continuous
 62
     0
370
    30
100
AcDbCircle
 10
242.856313
 20
444.121292
 30
0.0
 40
10.999999999956
100
AcDbArc
 50
161.830823
 51
196.680727
  0
ARC
  5
121
330
48
100
AcDbEntity
  8
0
  6
Continuous
 62
     0
370
    30
100
AcDbCircle
 10
242.856313
 20
444.121292
 30
0.0
 40
10.999999999956
100
AcDbArc
 50
196.680727
 51
231.530632
  0
ARC
  5
122
330
48
100
AcDbEntity
  8
0
  6
Continuous
 62
     0
370
    30
100
AcDbCircle
 10
236.205333
 20
446.304058
 30
0.0
 40
3.999999999984001
100
AcDbArc
 50
68.467516
 51
161.830823
  0
ARC
  5
123
330
48
100
AcDbEntity
  8
0
  6
Continuous
 62
     0
370
    30
100
AcDbCircle
 10
238.50164
 20
438.640706
 30
0.0
 40
3.999999999984001
100
AcDbArc
 50
231.530632
 51
324.893938
  0
ARC
  5
124
330
48
100
AcDbEntity
  8
0
  6
Continuous
 62
     0
370
    30
100
AcDbCircle
 10
241.343734
 20
459.326993
 30
0.0
 40
9.999999999960004
100
AcDbArc
 50
248.467516
 51
286.680727
  0
ARC
  5
125
330
48
100
AcDbEntity
  8
0
  6
Continuous
 62
     0
370
    30
100
AcDbCircle
 10
249.954884
 20
430.58942
 30
0.0
 40
9.999999999960004
100
AcDbArc
 50
106.680727
 51
144.893938
  0
LINE
  5
126
330
48
100
AcDbEntity
  8
0
  6
Continuous
 62
     0
370
    30
100
AcDbLine
 10
253.672933
 20
452.582115
 30
0.0
 11
244.214118
 21
449.747802
 31
0.0
  0
LINE
  5
127
330
48
100
AcDbEntity
  8
0
  6
Continuous
 62
     0
370
    30
100
AcDbLine
 10
256.543316
 20
443.002924
 30
0.0
 11
247.084501
 21
440.168611
 31
0.0
  0
CIRCLE
  5
128
330
48
100
AcDbEntity
  8
0
  6
Continuous
 62
     0
370
    30
100
AcDbCircle
 10
266.603157
 20
451.23698
 30
0.0
 40
13.00000326245959
  0
CIRCLE
  5
129
330
48
100
AcDbEntity
  8
0
  6
Continuous
 62
     0
370
     0
100
AcDbCircle
 10
266.603157
 20
451.23698
 30
0.0
 40
8.000003262459584
  0
CIRCLE
  5
12A
330
48
100
AcDbEntity
  8
0
  6
Continuous
 62
     0
370
    30
100
AcDbCircle
 10
266.603157
 20
451.23698
 30
0.0
 40
7.100003262459608
  0
CIRCLE
  5
12B
330
48
100
AcDbEntity
  8
0
  6
Continuous
 62
     0
370
    30
100
AcDbCircle
 10
266.603157
 20
451.23698
 30
0.0
 40
7.0
  0
ENDBLK
  5
12D
330
48
100
AcDbEntity
  8
0
100
AcDbBlockEnd
  0
BLOCK
  5
1EB
330
12F
100
AcDbEntity
  8
0
100
AcDbBlockBegin
  2
b
 70
     0
 10
88.693298
 20
219.861839
 30
0.0
  3
b
  1

  0
ARC
  5
130
330
12F
100
AcDbEntity
  8
0
  6
Continuous
 62
     0
370
    30
100
AcDbCircle
 10
171.924788
 20
256.722053
 30
0.0
 40
7.999999999936003
100
AcDbArc
 50
270.0
 51
350.204853
  0
LINE
  5
131
330
12F
100
AcDbEntity
  8
0
  6
Continuous
 62
     0
370
    30
100
AcDbLine
 10
179.808166
 20
255.361045
 30
0.0
 11
183.930721
 21
279.24015
 31
0.0
  0
ARC
  5
132
330
12F
100
AcDbEntity
  8
0
  6
Continuous
 62
     0
370
    30
100
AcDbCircle
 10
192.799522
 20
277.709015
 30
0.0
 40
8.999999999964002
100
AcDbArc
 50
133.472
 51
170.204853
  0
ARC
  5
133
330
12F
100
AcDbEntity
  8
0
  6
Continuous
 62
     0
370
    30
100
AcDbCircle
 10
181.103521
 20
290.046097
 30
0.0
 40
7.999999999936003
100
AcDbArc
 50
313.472
 51
0.544002
  0
LINE
  5
134
330
12F
100
AcDbEntity
  8
0
  6
Continuous
 62
     0
370
    30
100
AcDbLine
 10
141.281534
 20
248.722053
 30
0.0
 11
171.924788
 21
248.722053
 31
0.0
  0
LINE
  5
135
330
12F
100
AcDbEntity
  8
0
  6
Continuous
 62
     0
370
     0
100
AcDbLine
 10
133.398156
 20
255.361045
 30
0.0
 11
179.808166
 21
255.361045
 31
0.0
  0
LINE
  5
136
330
12F
100
AcDbEntity
  8
0
  6
Continuous
 62
     0
370
     0
100
AcDbLine
 10
129.275601
 20
279.24015
 30
0.0
 11
183.930721
 21
279.24015
 31
0.0
  0
LINE
  5
137
330
12F
100
AcDbEntity
  8
0
  6
Continuous
 62
     0
370
     0
100
AcDbLine
 10
126.5988
 20
284.240411
 30
0.0
 11
186.607521
 21
284.240411
 31
0.0
  0
LINE
  5
138
330
12F
100
AcDbEntity
  8
0
  6
Continuous
 62
     0
370
    30
100
AcDbLine
 10
124.103161
 20
290.122053
 30
0.0
 11
189.103161
 21
290.122053
 31
0.0
  0
ARC
  5
139
330
12F
100
AcDbEntity
  8
0
  6
Continuous
 62
     0
370
    30
100
AcDbCircle
 10
132.1028
 20
290.046097
 30
0.0
 40
7.999999999936003
100
AcDbArc
 50
179.455998
 51
226.528
  0
ARC
  5
13A
330
12F
100
AcDbEntity
  8
0
  6
Continuous
 62
     0
370
    30
100
AcDbCircle
 10
120.4068
 20
277.709015
 30
0.0
 40
8.999999999964002
100
AcDbArc
 50
9.795147
 51
46.528
  0
LINE
  5
13B
330
12F
100
AcDbEntity
  8
0
  6
Continuous
 62
     0
370
    30
100
AcDbLine
 10
133.398156
 20
255.361045
 30
0.0
 11
129.275601
 21
279.24015
 31
0.0
  0
ARC
  5
13C
330
12F
100
AcDbEntity
  8
0
  6
Continuous
 62
     0
370
    30
100
AcDbCircle
 10
141.281534
 20
256.722053
 30
0.0
 40
7.999999999936003
100
AcDbArc
 50
189.795147
 51
270.0
  0
ARC
  5
13D
330
12F
100
AcDbEntity
  8
0
  6
Continuous
 62
     0
370
    30
100
AcDbCircle
 10
281.924788
 20
256.722053
 30
0.0
 40
7.999999999936003
100
AcDbArc
 50
270.0
 51
350.204853
  0
LINE
  5
13E
330
12F
100
AcDbEntity
  8
0
  6
Continuous
 62
     0
370
    30
100
AcDbLine
 10
289.808166
 20
255.361045
 30
0.0
 11
293.930721
 21
279.24015
 31
0.0
  0
ARC
  5
13F
330
12F
100
AcDbEntity
  8
0
  6
Continuous
 62
     0
370
    30
100
AcDbCircle
 10
302.799522
 20
277.709016
 30
0.0
 40
8.999999999964002
100
AcDbArc
 50
133.472
 51
170.204853
  0
ARC
  5
140
330
12F
100
AcDbEntity
  8
0
  6
Continuous
 62
     0
370
    30
100
AcDbCircle
 10
291.103521
 20
290.046097
 30
0.0
 40
7.999999999936003
100
AcDbArc
 50
313.472
 51
0.544002
  0
LINE
  5
141
330
12F
100
AcDbEntity
  8
0
  6
Continuous
 62
     0
370
    30
100
AcDbLine
 10
251.281534
 20
248.722053
 30
0.0
 11
281.924788
 21
248.722053
 31
0.0
  0
LINE
  5
142
330
12F
100
AcDbEntity
  8
0
  6
Continuous
 62
     0
370
     0
100
AcDbLine
 10
243.398156
 20
255.361045
 30
0.0
 11
289.808166
 21
255.361045
 31
0.0
  0
LINE
  5
143
330
12F
100
AcDbEntity
  8
0
  6
Continuous
 62
     0
370
     0
100
AcDbLine
 10
239.275601
 20
279.24015
 30
0.0
 11
293.930721
 21
279.24015
 31
0.0
  0
LINE
  5
144
330
12F
100
AcDbEntity
  8
0
  6
Continuous
 62
     0
370
     0
100
AcDbLine
 10
236.5988
 20
284.240412
 30
0.0
 11
296.607521
 21
284.240412
 31
0.0
  0
LINE
  5
145
330
12F
100
AcDbEntity
  8
0
  6
Continuous
 62
     0
370
    30
100
AcDbLine
 10
234.103161
 20
290.122053
 30
0.0
 11
299.103161
 21
290.122053
 31
0.0
  0
ARC
  5
146
330
12F
100
AcDbEntity
  8
0
  6
Continuous
 62
     0
370
    30
100
AcDbCircle
 10
242.1028
 20
290.046097
 30
0.0
 40
7.999999999936003
100
AcDbArc
 50
179.455998
 51
226.528
  0
ARC
  5
147
330
12F
100
AcDbEntity
  8
0
  6
Continuous
 62
     0
370
    30
100
AcDbCircle
 10
230.4068
 20
277.709016
 30
0.0
 40
8.999999999964002
100
AcDbArc
 50
9.795147
 51
46.528
  0
LINE
  5
148
330
12F
100
AcDbEntity
  8
0
  6
Continuous
 62
     0
370
    30
100
AcDbLine
 10
243.398156
 20
255.361045
 30
0.0
 11
239.275601
 21
279.24015
 31
0.0
  0
ARC
  5
149
330
12F
100
AcDbEntity
  8
0
  6
Continuous
 62
     0
370
    30
100
AcDbCircle
 10
251.281534
 20
256.722053
 30
0.0
 40
7.999999999936003
100
AcDbArc
 50
189.795147
 51
270.0
  0
ARC
  5
14A
330
12F
100
AcDbEntity
  8
0
  6
Continuous
 62
     0
370
    30
100
AcDbCircle
 10
391.924788
 20
256.722053
 30
0.0
 40
7.999999999936003
100
AcDbArc
 50
270.0
 51
350.204853
  0
LINE
  5
14B
330
12F
100
AcDbEntity
  8
0
  6
Continuous
 62
     0
370
    30
100
AcDbLine
 10
399.808166
 20
255.361045
 30
0.0
 11
403.930721
 21
279.24015
 31
0.0
  0
ARC
  5
14C
330
12F
100
AcDbEntity
  8
0
  6
Continuous
 62
     0
370
    30
100
AcDbCircle
 10
412.799522
 20
277.709015
 30
0.0
 40
8.999999999964002
100
AcDbArc
 50
133.472
 51
170.204853
  0
ARC
  5
14D
330
12F
100
AcDbEntity
  8
0
  6
Continuous
 62
     0
370
    30
100
AcDbCircle
 10
401.103521
 20
290.046097
 30
0.0
 40
7.999999999936003
100
AcDbArc
 50
313.472
 51
0.544002
  0
LINE
  5
14E
330
12F
100
AcDbEntity
  8
0
  6
Continuous
 62
     0
370
    30
100
AcDbLine
 10
361.281534
 20
248.722053
 30
0.0
 11
391.924788
 21
248.722053
 31
0.0
  0
LINE
  5
14F
330
12F
100
AcDbEntity
  8
0
  6
Continuous
 62
     0
370
     0
100
AcDbLine
 10
353.398156
 20
255.361045
 30
0.0
 11
399.808166
 21
255.361045
 31
0.0
  0
LINE
  5
150
330
12F
100
AcDbEntity
  8
0
  6
Continuous
 62
     0
370
     0
100
AcDbLine
 10
349.275601
 20
279.24015
 30
0.0
 11
403.930721
 21
279.24015
 31
0.0
  0
LINE
  5
151
330
12F
100
AcDbEntity
  8
0
  6
Continuous
 62
     0
370
     0
100
AcDbLine
 10
346.5988
 20
284.240411
 30
0.0
 11
406.607521
 21
284.240411
 31
0.0
  0
LINE
  5
152
330
12F
100
AcDbEntity
  8
0
  6
Continuous
 62
     0
370
    30
100
AcDbLine
 10
344.103161
 20
290.122053
 30
0.0
 11
409.103161
 21
290.122053
 31
0.0
  0
ARC
  5
153
330
12F
100
AcDbEntity
  8
0
  6
Continuous
 62
     0
370
    30
100
AcDbCircle
 10
352.1028
 20
290.046097
 30
0.0
 40
7.999999999936003
100
AcDbArc
 50
179.455998
 51
226.528
  0
ARC
  5
154
330
12F
100
AcDbEntity
  8
0
  6
Continuous
 62
     0
370
    30
100
AcDbCircle
 10
340.4068
 20
277.709015
 30
0.0
 40
8.999999999964002
100
AcDbArc
 50
9.795147
 51
46.528
  0
LINE
  5
155
330
12F
100
AcDbEntity
  8
0
  6
Continuous
 62
     0
370
    30
100
AcDbLine
 10
353.398156
 20
255.361045
 30
0.0
 11
349.275601
 21
279.24015
 31
0.0
  0
ARC
  5
156
330
12F
100
AcDbEntity
  8
0
  6
Continuous
 62
     0
370
    30
100
AcDbCircle
 10
361.281534
 20
256.722053
 30
0.0
 40
7.999999999936003
100
AcDbArc
 50
189.795147
 51
270.0
  0
LINE
  5
157
330
12F
100
AcDbEntity
  8
0
  6
Continuous
 62
     0
370
     0
100
AcDbLine
 10
367.138875
 20
240.359327
 30
0.0
 11
385.669181
 21
240.359327
 31
0.0
  0
LINE
  5
158
330
12F
100
AcDbEntity
  8
0
  6
Continuous
 62
     0
370
     0
100
AcDbLine
 10
385.669181
 20
240.359327
 30
0.0
 11
386.067447
 21
240.359327
 31
0.0
  0
LINE
  5
159
330
12F
100
AcDbEntity
  8
0
  6
Continuous
 62
     0
370
     0
100
AcDbLine
 10
370.353057
 20
245.061751
 30
0.0
 11
382.590254
 21
245.061751
 31
0.0
  0
LINE
  5
15A
330
12F
100
AcDbEntity
  8
0
  6
Continuous
 62
     0
370
     0
100
AcDbLine
 10
382.590254
 20
245.061751
 30
0.0
 11
382.853264
 21
245.061751
 31
0.0
  0
ELLIPSE
  5
15B
330
12F
100
AcDbEntity
  8
0
  6
Continuous
 62
     0
370
     0
100
AcDbEllipse
 10
397.557009
 20
230.722051
 30
0.0
 11
6.549005523145269E-8
 21
4.999999999979931
 31
0.0
210
0.0
220
0.0
230
1.0
 40
0.287038
 41
0.0000000456316167
 42
3.14159269922141
  0
ELLIPSE
  5
15C
330
12F
100
AcDbEntity
  8
0
  6
Continuous
 62
     0
370
     0
100
AcDbEllipse
 10
403.482596
 20
230.722051
 30
0.0
 11
9.355722175921738E-8
 21
7.142857142828415
 31
0.0
210
0.0
220
0.0
230
1.0
 40
0.287038
 41
0.2381555167043219
 42
2.903436333428089
  0
ELLIPSE
  5
15D
330
12F
100
AcDbEntity
  8
0
  6
Continuous
 62
     0
370
     0
100
AcDbEllipse
 10
408.997304
 20
230.72205
 30
0.0
 11
8.233035514810515E-8
 21
6.285714285688536
 31
0.0
210
0.0
220
0.0
230
1.0
 40
0.287038
 41
5.838322030742304
 42
9.424778006400988
  0
ELLIPSE
  5
15E
330
12F
100
AcDbEntity
  8
0
  6
Continuous
 62
     0
370
     0
100
AcDbEllipse
 10
408.997304
 20
230.72205
 30
0.0
 11
8.233035514810515E-8
 21
6.285714285688536
 31
0.0
210
0.0
220
0.0
230
1.0
 40
0.287038
 41
3.141592699221401
 42
3.586458046682926
  0
ELLIPSE
  5
15F
330
12F
100
AcDbEntity
  8
0
  6
Continuous
 62
     0
370
     0
100
AcDbEllipse
 10
366.896328
 20
230.722049
 30
0.0
 11
9.169342607970826E-7
 21
-6.28571428568847
 31
0.0
210
0.0
220
0.0
230
1.0
 40
0.957919
 41
0.0
 42
6.283185307179586
  0
ELLIPSE
  5
160
330
12F
100
AcDbEntity
  8
0
  6
Continuous
 62
     0
370
     0
100
AcDbEllipse
 10
355.649313
 20
230.722051
 30
0.0
 11
-6.549005756524427E-8
 21
-4.999999999979931
 31
0.0
210
0.0
220
0.0
230
-1.0
 40
0.287038
 41
6.283185261547988
 42
9.42477791513777
  0
ELLIPSE
  5
161
330
12F
100
AcDbEntity
  8
0
  6
Continuous
 62
     0
370
     0
100
AcDbEllipse
 10
349.723725
 20
230.722051
 30
0.0
 11
-9.355722509320535E-8
 21
-7.142857142828415
 31
0.0
210
0.0
220
0.0
230
-1.0
 40
0.287038
 41
6.045028894984001
 42
6.283185261547986
  0
ELLIPSE
  5
162
330
12F
100
AcDbEntity
  8
0
  6
Continuous
 62
     0
370
     0
100
AcDbEllipse
 10
349.723725
 20
230.722051
 30
0.0
 11
-9.355722509320535E-8
 21
-7.142857142828415
 31
0.0
210
0.0
220
0.0
230
-1.0
 40
0.287038
 41
6.283185261547986
 42
9.662934280931083
  0
ELLIPSE
  5
163
330
12F
100
AcDbEntity
  8
0
  6
Continuous
 62
     0
370
     0
100
AcDbEllipse
 10
344.209018
 20
230.722051
 30
0.0
 11
-8.233035808201456E-8
 21
-6.285714285688536
 31
0.0
210
0.0
220
0.0
230
-1.0
 40
0.287038
 41
0.4448629521465688
 42
2.696729428141087
  0
LINE
  5
164
330
12F
100
AcDbEntity
  8
0
  6
Continuous
 62
     0
370
     0
100
AcDbLine
 10
389.603164
 20
218.722053
 30
0.0
 11
373.096413
 21
218.722053
 31
0.0
  0
LINE
  5
165
330
12F
100
AcDbEntity
  8
0
  6
Continuous
 62
     0
370
     0
100
AcDbLine
 10
373.096413
 20
218.722053
 30
0.0
 11
363.603158
 21
218.722053
 31
0.0
  0
LINE
  5
166
330
12F
100
AcDbEntity
  8
0
  6
Continuous
 62
     0
370
    30
100
AcDbLine
 10
384.603164
 20
213.722053
 30
0.0
 11
374.445162
 21
213.722053
 31
0.0
  0
LINE
  5
167
330
12F
100
AcDbEntity
  8
0
  6
Continuous
 62
     0
370
    30
100
AcDbLine
 10
374.445162
 20
213.722053
 30
0.0
 11
368.603158
 21
213.722053
 31
0.0
  0
LINE
  5
168
330
12F
100
AcDbEntity
  8
0
  6
Continuous
 62
     0
370
    30
100
AcDbLine
 10
389.056109
 20
225.722051
 30
0.0
 11
397.557009
 21
225.722051
 31
0.0
  0
LINE
  5
169
330
12F
100
AcDbEntity
  8
0
  6
Continuous
 62
     0
370
     0
100
AcDbLine
 10
375.012208
 20
235.222053
 30
0.0
 11
388.254274
 21
235.222053
 31
0.0
  0
LINE
  5
16A
330
12F
100
AcDbEntity
  8
0
  6
Continuous
 62
     0
370
    30
100
AcDbLine
 10
361.724588
 20
225.722051
 30
0.0
 11
355.649313
 21
225.722051
 31
0.0
  0
LWPOLYLINE
  5
16B
330
12F
100
AcDbEntity
  8
0
  6
Continuous
 62
     0
370
    30
100
AcDbPolyline
 90
       24
 70
     0
 43
0.0
 10
388.254272
 20
235.222046
 10
388.015808
 20
234.938507
 10
387.776947
 20
234.59903
 10
387.544708
 20
234.208374
 10
387.326019
 20
233.771133
 10
387.127777
 20
233.292099
 10
386.957062
 20
232.776611
 10
386.820435
 20
232.230835
 10
386.723816
 20
231.661957
 10
386.671722
 20
231.078094
 10
386.666809
 20
230.488495
 10
386.709198
 20
229.902649
 10
386.796906
 20
229.329956
 10
386.925598
 20
228.778702
 10
387.089783
 20
228.256409
 10
387.282837
 20
227.769348
 10
387.497894
 20
227.322983
 10
387.727905
 20
226.922226
 10
387.965881
 20
226.571793
 10
388.204926
 20
226.276321
 10
388.438599
 20
226.039978
 10
388.660706
 20
225.86673
 10
388.865448
 20
225.760086
 10
389.056122
 20
225.722046
  0
LWPOLYLINE
  5
16C
330
12F
100
AcDbEntity
  8
0
  6
Continuous
 62
     0
370
    30
100
AcDbPolyline
 90
        5
 70
     0
 43
0.0
 10
389.034302
 20
235.722046
 10
388.868988
 20
235.692108
 10
388.688324
 20
235.602783
 10
388.49295
 20
235.455353
 10
388.254272
 20
235.222046
  0
ARC
  5
16D
330
12F
100
AcDbEntity
  8
0
  6
Continuous
 62
     0
370
    30
100
AcDbCircle
 10
372.77048
 20
230.577458
 30
0.0
 40
5.157286380732696
100
AcDbArc
 50
64.235573
 51
75.40286
  0
LWPOLYLINE
  5
16E
330
12F
100
AcDbEntity
  8
0
  6
Continuous
 62
     0
370
    30
100
AcDbPolyline
 90
       22
 70
     0
 43
0.0
 10
374.070984
 20
225.876816
 10
374.621765
 20
226.053574
 10
375.152954
 20
226.292511
 10
375.656738
 20
226.589737
 10
376.125885
 20
226.941132
 10
376.554138
 20
227.342102
 10
376.935455
 20
227.787979
 10
377.263977
 20
228.273956
 10
377.533936
 20
228.794586
 10
377.73999
 20
229.343689
 10
377.877502
 20
229.913818
 10
377.94278
 20
230.496796
 10
377.934174
 20
231.083344
 10
377.851868
 20
231.664154
 10
377.69812
 20
232.230087
 10
377.476746
 20
232.773163
 10
377.192688
 20
233.286316
 10
376.85141
 20
233.763428
 10
376.458679
 20
234.19928
 10
376.020386
 20
234.589127
 10
375.54245
 20
234.928436
 10
375.012207
 20
235.222046
  0
LINE
  5
16F
330
12F
100
AcDbEntity
  8
0
  6
Continuous
 62
     0
370
    30
100
AcDbLine
 10
389.603161
 20
218.722053
 30
0.0
 11
389.603161
 21
225.722051
 31
0.0
  0
LINE
  5
170
330
12F
100
AcDbEntity
  8
0
  6
Continuous
 62
     0
370
    30
100
AcDbLine
 10
363.603161
 20
218.722053
 30
0.0
 11
363.603161
 21
223.992426
 31
0.0
  0
ARC
  5
171
330
12F
100
AcDbEntity
  8
0
  6
Continuous
 62
     0
370
    30
100
AcDbCircle
 10
368.603158
 20
218.722053
 30
0.0
 40
5.0
100
AcDbArc
 50
180.0
 51
270.0
  0
ARC
  5
172
330
12F
100
AcDbEntity
  8
0
  6
Continuous
 62
     0
370
    30
100
AcDbCircle
 10
384.603164
 20
218.722053
 30
0.0
 40
5.0
100
AcDbArc
 50
270.0
 51
0.0
  0
LWPOLYLINE
  5
173
330
12F
100
AcDbEntity
  8
0
  6
Continuous
 62
     0
370
    30
100
AcDbPolyline
 90
        6
 70
     0
 43
0.0
 10
391.481903
 20
235.722046
 10
391.068817
 20
236.207703
 10
390.61853
 20
236.658295
 10
390.133698
 20
237.070709
 10
389.617462
 20
237.442245
 10
388.938904
 20
237.842285
  0
LWPOLYLINE
  5
174
330
12F
100
AcDbEntity
  8
0
  6
Continuous
 62
     0
370
    30
100
AcDbPolyline
 90
        5
 70
     0
 43
0.0
 10
389.603149
 20
223.992432
 10
390.083954
 20
224.334702
 10
390.537933
 20
224.712463
 10
390.962585
 20
225.12352
 10
391.48172
 20
225.722046
  0
ARC
  5
175
330
12F
100
AcDbEntity
  8
0
  6
Continuous
 62
     0
370
    30
100
AcDbCircle
 10
352.856317
 20
230.722051
 30
0.0
 40
11.00000057265001
100
AcDbArc
 50
148.948314
 51
211.051653
  0
LWPOLYLINE
  5
176
330
12F
100
AcDbEntity
  8
0
  6
Continuous
 62
     0
370
    30
100
AcDbPolyline
 90
       15
 70
     0
 43
0.0
 10
350.207397
 20
237.6633
 10
349.759949
 20
237.997574
 10
349.269318
 20
238.276962
 10
348.743469
 20
238.493332
 10
348.191315
 20
238.640152
 10
347.62326
 20
238.713638
 10
347.049988
 20
238.71138
 10
346.482574
 20
238.633575
 10
345.931732
 20
238.482376
 10
345.407623
 20
238.262207
 10
344.919464
 20
237.979248
 10
344.474731
 20
237.642105
 10
344.078735
 20
237.260574
 10
343.733887
 20
236.845413
 10
343.432587
 20
236.395966
  0
LWPOLYLINE
  5
177
330
12F
100
AcDbEntity
  8
0
  6
Continuous
 62
     0
370
    30
100
AcDbPolyline
 90
        7
 70
     0
 43
0.0
 10
350.207397
 20
223.780807
 10
349.81192
 20
223.481125
 10
349.381653
 20
223.223999
 10
348.922089
 20
223.015411
 10
348.43927
 20
222.860275
 10
347.940033
 20
222.761963
 10
347.353485
 20
222.722046
  0
LWPOLYLINE
  5
178
330
12F
100
AcDbEntity
  8
0
  6
Continuous
 62
     0
370
    30
100
AcDbPolyline
 90
       10
 70
     0
 43
0.0
 10
343.432587
 20
225.048141
 10
343.707642
 20
224.634155
 10
344.026733
 20
224.240585
 10
344.391083
 20
223.875488
 10
344.799286
 20
223.547668
 10
345.247437
 20
223.265762
 10
345.729675
 20
223.037277
 10
346.2388
 20
222.867889
 10
346.766846
 20
222.761993
 10
347.353485
 20
222.722046
  0
LWPOLYLINE
  5
179
330
12F
100
AcDbEntity
  8
0
  6
Continuous
 62
     0
370
    30
100
AcDbPolyline
 90
        9
 70
     0
 43
0.0
 10
355.649323
 20
235.722046
 10
354.883972
 20
235.755554
 10
354.126465
 20
235.855545
 10
353.385498
 20
236.020325
 10
352.669434
 20
236.246506
 10
351.986725
 20
236.530075
 10
351.346436
 20
236.863907
 10
350.758148
 20
237.239105
 10
350.207397
 20
237.6633
  0
LWPOLYLINE
  5
17A
330
12F
100
AcDbEntity
  8
0
  6
Continuous
 62
     0
370
    30
100
AcDbPolyline
 90
        9
 70
     0
 43
0.0
 10
355.649323
 20
225.722046
 10
354.883972
 20
225.688553
 10
354.126465
 20
225.588562
 10
353.385498
 20
225.423782
 10
352.669434
 20
225.197601
 10
351.986725
 20
224.914032
 10
351.346436
 20
224.580185
 10
350.758148
 20
224.204987
 10
350.207397
 20
223.780807
  0
LINE
  5
17B
330
12F
100
AcDbEntity
  8
0
  6
Continuous
 62
     0
370
    30
100
AcDbLine
 10
361.724421
 20
235.722051
 30
0.0
 11
355.649313
 21
235.722051
 31
0.0
  0
LWPOLYLINE
  5
17C
330
12F
100
AcDbEntity
  8
0
  6
Continuous
 62
     0
370
    30
100
AcDbPolyline
 90
       65
 70
     0
 43
0.0
 10
367.838562
 20
222.722046
 10
367.06665
 20
222.760986
 10
366.30246
 20
222.87738
 10
365.553558
 20
223.069992
 10
364.827332
 20
223.336792
 10
364.130951
 20
223.674988
 10
363.4711
 20
224.08107
 10
362.854126
 20
224.550888
 10
362.28598
 20
225.079773
 10
361.771851
 20
225.662338
 10
361.316345
 20
226.29277
 10
360.923859
 20
226.965103
 10
360.597839
 20
227.672836
 10
360.341248
 20
228.409195
 10
360.156189
 20
229.167175
 10
360.044434
 20
229.939697
 10
360.006897
 20
230.719543
 10
360.043945
 20
231.499405
 10
360.155212
 20
232.272003
 10
360.339783
 20
233.030106
 10
360.595978
 20
233.766617
 10
360.92157
 20
234.474533
 10
361.313629
 20
235.147125
 10
361.768616
 20
235.777939
 10
362.282471
 20
236.360794
 10
362.850342
 20
236.889984
 10
363.46701
 20
237.360184
 10
364.126556
 20
237.766724
 10
364.822754
 20
238.105347
 10
365.548767
 20
238.37262
 10
366.297546
 20
238.565674
 10
367.061646
 20
238.682602
 10
367.833496
 20
238.722015
 10
368.605408
 20
238.683624
 10
369.369659
 20
238.567719
 10
370.118683
 20
238.375641
 10
370.845032
 20
238.109299
 10
371.541656
 20
237.771606
 10
372.201752
 20
237.365952
 10
372.819031
 20
236.896545
 10
373.387573
 20
236.368073
 10
373.902161
 20
235.785904
 10
374.357941
 20
235.15567
 10
374.750854
 20
234.483597
 10
375.077301
 20
233.776077
 10
375.334442
 20
233.039917
 10
375.519928
 20
232.282043
 10
375.632202
 20
231.509583
 10
375.670227
 20
230.729782
 10
375.633698
 20
229.94989
 10
375.522858
 20
229.177216
 10
375.338837
 20
228.418976
 10
375.083069
 20
227.682327
 10
374.757935
 20
226.974197
 10
374.366364
 20
226.301315
 10
373.911743
 20
225.670197
 10
373.398285
 20
225.087036
 10
372.830658
 20
224.557556
 10
372.214386
 20
224.086838
 10
371.555115
 20
223.679825
 10
370.859131
 20
223.340805
 10
370.133301
 20
223.073181
 10
369.384705
 20
222.879471
 10
368.620422
 20
222.762009
 10
367.838562
 20
222.722046
  0
ARC
  5
17D
330
12F
100
AcDbEntity
  8
0
  6
Continuous
 62
     0
370
    30
100
AcDbCircle
 10
400.350004
 20
230.722051
 30
0.0
 40
11.00000057264821
100
AcDbArc
 50
328.948347
 51
31.051686
  0
LWPOLYLINE
  5
17E
330
12F
100
AcDbEntity
  8
0
  6
Continuous
 62
     0
370
    30
100
AcDbPolyline
 90
       15
 70
     0
 43
0.0
 10
402.998901
 20
237.6633
 10
403.44635
 20
237.997574
 10
403.937012
 20
238.276962
 10
404.46286
 20
238.493332
 10
405.015015
 20
238.640152
 10
405.583069
 20
238.713638
 10
406.156311
 20
238.71138
 10
406.723724
 20
238.633575
 10
407.274597
 20
238.482376
 10
407.798676
 20
238.262207
 10
408.286865
 20
237.979248
 10
408.731598
 20
237.642105
 10
409.127563
 20
237.260574
 10
409.472443
 20
236.845413
 10
409.773743
 20
236.395966
  0
LWPOLYLINE
  5
17F
330
12F
100
AcDbEntity
  8
0
  6
Continuous
 62
     0
370
    30
100
AcDbPolyline
 90
        7
 70
     0
 43
0.0
 10
402.998901
 20
223.780807
 10
403.394409
 20
223.481125
 10
403.824677
 20
223.223999
 10
404.284241
 20
223.015411
 10
404.767059
 20
222.860275
 10
405.266266
 20
222.761948
 10
405.852844
 20
222.722046
  0
LWPOLYLINE
  5
180
330
12F
100
AcDbEntity
  8
0
  6
Continuous
 62
     0
370
    30
100
AcDbPolyline
 90
       10
 70
     0
 43
0.0
 10
409.773743
 20
225.048126
 10
409.498688
 20
224.634155
 10
409.179596
 20
224.240585
 10
408.815247
 20
223.875488
 10
408.407043
 20
223.547668
 10
407.958893
 20
223.265762
 10
407.476654
 20
223.037277
 10
406.967529
 20
222.867889
 10
406.439484
 20
222.761993
 10
405.852844
 20
222.722046
  0
LWPOLYLINE
  5
181
330
12F
100
AcDbEntity
  8
0
  6
Continuous
 62
     0
370
    30
100
AcDbPolyline
 90
        9
 70
     0
 43
0.0
 10
397.557007
 20
235.722046
 10
398.322357
 20
235.755554
 10
399.079865
 20
235.855545
 10
399.820831
 20
236.020325
 10
400.536896
 20
236.246506
 10
401.219604
 20
236.530075
 10
401.859863
 20
236.863907
 10
402.448181
 20
237.239105
 10
402.998901
 20
237.6633
  0
LWPOLYLINE
  5
182
330
12F
100
AcDbEntity
  8
0
  6
Continuous
 62
     0
370
    30
100
AcDbPolyline
 90
        9
 70
     0
 43
0.0
 10
397.557007
 20
225.722046
 10
398.322357
 20
225.688553
 10
399.079865
 20
225.588562
 10
399.820831
 20
225.423782
 10
400.536896
 20
225.197601
 10
401.219604
 20
224.914032
 10
401.859863
 20
224.580185
 10
402.448181
 20
224.204987
 10
402.998901
 20
223.780807
  0
LINE
  5
183
330
12F
100
AcDbEntity
  8
0
  6
Continuous
 62
     0
370
    30
100
AcDbLine
 10
389.034293
 20
235.722051
 30
0.0
 11
397.557009
 21
235.722051
 31
0.0
  0
LINE
  5
184
330
12F
100
AcDbEntity
  8
0
  6
Continuous
 62
     0
370
    30
100
AcDbLine
 10
382.853264
 20
245.061751
 30
0.0
 11
382.865042
 21
248.722053
 31
0.0
  0
LINE
  5
185
330
12F
100
AcDbEntity
  8
0
  6
Continuous
 62
     0
370
    30
100
AcDbLine
 10
370.353057
 20
245.061751
 30
0.0
 11
370.34128
 21
248.722053
 31
0.0
  0
ARC
  5
186
330
12F
100
AcDbEntity
  8
0
  6
Continuous
 62
     0
370
    30
100
AcDbCircle
 10
387.853161
 20
245.029575
 30
0.0
 40
4.999999999980002
100
AcDbArc
 50
179.631289
 51
249.075168
  0
ARC
  5
187
330
12F
100
AcDbEntity
  8
0
  6
Continuous
 62
     0
370
    30
100
AcDbCircle
 10
365.353161
 20
245.029575
 30
0.0
 40
4.999999999980002
100
AcDbArc
 50
290.924832
 51
0.368711
  0
ARC
  5
188
330
12F
100
AcDbEntity
  8
0
  6
Continuous
 62
     0
370
    30
100
AcDbCircle
 10
384.103161
 20
235.222053
 30
0.0
 40
5.499999999978002
100
AcDbArc
 50
5.215888
 51
69.075168
  0
ARC
  5
189
330
12F
100
AcDbEntity
  8
0
  6
Continuous
 62
     0
370
    30
100
AcDbCircle
 10
369.103161
 20
235.222053
 30
0.0
 40
5.499999999978002
100
AcDbArc
 50
110.924832
 51
151.549163
  0
LINE
  5
18A
330
12F
100
AcDbEntity
  8
0
  6
Continuous
 62
     0
370
     0
100
AcDbLine
 10
147.138875
 20
240.359327
 30
0.0
 11
165.669181
 21
240.359327
 31
0.0
  0
LINE
  5
18B
330
12F
100
AcDbEntity
  8
0
  6
Continuous
 62
     0
370
     0
100
AcDbLine
 10
165.669181
 20
240.359327
 30
0.0
 11
166.067447
 21
240.359327
 31
0.0
  0
LINE
  5
18C
330
12F
100
AcDbEntity
  8
0
  6
Continuous
 62
     0
370
     0
100
AcDbLine
 10
150.353057
 20
245.061751
 30
0.0
 11
162.590254
 21
245.061751
 31
0.0
  0
LINE
  5
18D
330
12F
100
AcDbEntity
  8
0
  6
Continuous
 62
     0
370
     0
100
AcDbLine
 10
162.590254
 20
245.061751
 30
0.0
 11
162.853264
 21
245.061751
 31
0.0
  0
ELLIPSE
  5
18E
330
12F
100
AcDbEntity
  8
0
  6
Continuous
 62
     0
370
     0
100
AcDbEllipse
 10
177.557009
 20
230.722051
 30
0.0
 11
6.549005523145269E-8
 21
4.999999999979931
 31
0.0
210
0.0
220
0.0
230
1.0
 40
0.287038
 41
0.0000000456315377
 42
3.14159269922141
  0
ELLIPSE
  5
18F
330
12F
100
AcDbEntity
  8
0
  6
Continuous
 62
     0
370
     0
100
AcDbEllipse
 10
183.482596
 20
230.722051
 30
0.0
 11
9.355722175921738E-8
 21
7.142857142828415
 31
0.0
210
0.0
220
0.0
230
1.0
 40
0.287038
 41
0.2381555117926935
 42
2.903436333428125
  0
ELLIPSE
  5
190
330
12F
100
AcDbEntity
  8
0
  6
Continuous
 62
     0
370
     0
100
AcDbEllipse
 10
188.997304
 20
230.72205
 30
0.0
 11
8.233035514810515E-8
 21
6.285714285688536
 31
0.0
210
0.0
220
0.0
230
1.0
 40
0.287038
 41
5.838321925091739
 42
9.424778006400988
  0
ELLIPSE
  5
191
330
12F
100
AcDbEntity
  8
0
  6
Continuous
 62
     0
370
     0
100
AcDbEllipse
 10
188.997304
 20
230.72205
 30
0.0
 11
8.233035514810515E-8
 21
6.285714285688536
 31
0.0
210
0.0
220
0.0
230
1.0
 40
0.287038
 41
3.141592699221401
 42
3.586458046682935
  0
ELLIPSE
  5
192
330
12F
100
AcDbEntity
  8
0
  6
Continuous
 62
     0
370
     0
100
AcDbEllipse
 10
146.896328
 20
230.722049
 30
0.0
 11
9.169342607970826E-7
 21
-6.28571428568847
 31
0.0
210
0.0
220
0.0
230
1.0
 40
0.957919
 41
0.0
 42
6.283185307179586
  0
ELLIPSE
  5
193
330
12F
100
AcDbEntity
  8
0
  6
Continuous
 62
     0
370
     0
100
AcDbEllipse
 10
135.649313
 20
230.722051
 30
0.0
 11
-6.549005756524427E-8
 21
-4.999999999979931
 31
0.0
210
0.0
220
0.0
230
-1.0
 40
0.287038
 41
6.283185261547988
 42
9.424777915137563
  0
ELLIPSE
  5
194
330
12F
100
AcDbEntity
  8
0
  6
Continuous
 62
     0
370
     0
100
AcDbEllipse
 10
129.723725
 20
230.722051
 30
0.0
 11
-9.355722509320535E-8
 21
-7.142857142828415
 31
0.0
210
0.0
220
0.0
230
-1.0
 40
0.287038
 41
6.045028894984015
 42
6.283185261547994
  0
ELLIPSE
  5
195
330
12F
100
AcDbEntity
  8
0
  6
Continuous
 62
     0
370
     0
100
AcDbEllipse
 10
129.723725
 20
230.722051
 30
0.0
 11
-9.355722509320535E-8
 21
-7.142857142828415
 31
0.0
210
0.0
220
0.0
230
-1.0
 40
0.287038
 41
6.283185261547994
 42
9.66293428093114
  0
ELLIPSE
  5
196
330
12F
100
AcDbEntity
  8
0
  6
Continuous
 62
     0
370
     0
100
AcDbEllipse
 10
124.209018
 20
230.722051
 30
0.0
 11
-8.233035808201456E-8
 21
-6.285714285688536
 31
0.0
210
0.0
220
0.0
230
-1.0
 40
0.287038
 41
0.4448620760366189
 42
2.696729285889266
  0
LINE
  5
197
330
12F
100
AcDbEntity
  8
0
  6
Continuous
 62
     0
370
     0
100
AcDbLine
 10
169.603164
 20
218.722053
 30
0.0
 11
153.096413
 21
218.722053
 31
0.0
  0
LINE
  5
198
330
12F
100
AcDbEntity
  8
0
  6
Continuous
 62
     0
370
     0
100
AcDbLine
 10
153.096413
 20
218.722053
 30
0.0
 11
143.603158
 21
218.722053
 31
0.0
  0
LINE
  5
199
330
12F
100
AcDbEntity
  8
0
  6
Continuous
 62
     0
370
    30
100
AcDbLine
 10
164.603164
 20
213.722053
 30
0.0
 11
154.445162
 21
213.722053
 31
0.0
  0
LINE
  5
19A
330
12F
100
AcDbEntity
  8
0
  6
Continuous
 62
     0
370
    30
100
AcDbLine
 10
154.445162
 20
213.722053
 30
0.0
 11
148.603158
 21
213.722053
 31
0.0
  0
LINE
  5
19B
330
12F
100
AcDbEntity
  8
0
  6
Continuous
 62
     0
370
    30
100
AcDbLine
 10
169.056109
 20
225.722051
 30
0.0
 11
177.557009
 21
225.722051
 31
0.0
  0
LINE
  5
19C
330
12F
100
AcDbEntity
  8
0
  6
Continuous
 62
     0
370
     0
100
AcDbLine
 10
155.012208
 20
235.222053
 30
0.0
 11
168.254274
 21
235.222053
 31
0.0
  0
LINE
  5
19D
330
12F
100
AcDbEntity
  8
0
  6
Continuous
 62
     0
370
    30
100
AcDbLine
 10
141.724588
 20
225.722051
 30
0.0
 11
135.649313
 21
225.722051
 31
0.0
  0
LWPOLYLINE
  5
19E
330
12F
100
AcDbEntity
  8
0
  6
Continuous
 62
     0
370
    30
100
AcDbPolyline
 90
       24
 70
     0
 43
0.0
 10
168.254272
 20
235.222046
 10
168.015808
 20
234.938507
 10
167.776932
 20
234.59903
 10
167.544708
 20
234.208374
 10
167.326004
 20
233.771133
 10
167.127777
 20
233.292099
 10
166.957062
 20
232.776611
 10
166.82045
 20
232.230835
 10
166.723816
 20
231.661957
 10
166.671738
 20
231.078094
 10
166.666794
 20
230.488495
 10
166.709183
 20
229.902649
 10
166.796906
 20
229.329956
 10
166.925613
 20
228.778702
 10
167.089767
 20
228.256409
 10
167.282852
 20
227.769348
 10
167.497894
 20
227.322983
 10
167.727905
 20
226.922226
 10
167.965881
 20
226.571793
 10
168.204926
 20
226.276321
 10
168.438599
 20
226.039978
 10
168.660706
 20
225.86673
 10
168.865448
 20
225.760086
 10
169.056107
 20
225.722046
  0
LWPOLYLINE
  5
19F
330
12F
100
AcDbEntity
  8
0
  6
Continuous
 62
     0
370
    30
100
AcDbPolyline
 90
        5
 70
     0
 43
0.0
 10
169.034286
 20
235.722046
 10
168.868988
 20
235.692108
 10
168.688324
 20
235.602783
 10
168.492966
 20
235.455353
 10
168.254272
 20
235.222046
  0
ARC
  5
1A0
330
12F
100
AcDbEntity
  8
0
  6
Continuous
 62
     0
370
    30
100
AcDbCircle
 10
152.77048
 20
230.577458
 30
0.0
 40
5.157286380739057
100
AcDbArc
 50
64.235573
 51
75.40286
  0
LWPOLYLINE
  5
1A1
330
12F
100
AcDbEntity
  8
0
  6
Continuous
 62
     0
370
    30
100
AcDbPolyline
 90
       22
 70
     0
 43
0.0
 10
154.070984
 20
225.876816
 10
154.62178
 20
226.053574
 10
155.152954
 20
226.292511
 10
155.656738
 20
226.589737
 10
156.125885
 20
226.941132
 10
156.554123
 20
227.342102
 10
156.935471
 20
227.787979
 10
157.263977
 20
228.273956
 10
157.533951
 20
228.794586
 10
157.740005
 20
229.343689
 10
157.877487
 20
229.913818
 10
157.94278
 20
230.496796
 10
157.934189
 20
231.083344
 10
157.851883
 20
231.664154
 10
157.69812
 20
232.230087
 10
157.476746
 20
232.773163
 10
157.192703
 20
233.286316
 10
156.85141
 20
233.763428
 10
156.458694
 20
234.19928
 10
156.020401
 20
234.589127
 10
155.542465
 20
234.928436
 10
155.012207
 20
235.222046
  0
LINE
  5
1A2
330
12F
100
AcDbEntity
  8
0
  6
Continuous
 62
     0
370
    30
100
AcDbLine
 10
169.603161
 20
218.722053
 30
0.0
 11
169.603161
 21
225.722051
 31
0.0
  0
LINE
  5
1A3
330
12F
100
AcDbEntity
  8
0
  6
Continuous
 62
     0
370
    30
100
AcDbLine
 10
143.603161
 20
218.722053
 30
0.0
 11
143.603161
 21
223.992426
 31
0.0
  0
ARC
  5
1A4
330
12F
100
AcDbEntity
  8
0
  6
Continuous
 62
     0
370
    30
100
AcDbCircle
 10
148.603158
 20
218.722053
 30
0.0
 40
5.0
100
AcDbArc
 50
180.0
 51
270.0
  0
ARC
  5
1A5
330
12F
100
AcDbEntity
  8
0
  6
Continuous
 62
     0
370
    30
100
AcDbCircle
 10
164.603164
 20
218.722053
 30
0.0
 40
5.0
100
AcDbArc
 50
270.0
 51
0.0
  0
LWPOLYLINE
  5
1A6
330
12F
100
AcDbEntity
  8
0
  6
Continuous
 62
     0
370
    30
100
AcDbPolyline
 90
        6
 70
     0
 43
0.0
 10
171.481903
 20
235.722046
 10
171.068832
 20
236.207703
 10
170.618515
 20
236.658295
 10
170.133682
 20
237.070709
 10
169.617447
 20
237.442245
 10
168.938904
 20
237.842285
  0
LWPOLYLINE
  5
1A7
330
12F
100
AcDbEntity
  8
0
  6
Continuous
 62
     0
370
    30
100
AcDbPolyline
 90
        5
 70
     0
 43
0.0
 10
169.603165
 20
223.992432
 10
170.083954
 20
224.334702
 10
170.537949
 20
224.712463
 10
170.962601
 20
225.12352
 10
171.481735
 20
225.722046
  0
ARC
  5
1A8
330
12F
100
AcDbEntity
  8
0
  6
Continuous
 62
     0
370
    30
100
AcDbCircle
 10
132.856317
 20
230.722051
 30
0.0
 40
11.00000057265012
100
AcDbArc
 50
148.948314
 51
211.051653
  0
LWPOLYLINE
  5
1A9
330
12F
100
AcDbEntity
  8
0
  6
Continuous
 62
     0
370
    30
100
AcDbPolyline
 90
       15
 70
     0
 43
0.0
 10
130.207413
 20
237.6633
 10
129.759964
 20
237.997574
 10
129.269302
 20
238.276962
 10
128.743469
 20
238.493332
 10
128.191315
 20
238.640152
 10
127.623253
 20
238.713638
 10
127.050003
 20
238.71138
 10
126.482582
 20
238.633575
 10
125.931725
 20
238.482376
 10
125.407631
 20
238.262207
 10
124.919449
 20
237.979248
 10
124.474724
 20
237.642105
 10
124.078743
 20
237.260574
 10
123.733879
 20
236.845413
 10
123.432587
 20
236.395966
  0
LWPOLYLINE
  5
1AA
330
12F
100
AcDbEntity
  8
0
  6
Continuous
 62
     0
370
    30
100
AcDbPolyline
 90
        7
 70
     0
 43
0.0
 10
130.207413
 20
223.780807
 10
129.81192
 20
223.481125
 10
129.381653
 20
223.223999
 10
128.922089
 20
223.015411
 10
128.43927
 20
222.860275
 10
127.940048
 20
222.761963
 10
127.353493
 20
222.722046
  0
LWPOLYLINE
  5
1AB
330
12F
100
AcDbEntity
  8
0
  6
Continuous
 62
     0
370
    30
100
AcDbPolyline
 90
       10
 70
     0
 43
0.0
 10
123.432587
 20
225.048141
 10
123.707634
 20
224.634155
 10
124.026726
 20
224.240585
 10
124.391068
 20
223.875488
 10
124.799278
 20
223.547668
 10
125.247437
 20
223.265762
 10
125.729668
 20
223.037277
 10
126.238785
 20
222.867889
 10
126.766838
 20
222.761993
 10
127.353493
 20
222.722046
  0
LWPOLYLINE
  5
1AC
330
12F
100
AcDbEntity
  8
0
  6
Continuous
 62
     0
370
    30
100
AcDbPolyline
 90
        9
 70
     0
 43
0.0
 10
135.649307
 20
235.722046
 10
134.883972
 20
235.755554
 10
134.12645
 20
235.855545
 10
133.385498
 20
236.020325
 10
132.669434
 20
236.246506
 10
131.98671
 20
236.530075
 10
131.346451
 20
236.863907
 10
130.758133
 20
237.239105
 10
130.207413
 20
237.6633
  0
LWPOLYLINE
  5
1AD
330
12F
100
AcDbEntity
  8
0
  6
Continuous
 62
     0
370
    30
100
AcDbPolyline
 90
        9
 70
     0
 43
0.0
 10
135.649307
 20
225.722046
 10
134.883972
 20
225.688553
 10
134.12645
 20
225.588562
 10
133.385498
 20
225.423782
 10
132.669434
 20
225.197601
 10
131.98671
 20
224.914032
 10
131.346451
 20
224.580185
 10
130.758133
 20
224.204987
 10
130.207413
 20
223.780807
  0
LINE
  5
1AE
330
12F
100
AcDbEntity
  8
0
  6
Continuous
 62
     0
370
    30
100
AcDbLine
 10
141.724421
 20
235.722051
 30
0.0
 11
135.649313
 21
235.722051
 31
0.0
  0
LWPOLYLINE
  5
1AF
330
12F
100
AcDbEntity
  8
0
  6
Continuous
 62
     0
370
    30
100
AcDbPolyline
 90
       65
 70
     0
 43
0.0
 10
147.838562
 20
222.722046
 10
147.066666
 20
222.760986
 10
146.30246
 20
222.87738
 10
145.553574
 20
223.069992
 10
144.827332
 20
223.336792
 10
144.130936
 20
223.674988
 10
143.471085
 20
224.08107
 10
142.854111
 20
224.550888
 10
142.28598
 20
225.079773
 10
141.771851
 20
225.662338
 10
141.316345
 20
226.29277
 10
140.923843
 20
226.965103
 10
140.597839
 20
227.672836
 10
140.341248
 20
228.409195
 10
140.156189
 20
229.167175
 10
140.044434
 20
229.939697
 10
140.006897
 20
230.719543
 10
140.043945
 20
231.499405
 10
140.155212
 20
232.272003
 10
140.339798
 20
233.030106
 10
140.595978
 20
233.766617
 10
140.92157
 20
234.474533
 10
141.313629
 20
235.147125
 10
141.768631
 20
235.777939
 10
142.282455
 20
236.360794
 10
142.850327
 20
236.889984
 10
143.46701
 20
237.360184
 10
144.126556
 20
237.766724
 10
144.822754
 20
238.105347
 10
145.548782
 20
238.37262
 10
146.297562
 20
238.565674
 10
147.061646
 20
238.682602
 10
147.833496
 20
238.722015
 10
148.605392
 20
238.683624
 10
149.369644
 20
238.567719
 10
150.118668
 20
238.375641
 10
150.845032
 20
238.109299
 10
151.541672
 20
237.771606
 10
152.201767
 20
237.365952
 10
152.819031
 20
236.896545
 10
153.387558
 20
236.368073
 10
153.902145
 20
235.785904
 10
154.357925
 20
235.15567
 10
154.75087
 20
234.483597
 10
155.077301
 20
233.776077
 10
155.334457
 20
233.039917
 10
155.519928
 20
232.282043
 10
155.632202
 20
231.509583
 10
155.670227
 20
230.729782
 10
155.633682
 20
229.94989
 10
155.522873
 20
229.177216
 10
155.338821
 20
228.418976
 10
155.083069
 20
227.682327
 10
154.757919
 20
226.974197
 10
154.366348
 20
226.301315
 10
153.911743
 20
225.670197
 10
153.398285
 20
225.087036
 10
152.830673
 20
224.557556
 10
152.214401
 20
224.086838
 10
151.555099
 20
223.679825
 10
150.859131
 20
223.340805
 10
150.133316
 20
223.073181
 10
149.384689
 20
222.879471
 10
148.620438
 20
222.762009
 10
147.838562
 20
222.722046
  0
ARC
  5
1B0
330
12F
100
AcDbEntity
  8
0
  6
Continuous
 62
     0
370
    30
100
AcDbCircle
 10
180.350004
 20
230.722051
 30
0.0
 40
11.00000057264872
100
AcDbArc
 50
328.948347
 51
31.051686
  0
LWPOLYLINE
  5
1B1
330
12F
100
AcDbEntity
  8
0
  6
Continuous
 62
     0
370
    30
100
AcDbPolyline
 90
       15
 70
     0
 43
0.0
 10
182.998917
 20
237.6633
 10
183.446365
 20
237.997574
 10
183.937012
 20
238.276962
 10
184.46286
 20
238.493332
 10
185.014999
 20
238.640152
 10
185.583069
 20
238.713638
 10
186.156326
 20
238.71138
 10
186.72374
 20
238.633575
 10
187.274597
 20
238.482376
 10
187.798691
 20
238.262207
 10
188.286865
 20
237.979248
 10
188.731598
 20
237.642105
 10
189.127579
 20
237.260574
 10
189.472443
 20
236.845413
 10
189.773727
 20
236.395966
  0
LWPOLYLINE
  5
1B2
330
12F
100
AcDbEntity
  8
0
  6
Continuous
 62
     0
370
    30
100
AcDbPolyline
 90
        7
 70
     0
 43
0.0
 10
182.998917
 20
223.780807
 10
183.394409
 20
223.481125
 10
183.824677
 20
223.223999
 10
184.284225
 20
223.015411
 10
184.767059
 20
222.860275
 10
185.266281
 20
222.761948
 10
185.852829
 20
222.722046
  0
LWPOLYLINE
  5
1B3
330
12F
100
AcDbEntity
  8
0
  6
Continuous
 62
     0
370
    30
100
AcDbPolyline
 90
       10
 70
     0
 43
0.0
 10
189.773727
 20
225.048126
 10
189.498688
 20
224.634155
 10
189.179596
 20
224.240585
 10
188.815247
 20
223.875488
 10
188.407043
 20
223.547668
 10
187.958878
 20
223.265762
 10
187.476654
 20
223.037277
 10
186.967529
 20
222.867889
 10
186.439484
 20
222.761993
 10
185.852829
 20
222.722046
  0
LWPOLYLINE
  5
1B4
330
12F
100
AcDbEntity
  8
0
  6
Continuous
 62
     0
370
    30
100
AcDbPolyline
 90
        9
 70
     0
 43
0.0
 10
177.557007
 20
235.722046
 10
178.322357
 20
235.755554
 10
179.079865
 20
235.855545
 10
179.820831
 20
236.020325
 10
180.53688
 20
236.246506
 10
181.219604
 20
236.530075
 10
181.859879
 20
236.863907
 10
182.448181
 20
237.239105
 10
182.998917
 20
237.6633
  0
LWPOLYLINE
  5
1B5
330
12F
100
AcDbEntity
  8
0
  6
Continuous
 62
     0
370
    30
100
AcDbPolyline
 90
        9
 70
     0
 43
0.0
 10
177.557007
 20
225.722046
 10
178.322357
 20
225.688553
 10
179.079865
 20
225.588562
 10
179.820831
 20
225.423782
 10
180.53688
 20
225.197601
 10
181.219604
 20
224.914032
 10
181.859879
 20
224.580185
 10
182.448181
 20
224.204987
 10
182.998917
 20
223.780807
  0
LINE
  5
1B6
330
12F
100
AcDbEntity
  8
0
  6
Continuous
 62
     0
370
    30
100
AcDbLine
 10
169.034293
 20
235.722051
 30
0.0
 11
177.557009
 21
235.722051
 31
0.0
  0
LINE
  5
1B7
330
12F
100
AcDbEntity
  8
0
  6
Continuous
 62
     0
370
    30
100
AcDbLine
 10
162.853264
 20
245.061751
 30
0.0
 11
162.865042
 21
248.722053
 31
0.0
  0
LINE
  5
1B8
330
12F
100
AcDbEntity
  8
0
  6
Continuous
 62
     0
370
    30
100
AcDbLine
 10
150.353057
 20
245.061751
 30
0.0
 11
150.34128
 21
248.722053
 31
0.0
  0
ARC
  5
1B9
330
12F
100
AcDbEntity
  8
0
  6
Continuous
 62
     0
370
    30
100
AcDbCircle
 10
167.853161
 20
245.029575
 30
0.0
 40
4.999999999980002
100
AcDbArc
 50
179.631289
 51
249.075168
  0
ARC
  5
1BA
330
12F
100
AcDbEntity
  8
0
  6
Continuous
 62
     0
370
    30
100
AcDbCircle
 10
145.353161
 20
245.029575
 30
0.0
 40
4.999999999980002
100
AcDbArc
 50
290.924832
 51
0.368711
  0
ARC
  5
1BB
330
12F
100
AcDbEntity
  8
0
  6
Continuous
 62
     0
370
    30
100
AcDbCircle
 10
164.103161
 20
235.222053
 30
0.0
 40
5.499999999978002
100
AcDbArc
 50
5.215888
 51
69.075168
  0
ARC
  5
1BC
330
12F
100
AcDbEntity
  8
0
  6
Continuous
 62
     0
370
    30
100
AcDbCircle
 10
149.103161
 20
235.222053
 30
0.0
 40
5.499999999978002
100
AcDbArc
 50
110.924832
 51
151.549163
  0
LINE
  5
1BD
330
12F
100
AcDbEntity
  8
0
  6
Continuous
 62
     0
370
    30
100
AcDbLine
 10
253.603161
 20
220.722053
 30
0.0
 11
263.096413
 21
220.722053
 31
0.0
  0
LINE
  5
1BE
330
12F
100
AcDbEntity
  8
0
  6
Continuous
 62
     0
370
     0
100
AcDbLine
 10
253.603161
 20
235.222053
 30
0.0
 11
279.056109
 21
235.222053
 31
0.0
  0
LINE
  5
1BF
330
12F
100
AcDbEntity
  8
0
  6
Continuous
 62
     0
370
     0
100
AcDbLine
 10
257.138875
 20
240.359327
 30
0.0
 11
275.669181
 21
240.359327
 31
0.0
  0
LINE
  5
1C0
330
12F
100
AcDbEntity
  8
0
  6
Continuous
 62
     0
370
     0
100
AcDbLine
 10
275.669181
 20
240.359327
 30
0.0
 11
276.067447
 21
240.359327
 31
0.0
  0
LINE
  5
1C1
330
12F
100
AcDbEntity
  8
0
  6
Continuous
 62
     0
370
     0
100
AcDbLine
 10
260.353057
 20
245.061752
 30
0.0
 11
272.590254
 21
245.061752
 31
0.0
  0
LINE
  5
1C2
330
12F
100
AcDbEntity
  8
0
  6
Continuous
 62
     0
370
     0
100
AcDbLine
 10
272.590254
 20
245.061752
 30
0.0
 11
272.853264
 21
245.061752
 31
0.0
  0
LINE
  5
1C3
330
12F
100
AcDbEntity
  8
0
  6
Continuous
 62
     0
370
    30
100
AcDbLine
 10
272.853264
 20
245.061752
 30
0.0
 11
272.865042
 21
248.722053
 31
0.0
  0
LINE
  5
1C4
330
12F
100
AcDbEntity
  8
0
  6
Continuous
 62
     0
370
    30
100
AcDbLine
 10
260.353057
 20
245.061752
 30
0.0
 11
260.34128
 21
248.722053
 31
0.0
  0
ARC
  5
1C5
330
12F
100
AcDbEntity
  8
0
  6
Continuous
 62
     0
370
    30
100
AcDbCircle
 10
277.853161
 20
245.029576
 30
0.0
 40
4.999999999980002
100
AcDbArc
 50
179.631289
 51
249.075168
  0
ARC
  5
1C6
330
12F
100
AcDbEntity
  8
0
  6
Continuous
 62
     0
370
    30
100
AcDbCircle
 10
255.353161
 20
245.029576
 30
0.0
 40
4.999999999980002
100
AcDbArc
 50
290.924832
 51
0.368711
  0
ARC
  5
1C7
330
12F
100
AcDbEntity
  8
0
  6
Continuous
 62
     0
370
    30
100
AcDbCircle
 10
274.103161
 20
235.222053
 30
0.0
 40
5.499999999978002
100
AcDbArc
 50
5.215888
 51
69.075168
  0
ARC
  5
1C8
330
12F
100
AcDbEntity
  8
0
  6
Continuous
 62
     0
370
    30
100
AcDbCircle
 10
259.103161
 20
235.222053
 30
0.0
 40
5.499999999978002
100
AcDbArc
 50
110.924832
 51
180.0
  0
LINE
  5
1C9
330
12F
100
AcDbEntity
  8
0
  6
Continuous
 62
     0
370
    30
100
AcDbLine
 10
279.603161
 20
220.722053
 30
0.0
 11
279.603161
 21
225.722051
 31
0.0
  0
LINE
  5
1CA
330
12F
100
AcDbEntity
  8
0
  6
Continuous
 62
     0
370
    30
100
AcDbLine
 10
278.045247
 20
225.722051
 30
0.0
 11
287.557009
 21
225.722051
 31
0.0
  0
ELLIPSE
  5
1CB
330
12F
100
AcDbEntity
  8
0
  6
Continuous
 62
     0
370
     0
100
AcDbEllipse
 10
287.557009
 20
230.722051
 30
0.0
 11
6.549005523145269E-8
 21
4.999999999979931
 31
0.0
210
0.0
220
0.0
230
1.0
 40
0.287038
 41
0.0000000456316096
 42
3.141592699221404
  0
ELLIPSE
  5
1CC
330
12F
100
AcDbEntity
  8
0
  6
Continuous
 62
     0
370
     0
100
AcDbEllipse
 10
293.482596
 20
230.722051
 30
0.0
 11
9.355722175921738E-8
 21
7.142857142828415
 31
0.0
210
0.0
220
0.0
230
1.0
 40
0.287038
 41
0.2381555207122066
 42
2.903436333428096
  0
ELLIPSE
  5
1CD
330
12F
100
AcDbEntity
  8
0
  6
Continuous
 62
     0
370
     0
100
AcDbEllipse
 10
298.997304
 20
230.722051
 30
0.0
 11
8.233035514810515E-8
 21
6.285714285688536
 31
0.0
210
0.0
220
0.0
230
1.0
 40
0.287038
 41
5.83832165944405
 42
9.424778006400992
  0
ELLIPSE
  5
1CE
330
12F
100
AcDbEntity
  8
0
  6
Continuous
 62
     0
370
     0
100
AcDbEllipse
 10
298.997304
 20
230.722051
 30
0.0
 11
8.233035514810515E-8
 21
6.285714285688536
 31
0.0
210
0.0
220
0.0
230
1.0
 40
0.287038
 41
3.141592699221405
 42
3.586458046682909
  0
ARC
  5
1CF
330
12F
100
AcDbEntity
  8
0
  6
Continuous
 62
     0
370
    30
100
AcDbCircle
 10
290.350004
 20
230.722051
 30
0.0
 40
11.00000057264884
100
AcDbArc
 50
328.948347
 51
31.051686
  0
LWPOLYLINE
  5
1D0
330
12F
100
AcDbEntity
  8
0
  6
Continuous
 62
     0
370
    30
100
AcDbPolyline
 90
       15
 70
     0
 43
0.0
 10
292.998901
 20
237.6633
 10
293.44635
 20
237.997574
 10
293.937012
 20
238.276962
 10
294.46286
 20
238.493332
 10
295.015015
 20
238.640152
 10
295.583069
 20
238.713638
 10
296.156311
 20
238.71138
 10
296.723724
 20
238.633575
 10
297.274597
 20
238.482376
 10
297.798676
 20
238.262207
 10
298.286865
 20
237.979248
 10
298.731598
 20
237.642105
 10
299.127563
 20
237.260574
 10
299.472443
 20
236.845413
 10
299.773743
 20
236.395966
  0
LWPOLYLINE
  5
1D1
330
12F
100
AcDbEntity
  8
0
  6
Continuous
 62
     0
370
    30
100
AcDbPolyline
 90
        7
 70
     0
 43
0.0
 10
292.998901
 20
223.780807
 10
293.394409
 20
223.481125
 10
293.824677
 20
223.223999
 10
294.284241
 20
223.015411
 10
294.767059
 20
222.860275
 10
295.266266
 20
222.761948
 10
295.852844
 20
222.722046
  0
LWPOLYLINE
  5
1D2
330
12F
100
AcDbEntity
  8
0
  6
Continuous
 62
     0
370
    30
100
AcDbPolyline
 90
       10
 70
     0
 43
0.0
 10
299.773743
 20
225.048141
 10
299.498688
 20
224.634155
 10
299.179596
 20
224.240585
 10
298.815247
 20
223.875488
 10
298.407043
 20
223.547668
 10
297.958893
 20
223.265762
 10
297.476654
 20
223.037277
 10
296.967529
 20
222.867889
 10
296.439484
 20
222.761993
 10
295.852844
 20
222.722046
  0
LWPOLYLINE
  5
1D3
330
12F
100
AcDbEntity
  8
0
  6
Continuous
 62
     0
370
    30
100
AcDbPolyline
 90
        9
 70
     0
 43
0.0
 10
287.557007
 20
235.722046
 10
288.322357
 20
235.755554
 10
289.079865
 20
235.855545
 10
289.820831
 20
236.020325
 10
290.536896
 20
236.246506
 10
291.219604
 20
236.530075
 10
291.859863
 20
236.863907
 10
292.448181
 20
237.239105
 10
292.998901
 20
237.6633
  0
LWPOLYLINE
  5
1D4
330
12F
100
AcDbEntity
  8
0
  6
Continuous
 62
     0
370
    30
100
AcDbPolyline
 90
        9
 70
     0
 43
0.0
 10
287.557007
 20
225.722046
 10
288.322357
 20
225.688553
 10
289.079865
 20
225.588562
 10
289.820831
 20
225.423782
 10
290.536896
 20
225.197601
 10
291.219604
 20
224.914032
 10
291.859863
 20
224.580185
 10
292.448181
 20
224.204987
 10
292.998901
 20
223.780807
  0
LINE
  5
1D5
330
12F
100
AcDbEntity
  8
0
  6
Continuous
 62
     0
370
    30
100
AcDbLine
 10
278.045247
 20
235.722051
 30
0.0
 11
287.557009
 21
235.722051
 31
0.0
  0
LINE
  5
1D6
330
12F
100
AcDbEntity
  8
0
  6
Continuous
 62
     0
370
    30
100
AcDbLine
 10
253.603161
 20
225.722051
 30
0.0
 11
245.649313
 21
225.722051
 31
0.0
  0
ELLIPSE
  5
1D7
330
12F
100
AcDbEntity
  8
0
  6
Continuous
 62
     0
370
     0
100
AcDbEllipse
 10
245.649313
 20
230.722051
 30
0.0
 11
-6.549005753175623E-8
 21
-4.999999999979931
 31
0.0
210
0.0
220
0.0
230
-1.0
 40
0.287038
 41
6.283185261547988
 42
9.424777915137774
  0
ELLIPSE
  5
1D8
330
12F
100
AcDbEntity
  8
0
  6
Continuous
 62
     0
370
     0
100
AcDbEllipse
 10
239.723725
 20
230.722052
 30
0.0
 11
-9.355722504536530E-8
 21
-7.142857142828415
 31
0.0
210
0.0
220
0.0
230
-1.0
 40
0.287038
 41
6.045028894984102
 42
6.283185261547988
  0
ELLIPSE
  5
1D9
330
12F
100
AcDbEntity
  8
0
  6
Continuous
 62
     0
370
     0
100
AcDbEllipse
 10
239.723725
 20
230.722052
 30
0.0
 11
-9.355722504536530E-8
 21
-7.142857142828415
 31
0.0
210
0.0
220
0.0
230
-1.0
 40
0.287038
 41
6.283185261547988
 42
9.662934280931069
  0
ELLIPSE
  5
1DA
330
12F
100
AcDbEntity
  8
0
  6
Continuous
 62
     0
370
     0
100
AcDbEllipse
 10
234.209018
 20
230.722052
 30
0.0
 11
-8.233035803991531E-8
 21
-6.285714285688536
 31
0.0
210
0.0
220
0.0
230
-1.0
 40
0.287038
 41
0.4448628985649118
 42
2.696729285889306
  0
ARC
  5
1DB
330
12F
100
AcDbEntity
  8
0
  6
Continuous
 62
     0
370
    30
100
AcDbCircle
 10
242.856317
 20
230.722052
 30
0.0
 40
11.00000057265038
100
AcDbArc
 50
148.948314
 51
211.051653
  0
LWPOLYLINE
  5
1DC
330
12F
100
AcDbEntity
  8
0
  6
Continuous
 62
     0
370
    30
100
AcDbPolyline
 90
       15
 70
     0
 43
0.0
 10
240.207413
 20
237.6633
 10
239.759964
 20
237.997574
 10
239.269302
 20
238.276962
 10
238.743469
 20
238.493332
 10
238.191315
 20
238.640152
 10
237.623245
 20
238.713638
 10
237.050003
 20
238.71138
 10
236.48259
 20
238.633575
 10
235.931732
 20
238.482376
 10
235.407639
 20
238.262207
 10
234.919449
 20
237.979248
 10
234.474716
 20
237.642105
 10
234.078751
 20
237.260574
 10
233.733871
 20
236.845413
 10
233.432587
 20
236.395966
  0
LWPOLYLINE
  5
1DD
330
12F
100
AcDbEntity
  8
0
  6
Continuous
 62
     0
370
    30
100
AcDbPolyline
 90
        7
 70
     0
 43
0.0
 10
240.207413
 20
223.780807
 10
239.81192
 20
223.481125
 10
239.381653
 20
223.223999
 10
238.922089
 20
223.015411
 10
238.43927
 20
222.860275
 10
237.940048
 20
222.761963
 10
237.353485
 20
222.722046
  0
LWPOLYLINE
  5
1DE
330
12F
100
AcDbEntity
  8
0
  6
Continuous
 62
     0
370
    30
100
AcDbPolyline
 90
       10
 70
     0
 43
0.0
 10
233.432587
 20
225.048141
 10
233.707642
 20
224.634155
 10
234.026733
 20
224.240585
 10
234.391068
 20
223.875488
 10
234.799286
 20
223.547668
 10
235.247437
 20
223.265762
 10
235.729675
 20
223.037277
 10
236.238785
 20
222.867889
 10
236.76683
 20
222.761993
 10
237.353485
 20
222.722046
  0
LWPOLYLINE
  5
1DF
330
12F
100
AcDbEntity
  8
0
  6
Continuous
 62
     0
370
    30
100
AcDbPolyline
 90
        9
 70
     0
 43
0.0
 10
245.649307
 20
235.722046
 10
244.883972
 20
235.755554
 10
244.12645
 20
235.855545
 10
243.385498
 20
236.020325
 10
242.669434
 20
236.246506
 10
241.98671
 20
236.530075
 10
241.346451
 20
236.863907
 10
240.758133
 20
237.239105
 10
240.207413
 20
237.6633
  0
LWPOLYLINE
  5
1E0
330
12F
100
AcDbEntity
  8
0
  6
Continuous
 62
     0
370
    30
100
AcDbPolyline
 90
        9
 70
     0
 43
0.0
 10
245.649307
 20
225.722046
 10
244.883972
 20
225.688553
 10
244.12645
 20
225.588562
 10
243.385498
 20
225.423782
 10
242.669434
 20
225.197601
 10
241.98671
 20
224.914032
 10
241.346451
 20
224.5802
 10
240.758133
 20
224.205002
 10
240.207413
 20
223.780807
  0
LINE
  5
1E1
330
12F
100
AcDbEntity
  8
0
  6
Continuous
 62
     0
370
    30
100
AcDbLine
 10
253.625935
 20
235.722051
 30
0.0
 11
245.649313
 21
235.722051
 31
0.0
  0
LINE
  5
1E2
330
12F
100
AcDbEntity
  8
0
  6
Continuous
 62
     0
370
    30
100
AcDbLine
 10
279.603164
 20
220.722053
 30
0.0
 11
263.096413
 21
220.722053
 31
0.0
  0
LINE
  5
1E3
330
12F
100
AcDbEntity
  8
0
  6
Continuous
 62
     0
370
     0
100
AcDbLine
 10
279.603164
 20
218.722053
 30
0.0
 11
263.096413
 21
218.722053
 31
0.0
  0
LINE
  5
1E4
330
12F
100
AcDbEntity
  8
0
  6
Continuous
 62
     0
370
     0
100
AcDbLine
 10
263.096413
 20
218.722053
 30
0.0
 11
253.603158
 21
218.722053
 31
0.0
  0
LINE
  5
1E5
330
12F
100
AcDbEntity
  8
0
  6
Continuous
 62
     0
370
    30
100
AcDbLine
 10
274.603164
 20
213.722053
 30
0.0
 11
264.445162
 21
213.722053
 31
0.0
  0
LINE
  5
1E6
330
12F
100
AcDbEntity
  8
0
  6
Continuous
 62
     0
370
    30
100
AcDbLine
 10
264.445162
 20
213.722053
 30
0.0
 11
258.603158
 21
213.722053
 31
0.0
  0
ARC
  5
1E7
330
12F
100
AcDbEntity
  8
0
  6
Continuous
 62
     0
370
    30
100
AcDbCircle
 10
258.603158
 20
218.722053
 30
0.0
 40
5.0
100
AcDbArc
 50
180.0
 51
270.0
  0
ARC
  5
1E8
330
12F
100
AcDbEntity
  8
0
  6
Continuous
 62
     0
370
    30
100
AcDbCircle
 10
274.603164
 20
218.722053
 30
0.0
 40
5.0
100
AcDbArc
 50
270.0
 51
0.0
  0
LINE
  5
1E9
330
12F
100
AcDbEntity
  8
0
  6
Continuous
 62
     0
370
    30
100
AcDbLine
 10
253.603158
 20
220.722053
 30
0.0
 11
253.603158
 21
218.722053
 31
0.0
  0
LINE
  5
1EA
330
12F
100
AcDbEntity
  8
0
  6
Continuous
 62
     0
370
    30
100
AcDbLine
 10
279.603164
 20
220.722053
 30
0.0
 11
279.603164
 21
218.722053
 31
0.0
  0
ENDBLK
  5
1EC
330
12F
100
AcDbEntity
  8
0
100
AcDbBlockEnd
  0
BLOCK
  5
22D
330
1EE
100
AcDbEntity
  8
0
100
AcDbBlockBegin
  2
c
 70
     0
 10
128.639023
 20
167.156876
 30
0.0
  3
c
  1

  0
LINE
  5
1EF
330
1EE
100
AcDbEntity
  8
0
  6
Continuous
 62
     0
370
    30
100
AcDbLine
 10
547.827666
 20
435.915338
 30
0.0
 11
547.827666
 21
466.558592
 31
0.0
  0
LINE
  5
1F0
330
1EE
100
AcDbEntity
  8
0
  6
Continuous
 62
     0
370
     0
100
AcDbLine
 10
541.188675
 20
428.03196
 30
0.0
 11
541.188675
 21
474.44197
 31
0.0
  0
LINE
  5
1F1
330
1EE
100
AcDbEntity
  8
0
  6
Continuous
 62
     0
370
     0
100
AcDbLine
 10
517.30957
 20
423.909405
 30
0.0
 11
517.30957
 21
478.564525
 31
0.0
  0
LINE
  5
1F2
330
1EE
100
AcDbEntity
  8
0
  6
Continuous
 62
     0
370
     0
100
AcDbLine
 10
512.309308
 20
421.232605
 30
0.0
 11
512.309308
 21
481.241326
 31
0.0
  0
LINE
  5
1F3
330
1EE
100
AcDbEntity
  8
0
  6
Continuous
 62
     0
370
    30
100
AcDbLine
 10
506.427666
 20
418.736965
 30
0.0
 11
506.427666
 21
483.736965
 31
0.0
  0
ARC
  5
1F4
330
1EE
100
AcDbEntity
  8
0
  6
Continuous
 62
     0
370
    30
100
AcDbCircle
 10
506.503622
 20
426.736605
 30
0.0
 40
7.999999999936003
100
AcDbArc
 50
269.455998
 51
316.528
  0
ARC
  5
1F5
330
1EE
100
AcDbEntity
  8
0
  6
Continuous
 62
     0
370
    30
100
AcDbCircle
 10
506.503622
 20
475.737326
 30
0.0
 40
7.999999999936003
100
AcDbArc
 50
43.472
 51
90.544002
  0
ARC
  5
1F6
330
1EE
100
AcDbEntity
  8
0
  6
Continuous
 62
     0
370
    30
100
AcDbCircle
 10
518.840704
 20
415.040604
 30
0.0
 40
8.999999999964002
100
AcDbArc
 50
99.795147
 51
136.528
  0
ARC
  5
1F7
330
1EE
100
AcDbEntity
  8
0
  6
Continuous
 62
     0
370
    30
100
AcDbCircle
 10
518.840704
 20
487.433326
 30
0.0
 40
8.999999999964002
100
AcDbArc
 50
223.472
 51
260.204853
  0
LINE
  5
1F8
330
1EE
100
AcDbEntity
  8
0
  6
Continuous
 62
     0
370
    30
100
AcDbLine
 10
541.188675
 20
428.03196
 30
0.0
 11
517.30957
 21
423.909405
 31
0.0
  0
LINE
  5
1F9
330
1EE
100
AcDbEntity
  8
0
  6
Continuous
 62
     0
370
    30
100
AcDbLine
 10
541.188675
 20
474.44197
 30
0.0
 11
517.30957
 21
478.564525
 31
0.0
  0
ARC
  5
1FA
330
1EE
100
AcDbEntity
  8
0
  6
Continuous
 62
     0
370
    30
100
AcDbCircle
 10
539.827666
 20
435.915338
 30
0.0
 40
7.999999999936003
100
AcDbArc
 50
279.795147
 51
0.0
  0
ARC
  5
1FB
330
1EE
100
AcDbEntity
  8
0
  6
Continuous
 62
     0
370
    30
100
AcDbCircle
 10
539.827666
 20
466.558592
 30
0.0
 40
7.999999999936003
100
AcDbArc
 50
360.0
 51
80.204853
  0
LINE
  5
1FC
330
1EE
100
AcDbEntity
  8
0
  6
Continuous
 62
     0
370
     0
100
AcDbLine
 10
556.190393
 20
441.772679
 30
0.0
 11
556.190393
 21
460.701251
 31
0.0
  0
LINE
  5
1FD
330
1EE
100
AcDbEntity
  8
0
  6
Continuous
 62
     0
370
     0
100
AcDbLine
 10
551.487968
 20
444.986862
 30
0.0
 11
551.487968
 21
457.487069
 31
0.0
  0
ELLIPSE
  5
1FE
330
1EE
100
AcDbEntity
  8
0
  6
Continuous
 62
     0
370
     0
100
AcDbEllipse
 10
565.827669
 20
472.190813
 30
0.0
 11
-4.999999999979931
 21
6.549010102976461E-8
 31
0.0
210
0.0
220
0.0
230
1.0
 40
0.287038
 41
0.0000000456316087
 42
3.141592699221414
  0
ELLIPSE
  5
1FF
330
1EE
100
AcDbEntity
  8
0
  6
Continuous
 62
     0
370
     0
100
AcDbEllipse
 10
565.827669
 20
478.116401
 30
0.0
 11
-7.142857142828415
 21
9.355728718537728E-8
 31
0.0
210
0.0
220
0.0
230
1.0
 40
0.287038
 41
0.238155533005374
 42
2.903436496573358
  0
ELLIPSE
  5
200
330
1EE
100
AcDbEntity
  8
0
  6
Continuous
 62
     0
370
     0
100
AcDbEllipse
 10
565.827669
 20
483.631108
 30
0.0
 11
-6.285714285688536
 21
8.233041272312587E-8
 31
0.0
210
0.0
220
0.0
230
1.0
 40
0.287038
 41
5.838321570763601
 42
9.424778006401
  0
ELLIPSE
  5
201
330
1EE
100
AcDbEntity
  8
0
  6
Continuous
 62
     0
370
     0
100
AcDbEllipse
 10
565.827669
 20
483.631108
 30
0.0
 11
-6.285714285688536
 21
8.233041272312587E-8
 31
0.0
210
0.0
220
0.0
230
1.0
 40
0.287038
 41
3.141592699221414
 42
3.586458046682937
  0
ELLIPSE
  5
202
330
1EE
100
AcDbEntity
  8
0
  6
Continuous
 62
     0
370
     0
100
AcDbEllipse
 10
565.82767
 20
441.530133
 30
0.0
 11
6.28571428568847
 21
9.169344239015959E-7
 31
0.0
210
0.0
220
0.0
230
1.0
 40
0.957919
 41
0.0
 42
6.283185307179586
  0
ELLIPSE
  5
203
330
1EE
100
AcDbEntity
  8
0
  6
Continuous
 62
     0
370
     0
100
AcDbEllipse
 10
565.827668
 20
430.283117
 30
0.0
 11
4.999999999979931
 21
-6.549010242206639E-8
 31
0.0
210
0.0
220
0.0
230
-1.0
 40
0.287038
 41
6.283185261547978
 42
9.42477791513777
  0
ELLIPSE
  5
204
330
1EE
100
AcDbEntity
  8
0
  6
Continuous
 62
     0
370
     0
100
AcDbEllipse
 10
565.827668
 20
424.35753
 30
0.0
 11
7.142857142828415
 21
-9.355728917437981E-8
 31
0.0
210
0.0
220
0.0
230
-1.0
 40
0.287038
 41
6.04502889575468
 42
6.283185261547978
  0
ELLIPSE
  5
205
330
1EE
100
AcDbEntity
  8
0
  6
Continuous
 62
     0
370
     0
100
AcDbEllipse
 10
565.827668
 20
424.35753
 30
0.0
 11
7.142857142828415
 21
-9.355728917437981E-8
 31
0.0
210
0.0
220
0.0
230
-1.0
 40
0.287038
 41
6.283185261547978
 42
9.662934280931008
  0
ELLIPSE
  5
206
330
1EE
100
AcDbEntity
  8
0
  6
Continuous
 62
     0
370
     0
100
AcDbEllipse
 10
565.827668
 20
418.842822
 30
0.0
 11
6.285714285688536
 21
-8.233041447344809E-8
 31
0.0
210
0.0
220
0.0
230
-1.0
 40
0.287038
 41
0.444862849765677
 42
2.696729285889409
  0
LINE
  5
207
330
1EE
100
AcDbEntity
  8
0
  6
Continuous
 62
     0
370
     0
100
AcDbLine
 10
577.827666
 20
464.236968
 30
0.0
 11
577.827666
 21
463.755064
 31
0.0
  0
LINE
  5
208
330
1EE
100
AcDbEntity
  8
0
  6
Continuous
 62
     0
370
     0
100
AcDbLine
 10
577.827666
 20
463.755064
 30
0.0
 11
577.827666
 21
438.236962
 31
0.0
  0
LINE
  5
209
330
1EE
100
AcDbEntity
  8
0
  6
Continuous
 62
     0
370
    30
100
AcDbLine
 10
582.827666
 20
459.236968
 30
0.0
 11
582.827666
 21
458.940412
 31
0.0
  0
LINE
  5
20A
330
1EE
100
AcDbEntity
  8
0
  6
Continuous
 62
     0
370
    30
100
AcDbLine
 10
582.827666
 20
458.940412
 30
0.0
 11
582.827666
 21
443.236962
 31
0.0
  0
LINE
  5
20B
330
1EE
100
AcDbEntity
  8
0
  6
Continuous
 62
     0
370
     0
100
AcDbLine
 10
561.327666
 20
449.646013
 30
0.0
 11
561.327666
 21
462.888078
 31
0.0
  0
LINE
  5
20C
330
1EE
100
AcDbEntity
  8
0
  6
Continuous
 62
     0
370
    30
100
AcDbLine
 10
570.827669
 20
463.689913
 30
0.0
 11
570.827669
 21
472.190813
 31
0.0
  0
LINE
  5
20D
330
1EE
100
AcDbEntity
  8
0
  6
Continuous
 62
     0
370
    30
100
AcDbLine
 10
570.827668
 20
436.358392
 30
0.0
 11
570.827668
 21
430.283117
 31
0.0
  0
LWPOLYLINE
  5
20E
330
1EE
100
AcDbEntity
  8
0
  6
Continuous
 62
     0
370
    30
100
AcDbPolyline
 90
       24
 70
     0
 43
0.0
 10
561.327637
 20
462.888092
 10
561.611206
 20
462.649597
 10
561.950684
 20
462.410736
 10
562.34137
 20
462.178528
 10
562.778564
 20
461.959808
 10
563.257629
 20
461.761597
 10
563.773132
 20
461.590881
 10
564.318909
 20
461.454254
 10
564.887756
 20
461.357635
 10
565.471619
 20
461.305542
 10
566.061218
 20
461.300598
 10
566.647095
 20
461.342987
 10
567.219788
 20
461.430695
 10
567.770996
 20
461.559418
 10
568.293335
 20
461.723572
 10
568.780396
 20
461.916656
 10
569.226746
 20
462.131683
 10
569.627502
 20
462.361694
 10
569.977905
 20
462.599701
 10
570.273376
 20
462.838745
 10
570.509766
 20
463.072418
 10
570.682983
 20
463.294495
 10
570.789612
 20
463.499237
 10
570.827698
 20
463.689911
  0
LWPOLYLINE
  5
20F
330
1EE
100
AcDbEntity
  8
0
  6
Continuous
 62
     0
370
    30
100
AcDbPolyline
 90
       22
 70
     0
 43
0.0
 10
570.672913
 20
448.704773
 10
570.496155
 20
449.255585
 10
570.257202
 20
449.786743
 10
569.959961
 20
450.290558
 10
569.608582
 20
450.759705
 10
569.207642
 20
451.187927
 10
568.761719
 20
451.569275
 10
568.275757
 20
451.897797
 10
567.755127
 20
452.167755
 10
567.206055
 20
452.37381
 10
566.635925
 20
452.511292
 10
566.052917
 20
452.576599
 10
565.46637
 20
452.567993
 10
564.885559
 20
452.485687
 10
564.319641
 20
452.331909
 10
563.77655
 20
452.110565
 10
563.263428
 20
451.826508
 10
562.786316
 20
451.485229
 10
562.350464
 20
451.092499
 10
561.960571
 20
450.654205
 10
561.621277
 20
450.17627
 10
561.327637
 20
449.646027
  0
LWPOLYLINE
  5
210
330
1EE
100
AcDbEntity
  8
0
  6
Continuous
 62
     0
370
    30
100
AcDbPolyline
 90
        5
 70
     0
 43
0.0
 10
560.827698
 20
463.668091
 10
560.857666
 20
463.502869
 10
560.947021
 20
463.322083
 10
561.094421
 20
463.126617
 10
561.327637
 20
462.888092
  0
ARC
  5
211
330
1EE
100
AcDbEntity
  8
0
  6
Continuous
 62
     0
370
    30
100
AcDbCircle
 10
565.972261
 20
447.404285
 30
0.0
 40
5.157286380771259
100
AcDbArc
 50
154.235573
 51
165.40286
  0
LINE
  5
212
330
1EE
100
AcDbEntity
  8
0
  6
Continuous
 62
     0
370
    30
100
AcDbLine
 10
577.827666
 20
438.236965
 30
0.0
 11
572.557293
 21
438.236965
 31
0.0
  0
LINE
  5
213
330
1EE
100
AcDbEntity
  8
0
  6
Continuous
 62
     0
370
    30
100
AcDbLine
 10
577.827666
 20
464.236965
 30
0.0
 11
570.827668
 21
464.236965
 31
0.0
  0
ARC
  5
214
330
1EE
100
AcDbEntity
  8
0
  6
Continuous
 62
     0
370
    30
100
AcDbCircle
 10
577.827666
 20
443.236962
 30
0.0
 40
5.0
100
AcDbArc
 50
270.0
 51
360.0
  0
ARC
  5
215
330
1EE
100
AcDbEntity
  8
0
  6
Continuous
 62
     0
370
    30
100
AcDbCircle
 10
577.827666
 20
459.236968
 30
0.0
 40
5.0
100
AcDbArc
 50
0.0
 51
90.0
  0
ARC
  5
216
330
1EE
100
AcDbEntity
  8
0
  6
Continuous
 62
     0
370
    30
100
AcDbCircle
 10
565.827668
 20
427.490122
 30
0.0
 40
11.00000057265079
100
AcDbArc
 50
238.948314
 51
301.051653
  0
LWPOLYLINE
  5
217
330
1EE
100
AcDbEntity
  8
0
  6
Continuous
 62
     0
370
    30
100
AcDbPolyline
 90
       15
 70
     0
 43
0.0
 10
558.886414
 20
424.841217
 10
558.552124
 20
424.393768
 10
558.272766
 20
423.903107
 10
558.056396
 20
423.377258
 10
557.909546
 20
422.825134
 10
557.83606
 20
422.25705
 10
557.838318
 20
421.683807
 10
557.916138
 20
421.116394
 10
558.067322
 20
420.565521
 10
558.287537
 20
420.041443
 10
558.570496
 20
419.553253
 10
558.907593
 20
419.108521
 10
559.289124
 20
418.712555
 10
559.704285
 20
418.367676
 10
560.153748
 20
418.066406
  0
LWPOLYLINE
  5
218
330
1EE
100
AcDbEntity
  8
0
  6
Continuous
 62
     0
370
    30
100
AcDbPolyline
 90
        7
 70
     0
 43
0.0
 10
572.768921
 20
424.841217
 10
573.068604
 20
424.445709
 10
573.325745
 20
424.015442
 10
573.534302
 20
423.555908
 10
573.689453
 20
423.073059
 10
573.787781
 20
422.573853
 10
573.827698
 20
421.987305
  0
LWPOLYLINE
  5
219
330
1EE
100
AcDbEntity
  8
0
  6
Continuous
 62
     0
370
    30
100
AcDbPolyline
 90
       10
 70
     0
 43
0.0
 10
571.501587
 20
418.066406
 10
571.915588
 20
418.341431
 10
572.309143
 20
418.660522
 10
572.674255
 20
419.024872
 10
573.002014
 20
419.433075
 10
573.283936
 20
419.881256
 10
573.512451
 20
420.363464
 10
573.681824
 20
420.872589
 10
573.78772
 20
421.400635
 10
573.827698
 20
421.987305
  0
LWPOLYLINE
  5
21A
330
1EE
100
AcDbEntity
  8
0
  6
Continuous
 62
     0
370
    30
100
AcDbPolyline
 90
        9
 70
     0
 43
0.0
 10
560.827698
 20
430.283112
 10
560.794189
 20
429.517761
 10
560.694153
 20
428.760254
 10
560.529419
 20
428.019287
 10
560.303223
 20
427.303253
 10
560.019653
 20
426.620514
 10
559.685791
 20
425.980255
 10
559.310608
 20
425.391937
 10
558.886414
 20
424.841217
  0
LWPOLYLINE
  5
21B
330
1EE
100
AcDbEntity
  8
0
  6
Continuous
 62
     0
370
    30
100
AcDbPolyline
 90
        9
 70
     0
 43
0.0
 10
570.827698
 20
430.283112
 10
570.861145
 20
429.517761
 10
570.961182
 20
428.760254
 10
571.125916
 20
428.019287
 10
571.352112
 20
427.303253
 10
571.635681
 20
426.620514
 10
571.969543
 20
425.980255
 10
572.344727
 20
425.391937
 10
572.768921
 20
424.841217
  0
LINE
  5
21C
330
1EE
100
AcDbEntity
  8
0
  6
Continuous
 62
     0
370
    30
100
AcDbLine
 10
560.827668
 20
436.358226
 30
0.0
 11
560.827668
 21
430.283117
 31
0.0
  0
LWPOLYLINE
  5
21D
330
1EE
100
AcDbEntity
  8
0
  6
Continuous
 62
     0
370
    30
100
AcDbPolyline
 90
       65
 70
     0
 43
0.0
 10
573.827698
 20
442.472382
 10
573.788757
 20
441.70047
 10
573.672363
 20
440.936249
 10
573.479736
 20
440.187378
 10
573.212952
 20
439.461151
 10
572.874756
 20
438.76474
 10
572.468628
 20
438.104889
 10
571.99884
 20
437.487915
 10
571.469971
 20
436.9198
 10
570.88739
 20
436.40567
 10
570.256958
 20
435.950134
 10
569.584595
 20
435.557648
 10
568.876892
 20
435.231659
 10
568.140503
 20
434.975067
 10
567.382568
 20
434.789978
 10
566.610046
 20
434.678223
 10
565.8302
 20
434.640717
 10
565.050293
 20
434.677734
 10
564.27771
 20
434.789032
 10
563.519592
 20
434.973602
 10
562.783081
 20
435.229797
 10
562.075195
 20
435.555359
 10
561.402588
 20
435.947418
 10
560.77179
 20
436.402435
 10
560.188904
 20
436.91626
 10
559.659729
 20
437.484131
 10
559.189514
 20
438.1008
 10
558.78302
 20
438.760345
 10
558.444336
 20
439.456543
 10
558.177124
 20
440.182587
 10
557.98407
 20
440.931366
 10
557.867126
 20
441.695465
 10
557.827698
 20
442.467316
 10
557.866089
 20
443.239197
 10
557.981995
 20
444.003448
 10
558.174072
 20
444.752472
 10
558.44043
 20
445.478821
 10
558.778137
 20
446.175476
 10
559.183777
 20
446.835571
 10
559.653198
 20
447.45282
 10
560.181641
 20
448.021362
 10
560.763794
 20
448.53595
 10
561.394043
 20
448.99173
 10
562.066101
 20
449.384674
 10
562.773621
 20
449.711121
 10
563.509827
 20
449.968262
 10
564.2677
 20
450.153748
 10
565.040161
 20
450.266022
 10
565.819946
 20
450.304016
 10
566.599854
 20
450.267487
 10
567.372498
 20
450.156677
 10
568.130737
 20
449.972626
 10
568.867371
 20
449.716858
 10
569.5755
 20
449.391724
 10
570.248413
 20
449.000153
 10
570.879517
 20
448.545563
 10
571.462708
 20
448.032074
 10
571.992188
 20
447.464478
 10
572.462891
 20
446.848206
 10
572.869873
 20
446.188904
 10
573.208923
 20
445.49295
 10
573.476562
 20
444.76712
 10
573.670227
 20
444.018494
 10
573.78772
 20
443.254242
 10
573.827698
 20
442.472382
  0
ARC
  5
21E
330
1EE
100
AcDbEntity
  8
0
  6
Continuous
 62
     0
370
    30
100
AcDbCircle
 10
565.827669
 20
474.983809
 30
0.0
 40
11.00000057264871
100
AcDbArc
 50
58.948347
 51
121.051686
  0
LWPOLYLINE
  5
21F
330
1EE
100
AcDbEntity
  8
0
  6
Continuous
 62
     0
370
    30
100
AcDbPolyline
 90
       15
 70
     0
 43
0.0
 10
558.886414
 20
477.632721
 10
558.552124
 20
478.08017
 10
558.272766
 20
478.570831
 10
558.056396
 20
479.096649
 10
557.909546
 20
479.648804
 10
557.83606
 20
480.216888
 10
557.838318
 20
480.790131
 10
557.916138
 20
481.357544
 10
558.067322
 20
481.908386
 10
558.287537
 20
482.432495
 10
558.570496
 20
482.920685
 10
558.907593
 20
483.365417
 10
559.289124
 20
483.761383
 10
559.704285
 20
484.106262
 10
560.153748
 20
484.407532
  0
LWPOLYLINE
  5
220
330
1EE
100
AcDbEntity
  8
0
  6
Continuous
 62
     0
370
    30
100
AcDbPolyline
 90
        7
 70
     0
 43
0.0
 10
572.768921
 20
477.632721
 10
573.068604
 20
478.028198
 10
573.325745
 20
478.458466
 10
573.534302
 20
478.91803
 10
573.689453
 20
479.400848
 10
573.787781
 20
479.900085
 10
573.827698
 20
480.486633
  0
LWPOLYLINE
  5
221
330
1EE
100
AcDbEntity
  8
0
  6
Continuous
 62
     0
370
    30
100
AcDbPolyline
 90
       10
 70
     0
 43
0.0
 10
571.501587
 20
484.407532
 10
571.915588
 20
484.132477
 10
572.309143
 20
483.813385
 10
572.674255
 20
483.449066
 10
573.002075
 20
483.040833
 10
573.283936
 20
482.592682
 10
573.512451
 20
482.110443
 10
573.681824
 20
481.601349
 10
573.78772
 20
481.073303
 10
573.827698
 20
480.486633
  0
LWPOLYLINE
  5
222
330
1EE
100
AcDbEntity
  8
0
  6
Continuous
 62
     0
370
    30
100
AcDbPolyline
 90
        9
 70
     0
 43
0.0
 10
560.827698
 20
472.190826
 10
560.794189
 20
472.956146
 10
560.694153
 20
473.713684
 10
560.529419
 20
474.45462
 10
560.303223
 20
475.170685
 10
560.019653
 20
475.853424
 10
559.685791
 20
476.493683
 10
559.310608
 20
477.082001
 10
558.886414
 20
477.632721
  0
LWPOLYLINE
  5
223
330
1EE
100
AcDbEntity
  8
0
  6
Continuous
 62
     0
370
    30
100
AcDbPolyline
 90
        9
 70
     0
 43
0.0
 10
570.827698
 20
472.190826
 10
570.861145
 20
472.956146
 10
570.961182
 20
473.713684
 10
571.125916
 20
474.45462
 10
571.352112
 20
475.170685
 10
571.635681
 20
475.853424
 10
571.969543
 20
476.493683
 10
572.344727
 20
477.082001
 10
572.768921
 20
477.632721
  0
LINE
  5
224
330
1EE
100
AcDbEntity
  8
0
  6
Continuous
 62
     0
370
    30
100
AcDbLine
 10
560.827669
 20
463.668098
 30
0.0
 11
560.827669
 21
472.190813
 31
0.0
  0
LWPOLYLINE
  5
225
330
1EE
100
AcDbEntity
  8
0
  6
Continuous
 62
     0
370
    30
100
AcDbPolyline
 90
        6
 70
     0
 43
0.0
 10
560.827637
 20
466.115692
 10
560.342041
 20
465.702637
 10
559.891418
 20
465.252319
 10
559.479004
 20
464.767487
 10
559.107483
 20
464.251251
 10
558.707458
 20
463.572723
  0
LWPOLYLINE
  5
226
330
1EE
100
AcDbEntity
  8
0
  6
Continuous
 62
     0
370
    30
100
AcDbPolyline
 90
        5
 70
     0
 43
0.0
 10
572.557312
 20
464.236969
 10
572.215027
 20
464.717743
 10
571.83728
 20
465.171753
 10
571.426208
 20
465.596405
 10
570.827637
 20
466.11554
  0
LINE
  5
227
330
1EE
100
AcDbEntity
  8
0
  6
Continuous
 62
     0
370
    30
100
AcDbLine
 10
551.487968
 20
444.986862
 30
0.0
 11
547.827666
 21
444.975084
 31
0.0
  0
LINE
  5
228
330
1EE
100
AcDbEntity
  8
0
  6
Continuous
 62
     0
370
    30
100
AcDbLine
 10
551.487968
 20
457.487069
 30
0.0
 11
547.827666
 21
457.498846
 31
0.0
  0
ARC
  5
229
330
1EE
100
AcDbEntity
  8
0
  6
Continuous
 62
     0
370
    30
100
AcDbCircle
 10
551.520144
 20
439.986965
 30
0.0
 40
4.999999999980002
100
AcDbArc
 50
20.924832
 51
90.368711
  0
ARC
  5
22A
330
1EE
100
AcDbEntity
  8
0
  6
Continuous
 62
     0
370
    30
100
AcDbCircle
 10
551.520144
 20
462.486965
 30
0.0
 40
4.999999999980002
100
AcDbArc
 50
269.631289
 51
339.075168
  0
ARC
  5
22B
330
1EE
100
AcDbEntity
  8
0
  6
Continuous
 62
     0
370
    30
100
AcDbCircle
 10
561.327666
 20
443.736965
 30
0.0
 40
5.499999999978002
100
AcDbArc
 50
200.924832
 51
241.549163
  0
ARC
  5
22C
330
1EE
100
AcDbEntity
  8
0
  6
Continuous
 62
     0
370
    30
100
AcDbCircle
 10
561.327666
 20
458.736965
 30
0.0
 40
5.499999999978002
100
AcDbArc
 50
95.215888
 51
159.075168
  0
ENDBLK
  5
22E
330
1EE
100
AcDbEntity
  8
0
100
AcDbBlockEnd
  0
ENDSEC
  0
SECTION
  2
ENTITIES
  0
INSERT
  5
12E
330
1F
100
AcDbEntity
  8
0
  6
Continuous
 62
     7
370
     0
100
AcDbBlockReference
  2
a
 10
88.693298
 20
167.156876
 30
0.0
  0
INSERT
  5
1ED
330
1F
100
AcDbEntity
  8
0
  6
Continuous
 62
     7
370
     0
100
AcDbBlockReference
  2
b
 10
88.693298
 20
219.861839
 30
0.0
  0
INSERT
  5
22F
330
1F
100
AcDbEntity
  8
0
  6
Continuous
 62
     7
370
     0
100
AcDbBlockReference
  2
c
 10
128.639023
 20
167.156876
 30
0.0
  0
ENDSEC
  0
SECTION
  2
OBJECTS
  0
DICTIONARY
  5
C
330
0
100
AcDbDictionary
281
     1
  3
ACAD_GROUP
350
D
  3
ACAD_LAYOUT
350
1A
  3
ACAD_MLEADERSTYLE
350
232
  3
ACAD_MLINESTYLE
350
17
  3
ACAD_PLOTSETTINGS
350
19
  3
ACAD_PLOTSTYLENAME
350
E
  3
ACAD_VISUALSTYLE
350
2A
  3
AcDbVariableDictionary
350
230
  0
DICTIONARY
  5
D
102
{ACAD_REACTORS
330
C
102
}
330
C
100
AcDbDictionary
281
     1
  0
DICTIONARY
  5
1A
102
{ACAD_REACTORS
330
C
102
}
330
C
100
AcDbDictionary
281
     1
  3
Layout1
350
1E
  3
Layout2
350
26
  3
Model
350
22
  0
DICTIONARY
  5
232
102
{ACAD_REACTORS
330
C
102
}
330
C
100
AcDbDictionary
281
     1
  0
DICTIONARY
  5
17
102
{ACAD_REACTORS
330
C
102
}
330
C
100
AcDbDictionary
281
     1
  3
Standard
350
18
  0
DICTIONARY
  5
19
102
{ACAD_REACTORS
330
C
102
}
330
C
100
AcDbDictionary
281
     1
  0
ACDBDICTIONARYWDFLT
  5
E
102
{ACAD_REACTORS
330
C
102
}
330
C
100
AcDbDictionary
281
     1
  3
Normal
350
F
100
AcDbDictionaryWithDefault
340
F
  0
DICTIONARY
  5
2A
102
{ACAD_REACTORS
330
C
102
}
330
C
100
AcDbDictionary
281
     1
  3
2dWireframe
350
2F
  3
3D Hidden
350
31
  3
3dWireframe
350
30
  3
Basic
350
32
  3
Brighten
350
36
  3
ColorChange
350
3A
  3
Conceptual
350
34
  3
Dim
350
35
  3
Facepattern
350
39
  3
Flat
350
2B
  3
FlatWithEdges
350
2C
  3
Gouraud
350
2D
  3
GouraudWithEdges
350
2E
  3
Linepattern
350
38
  3
Realistic
350
33
  3
Thicken
350
37
  0
DICTIONARY
  5
230
102
{ACAD_REACTORS
330
C
102
}
330
C
100
AcDbDictionary
281
     1
  3
PSOLHEIGHT
350
234
  3
PSOLWIDTH
350
233
  0
LAYOUT
  5
1E
102
{ACAD_REACTORS
330
1A
102
}
330
1A
100
AcDbPlotSettings
  1

  2
none_device
  4

  6

 40
0.0
 41
0.0
 42
0.0
 43
0.0
 44
0.0
 45
0.0
 46
0.0
 47
0.0
 48
0.0
 49
0.0
140
0.0
141
0.0
142
1.0
143
1.0
 70
   688
 72
     0
 73
     0
 74
     5
  7

 75
    16
147
1.0
148
0.0
149
0.0
100
AcDbLayout
  1
Layout1
 70
     1
 71
     1
 10
0.0
 20
0.0
 11
420.0
 21
297.0
 12
0.0
 22
0.0
 32
0.0
 14
1.000000E+20
 24
1.000000E+20
 34
1.000000E+20
 15
-1.000000E+20
 25
-1.000000E+20
 35
-1.000000E+20
146
0.0
 13
0.0
 23
0.0
 33
0.0
 16
1.0
 26
0.0
 36
0.0
 17
0.0
 27
1.0
 37
0.0
 76
     0
330
1B
  0
LAYOUT
  5
26
102
{ACAD_REACTORS
330
1A
102
}
330
1A
100
AcDbPlotSettings
  1

  2
none_device
  4

  6

 40
0.0
 41
0.0
 42
0.0
 43
0.0
 44
0.0
 45
0.0
 46
0.0
 47
0.0
 48
0.0
 49
0.0
140
0.0
141
0.0
142
1.0
143
1.0
 70
   688
 72
     0
 73
     0
 74
     5
  7

 75
    16
147
1.0
148
0.0
149
0.0
100
AcDbLayout
  1
Layout2
 70
     1
 71
     2
 10
0.0
 20
0.0
 11
0.0
 21
0.0
 12
0.0
 22
0.0
 32
0.0
 14
0.0
 24
0.0
 34
0.0
 15
0.0
 25
0.0
 35
0.0
146
0.0
 13
0.0
 23
0.0
 33
0.0
 16
1.0
 26
0.0
 36
0.0
 17
0.0
 27
1.0
 37
0.0
 76
     0
330
23
  0
LAYOUT
  5
22
102
{ACAD_REACTORS
330
1A
102
}
330
1A
100
AcDbPlotSettings
  1

  2
none_device
  4

  6

 40
0.0
 41
0.0
 42
0.0
 43
0.0
 44
0.0
 45
0.0
 46
0.0
 47
0.0
 48
0.0
 49
0.0
140
0.0
141
0.0
142
1.0
143
1.0
 70
  1712
 72
     0
 73
     0
 74
     0
  7

 75
     0
147
1.0
148
0.0
149
0.0
100
AcDbLayout
  1
Model
 70
     1
 71
     0
 10
121.857239
 20
205.262497
 11
582.827637
 21
485.98291
 12
0.0
 22
0.0
 32
0.0
 14
121.857239
 24
205.262497
 34
0.0
 15
582.827637
 25
485.98291
 35
0.0
146
0.0
 13
0.0
 23
0.0
 33
0.0
 16
1.0
 26
0.0
 36
0.0
 17
0.0
 27
1.0
 37
0.0
 76
     0
330
1F
331
29
  0
MLINESTYLE
  5
18
102
{ACAD_REACTORS
330
17
102
}
330
17
100
AcDbMlineStyle
  2
Standard
 70
     0
  3

 62
   256
 51
90.0
 52
90.0
 71
     2
 49
0.5
 62
   256
  6
BYLAYER
 49
-0.5
 62
   256
  6
BYLAYER
  0
ACDBPLACEHOLDER
  5
F
102
{ACAD_REACTORS
330
E
102
}
330
E
  0
VISUALSTYLE
  5
2F
102
{ACAD_REACTORS
330
2A
102
}
330
2A
100
AcDbVisualStyle
  2
2dWireframe
 70
     4
 71
     0
 72
     2
 73
     0
 90
        0
 40
-0.6
 41
-30.0
 62
     5
 63
     7
 74
     1
 91
        4
 64
     7
 65
   257
 75
     1
175
     1
 42
1.0
 92
        0
 66
   257
 43
1.0
 76
     1
 77
     6
 78
     2
 67
     7
 79
     5
170
     0
171
     0
290
     0
174
     0
 93
        1
 44
0.0
173
     0
291
     0
 45
0.0
1001
ACAD
1000
AcDbSavedByObjectVersion
1070
     0
  0
VISUALSTYLE
  5
31
102
{ACAD_REACTORS
330
2A
102
}
330
2A
100
AcDbVisualStyle
  2
3D Hidden
 70
     6
 71
     1
 72
     2
 73
     2
 90
        0
 40
-0.6
 41
-30.0
 62
     5
 63
     7
 74
     2
 91
        2
 64
     7
 65
   257
 75
     2
175
     1
 42
40.0
 92
        0
 66
   257
 43
1.0
 76
     1
 77
     6
 78
     2
 67
     7
 79
     3
170
     0
171
     0
290
     0
174
     0
 93
        1
 44
0.0
173
     0
291
     0
 45
0.0
1001
ACAD
1000
AcDbSavedByObjectVersion
1070
     0
  0
VISUALSTYLE
  5
30
102
{ACAD_REACTORS
330
2A
102
}
330
2A
100
AcDbVisualStyle
  2
3dWireframe
 70
     5
 71
     0
 72
     2
 73
     0
 90
        0
 40
-0.6
 41
-30.0
 62
     5
 63
     7
 74
     1
 91
        4
 64
     7
 65
   257
 75
     1
175
     1
 42
1.0
 92
        0
 66
   257
 43
1.0
 76
     1
 77
     6
 78
     2
 67
     7
 79
     5
170
     0
171
     0
290
     0
174
     0
 93
        1
 44
0.0
173
     0
291
     0
 45
0.0
1001
ACAD
1000
AcDbSavedByObjectVersion
1070
     0
  0
VISUALSTYLE
  5
32
102
{ACAD_REACTORS
330
2A
102
}
330
2A
100
AcDbVisualStyle
  2
Basic
 70
     7
 71
     1
 72
     0
 73
     1
 90
        0
 40
-0.6
 41
-30.0
 62
     5
 63
     7
 74
     0
 91
        4
 64
     7
 65
   257
 75
     1
175
     1
 42
1.0
 92
        8
 66
     7
 43
1.0
 76
     1
 77
     6
 78
     2
 67
     7
 79
     5
170
     0
171
     0
290
     0
174
     0
 93
        1
 44
0.0
173
     0
291
     1
 45
0.0
1001
ACAD
1000
AcDbSavedByObjectVersion
1070
     0
  0
VISUALSTYLE
  5
36
102
{ACAD_REACTORS
330
2A
102
}
330
2A
100
AcDbVisualStyle
  2
Brighten
 70
    12
 71
     2
 72
     2
 73
     0
 90
        0
 40
-0.6
 41
-30.0
 62
     5
 63
     7
 74
     1
 91
        4
 64
     7
 65
   257
 75
     1
175
     1
 42
1.0
 92
        8
 66
     7
 43
1.0
 76
     1
 77
     6
 78
     2
 67
     7
 79
     5
170
     0
171
     0
290
     0
174
     0
 93
        1
 44
50.0
173
     0
291
     1
 45
0.0
1001
ACAD
1000
AcDbSavedByObjectVersion
1070
     0
  0
VISUALSTYLE
  5
3A
102
{ACAD_REACTORS
330
2A
102
}
330
2A
100
AcDbVisualStyle
  2
ColorChange
 70
    16
 71
     2
 72
     2
 73
     3
 90
        0
 40
-0.6
 41
-30.0
 62
     5
 63
     8
 74
     1
 91
        4
 64
     7
 65
   257
 75
     1
175
     1
 42
1.0
 92
        8
 66
     8
 43
1.0
 76
     1
 77
     6
 78
     2
 67
     7
 79
     5
170
     0
171
     0
290
     0
174
     0
 93
        1
 44
0.0
173
     0
291
     1
 45
0.0
1001
ACAD
1000
AcDbSavedByObjectVersion
1070
     0
  0
VISUALSTYLE
  5
34
102
{ACAD_REACTORS
330
2A
102
}
330
2A
100
AcDbVisualStyle
  2
Conceptual
 70
     9
 71
     3
 72
     2
 73
     0
 90
        0
 40
-0.6
 41
-30.0
 62
     5
 63
     7
 74
     2
 91
        2
 64
     7
 65
   257
 75
     1
175
     1
 42
40.0
 92
        8
 66
     7
 43
1.0
 76
     1
 77
     6
 78
     2
 67
     7
 79
     3
170
     0
171
     0
290
     0
174
     0
 93
        1
 44
0.0
173
     0
291
     0
 45
0.0
1001
ACAD
1000
AcDbSavedByObjectVersion
1070
     0
  0
VISUALSTYLE
  5
35
102
{ACAD_REACTORS
330
2A
102
}
330
2A
100
AcDbVisualStyle
  2
Dim
 70
    11
 71
     2
 72
     2
 73
     0
 90
        0
 40
-0.6
 41
-30.0
 62
     5
 63
     7
 74
     1
 91
        4
 64
     7
 65
   257
 75
     1
175
     1
 42
1.0
 92
        8
 66
     7
 43
1.0
 76
     1
 77
     6
 78
     2
 67
     7
 79
     5
170
     0
171
     0
290
     0
174
     0
 93
        1
 44
-50.0
173
     0
291
     1
 45
0.0
1001
ACAD
1000
AcDbSavedByObjectVersion
1070
     0
  0
VISUALSTYLE
  5
39
102
{ACAD_REACTORS
330
2A
102
}
330
2A
100
AcDbVisualStyle
  2
Facepattern
 70
    15
 71
     2
 72
     2
 73
     0
 90
        0
 40
-0.6
 41
-30.0
 62
     5
 63
     7
 74
     1
 91
        4
 64
     7
 65
   257
 75
     1
175
     1
 42
1.0
 92
        8
 66
     7
 43
1.0
 76
     1
 77
     6
 78
     2
 67
     7
 79
     5
170
     0
171
     0
290
     0
174
     0
 93
        1
 44
0.0
173
     0
291
     1
 45
0.0
1001
ACAD
1000
AcDbSavedByObjectVersion
1070
     0
  0
VISUALSTYLE
  5
2B
102
{ACAD_REACTORS
330
2A
102
}
330
2A
100
AcDbVisualStyle
  2
Flat
 70
     0
 71
     2
 72
     1
 73
     1
 90
        2
 40
-0.6
 41
30.0
 62
     5
 63
     7
 74
     0
 91
        4
 64
     7
 65
   257
 75
     1
175
     1
 42
1.0
 92
        8
 66
     7
 43
1.0
 76
     1
 77
     6
 78
     2
 67
     7
 79
     5
170
     0
171
     0
290
     0
174
     0
 93
       13
 44
0.0
173
     0
291
     1
 45
0.0
1001
ACAD
1000
AcDbSavedByObjectVersion
1070
     0
  0
VISUALSTYLE
  5
2C
102
{ACAD_REACTORS
330
2A
102
}
330
2A
100
AcDbVisualStyle
  2
FlatWithEdges
 70
     1
 71
     2
 72
     1
 73
     1
 90
        2
 40
-0.6
 41
30.0
 62
     5
 63
     7
 74
     1
 91
        4
 64
     7
 65
   257
 75
     1
175
     1
 42
1.0
 92
        0
 66
   257
 43
1.0
 76
     1
 77
     6
 78
     2
 67
     7
 79
     5
170
     0
171
     0
290
     0
174
     0
 93
       13
 44
0.0
173
     0
291
     1
 45
0.0
1001
ACAD
1000
AcDbSavedByObjectVersion
1070
     0
  0
VISUALSTYLE
  5
2D
102
{ACAD_REACTORS
330
2A
102
}
330
2A
100
AcDbVisualStyle
  2
Gouraud
 70
     2
 71
     2
 72
     2
 73
     1
 90
        2
 40
-0.6
 41
30.0
 62
     5
 63
     7
 74
     0
 91
        4
 64
     7
 65
   257
 75
     1
175
     1
 42
1.0
 92
        0
 66
     7
 43
1.0
 76
     1
 77
     6
 78
     2
 67
     7
 79
     5
170
     0
171
     0
290
     0
174
     0
 93
       13
 44
0.0
173
     0
291
     1
 45
0.0
1001
ACAD
1000
AcDbSavedByObjectVersion
1070
     0
  0
VISUALSTYLE
  5
2E
102
{ACAD_REACTORS
330
2A
102
}
330
2A
100
AcDbVisualStyle
  2
GouraudWithEdges
 70
     3
 71
     2
 72
     2
 73
     1
 90
        2
 40
-0.6
 41
30.0
 62
     5
 63
     7
 74
     1
 91
        4
 64
     7
 65
   257
 75
     1
175
     1
 42
1.0
 92
        0
 66
   257
 43
1.0
 76
     1
 77
     6
 78
     2
 67
     7
 79
     5
170
     0
171
     0
290
     0
174
     0
 93
       13
 44
0.0
173
     0
291
     1
 45
0.0
1001
ACAD
1000
AcDbSavedByObjectVersion
1070
     0
  0
VISUALSTYLE
  5
38
102
{ACAD_REACTORS
330
2A
102
}
330
2A
100
AcDbVisualStyle
  2
Linepattern
 70
    14
 71
     2
 72
     2
 73
     0
 90
        0
 40
-0.6
 41
-30.0
 62
     5
 63
     7
 74
     1
 91
        4
 64
     7
 65
   257
 75
     7
175
     7
 42
1.0
 92
        8
 66
     7
 43
1.0
 76
     1
 77
     6
 78
     2
 67
     7
 79
     5
170
     0
171
     0
290
     0
174
     0
 93
        1
 44
0.0
173
     0
291
     1
 45
0.0
1001
ACAD
1000
AcDbSavedByObjectVersion
1070
     0
  0
VISUALSTYLE
  5
33
102
{ACAD_REACTORS
330
2A
102
}
330
2A
100
AcDbVisualStyle
  2
Realistic
 70
     8
 71
     2
 72
     2
 73
     0
 90
        0
 40
-0.6
 41
-30.0
 62
     5
 63
     7
 74
     1
 91
        0
 64
     7
 65
   257
 75
     1
175
     1
 42
1.0
 92
        8
 66
     8
 43
1.0
 76
     1
 77
     6
 78
     2
 67
     7
 79
     5
170
     0
171
     0
290
     0
174
     0
 93
       13
 44
0.0
173
     0
291
     0
 45
0.0
1001
ACAD
1000
AcDbSavedByObjectVersion
1070
     0
  0
VISUALSTYLE
  5
37
102
{ACAD_REACTORS
330
2A
102
}
330
2A
100
AcDbVisualStyle
  2
Thicken
 70
    13
 71
     2
 72
     2
 73
     0
 90
        0
 40
-0.6
 41
-30.0
 62
     5
 63
     7
 74
     1
 91
        4
 64
     7
 65
   257
 75
     1
175
     1
 42
1.0
 92
       12
 66
     7
 43
1.0
 76
     1
 77
     6
 78
     2
 67
     7
 79
     5
170
     0
171
     0
290
     0
174
     0
 93
        1
 44
0.0
173
     0
291
     1
 45
0.0
1001
ACAD
1000
AcDbSavedByObjectVersion
1070
     0
  0
DICTIONARYVAR
  5
234
102
{ACAD_REACTORS
330
230
102
}
330
230
100
DictionaryVariables
280
     0
  1
80.000000
  0
DICTIONARYVAR
  5
233
102
{ACAD_REACTORS
330
230
102
}
330
230
100
DictionaryVariables
280
     0
  1
5.000000
  0
ENDSEC
  0
EOF
